  0
SECTION
  2
HEADER
  9
$ACADVER
  1
AC1032
  9
$ACADMAINTVER
 90
      228
  9
$DWGCODEPAGE
  3
ANSI_1252
  9
$REQUIREDVERSIONS
160
                 0
  9
$INSBASE
 10
0.0
 20
0.0
 30
0.0
  9
$EXTMIN
 10
1.000000000000000E+20
 20
1.000000000000000E+20
 30
1.000000000000000E+20
  9
$EXTMAX
 10
-1.000000000000000E+20
 20
-1.000000000000000E+20
 30
-1.000000000000000E+20
  9
$LIMMIN
 10
0.0
 20
0.0
  9
$LIMMAX
 10
12.0
 20
9.0
  9
$ORTHOMODE
 70
     0
  9
$REGENMODE
 70
     1
  9
$FILLMODE
 70
     1
  9
$QTEXTMODE
 70
     0
  9
$MIRRTEXT
 70
     0
  9
$LTSCALE
 40
1.0
  9
$ATTMODE
 70
     1
  9
$TEXTSIZE
 40
0.2
  9
$TRACEWID
 40
0.05
  9
$TEXTSTYLE
  7
Standard
  9
$CLAYER
  8
0
  9
$CELTYPE
  6
ByLayer
  9
$CECOLOR
 62
   256
  9
$CELTSCALE
 40
1.0
  9
$DISPSILH
 70
     0
  9
$DIMSCALE
 40
1.0
  9
$DIMASZ
 40
0.18
  9
$DIMEXO
 40
0.0625
  9
$DIMDLI
 40
0.38
  9
$DIMRND
 40
0.0
  9
$DIMDLE
 40
0.0
  9
$DIMEXE
 40
0.18
  9
$DIMTP
 40
0.0
  9
$DIMTM
 40
0.0
  9
$DIMTXT
 40
0.18
  9
$DIMCEN
 40
0.09
  9
$DIMTSZ
 40
0.0
  9
$DIMTOL
 70
     0
  9
$DIMLIM
 70
     0
  9
$DIMTIH
 70
     1
  9
$DIMTOH
 70
     1
  9
$DIMSE1
 70
     0
  9
$DIMSE2
 70
     0
  9
$DIMTAD
 70
     0
  9
$DIMZIN
 70
     0
  9
$DIMBLK
  1

  9
$DIMASO
 70
     1
  9
$DIMSHO
 70
     1
  9
$DIMPOST
  1

  9
$DIMAPOST
  1

  9
$DIMALT
 70
     0
  9
$DIMALTD
 70
     2
  9
$DIMALTF
 40
25.4
  9
$DIMLFAC
 40
1.0
  9
$DIMTOFL
 70
     0
  9
$DIMTVP
 40
0.0
  9
$DIMTIX
 70
     0
  9
$DIMSOXD
 70
     0
  9
$DIMSAH
 70
     0
  9
$DIMBLK1
  1

  9
$DIMBLK2
  1

  9
$DIMSTYLE
  2
Standard
  9
$DIMCLRD
 70
     0
  9
$DIMCLRE
 70
     0
  9
$DIMCLRT
 70
     0
  9
$DIMTFAC
 40
1.0
  9
$DIMGAP
 40
0.09
  9
$DIMJUST
 70
     0
  9
$DIMSD1
 70
     0
  9
$DIMSD2
 70
     0
  9
$DIMTOLJ
 70
     1
  9
$DIMTZIN
 70
     0
  9
$DIMALTZ
 70
     0
  9
$DIMALTTZ
 70
     0
  9
$DIMUPT
 70
     0
  9
$DIMDEC
 70
     4
  9
$DIMTDEC
 70
     4
  9
$DIMALTU
 70
     2
  9
$DIMALTTD
 70
     2
  9
$DIMTXSTY
  7
Standard
  9
$DIMAUNIT
 70
     0
  9
$DIMADEC
 70
     0
  9
$DIMALTRND
 40
0.0
  9
$DIMAZIN
 70
     0
  9
$DIMDSEP
 70
    46
  9
$DIMATFIT
 70
     3
  9
$DIMFRAC
 70
     0
  9
$DIMLDRBLK
  1

  9
$DIMLUNIT
 70
     2
  9
$DIMLWD
 70
    -2
  9
$DIMLWE
 70
    -2
  9
$DIMTMOVE
 70
     0
  9
$DIMFXL
 40
1.0
  9
$DIMFXLON
 70
     0
  9
$DIMJOGANG
 40
0.7853981633974483
  9
$DIMTFILL
 70
     0
  9
$DIMTFILLCLR
 70
     0
  9
$DIMARCSYM
 70
     0
  9
$DIMLTYPE
  6

  9
$DIMLTEX1
  6

  9
$DIMLTEX2
  6

  9
$DIMTXTDIRECTION
 70
     0
  9
$LUNITS
 70
     2
  9
$LUPREC
 70
     4
  9
$SKETCHINC
 40
0.1
  9
$FILLETRAD
 40
0.0
  9
$AUNITS
 70
     0
  9
$AUPREC
 70
     0
  9
$MENU
  1
.
  9
$ELEVATION
 40
0.0
  9
$PELEVATION
 40
0.0
  9
$THICKNESS
 40
0.0
  9
$LIMCHECK
 70
     0
  9
$CHAMFERA
 40
0.0
  9
$CHAMFERB
 40
0.0
  9
$CHAMFERC
 40
0.0
  9
$CHAMFERD
 40
0.0
  9
$SKPOLY
 70
     0
  9
$TDCREATE
 40
2460256.480555556
  9
$TDUCREATE
 40
2460256.480555556
  9
$TDUPDATE
 40
2460256.480555556
  9
$TDUUPDATE
 40
2460256.480555556
  9
$TDINDWG
 40
0.0000000000
  9
$TDUSRTIMER
 40
0.0000000000
  9
$USRTIMER
 70
     1
  9
$ANGBASE
 50
0.0
  9
$ANGDIR
 70
     0
  9
$PDMODE
 70
     0
  9
$PDSIZE
 40
0.0
  9
$PLINEWID
 40
0.0
  9
$SPLFRAME
 70
     0
  9
$SPLINETYPE
 70
     6
  9
$SPLINESEGS
 70
     8
  9
$HANDSEED
  5
131
  9
$SURFTAB1
 70
     6
  9
$SURFTAB2
 70
     6
  9
$SURFTYPE
 70
     6
  9
$SURFU
 70
     6
  9
$SURFV
 70
     6
  9
$UCSBASE
  2

  9
$UCSNAME
  2

  9
$UCSORG
 10
0.0
 20
0.0
 30
0.0
  9
$UCSXDIR
 10
1.0
 20
0.0
 30
0.0
  9
$UCSYDIR
 10
0.0
 20
1.0
 30
0.0
  9
$UCSORTHOREF
  2

  9
$UCSORTHOVIEW
 70
     0
  9
$UCSORGTOP
 10
0.0
 20
0.0
 30
0.0
  9
$UCSORGBOTTOM
 10
0.0
 20
0.0
 30
0.0
  9
$UCSORGLEFT
 10
0.0
 20
0.0
 30
0.0
  9
$UCSORGRIGHT
 10
0.0
 20
0.0
 30
0.0
  9
$UCSORGFRONT
 10
0.0
 20
0.0
 30
0.0
  9
$UCSORGBACK
 10
0.0
 20
0.0
 30
0.0
  9
$PUCSBASE
  2

  9
$PUCSNAME
  2

  9
$PUCSORG
 10
0.0
 20
0.0
 30
0.0
  9
$PUCSXDIR
 10
1.0
 20
0.0
 30
0.0
  9
$PUCSYDIR
 10
0.0
 20
1.0
 30
0.0
  9
$PUCSORTHOREF
  2

  9
$PUCSORTHOVIEW
 70
     0
  9
$PUCSORGTOP
 10
0.0
 20
0.0
 30
0.0
  9
$PUCSORGBOTTOM
 10
0.0
 20
0.0
 30
0.0
  9
$PUCSORGLEFT
 10
0.0
 20
0.0
 30
0.0
  9
$PUCSORGRIGHT
 10
0.0
 20
0.0
 30
0.0
  9
$PUCSORGFRONT
 10
0.0
 20
0.0
 30
0.0
  9
$PUCSORGBACK
 10
0.0
 20
0.0
 30
0.0
  9
$USERI1
 70
     0
  9
$USERI2
 70
     0
  9
$USERI3
 70
     0
  9
$USERI4
 70
     0
  9
$USERI5
 70
     0
  9
$USERR1
 40
0.0
  9
$USERR2
 40
0.0
  9
$USERR3
 40
0.0
  9
$USERR4
 40
0.0
  9
$USERR5
 40
0.0
  9
$WORLDVIEW
 70
     1
  9
$SHADEDGE
 70
     3
  9
$SHADEDIF
 70
    70
  9
$TILEMODE
 70
     1
  9
$MAXACTVP
 70
    64
  9
$PINSBASE
 10
0.0
 20
0.0
 30
0.0
  9
$PLIMCHECK
 70
     0
  9
$PEXTMIN
 10
1.000000000000000E+20
 20
1.000000000000000E+20
 30
1.000000000000000E+20
  9
$PEXTMAX
 10
-1.000000000000000E+20
 20
-1.000000000000000E+20
 30
-1.000000000000000E+20
  9
$PLIMMIN
 10
0.0
 20
0.0
  9
$PLIMMAX
 10
12.0
 20
9.0
  9
$UNITMODE
 70
     0
  9
$VISRETAIN
 70
     1
  9
$PLINEGEN
 70
     0
  9
$PSLTSCALE
 70
     1
  9
$TREEDEPTH
 70
  3020
  9
$CMLSTYLE
  2
Standard
  9
$CMLJUST
 70
     0
  9
$CMLSCALE
 40
1.0
  9
$PROXYGRAPHICS
 70
     1
  9
$MEASUREMENT
 70
     0
  9
$CELWEIGHT
370
    -1
  9
$ENDCAPS
280
     0
  9
$JOINSTYLE
280
     0
  9
$LWDISPLAY
290
     1
  9
$INSUNITS
 70
     4
  9
$HYPERLINKBASE
  1

  9
$STYLESHEET
  1

  9
$XEDIT
290
     1
  9
$CEPSNTYPE
380
     0
  9
$PSTYLEMODE
290
     1
  9
$FINGERPRINTGUID
  2
{14C0135D-1F91-7444-8E8C-AE023F9F29B3}
  9
$VERSIONGUID
  2
{93EA947C-0616-804F-9E46-28815F4665D1}
  9
$EXTNAMES
290
     1
  9
$PSVPSCALE
 40
0.0
  9
$OLESTARTUP
290
     0
  9
$SORTENTS
280
   127
  9
$INDEXCTL
280
     0
  9
$HIDETEXT
280
     1
  9
$XCLIPFRAME
280
     2
  9
$HALOGAP
280
     0
  9
$OBSCOLOR
 70
   257
  9
$OBSLTYPE
280
     0
  9
$INTERSECTIONDISPLAY
280
     0
  9
$INTERSECTIONCOLOR
 70
   257
  9
$DIMASSOC
280
     2
  9
$PROJECTNAME
  1

  9
$CAMERADISPLAY
290
     0
  9
$LENSLENGTH
 40
50.0
  9
$CAMERAHEIGHT
 40
0.0
  9
$STEPSPERSEC
 40
2.0
  9
$STEPSIZE
 40
6.0
  9
$3DDWFPREC
 40
2.0
  9
$PSOLWIDTH
 40
0.25
  9
$PSOLHEIGHT
 40
4.0
  9
$LOFTANG1
 40
1.570796326794896
  9
$LOFTANG2
 40
1.570796326794896
  9
$LOFTMAG1
 40
0.0
  9
$LOFTMAG2
 40
0.0
  9
$LOFTPARAM
 70
     7
  9
$LOFTNORMALS
280
     1
  9
$LATITUDE
 40
37.795
  9
$LONGITUDE
 40
-122.394
  9
$NORTHDIRECTION
 40
0.0
  9
$TIMEZONE
 70
 -8000
  9
$LIGHTGLYPHDISPLAY
280
     1
  9
$TILEMODELIGHTSYNCH
280
     1
  9
$CMATERIAL
347
11
  9
$SOLIDHIST
280
     0
  9
$SHOWHIST
280
     1
  9
$DWFFRAME
280
     2
  9
$DGNFRAME
280
     0
  9
$REALWORLDSCALE
290
     1
  9
$INTERFERECOLOR
 62
     1
  9
$INTERFEREOBJVS
345
33
  9
$INTERFEREVPVS
346
30
  9
$CSHADOW
280
     0
  9
$SHADOWPLANELOCATION
 40
0.0
  0
ENDSEC
  0
SECTION
  2
CLASSES
  0
CLASS
  1
ACDBDICTIONARYWDFLT
  2
AcDbDictionaryWithDefault
  3
ObjectDBX Classes
 90
        0
 91
        1
280
     0
281
     0
  0
CLASS
  1
MATERIAL
  2
AcDbMaterial
  3
ObjectDBX Classes
 90
     1153
 91
        3
280
     0
281
     0
  0
CLASS
  1
VISUALSTYLE
  2
AcDbVisualStyle
  3
ObjectDBX Classes
 90
     4095
 91
       24
280
     0
281
     0
  0
CLASS
  1
SCALE
  2
AcDbScale
  3
ObjectDBX Classes
 90
     1153
 91
       17
280
     0
281
     0
  0
CLASS
  1
TABLESTYLE
  2
AcDbTableStyle
  3
ObjectDBX Classes
 90
     4095
 91
        1
280
     0
281
     0
  0
CLASS
  1
MLEADERSTYLE
  2
AcDbMLeaderStyle
  3
ACDB_MLEADERSTYLE_CLASS
 90
     4095
 91
        1
280
     0
281
     0
  0
CLASS
  1
ACDBSECTIONVIEWSTYLE
  2
AcDbSectionViewStyle
  3
ObjectDBX Classes
 90
     1025
 91
        1
280
     0
281
     0
  0
CLASS
  1
ACDBDETAILVIEWSTYLE
  2
AcDbDetailViewStyle
  3
ObjectDBX Classes
 90
     1025
 91
        1
280
     0
281
     0
  0
CLASS
  1
DICTIONARYVAR
  2
AcDbDictionaryVar
  3
ObjectDBX Classes
 90
        0
 91
        5
280
     0
281
     0
  0
CLASS
  1
CELLSTYLEMAP
  2
AcDbCellStyleMap
  3
ObjectDBX Classes
 90
     1152
 91
        1
280
     0
281
     0
  0
ENDSEC
  0
SECTION
  2
TABLES
  0
TABLE
  2
VPORT
  5
8
330
0
100
AcDbSymbolTable
 70
     1
  0
VPORT
  5
57
330
8
100
AcDbSymbolTableRecord
100
AcDbViewportTableRecord
  2
*Active
 70
     0
 10
0.0
 20
0.0
 11
1.0
 21
1.0
 12
0.0
 22
0.0
 13
0.0
 23
0.0
 14
1.0
 24
1.0
 15
0.0
 25
0.0
 16
0.0
 26
0.0
 36
1.0
 17
49.99999998749986
 27
-49.99999998749986
 37
0.0
 40
101.9999999744997
 41
1.0
 42
50.0
 43
0.0
 44
0.0
 50
0.0
 51
0.0
 71
     0
 72
   100
 73
     1
 74
     1
 75
     0
 76
     0
 77
     0
 78
     0
281
     0
 65
     1
110
0.0
120
0.0
130
0.0
111
1.0
121
0.0
131
0.0
112
0.0
122
1.0
132
0.0
 79
     0
146
0.0
 60
     3
 61
     5
292
     1
282
     1
141
0.0
142
0.0
 63
   250
421
  3355443
  0
ENDTAB
  0
TABLE
  2
LTYPE
  5
5
330
0
100
AcDbSymbolTable
 70
     1
  0
LTYPE
  5
5B
330
5
100
AcDbSymbolTableRecord
100
AcDbLinetypeTableRecord
  2
ByBlock
 70
     0
  3

 72
    65
 73
     0
 40
0.0
  0
LTYPE
  5
5C
330
5
100
AcDbSymbolTableRecord
100
AcDbLinetypeTableRecord
  2
ByLayer
 70
     0
  3

 72
    65
 73
     0
 40
0.0
  0
LTYPE
  5
5D
330
5
100
AcDbSymbolTableRecord
100
AcDbLinetypeTableRecord
  2
Continuous
 70
     0
  3
Solid line
 72
    65
 73
     0
 40
0.0
  0
ENDTAB
  0
TABLE
  2
LAYER
  5
2
330
0
100
AcDbSymbolTable
 70
     2
  0
LAYER
  5
54
330
2
100
AcDbSymbolTableRecord
100
AcDbLayerTableRecord
  2
0
 70
     0
 62
     7
  6
Continuous
370
    -3
390
F
347
21
348
0
  0
LAYER
  5
78
330
2
100
AcDbSymbolTableRecord
100
AcDbLayerTableRecord
  2
Camada 1
 70
     0
 62
     7
  6
Continuous
370
     0
390
F
347
21
348
0
  0
ENDTAB
  0
TABLE
  2
STYLE
  5
3
330
0
100
AcDbSymbolTable
 70
     2
  0
STYLE
  5
55
330
3
100
AcDbSymbolTableRecord
100
AcDbTextStyleTableRecord
  2
Standard
 70
     0
 40
0.0
 41
1.0
 50
0.0
 71
     0
 42
0.2
  3
txt
  4

  0
STYLE
  5
5A
330
3
100
AcDbSymbolTableRecord
100
AcDbTextStyleTableRecord
  2
Annotative
 70
     0
 40
0.0
 41
1.0
 50
0.0
 71
     0
 42
0.2
  3
txt
  4

1001
AcadAnnotative
1000
AnnotativeData
1002
{
1070
     1
1070
     1
1002
}
  0
ENDTAB
  0
TABLE
  2
VIEW
  5
6
330
0
100
AcDbSymbolTable
 70
     0
  0
ENDTAB
  0
TABLE
  2
UCS
  5
7
330
0
100
AcDbSymbolTable
 70
     0
  0
ENDTAB
  0
TABLE
  2
APPID
  5
9
330
0
100
AcDbSymbolTable
 70
     2
  0
APPID
  5
56
330
9
100
AcDbSymbolTableRecord
100
AcDbRegAppTableRecord
  2
ACAD
 70
     0
  0
APPID
  5
5E
330
9
100
AcDbSymbolTableRecord
100
AcDbRegAppTableRecord
  2
AcadAnnotative
 70
     0
  0
ENDTAB
  0
TABLE
  2
DIMSTYLE
  5
A
330
0
100
AcDbSymbolTable
 70
     2
100
AcDbDimStyleTable
 71
     0
  0
DIMSTYLE
105
58
330
A
100
AcDbSymbolTableRecord
100
AcDbDimStyleTableRecord
  2
Standard
 70
     0
340
55
  0
DIMSTYLE
105
59
330
A
100
AcDbSymbolTableRecord
100
AcDbDimStyleTableRecord
  2
Annotative
 70
     0
340
55
1001
AcadAnnotative
1000
AnnotativeData
1002
{
1070
     1
1070
     1
1002
}
  0
ENDTAB
  0
TABLE
  2
BLOCK_RECORD
  5
1
330
0
100
AcDbSymbolTable
 70
     4
  0
BLOCK_RECORD
  5
70
330
1
100
AcDbSymbolTableRecord
100
AcDbBlockTableRecord
  2
*Model_Space
340
73
 70
     0
280
     1
281
     0
  0
BLOCK_RECORD
  5
6C
330
1
100
AcDbSymbolTableRecord
100
AcDbBlockTableRecord
  2
*Paper_Space
340
6F
 70
     0
280
     1
281
     0
  0
BLOCK_RECORD
  5
74
330
1
100
AcDbSymbolTableRecord
100
AcDbBlockTableRecord
  2
*Paper_Space0
340
77
 70
     0
280
     1
281
     0
  0
BLOCK_RECORD
  5
79
330
1
100
AcDbSymbolTableRecord
100
AcDbBlockTableRecord
  2
Block_0
340
0
102
{BLKREFS
331
7A
102
}
 70
     0
280
     1
281
     0
  0
BLOCK_RECORD
  5
8C
330
1
100
AcDbSymbolTableRecord
100
AcDbBlockTableRecord
  2
Block_1
340
0
102
{BLKREFS
331
8D
102
}
 70
     0
280
     1
281
     0
  0
BLOCK_RECORD
  5
E0
330
1
100
AcDbSymbolTableRecord
100
AcDbBlockTableRecord
  2
Block_2
340
0
102
{BLKREFS
331
E1
102
}
 70
     0
280
     1
281
     0
  0
ENDTAB
  0
ENDSEC
  0
SECTION
  2
BLOCKS
  0
BLOCK
  5
71
330
70
100
AcDbEntity
  8
0
100
AcDbBlockBegin
  2
*Model_Space
 70
     0
 10
0.0
 20
0.0
 30
0.0
  3
*Model_Space
  1

  0
ENDBLK
  5
72
330
70
100
AcDbEntity
  8
0
100
AcDbBlockEnd
  0
BLOCK
  5
6D
330
6C
100
AcDbEntity
 67
     1
  8
0
100
AcDbBlockBegin
  2
*Paper_Space
 70
     0
 10
0.0
 20
0.0
 30
0.0
  3
*Paper_Space
  1

  0
ENDBLK
  5
6E
330
6C
100
AcDbEntity
 67
     1
  8
0
100
AcDbBlockEnd
  0
BLOCK
  5
75
330
74
100
AcDbEntity
 67
     1
  8
0
100
AcDbBlockBegin
  2
*Paper_Space0
 70
     0
 10
0.0
 20
0.0
 30
0.0
  3
*Paper_Space0
  1

  0
ENDBLK
  5
76
330
74
100
AcDbEntity
 67
     1
  8
0
100
AcDbBlockEnd
  0
BLOCK
  5
7B
330
79
100
AcDbEntity
  8
0
100
AcDbBlockBegin
  2
Block_0
 70
     0
 10
0.0
 20
0.0
 30
0.0
  3
Block_0
  1

  0
LWPOLYLINE
  5
7D
330
79
100
AcDbEntity
  8
Camada 1
 62
    18
420
        0
370
    15
100
AcDbPolyline
 90
        3
 70
     0
 43
0.0
 10
78.96394118508645
 20
-27.99492773292551
 10
78.96394655139093
 20
-44.13926391424786
 10
62.69784496032506
 20
-44.15449902500113
  0
LINE
  5
7E
330
79
100
AcDbEntity
  8
Camada 1
 62
    18
420
        0
370
    15
100
AcDbLine
 10
70.75343660466899
 20
-41.93084031991555
 30
0.0
 11
62.697844221193
 21
-41.93084290808349
 31
0.0
  0
SPLINE
  5
7F
330
79
100
AcDbEntity
  8
Camada 1
 62
    18
420
        0
370
    15
100
AcDbSpline
210
0.0
220
0.0
230
1.0
 70
     8
 71
     3
 72
     8
 73
     4
 74
     0
 42
0.0000000001
 43
0.0000000001
 40
0.0
 40
0.0
 40
0.0
 40
0.0
 40
1.0
 40
1.0
 40
1.0
 40
1.0
 10
70.76381770547278
 20
-41.91561043194115
 30
0.0
 10
72.0076317757562
 20
-41.91423887790151
 30
0.0
 10
73.01520148901231
 20
-40.9224291135826
 30
0.0
 10
73.01520108253962
 20
-39.6995685340031
 30
0.0
  0
SPLINE
  5
80
330
79
100
AcDbEntity
  8
Camada 1
 62
    18
420
        0
370
    15
100
AcDbSpline
210
0.0
220
0.0
230
1.0
 70
     9
 71
     3
 72
    17
 73
    13
 74
     0
 42
0.0000000001
 43
0.0000000001
 40
0.0
 40
0.0
 40
0.0
 40
0.0
 40
1.0
 40
1.0
 40
1.0
 40
2.0
 40
2.0
 40
2.0
 40
3.0
 40
3.0
 40
3.0
 40
4.0
 40
4.0
 40
4.0
 40
4.0
 10
76.59374238132608
 20
-36.05947776947001
 30
0.0
 10
76.59374224013176
 20
-35.63469877949123
 30
0.0
 10
76.24347534036805
 20
-35.29033772119688
 30
0.0
 10
75.81142041169556
 20
-35.29033786001178
 30
0.0
 10
75.37936154332467
 20
-35.29033799882605
 30
0.0
 10
75.02909487249095
 20
-35.63469928219632
 30
0.0
 10
75.02909501368399
 20
-36.05947827217126
 30
0.0
 10
75.0290951548796
 20
-36.48425726215005
 30
0.0
 10
75.37936205464331
 20
-36.82861832044375
 30
0.0
 10
75.81142092301291
 20
-36.82861818162949
 30
0.0
 10
76.24347585168667
 20
-36.82861804281522
 30
0.0
 10
76.5937425225204
 20
-36.48425675944495
 30
0.0
 10
76.59374238132608
 20
-36.05947776947001
 30
0.0
  0
SPLINE
  5
81
330
79
100
AcDbEntity
  8
Camada 1
 62
    18
420
        0
370
    15
100
AcDbSpline
210
0.0
220
0.0
230
1.0
 70
     9
 71
     3
 72
    17
 73
    13
 74
     0
 42
0.0000000001
 43
0.0000000001
 40
0.0
 40
0.0
 40
0.0
 40
0.0
 40
1.0
 40
1.0
 40
1.0
 40
2.0
 40
2.0
 40
2.0
 40
3.0
 40
3.0
 40
3.0
 40
4.0
 40
4.0
 40
4.0
 40
4.0
 10
70.59852176863884
 20
-36.07470958030522
 30
0.0
 10
70.59852158831114
 20
-35.53219722982845
 30
0.0
 10
70.1511253270028
 20
-35.09234343165687
 30
0.0
 10
69.5993153793487
 20
-35.09234360894548
 30
0.0
 10
69.04750543169331
 20
-35.09234378623729
 30
0.0
 10
68.60011340249535
 20
-35.53219787189134
 30
0.0
 10
68.60011358282434
 20
-36.07471022237131
 30
0.0
 10
68.60011376315203
 20
-36.61722257284807
 30
0.0
 10
69.04750608476068
 20
-37.05707637101966
 30
0.0
 10
69.59931603241606
 20
-37.0570761937272
 30
0.0
 10
70.15112598007146
 20
-37.05707601643859
 30
0.0
 10
70.59852194896783
 20
-36.61722193078198
 30
0.0
 10
70.59852176863884
 20
-36.07470958030522
 30
0.0
  0
LINE
  5
82
330
79
100
AcDbEntity
  8
Camada 1
 62
    18
420
        0
370
    15
100
AcDbLine
 10
78.96394417705315
 20
-36.99615364642335
 30
0.0
 11
78.96394495668667
 21
-39.3416488404493
 31
0.0
  0
LINE
  5
83
330
79
100
AcDbEntity
  8
Camada 1
 62
    18
420
        0
370
    15
100
AcDbLine
 10
73.01519991056102
 20
-36.1737108006409
 30
0.0
 11
73.0152009585069
 21
-39.32642086707381
 31
0.0
  0
LINE
  5
84
330
79
100
AcDbEntity
  8
Camada 1
 62
    18
420
        0
370
    15
100
AcDbLine
 10
78.96394118508645
 20
-27.99492773292551
 30
0.0
 11
62.69783958389585
 21
-27.9797030744017
 31
0.0
  0
LINE
  5
85
330
79
100
AcDbEntity
  8
Camada 1
 62
    18
420
        0
370
    15
100
AcDbLine
 10
70.75343270650262
 20
-30.20334885651117
 30
0.0
 11
62.6978403179649
 21
-30.18812156004282
 31
0.0
  0
SPLINE
  5
86
330
79
100
AcDbEntity
  8
Camada 1
 62
    18
420
        0
370
    15
100
AcDbSpline
210
0.0
220
0.0
230
1.0
 70
     8
 71
     3
 72
     8
 73
     4
 74
     0
 42
0.0000000001
 43
0.0000000001
 40
0.0
 40
0.0
 40
0.0
 40
0.0
 40
1.0
 40
1.0
 40
1.0
 40
1.0
 10
73.01519865757819
 20
-32.40415941978742
 30
0.0
 10
73.01519825105543
 20
-31.18115165413945
 30
0.0
 10
72.0074702905091
 20
-30.1893425373122
 30
0.0
 10
70.76350257111595
 20
-30.18811896863622
 30
0.0
  0
SPLINE
  5
87
330
79
100
AcDbEntity
  8
Camada 1
 62
    18
420
        0
370
    15
100
AcDbSpline
210
0.0
220
0.0
230
1.0
 70
     8
 71
     3
 72
    14
 73
    10
 74
     0
 42
0.0000000001
 43
0.0000000001
 40
0.0
 40
0.0
 40
0.0
 40
0.0
 40
1.0
 40
1.0
 40
1.0
 40
2.0
 40
2.0
 40
2.0
 40
3.0
 40
3.0
 40
3.0
 40
3.0
 10
62.71426024268588
 20
-27.96447318448743
 30
0.0
 10
59.7761354422758
 20
-27.96142195423618
 30
0.0
 10
57.05985558486592
 20
-29.50366942574474
 30
0.0
 10
55.58986424923173
 20
-32.00953593224542
 30
0.0
 10
54.11987685330238
 20
-34.51541793201625
 30
0.0
 10
54.1198778797847
 20
-37.60355204811873
 30
0.0
 10
55.58986694160197
 20
-40.10943310330537
 30
0.0
 10
57.05985994311381
 20
-42.61529866522248
 30
0.0
 10
59.77614082579577
 20
-44.15754439130966
 30
0.0
 10
62.7142656241781
 20
-44.1544990197238
 30
0.0
  0
SPLINE
  5
88
330
79
100
AcDbEntity
  8
Camada 1
 62
    18
420
        0
370
    15
100
AcDbSpline
210
0.0
220
0.0
230
1.0
 70
     8
 71
     3
 72
    14
 73
    10
 74
     0
 42
0.0000000001
 43
0.0000000001
 40
0.0
 40
0.0
 40
0.0
 40
0.0
 40
1.0
 40
1.0
 40
1.0
 40
2.0
 40
2.0
 40
2.0
 40
3.0
 40
3.0
 40
3.0
 40
3.0
 10
62.71193655963035
 20
-30.18812155551307
 30
0.0
 10
60.57674203693572
 20
-30.18584473080179
 30
0.0
 10
58.60296521874098
 20
-31.30452144885517
 30
0.0
 10
57.53482685332621
 20
-33.12197534998399
 30
0.0
 10
56.46653090001834
 20
-34.93959193050019
 30
0.0
 10
56.46653164451628
 20
-37.17938428836119
 30
0.0
 10
57.534828806155
 20
-38.99699243578092
 30
0.0
 10
58.60296837980051
 20
-40.81445339718223
 30
0.0
 10
60.57674594162818
 20
-41.93297391422802
 30
0.0
 10
62.71194046285845
 20
-41.93084290355759
 30
0.0
  0
LINE
  5
89
330
79
100
AcDbEntity
  8
Camada 1
 62
    18
420
        0
370
    15
100
AcDbLine
 10
73.01519866010905
 20
-32.41177436210878
 30
0.0
 11
73.01520108507047
 21
-39.70718347632125
 31
0.0
  0
LINE
  5
8A
330
79
100
AcDbEntity
  8
Camada 1
 62
    18
420
        0
370
    15
100
AcDbLine
 10
66.61719828007105
 20
-30.20335018543587
 30
0.0
 11
63.34848548998816
 21
-30.20335123563731
 31
0.0
  0
LINE
  5
8B
330
79
100
AcDbEntity
  8
Camada 1
 62
    18
420
        0
370
    15
100
AcDbLine
 10
66.63269307321491
 20
-41.93084164386195
 30
0.0
 11
63.34848938815325
 21
-41.93084269904169
 31
0.0
  0
INSERT
  5
8D
330
79
100
AcDbEntity
  8
Camada 1
100
AcDbBlockReference
  2
Block_1
 10
0.0
 20
0.0
 30
0.0
  0
INSERT
  5
E1
330
79
100
AcDbEntity
  8
Camada 1
100
AcDbBlockReference
  2
Block_2
 10
0.0
 20
0.0
 30
0.0
  0
ENDBLK
  5
7C
330
79
100
AcDbEntity
  8
0
100
AcDbBlockEnd
  0
BLOCK
  5
8E
330
8C
100
AcDbEntity
  8
0
100
AcDbBlockBegin
  2
Block_1
 70
     0
 10
0.0
 20
0.0
 30
0.0
  3
Block_1
  1

  0
LINE
  5
90
330
8C
100
AcDbEntity
  8
Camada 1
 62
    18
420
        0
370
    15
100
AcDbLine
 10
21.0360534236088
 20
-58.19231428860031
 30
0.0
 11
38.16105876952173
 21
-58.19231428860031
 31
0.0
  0
LINE
  5
91
330
8C
100
AcDbEntity
  8
Camada 1
 62
    18
420
        0
370
    15
100
AcDbLine
 10
23.12446796947027
 20
-59.83321414153227
 30
0.0
 11
36.07265181096982
 21
-59.83321414153227
 31
0.0
  0
SPLINE
  5
92
330
8C
100
AcDbEntity
  8
Camada 1
 62
    18
420
        0
370
    15
100
AcDbSpline
210
0.0
220
0.0
230
1.0
 70
     8
 71
     3
 72
    11
 73
     7
 74
     0
 42
0.0000000001
 43
0.0000000001
 40
0.0
 40
0.0
 40
0.0
 40
0.0
 40
1.0
 40
1.0
 40
1.0
 40
2.0
 40
2.0
 40
2.0
 40
2.0
 10
23.11700964416549
 20
-59.83321414153227
 30
0.0
 10
23.05087865397185
 20
-59.83321414153227
 30
0.0
 10
22.98791157186835
 20
-59.86152998083847
 30
0.0
 10
22.94403416063749
 20
-59.911006826532
 30
0.0
 10
22.90014916209708
 20
-59.9604760849134
 30
0.0
 10
22.87954961662043
 20
-60.02637566216443
 30
0.0
 10
22.88744800588049
 20
-60.09202865185567
 30
0.0
  0
SPLINE
  5
93
330
8C
100
AcDbEntity
  8
Camada 1
 62
    18
420
        0
370
    15
100
AcDbSpline
210
0.0
220
0.0
230
1.0
 70
     8
 71
     3
 72
    11
 73
     7
 74
     0
 42
0.0000000001
 43
0.0000000001
 40
0.0
 40
0.0
 40
0.0
 40
0.0
 40
1.0
 40
1.0
 40
1.0
 40
2.0
 40
2.0
 40
2.0
 40
2.0
 10
36.29474753663984
 20
-60.09202865185567
 30
0.0
 10
36.3026535132101
 20
-60.02637566216443
 30
0.0
 10
36.28204638042389
 20
-59.9604760849134
 30
0.0
 10
36.23816138188348
 20
-59.911006826532
 30
0.0
 10
36.19429155796153
 20
-59.86152998083847
 30
0.0
 10
36.13131688854848
 20
-59.83321414153227
 30
0.0
 10
36.06518589835484
 20
-59.83321414153227
 30
0.0
  0
LINE
  5
94
330
8C
100
AcDbEntity
  8
Camada 1
 62
    18
420
        0
370
    15
100
AcDbLine
 10
38.16105876952173
 20
-58.19231428860031
 30
0.0
 11
36.98259784744285
 21
-72.03553130961875
 31
0.0
  0
LINE
  5
95
330
8C
100
AcDbEntity
  8
Camada 1
 62
    18
420
        0
370
    15
100
AcDbLine
 10
36.29640157012597
 20
-60.10172523348206
 30
0.0
 11
35.34170558182171
 21
-72.03553130961875
 31
0.0
  0
LINE
  5
96
330
8C
100
AcDbEntity
  8
Camada 1
 62
    18
420
        0
370
    15
100
AcDbLine
 10
37.01243114866324
 20
-59.22160870457465
 30
0.0
 11
36.96768119683201
 21
-59.87796788701892
 31
0.0
  0
LINE
  5
97
330
8C
100
AcDbEntity
  8
Camada 1
 62
    18
420
        0
370
    15
100
AcDbLine
 10
36.93784789561161
 20
-60.16139562957699
 30
0.0
 11
36.84834799194915
 21
-61.28018994921765
 31
0.0
  0
LINE
  5
98
330
8C
100
AcDbEntity
  8
Camada 1
 62
    18
420
        0
370
    15
100
AcDbLine
 10
36.81851469072812
 20
-61.56361769177956
 30
0.0
 11
36.72900719975674
 21
-62.68241201141638
 31
0.0
  0
LINE
  5
99
330
8C
100
AcDbEntity
  8
Camada 1
 62
    18
420
        0
370
    15
100
AcDbLine
 10
36.69917389853571
 20
-62.96583975397829
 30
0.0
 11
36.60966640756369
 21
-64.08463407361509
 31
0.0
  0
LINE
  5
9A
330
8C
100
AcDbEntity
  8
Camada 1
 62
    18
420
        0
370
    15
100
AcDbLine
 10
36.59474975695286
 20
-64.36806181617701
 30
0.0
 11
36.4903332026802
 21
-65.48685613581382
 31
0.0
  0
LINE
  5
9B
330
8C
100
AcDbEntity
  8
Camada 1
 62
    18
420
        0
370
    15
100
AcDbLine
 10
36.47541655207
 20
-65.77028387837959
 30
0.0
 11
36.37099241048779
 21
-66.88907819801639
 31
0.0
  0
LINE
  5
9C
330
8C
100
AcDbEntity
  8
Camada 1
 62
    18
420
        0
370
    15
100
AcDbLine
 10
36.35607575987695
 20
-67.1725059405783
 30
0.0
 11
36.26656826890493
 21
-68.29130026021511
 31
0.0
  0
LINE
  5
9D
330
8C
100
AcDbEntity
  8
Camada 1
 62
    18
420
        0
370
    15
100
AcDbLine
 10
36.2367349676839
 20
-68.57472800277702
 30
0.0
 11
36.14723506402208
 21
-69.69352232241384
 31
0.0
  0
LINE
  5
9E
330
8C
100
AcDbEntity
  8
Camada 1
 62
    18
420
        0
370
    15
100
AcDbLine
 10
36.1174017628004
 20
-69.97695006497576
 30
0.0
 11
36.02789427182903
 21
-71.09574438461256
 31
0.0
  0
LINE
  5
9F
330
8C
100
AcDbEntity
  8
Camada 1
 62
    18
420
        0
370
    15
100
AcDbLine
 10
35.99806097060799
 20
-71.37917212717704
 30
0.0
 11
35.95331101877741
 21
-72.03553130961875
 31
0.0
  0
LINE
  5
A0
330
8C
100
AcDbEntity
  8
Camada 1
 62
    18
420
        0
370
    15
100
AcDbLine
 10
37.38536258854239
 20
-59.26635865640588
 30
0.0
 11
37.3406126367118
 21
-59.89288453762848
 31
0.0
  0
LINE
  5
A1
330
8C
100
AcDbEntity
  8
Camada 1
 62
    18
420
        0
370
    15
100
AcDbLine
 10
37.31077933549141
 20
-60.17631228019039
 30
0.0
 11
37.2212794318283
 21
-61.2951065998272
 31
0.0
  0
LINE
  5
A2
330
8C
100
AcDbEntity
  8
Camada 1
 62
    18
420
        0
370
    15
100
AcDbLine
 10
37.19144613060727
 20
-61.57853434238912
 30
0.0
 11
37.10193863963525
 21
-62.69732866202592
 31
0.0
  0
LINE
  5
A3
330
8C
100
AcDbEntity
  8
Camada 1
 62
    18
420
        0
370
    15
100
AcDbLine
 10
37.08702198902506
 20
-62.98075640458783
 30
0.0
 11
36.98259784744285
 21
-64.0995507242285
 31
0.0
  0
LINE
  5
A4
330
8C
100
AcDbEntity
  8
Camada 1
 62
    18
420
        0
370
    15
100
AcDbLine
 10
36.96768119683201
 20
-64.38297846678913
 30
0.0
 11
36.86326464255934
 21
-65.5166894370355
 31
0.0
  0
LINE
  5
A5
330
8C
100
AcDbEntity
  8
Camada 1
 62
    18
420
        0
370
    15
100
AcDbLine
 10
36.84834799194915
 20
-65.78520052898785
 30
0.0
 11
36.75884050097714
 21
-66.91891149923806
 31
0.0
  0
LINE
  5
A6
330
8C
100
AcDbEntity
  8
Camada 1
 62
    18
420
        0
370
    15
100
AcDbLine
 10
36.72900719975674
 20
-67.18742259118657
 30
0.0
 11
36.63949970878409
 21
-68.32113356143679
 31
0.0
  0
LINE
  5
A7
330
8C
100
AcDbEntity
  8
Camada 1
 62
    18
420
        0
370
    15
100
AcDbLine
 10
36.60966640756369
 20
-68.5896446533853
 30
0.0
 11
36.52016650390123
 21
-69.72335562363551
 31
0.0
  0
LINE
  5
A8
330
8C
100
AcDbEntity
  8
Camada 1
 62
    18
420
        0
370
    15
100
AcDbLine
 10
36.4903332026802
 20
-69.99186671558788
 30
0.0
 11
36.40082571170818
 21
-71.12557768583425
 31
0.0
  0
LINE
  5
A9
330
8C
100
AcDbEntity
  8
Camada 1
 62
    18
420
        0
370
    15
100
AcDbLine
 10
36.37099241048779
 20
-71.39408877778659
 30
0.0
 11
36.32624245865591
 21
-72.03553130961875
 31
0.0
  0
LINE
  5
AA
330
8C
100
AcDbEntity
  8
Camada 1
 62
    18
420
        0
370
    15
100
AcDbLine
 10
36.98259784744285
 20
-72.03553130961875
 30
0.0
 11
22.21451434568768
 21
-72.03553130961875
 31
0.0
  0
LINE
  5
AB
330
8C
100
AcDbEntity
  8
Camada 1
 62
    18
420
        0
370
    15
100
AcDbLine
 10
31.00077815876495
 20
-68.51505760668082
 30
0.0
 11
28.19633403436558
 21
-68.51505760668082
 31
0.0
  0
LINE
  5
AC
330
8C
100
AcDbEntity
  8
Camada 1
 62
    18
420
        0
370
    15
100
AcDbLine
 10
22.21451434568768
 20
-72.03553130961875
 30
0.0
 11
21.0360534236088
 21
-58.19231428860031
 31
0.0
  0
LINE
  5
AD
330
8C
100
AcDbEntity
  8
Camada 1
 62
    18
420
        0
370
    15
100
AcDbLine
 10
22.885793972395
 20
-60.10172523348206
 30
0.0
 11
23.85541419861837
 21
-72.03553130961875
 31
0.0
  0
SPLINE
  5
AE
330
8C
100
AcDbEntity
  8
Camada 1
 62
    18
420
        0
370
    15
100
AcDbSpline
210
0.0
220
0.0
230
1.0
 70
    11
 71
     3
 72
    17
 73
    13
 74
     0
 42
0.0000000001
 43
0.0000000001
 40
0.0
 40
0.0
 40
0.0
 40
0.0
 40
1.0
 40
1.0
 40
1.0
 40
2.0
 40
2.0
 40
2.0
 40
3.0
 40
3.0
 40
3.0
 40
4.0
 40
4.0
 40
4.0
 40
4.0
 10
25.36951493405123
 20
-62.36914717397737
 30
0.0
 10
25.04408763937638
 20
-62.36914717397737
 30
0.0
 10
24.78028447301179
 20
-62.63295792765536
 30
0.0
 10
24.78028447301179
 20
-62.9583814286735
 30
0.0
 10
24.78028447301179
 20
-63.28380113604009
 30
0.0
 10
25.04408763937638
 20
-63.54761188971423
 30
0.0
 10
25.36951493405123
 20
-63.54761188971423
 30
0.0
 10
25.69494222872609
 20
-63.54761188971423
 30
0.0
 10
25.95874539509067
 20
-63.28380113604009
 30
0.0
 10
25.95874539509067
 20
-62.9583814286735
 30
0.0
 10
25.95874539509067
 20
-62.63295792765536
 30
0.0
 10
25.69494222872609
 20
-62.36914717397737
 30
0.0
 10
25.36951493405123
 20
-62.36914717397737
 30
0.0
  0
LINE
  5
AF
330
8C
100
AcDbEntity
  8
Camada 1
 62
    18
420
        0
370
    15
100
AcDbLine
 10
25.55598065399049
 20
-61.45919355019671
 30
0.0
 11
25.55598065399049
 21
-59.83321414153227
 31
0.0
  0
LINE
  5
B0
330
8C
100
AcDbEntity
  8
Camada 1
 62
    18
420
        0
370
    15
100
AcDbLine
 10
25.18304921411134
 20
-61.45919355019671
 30
0.0
 11
25.18304921411134
 21
-59.83321414153227
 31
0.0
  0
SPLINE
  5
B1
330
8C
100
AcDbEntity
  8
Camada 1
 62
    18
420
        0
370
    15
100
AcDbSpline
210
0.0
220
0.0
230
1.0
 70
     8
 71
     3
 72
     8
 73
     4
 74
     0
 42
0.0000000001
 43
0.0000000001
 40
0.0
 40
0.0
 40
0.0
 40
0.0
 40
1.0
 40
1.0
 40
1.0
 40
1.0
 10
24.90114272711776
 20
-61.88512234740717
 30
0.0
 10
24.5962922159909
 20
-62.01815823337002
 30
0.0
 10
24.36240581125242
 20
-62.27455618559798
 30
0.0
 10
24.25786027271674
 20
-62.59030966057125
 30
0.0
  0
SPLINE
  5
B2
330
8C
100
AcDbEntity
  8
Camada 1
 62
    18
420
        0
370
    15
100
AcDbSpline
210
0.0
220
0.0
230
1.0
 70
     8
 71
     3
 72
     8
 73
     4
 74
     0
 42
0.0000000001
 43
0.0000000001
 40
0.0
 40
0.0
 40
0.0
 40
0.0
 40
1.0
 40
1.0
 40
1.0
 40
1.0
 10
26.14781356221195
 20
-62.08344703220277
 30
0.0
 10
26.05557463979553
 20
-62.00139407287884
 30
0.0
 10
25.95093805354523
 20
-61.9344474469071
 30
0.0
 10
25.83778850595989
 20
-61.885080617204
 30
0.0
  0
SPLINE
  5
B3
330
8C
100
AcDbEntity
  8
Camada 1
 62
    18
420
        0
370
    15
100
AcDbSpline
210
0.0
220
0.0
230
1.0
 70
     8
 71
     3
 72
     8
 73
     4
 74
     0
 42
0.0000000001
 43
0.0000000001
 40
0.0
 40
0.0
 40
0.0
 40
0.0
 40
1.0
 40
1.0
 40
1.0
 40
1.0
 10
25.55598065399049
 20
-61.45173522489321
 30
0.0
 10
25.55598065399049
 20
-61.63858031031005
 30
0.0
 10
25.66667950058548
 20
-61.80767109133856
 30
0.0
 10
25.83793266484137
 20
-61.88240609058123
 30
0.0
  0
SPLINE
  5
B4
330
8C
100
AcDbEntity
  8
Camada 1
 62
    18
420
        0
370
    15
100
AcDbSpline
210
0.0
220
0.0
230
1.0
 70
     8
 71
     3
 72
     8
 73
     4
 74
     0
 42
0.0000000001
 43
0.0000000001
 40
0.0
 40
0.0
 40
0.0
 40
0.0
 40
1.0
 40
1.0
 40
1.0
 40
1.0
 10
24.90109720326045
 20
-61.88240609058123
 30
0.0
 10
25.07235036751635
 20
-61.80767109133856
 30
0.0
 10
25.18304921411134
 20
-61.63858031031005
 30
0.0
 10
25.18304921411134
 20
-61.45173522489321
 30
0.0
  0
SPLINE
  5
B5
330
8C
100
AcDbEntity
  8
Camada 1
 62
    18
420
        0
370
    15
100
AcDbSpline
210
0.0
220
0.0
230
1.0
 70
     8
 71
     3
 72
     8
 73
     4
 74
     0
 42
0.0000000001
 43
0.0000000001
 40
0.0
 40
0.0
 40
0.0
 40
0.0
 40
1.0
 40
1.0
 40
1.0
 40
1.0
 10
23.20188887630131
 20
-63.99903784072535
 30
0.0
 10
23.66247650361735
 20
-63.61829905930268
 30
0.0
 10
24.02375383600062
 20
-63.13145934088109
 30
0.0
 10
24.25471153924635
 20
-62.58031717387105
 30
0.0
  0
LINE
  5
B6
330
8C
100
AcDbEntity
  8
Camada 1
 62
    18
420
        0
370
    15
100
AcDbLine
 10
27.92782673606928
 20
-59.83321414153227
 30
0.0
 11
28.07700082948272
 21
-61.86196208494974
 31
0.0
  0
LINE
  5
B7
330
8C
100
AcDbEntity
  8
Camada 1
 62
    18
420
        0
370
    15
100
AcDbLine
 10
27.45047115460792
 20
-59.83321414153227
 30
0.0
 11
27.61456189863156
 21
-61.8917953861727
 31
0.0
  0
LINE
  5
B8
330
8C
100
AcDbEntity
  8
Camada 1
 62
    18
420
        0
370
    15
100
AcDbLine
 10
31.26929304437144
 20
-59.83321414153227
 30
0.0
 11
31.10520230034716
 21
-61.86196208494974
 31
0.0
  0
LINE
  5
B9
330
8C
100
AcDbEntity
  8
Camada 1
 62
    18
420
        0
370
    15
100
AcDbLine
 10
31.73172438791306
 20
-59.83321414153227
 30
0.0
 11
31.58255029449961
 21
-61.8917953861727
 31
0.0
  0
SPLINE
  5
BA
330
8C
100
AcDbEntity
  8
Camada 1
 62
    18
420
        0
370
    15
100
AcDbSpline
210
0.0
220
0.0
230
1.0
 70
     8
 71
     3
 72
    11
 73
     7
 74
     0
 42
0.0000000001
 43
0.0000000001
 40
0.0
 40
0.0
 40
0.0
 40
0.0
 40
1.0
 40
1.0
 40
1.0
 40
2.0
 40
2.0
 40
2.0
 40
2.0
 10
28.08146216750878
 20
-61.85132847059049
 30
0.0
 10
28.14216064405117
 20
-62.64015449077994
 30
0.0
 10
28.79993485972685
 20
-63.2492674965402
 30
0.0
 10
29.59110156491494
 20
-63.2492674965402
 30
0.0
 10
30.38226068279348
 20
-63.2492674965402
 30
0.0
 10
31.04004248577871
 20
-62.64015449077994
 30
0.0
 10
31.10073337501219
 20
-61.85132847059049
 30
0.0
  0
SPLINE
  5
BB
330
8C
100
AcDbEntity
  8
Camada 1
 62
    18
420
        0
370
    15
100
AcDbSpline
210
0.0
220
0.0
230
1.0
 70
     8
 71
     3
 72
    11
 73
     7
 74
     0
 42
0.0000000001
 43
0.0000000001
 40
0.0
 40
0.0
 40
0.0
 40
0.0
 40
1.0
 40
1.0
 40
1.0
 40
2.0
 40
2.0
 40
2.0
 40
2.0
 10
27.60551782562661
 20
-61.88794482656813
 30
0.0
 10
27.68534390958941
 20
-62.92547147342411
 30
0.0
 10
28.550509644993
 20
-63.72661928434614
 30
0.0
 10
29.59110156491494
 20
-63.72661928434614
 30
0.0
 10
30.63168589752733
 20
-63.72661928434614
 30
0.0
 10
31.49685163293092
 20
-62.92547147342411
 30
0.0
 10
31.57668530420391
 20
-61.88794482656813
 30
0.0
  0
SPLINE
  5
BC
330
8C
100
AcDbEntity
  8
Camada 1
 62
    18
420
        0
370
    15
100
AcDbSpline
210
0.0
220
0.0
230
1.0
 70
     8
 71
     3
 72
     8
 73
     4
 74
     0
 42
0.0000000001
 43
0.0000000001
 40
0.0
 40
0.0
 40
0.0
 40
0.0
 40
1.0
 40
1.0
 40
1.0
 40
1.0
 10
26.08403463798449
 20
-62.03965308137764
 30
0.0
 10
26.52519875280761
 20
-62.42561572543888
 30
0.0
 10
27.13934593846764
 20
-62.54560523259988
 30
0.0
 10
27.69333334656473
 20
-62.35407118986723
 30
0.0
  0
SPLINE
  5
BD
330
8C
100
AcDbEntity
  8
Camada 1
 62
    18
420
        0
370
    15
100
AcDbSpline
210
0.0
220
0.0
230
1.0
 70
    11
 71
     3
 72
    17
 73
    13
 74
     0
 42
0.0000000001
 43
0.0000000001
 40
0.0
 40
0.0
 40
0.0
 40
0.0
 40
1.0
 40
1.0
 40
1.0
 40
2.0
 40
2.0
 40
2.0
 40
3.0
 40
3.0
 40
3.0
 40
4.0
 40
4.0
 40
4.0
 40
4.0
 10
33.8126806084691
 20
-62.36914717397737
 30
0.0
 10
33.48725331379424
 20
-62.36914717397737
 30
0.0
 10
33.22345014742966
 20
-62.63295792765536
 30
0.0
 10
33.22345014742966
 20
-62.9583814286735
 30
0.0
 10
33.22345014742966
 20
-63.28380113604009
 30
0.0
 10
33.48725331379424
 20
-63.54761188971423
 30
0.0
 10
33.8126806084691
 20
-63.54761188971423
 30
0.0
 10
34.13810790314395
 20
-63.54761188971423
 30
0.0
 10
34.40191865681873
 20
-63.28380113604009
 30
0.0
 10
34.40191865681873
 20
-62.9583814286735
 30
0.0
 10
34.40191865681873
 20
-62.63295792765536
 30
0.0
 10
34.13810790314395
 20
-62.36914717397737
 30
0.0
 10
33.8126806084691
 20
-62.36914717397737
 30
0.0
  0
LINE
  5
BE
330
8C
100
AcDbEntity
  8
Camada 1
 62
    18
420
        0
370
    15
100
AcDbLine
 10
33.62621488852985
 20
-61.45919355019671
 30
0.0
 11
33.62621488852985
 21
-59.83321414153227
 31
0.0
  0
LINE
  5
BF
330
8C
100
AcDbEntity
  8
Camada 1
 62
    18
420
        0
370
    15
100
AcDbLine
 10
33.999146328409
 20
-61.45919355019671
 30
0.0
 11
33.999146328409
 21
-59.83321414153227
 31
0.0
  0
SPLINE
  5
C0
330
8C
100
AcDbEntity
  8
Camada 1
 62
    18
420
        0
370
    15
100
AcDbSpline
210
0.0
220
0.0
230
1.0
 70
     8
 71
     3
 72
     8
 73
     4
 74
     0
 42
0.0000000001
 43
0.0000000001
 40
0.0
 40
0.0
 40
0.0
 40
0.0
 40
1.0
 40
1.0
 40
1.0
 40
1.0
 10
34.92429733325583
 20
-62.59020343823752
 30
0.0
 10
34.81972903279149
 20
-62.27446134422794
 30
0.0
 10
34.58581227881481
 20
-62.01808615392735
 30
0.0
 10
34.2809541803784
 20
-61.885080617204
 30
0.0
  0
SPLINE
  5
C1
330
8C
100
AcDbEntity
  8
Camada 1
 62
    18
420
        0
370
    15
100
AcDbSpline
210
0.0
220
0.0
230
1.0
 70
     8
 71
     3
 72
     8
 73
     4
 74
     0
 42
0.0000000001
 43
0.0000000001
 40
0.0
 40
0.0
 40
0.0
 40
0.0
 40
1.0
 40
1.0
 40
1.0
 40
1.0
 10
33.34430840153627
 20
-61.88512234740717
 30
0.0
 10
33.23116644126048
 20
-61.93450055807396
 30
0.0
 10
33.12652985501018
 20
-62.0014623586648
 30
0.0
 10
33.03430610721286
 20
-62.08351911164159
 30
0.0
  0
SPLINE
  5
C2
330
8C
100
AcDbEntity
  8
Camada 1
 62
    18
420
        0
370
    15
100
AcDbSpline
210
0.0
220
0.0
230
1.0
 70
     8
 71
     3
 72
     8
 73
     4
 74
     0
 42
0.0000000001
 43
0.0000000001
 40
0.0
 40
0.0
 40
0.0
 40
0.0
 40
1.0
 40
1.0
 40
1.0
 40
1.0
 10
33.34427046498851
 20
-61.88240609058123
 30
0.0
 10
33.51551604193485
 20
-61.80767109133856
 30
0.0
 10
33.62621488852985
 20
-61.63858031031005
 30
0.0
 10
33.62621488852985
 20
-61.45173522489321
 30
0.0
  0
SPLINE
  5
C3
330
8C
100
AcDbEntity
  8
Camada 1
 62
    18
420
        0
370
    15
100
AcDbSpline
210
0.0
220
0.0
230
1.0
 70
     8
 71
     3
 72
     8
 73
     4
 74
     0
 42
0.0000000001
 43
0.0000000001
 40
0.0
 40
0.0
 40
0.0
 40
0.0
 40
1.0
 40
1.0
 40
1.0
 40
1.0
 10
33.999146328409
 20
-61.45173522489321
 30
0.0
 10
33.999146328409
 20
-61.63858031031005
 30
0.0
 10
34.10984517500462
 20
-61.80767109133856
 30
0.0
 10
34.28109833925989
 20
-61.88240609058123
 30
0.0
  0
SPLINE
  5
C4
330
8C
100
AcDbEntity
  8
Camada 1
 62
    18
420
        0
370
    15
100
AcDbSpline
210
0.0
220
0.0
230
1.0
 70
     8
 71
     3
 72
     8
 73
     4
 74
     0
 42
0.0000000001
 43
0.0000000001
 40
0.0
 40
0.0
 40
0.0
 40
0.0
 40
1.0
 40
1.0
 40
1.0
 40
1.0
 10
34.92748400327463
 20
-62.58031717387105
 30
0.0
 10
35.15844170651971
 20
-63.13145934088109
 30
0.0
 10
35.51972662621253
 20
-63.61829905930268
 30
0.0
 10
35.98031425352921
 20
-63.99903784072535
 30
0.0
  0
SPLINE
  5
C5
330
8C
100
AcDbEntity
  8
Camada 1
 62
    18
420
        0
370
    15
100
AcDbSpline
210
0.0
220
0.0
230
1.0
 70
     8
 71
     3
 72
     8
 73
     4
 74
     0
 42
0.0000000001
 43
0.0000000001
 40
0.0
 40
0.0
 40
0.0
 40
0.0
 40
1.0
 40
1.0
 40
1.0
 40
1.0
 10
31.47395313265495
 20
-62.35407118986723
 30
0.0
 10
32.02794054075205
 20
-62.54560523259988
 30
0.0
 10
32.64208772641207
 20
-62.42561572543888
 30
0.0
 10
33.08324425392564
 20
-62.03965308137764
 30
0.0
  0
LWPOLYLINE
  5
C6
330
8C
100
AcDbEntity
  8
Camada 1
 62
    18
420
        0
370
    15
100
AcDbPolyline
 90
       72
 70
     0
 43
0.0
 10
34.83451669913931
 20
-68.33605021204634
 10
34.80468339791892
 20
-68.02278916826276
 10
34.7450092081673
 20
-67.72444477509258
 10
34.64059265389464
 20
-67.41117993765228
 10
34.50633521109139
 20
-67.12775219509166
 10
34.31241116584672
 20
-66.84432445252975
 10
34.10357046999184
 20
-66.57581336057738
 10
33.8499798223051
 20
-66.30730226862502
 10
33.55163163547758
 20
-66.06862827154976
 10
33.23836679804049
 20
-65.84487092508405
 10
32.88035200877154
 20
-65.63602643557505
 10
32.50742056889239
 20
-65.45701904094058
 10
32.11957247840241
 20
-65.29293209056979
 10
31.70189108669202
 20
-65.1586746477691
 10
31.25437639376125
 20
-65.03933764923083
 10
30.80685411352027
 20
-64.94983395191295
 10
30.35933942058886
 20
-64.89016355581675
 10
29.8819838391275
 20
-64.86033025459507
 10
29.41955249558589
 20
-64.84541360398679
 10
28.95711356473471
 20
-64.87524690520849
 10
28.4946822211931
 20
-64.92000065069127
 10
28.03224329034194
 20
-64.99458390374418
 10
27.59964524802136
 20
-65.09900804532576
 10
27.16704720570014
 20
-65.21834504386531
 10
26.7493582266802
 20
-65.3675153436227
 10
26.37642678680105
 20
-65.54652273825716
 10
26.0034953469219
 20
-65.74044678350119
 10
25.67532144618289
 20
-65.9492912730102
 10
25.36205660874581
 20
-66.18796527008932
 10
25.09354931044887
 20
-66.44155971142956
 10
24.85486772606341
 20
-66.71007080338191
 10
24.66094368081874
 20
-66.97858189533427
 10
24.49685293679446
 20
-67.27692628850445
 10
24.3775197319116
 20
-67.56035403106636
 10
24.28801224093959
 20
-67.87361507484995
 10
24.24326228910772
 20
-68.17195946802015
 10
24.24326228910772
 20
-68.48522430545916
 10
24.28801224093959
 20
-68.79848534924274
 10
24.3775197319116
 20
-69.09682974241677
 10
24.49685293679446
 20
-69.39517792924366
 10
24.66094368081874
 20
-69.67860567180429
 10
24.85486772606341
 20
-69.9620334143662
 10
25.09354931044887
 20
-70.23054450631855
 10
25.36205660874581
 20
-70.46921850339382
 10
25.67532144618289
 20
-70.70789629412449
 10
26.0034953469219
 20
-70.93165364059021
 10
26.37642678680105
 20
-71.12557768583425
 10
26.7493582266802
 20
-71.28966842986044
 10
27.16704720570014
 20
-71.43883872961783
 10
27.59964524802136
 20
-71.57309617242107
 10
28.03224329034194
 20
-71.66259986973895
 10
28.4946822211931
 20
-71.73718691644343
 10
28.95711356473471
 20
-71.79685351888807
 10
29.41955249558589
 20
-71.81177016949634
 10
29.8819838391275
 20
-71.81177016949634
 10
30.35933942058886
 20
-71.7670202176651
 10
30.80685411352027
 20
-71.70734982157019
 10
31.25437639376125
 20
-71.61784612425231
 10
31.70189108669202
 20
-71.51342577632616
 10
32.11957247840241
 20
-71.37917212717704
 10
32.50742056889239
 20
-71.21508138315213
 10
32.88035200877154
 20
-71.02115733790809
 10
33.23836679804049
 20
-70.82723329266406
 10
33.55163163547758
 20
-70.58855550193337
 10
33.8499798223051
 20
-70.34988150485427
 10
34.10357046999184
 20
-70.09628706351403
 10
34.31241116584672
 20
-69.82777597156166
 10
34.50633521109139
 20
-69.54434822900104
 10
34.64059265389464
 20
-69.24600383582957
 10
34.7450092081673
 20
-68.94765944265554
 10
34.80468339791892
 20
-68.63439460522037
 10
34.83451669913931
 20
-68.33605021204634
  0
LINE
  5
C7
330
8C
100
AcDbEntity
  8
Camada 1
 62
    18
420
        0
370
    15
100
AcDbLine
 10
31.07536899912677
 20
-64.99458390374418
 30
0.0
 11
31.00077815876495
 21
-68.51505760668082
 31
0.0
  0
LINE
  5
C8
330
8C
100
AcDbEntity
  8
Camada 1
 62
    18
420
        0
370
    15
100
AcDbLine
 10
28.10683413070376
 20
-64.97966725313464
 30
0.0
 11
28.19633403436558
 21
-68.51505760668082
 31
0.0
  0
SPLINE
  5
C9
330
8C
100
AcDbEntity
  8
Camada 1
 62
    18
420
        0
370
    15
100
AcDbSpline
210
0.0
220
0.0
230
1.0
 70
     8
 71
     3
 72
    11
 73
     7
 74
     0
 42
0.0000000001
 43
0.0000000001
 40
0.0
 40
0.0
 40
0.0
 40
0.0
 40
1.0
 40
1.0
 40
1.0
 40
2.0
 40
2.0
 40
2.0
 40
2.0
 10
23.62733967300873
 20
-69.29993822589053
 30
0.0
 10
25.20534072962124
 20
-70.88855772224511
 30
0.0
 10
27.35194235255961
 20
-71.78193686827466
 30
0.0
 10
29.59110156491494
 20
-71.78193686827466
 30
0.0
 10
31.83025318996136
 20
-71.78193686827466
 30
0.0
 10
33.97686240020864
 20
-70.88855772224511
 30
0.0
 10
35.55486345682115
 20
-69.29993822589053
 30
0.0
  0
LWPOLYLINE
  5
CA
330
8C
100
AcDbEntity
  8
Camada 1
 62
    18
420
        0
370
    15
100
AcDbPolyline
 90
        8
 70
     0
 43
0.0
 10
37.38536258854239
 20
-59.26635865640588
 10
37.40027923915323
 20
-59.16193830847973
 10
37.35552928732199
 20
-59.07243461116185
 10
37.28094603426973
 20
-59.0276808656752
 10
37.17652947999707
 20
-59.01276421506693
 10
37.08702198902506
 20
-59.04260130994018
 10
37.02734779927407
 20
-59.11718456299308
 10
37.01243114866324
 20
-59.22160870457465
  0
LINE
  5
CB
330
8C
100
AcDbEntity
  8
Camada 1
 62
    18
420
        0
370
    15
100
AcDbLine
 10
22.16976439385709
 20
-59.22160870457465
 30
0.0
 11
22.22943099629852
 21
-59.87796788701892
 31
0.0
  0
LINE
  5
CC
330
8C
100
AcDbEntity
  8
Camada 1
 62
    18
420
        0
370
    15
100
AcDbLine
 10
22.25926429751956
 20
-60.16139562957699
 30
0.0
 11
22.34877178849157
 21
-61.28018994921765
 31
0.0
  0
LINE
  5
CD
330
8C
100
AcDbEntity
  8
Camada 1
 62
    18
420
        0
370
    15
100
AcDbLine
 10
22.36368843910176
 20
-61.56361769177956
 30
0.0
 11
22.46811258068397
 21
-62.68241201141638
 31
0.0
  0
LINE
  5
CE
330
8C
100
AcDbEntity
  8
Camada 1
 62
    18
420
        0
370
    15
100
AcDbLine
 10
22.48302923129481
 20
-62.96583975397829
 30
0.0
 11
22.58744578556747
 21
-64.08463407361509
 31
0.0
  0
LINE
  5
CF
330
8C
100
AcDbEntity
  8
Camada 1
 62
    18
420
        0
370
    15
100
AcDbLine
 10
22.60236243617767
 20
-64.36806181617701
 30
0.0
 11
22.69186992714969
 21
-65.48685613581382
 31
0.0
  0
LINE
  5
D0
330
8C
100
AcDbEntity
  8
Camada 1
 62
    18
420
        0
370
    15
100
AcDbLine
 10
22.72170322837072
 20
-65.77028387837959
 30
0.0
 11
22.81120313203254
 21
-66.88907819801639
 31
0.0
  0
LINE
  5
D1
330
8C
100
AcDbEntity
  8
Camada 1
 62
    18
420
        0
370
    15
100
AcDbLine
 10
22.84104402056313
 20
-67.1725059405783
 30
0.0
 11
22.93054392422559
 21
-68.29130026021511
 31
0.0
  0
LINE
  5
D2
330
8C
100
AcDbEntity
  8
Camada 1
 62
    18
420
        0
370
    15
100
AcDbLine
 10
22.96037722544662
 20
-68.57472800277702
 30
0.0
 11
23.04988471641864
 21
-69.69352232241384
 31
0.0
  0
LINE
  5
D3
330
8C
100
AcDbEntity
  8
Camada 1
 62
    18
420
        0
370
    15
100
AcDbLine
 10
23.06480136702884
 20
-69.97695006497576
 30
0.0
 11
23.1692179213015
 21
-71.09574438461256
 31
0.0
  0
LINE
  5
D4
330
8C
100
AcDbEntity
  8
Camada 1
 62
    18
420
        0
370
    15
100
AcDbLine
 10
23.18413457191233
 20
-71.37917212717704
 30
0.0
 11
23.24380876166332
 21
-72.03553130961875
 31
0.0
  0
LINE
  5
D5
330
8C
100
AcDbEntity
  8
Camada 1
 62
    18
420
        0
370
    15
100
AcDbLine
 10
21.79683295397794
 20
-59.26635865640588
 30
0.0
 11
21.85649955641937
 21
-59.89288453762848
 31
0.0
  0
LINE
  5
D6
330
8C
100
AcDbEntity
  8
Camada 1
 62
    18
420
        0
370
    15
100
AcDbLine
 10
21.87141620702957
 20
-60.17631228019039
 30
0.0
 11
21.97584034861242
 21
-61.2951065998272
 31
0.0
  0
LINE
  5
D7
330
8C
100
AcDbEntity
  8
Camada 1
 62
    18
420
        0
370
    15
100
AcDbLine
 10
21.99075699922262
 20
-61.57853434238912
 30
0.0
 11
22.09518114080482
 21
-62.69732866202592
 31
0.0
  0
LINE
  5
D8
330
8C
100
AcDbEntity
  8
Camada 1
 62
    18
420
        0
370
    15
100
AcDbLine
 10
22.11009779141567
 20
-62.98075640458783
 30
0.0
 11
22.19959769507749
 21
-64.0995507242285
 31
0.0
  0
LINE
  5
D9
330
8C
100
AcDbEntity
  8
Camada 1
 62
    18
420
        0
370
    15
100
AcDbLine
 10
22.22943099629852
 20
-64.38297846678913
 30
0.0
 11
22.31893848727054
 21
-65.5166894370355
 31
0.0
  0
LINE
  5
DA
330
8C
100
AcDbEntity
  8
Camada 1
 62
    18
420
        0
370
    15
100
AcDbLine
 10
22.34877178849157
 20
-65.78520052898785
 30
0.0
 11
22.43827169215403
 21
-66.91891149923806
 31
0.0
  0
LINE
  5
DB
330
8C
100
AcDbEntity
  8
Camada 1
 62
    18
420
        0
370
    15
100
AcDbLine
 10
22.46811258068397
 20
-67.18742259118657
 30
0.0
 11
22.55761248434644
 21
-68.32113356143679
 31
0.0
  0
LINE
  5
DC
330
8C
100
AcDbEntity
  8
Camada 1
 62
    18
420
        0
370
    15
100
AcDbLine
 10
22.58744578556747
 20
-68.5896446533853
 30
0.0
 11
22.67695327653949
 21
-69.72335562363551
 31
0.0
  0
LINE
  5
DD
330
8C
100
AcDbEntity
  8
Camada 1
 62
    18
420
        0
370
    15
100
AcDbLine
 10
22.69186992714969
 20
-69.99186671558788
 30
0.0
 11
22.79628648142299
 21
-71.12557768583425
 31
0.0
  0
LINE
  5
DE
330
8C
100
AcDbEntity
  8
Camada 1
 62
    18
420
        0
370
    15
100
AcDbLine
 10
22.81120313203254
 20
-71.39408877778659
 30
0.0
 11
22.87087732178417
 21
-72.03553130961875
 31
0.0
  0
LWPOLYLINE
  5
DF
330
8C
100
AcDbEntity
  8
Camada 1
 62
    18
420
        0
370
    15
100
AcDbPolyline
 90
        8
 70
     0
 43
0.0
 10
22.16976439385709
 20
-59.22160870457465
 10
22.1548477432469
 20
-59.11718456299308
 10
22.09518114080482
 20
-59.04260130994018
 10
22.00567364983281
 20
-59.01276421506693
 10
21.91617374617099
 20
-59.0276808656752
 10
21.82666625519833
 20
-59.07243461116185
 10
21.79683295397794
 20
-59.16193830847973
 10
21.79683295397794
 20
-59.26635865640588
  0
ENDBLK
  5
8F
330
8C
100
AcDbEntity
  8
0
100
AcDbBlockEnd
  0
BLOCK
  5
E2
330
E0
100
AcDbEntity
  8
0
100
AcDbBlockBegin
  2
Block_2
 70
     0
 10
0.0
 20
0.0
 30
0.0
  3
Block_2
  1

  0
LWPOLYLINE
  5
E4
330
E0
100
AcDbEntity
  8
Camada 1
 62
    18
420
        0
370
    15
100
AcDbPolyline
 90
        3
 70
     0
 43
0.0
 10
77.59357127618712
 20
-71.92800319785928
 10
78.78412739895366
 20
-71.92800319785928
 10
78.78412739895366
 20
-58.45438550821408
  0
LINE
  5
E5
330
E0
100
AcDbEntity
  8
Camada 1
 62
    18
420
        0
370
    15
100
AcDbLine
 10
77.86943179618937
 20
-63.02786721439876
 30
0.0
 11
77.86943179618937
 21
-58.91899619782811
 31
0.0
  0
LINE
  5
E6
330
E0
100
AcDbEntity
  8
Camada 1
 62
    18
420
        0
370
    15
100
AcDbLine
 10
69.78235898100213
 20
-67.81913218129249
 30
0.0
 11
69.78235898100213
 21
-66.70116801718297
 31
0.0
  0
LINE
  5
E7
330
E0
100
AcDbEntity
  8
Camada 1
 62
    18
420
        0
370
    15
100
AcDbLine
 10
70.24696597824908
 20
-67.81913218129249
 30
0.0
 11
70.24696597824908
 21
-67.60134522821636
 31
0.0
  0
LINE
  5
E8
330
E0
100
AcDbEntity
  8
Camada 1
 62
    18
420
        0
370
    15
100
AcDbLine
 10
70.24696597824908
 20
-67.10770144750378
 30
0.0
 11
70.24696597824908
 21
-66.70116801718297
 31
0.0
  0
LINE
  5
E9
330
E0
100
AcDbEntity
  8
Camada 1
 62
    18
420
        0
370
    15
100
AcDbLine
 10
69.78235898100213
 20
-66.25107941166691
 30
0.0
 11
69.78235898100213
 21
-66.09137341025363
 31
0.0
  0
LINE
  5
EA
330
E0
100
AcDbEntity
  8
Camada 1
 62
    18
420
        0
370
    15
100
AcDbLine
 10
70.24696597824908
 20
-67.10770144750378
 30
0.0
 11
70.24696597824908
 21
-66.70116801718297
 31
0.0
  0
LINE
  5
EB
330
E0
100
AcDbEntity
  8
Camada 1
 62
    18
420
        0
370
    15
100
AcDbLine
 10
70.24696597824908
 20
-66.25107941166691
 30
0.0
 11
70.24696597824908
 21
-66.0623329344222
 31
0.0
  0
LINE
  5
EC
330
E0
100
AcDbEntity
  8
Camada 1
 62
    18
420
        0
370
    15
100
AcDbLine
 10
67.69162564720476
 20
-67.81913218129249
 30
0.0
 11
67.69162564720476
 21
-66.09137341025363
 31
0.0
  0
LINE
  5
ED
330
E0
100
AcDbEntity
  8
Camada 1
 62
    18
420
        0
370
    15
100
AcDbLine
 10
67.22701864995781
 20
-67.81913218129249
 30
0.0
 11
67.22701864995781
 21
-66.61405397442798
 31
0.0
  0
LINE
  5
EE
330
E0
100
AcDbEntity
  8
Camada 1
 62
    18
420
        0
370
    15
100
AcDbLine
 10
78.3340387934376
 20
-58.45438550821408
 30
0.0
 11
76.38849676169098
 21
-58.45438550821408
 31
0.0
  0
LINE
  5
EF
330
E0
100
AcDbEntity
  8
Camada 1
 62
    18
420
        0
370
    15
100
AcDbLine
 10
78.3340387934376
 20
-63.02786721439876
 30
0.0
 11
77.86943179618937
 21
-63.02786721439876
 31
0.0
  0
LINE
  5
F0
330
E0
100
AcDbEntity
  8
Camada 1
 62
    18
420
        0
370
    15
100
AcDbLine
 10
74.79140720860361
 20
-58.45438550821408
 30
0.0
 11
54.36320110579255
 21
-58.45438550821408
 31
0.0
  0
LINE
  5
F1
330
E0
100
AcDbEntity
  8
Camada 1
 62
    18
420
        0
370
    15
100
AcDbLine
 10
76.47561080444724
 20
-58.91899619782811
 30
0.0
 11
76.38849676169098
 21
-58.91899619782811
 31
0.0
  0
LINE
  5
F2
330
E0
100
AcDbEntity
  8
Camada 1
 62
    18
420
        0
370
    15
100
AcDbLine
 10
74.79140720860361
 20
-58.91899619782811
 30
0.0
 11
74.66073799065212
 21
-58.91899619782811
 31
0.0
  0
LINE
  5
F3
330
E0
100
AcDbEntity
  8
Camada 1
 62
    18
420
        0
370
    15
100
AcDbLine
 10
55.97480720442598
 20
-58.90447411372885
 30
0.0
 11
54.95847916717454
 21
-58.90447411372885
 31
0.0
  0
LINE
  5
F4
330
E0
100
AcDbEntity
  8
Camada 1
 62
    18
420
        0
370
    15
100
AcDbLine
 10
58.71889770508464
 20
-68.03691544199897
 30
0.0
 11
58.23976862373716
 21
-71.92800319785928
 31
0.0
  0
LINE
  5
F5
330
E0
100
AcDbEntity
  8
Camada 1
 62
    18
420
        0
370
    15
100
AcDbLine
 10
58.26880540720022
 20
-68.09499270129217
 30
0.0
 11
57.86227566924776
 21
-70.51966012201791
 31
0.0
  0
LINE
  5
F6
330
E0
100
AcDbEntity
  8
Camada 1
 62
    18
420
        0
370
    15
100
AcDbLine
 10
76.38849676169098
 20
-58.91899619782811
 30
0.0
 11
76.38849676169098
 21
-58.45438550821408
 31
0.0
  0
LINE
  5
F7
330
E0
100
AcDbEntity
  8
Camada 1
 62
    18
420
        0
370
    15
100
AcDbLine
 10
74.79140720860361
 20
-58.91899619782811
 30
0.0
 11
74.79140720860361
 21
-58.45438550821408
 31
0.0
  0
LINE
  5
F8
330
E0
100
AcDbEntity
  8
Camada 1
 62
    18
420
        0
370
    15
100
AcDbLine
 10
78.78412739895366
 20
-58.45438550821408
 30
0.0
 11
74.79140720860361
 21
-58.45438550821408
 31
0.0
  0
LINE
  5
F9
330
E0
100
AcDbEntity
  8
Camada 1
 62
    18
420
        0
370
    15
100
AcDbLine
 10
77.86943179618937
 20
-58.91899619782811
 30
0.0
 11
76.38849676169098
 21
-58.91899619782811
 31
0.0
  0
LINE
  5
FA
330
E0
100
AcDbEntity
  8
Camada 1
 62
    18
420
        0
370
    15
100
AcDbLine
 10
77.59357127618712
 20
-71.92800319785928
 30
0.0
 11
57.77516162649021
 21
-71.92800319785928
 31
0.0
  0
SPLINE
  5
FB
330
E0
100
AcDbEntity
  8
Camada 1
 62
    18
420
        0
370
    15
100
AcDbSpline
210
0.0
220
0.0
230
1.0
 70
     8
 71
     3
 72
     8
 73
     4
 74
     0
 42
0.0000000001
 43
0.0000000001
 40
0.0
 40
0.0
 40
0.0
 40
0.0
 40
1.0
 40
1.0
 40
1.0
 40
1.0
 10
66.77657188472773
 20
-66.14657431472444
 30
0.0
 10
64.82103830465281
 20
-66.09969231579026
 30
0.0
 10
62.92208288238585
 20
-65.48093263888862
 30
0.0
 10
61.31432607759152
 20
-64.36674207507135
 30
0.0
  0
SPLINE
  5
FC
330
E0
100
AcDbEntity
  8
Camada 1
 62
    18
420
        0
370
    15
100
AcDbSpline
210
0.0
220
0.0
230
1.0
 70
     8
 71
     3
 72
    11
 73
     7
 74
     0
 42
0.0000000001
 43
0.0000000001
 40
0.0
 40
0.0
 40
0.0
 40
0.0
 40
1.0
 40
1.0
 40
1.0
 40
2.0
 40
2.0
 40
2.0
 40
2.0
 10
66.78322553220816
 20
-66.14944697717717
 30
0.0
 10
66.90468598388857
 20
-66.14919220377204
 30
0.0
 10
67.02126512481943
 20
-66.19726683763573
 30
0.0
 10
67.10724191817283
 20
-66.28305901257765
 30
0.0
 10
67.19321871152622
 20
-66.36885857226015
 30
0.0
 10
67.2415370416887
 20
-66.48533432687827
 30
0.0
 10
67.2415370416887
 20
-66.60679477856125
 30
0.0
  0
SPLINE
  5
FD
330
E0
100
AcDbEntity
  8
Camada 1
 62
    18
420
        0
370
    15
100
AcDbSpline
210
0.0
220
0.0
230
1.0
 70
     8
 71
     3
 72
     8
 73
     4
 74
     0
 42
0.0000000001
 43
0.0000000001
 40
0.0
 40
0.0
 40
0.0
 40
0.0
 40
1.0
 40
1.0
 40
1.0
 40
1.0
 10
67.25789054041128
 20
-65.6829716416259
 30
0.0
 10
65.14055369378954
 20
-65.72296737388334
 30
0.0
 10
63.0608125401005
 20
-65.12028796045864
 30
0.0
 10
61.29292141918135
 20
-63.95440054958553
 30
0.0
  0
SPLINE
  5
FE
330
E0
100
AcDbEntity
  8
Camada 1
 62
    18
420
        0
370
    15
100
AcDbSpline
210
0.0
220
0.0
230
1.0
 70
     8
 71
     3
 72
     8
 73
     4
 74
     0
 42
0.0000000001
 43
0.0000000001
 40
0.0
 40
0.0
 40
0.0
 40
0.0
 40
1.0
 40
1.0
 40
1.0
 40
1.0
 10
60.92547909091012
 20
-64.14416612045207
 30
0.0
 10
58.96636022132149
 20
-62.83493728399205
 30
0.0
 10
57.3448198060661
 20
-61.07993252806409
 30
0.0
 10
56.19358186599481
 20
-59.02280712954754
 30
0.0
  0
SPLINE
  5
FF
330
E0
100
AcDbEntity
  8
Camada 1
 62
    18
420
        0
370
    15
100
AcDbSpline
210
0.0
220
0.0
230
1.0
 70
     8
 71
     3
 72
     8
 73
     4
 74
     0
 42
0.0000000001
 43
0.0000000001
 40
0.0
 40
0.0
 40
0.0
 40
0.0
 40
1.0
 40
1.0
 40
1.0
 40
1.0
 10
55.98208855450157
 20
-58.90447411372885
 30
0.0
 10
56.06352558116248
 20
-58.90448149846428
 30
0.0
 10
56.13860619598227
 20
-58.94848714257736
 30
0.0
 10
56.17840438654094
 20
-59.01953569133397
 30
0.0
  0
SPLINE
  5
100
330
E0
100
AcDbEntity
  8
Camada 1
 62
    18
420
        0
370
    15
100
AcDbSpline
210
0.0
220
0.0
230
1.0
 70
     8
 71
     3
 72
     8
 73
     4
 74
     0
 42
0.0000000001
 43
0.0000000001
 40
0.0
 40
0.0
 40
0.0
 40
0.0
 40
1.0
 40
1.0
 40
1.0
 40
1.0
 10
61.296503016328
 20
-63.95968802083775
 30
0.0
 10
59.26454479941265
 20
-62.65982672248051
 30
0.0
 10
57.61721319233568
 20
-60.84017229187509
 30
0.0
 10
56.52525068503643
 20
-58.6893345886472
 30
0.0
  0
SPLINE
  5
101
330
E0
100
AcDbEntity
  8
Camada 1
 62
    18
420
        0
370
    15
100
AcDbSpline
210
0.0
220
0.0
230
1.0
 70
     8
 71
     3
 72
     8
 73
     4
 74
     0
 42
0.0000000001
 43
0.0000000001
 40
0.0
 40
0.0
 40
0.0
 40
0.0
 40
1.0
 40
1.0
 40
1.0
 40
1.0
 10
70.76589140397167
 20
-64.88664597836643
 30
0.0
 10
70.69013139340485
 20
-65.20963219360291
 30
0.0
 10
70.48825116250054
 20
-65.48885646102895
 30
0.0
 10
70.20528283372911
 20
-65.66202114450449
 30
0.0
  0
SPLINE
  5
102
330
E0
100
AcDbEntity
  8
Camada 1
 62
    18
420
        0
370
    15
100
AcDbSpline
210
0.0
220
0.0
230
1.0
 70
     8
 71
     3
 72
     8
 73
     4
 74
     0
 42
0.0000000001
 43
0.0000000001
 40
0.0
 40
0.0
 40
0.0
 40
0.0
 40
1.0
 40
1.0
 40
1.0
 40
1.0
 10
71.22278135169735
 20
-65.22769156643106
 30
0.0
 10
71.1193802728451
 20
-65.68426766286044
 30
0.0
 10
70.72687784165376
 20
-66.01768851061018
 30
0.0
 10
70.25959018509841
 20
-66.04590189596796
 30
0.0
  0
SPLINE
  5
103
330
E0
100
AcDbEntity
  8
Camada 1
 62
    18
420
        0
370
    15
100
AcDbSpline
210
0.0
220
0.0
230
1.0
 70
     8
 71
     3
 72
     8
 73
     4
 74
     0
 42
0.0000000001
 43
0.0000000001
 40
0.0
 40
0.0
 40
0.0
 40
0.0
 40
1.0
 40
1.0
 40
1.0
 40
1.0
 10
72.18596882592795
 20
-58.86101494010707
 30
0.0
 10
72.13224117636515
 20
-59.42404939625035
 30
0.0
 10
72.0554694569132
 20
-59.98464688939042
 30
0.0
 10
71.95585305545828
 20
-60.54139693487235
 30
0.0
  0
SPLINE
  5
104
330
E0
100
AcDbEntity
  8
Camada 1
 62
    18
420
        0
370
    15
100
AcDbSpline
210
0.0
220
0.0
230
1.0
 70
     8
 71
     3
 72
     8
 73
     4
 74
     0
 42
0.0000000001
 43
0.0000000001
 40
0.0
 40
0.0
 40
0.0
 40
0.0
 40
1.0
 40
1.0
 40
1.0
 40
1.0
 10
71.77775167571041
 20
-61.50400101492679
 30
0.0
 10
71.53252673459828
 20
-62.65472386963977
 30
0.0
 10
71.20128069171503
 20
-63.78541193453657
 30
0.0
 10
70.78680497741207
 20
-64.88654628442461
 30
0.0
  0
SPLINE
  5
105
330
E0
100
AcDbEntity
  8
Camada 1
 62
    18
420
        0
370
    15
100
AcDbSpline
210
0.0
220
0.0
230
1.0
 70
     8
 71
     3
 72
     8
 73
     4
 74
     0
 42
0.0000000001
 43
0.0000000001
 40
0.0
 40
0.0
 40
0.0
 40
0.0
 40
1.0
 40
1.0
 40
1.0
 40
1.0
 10
72.54965970811579
 20
-59.75563513701096
 30
0.0
 10
72.51380681297096
 20
-60.01811820705227
 30
0.0
 10
72.47302091392086
 20
-60.27991080424146
 30
0.0
 10
72.42733154991107
 20
-60.5408652338545
 30
0.0
  0
SPLINE
  5
106
330
E0
100
AcDbEntity
  8
Camada 1
 62
    18
420
        0
370
    15
100
AcDbSpline
210
0.0
220
0.0
230
1.0
 70
     8
 71
     3
 72
     8
 73
     4
 74
     0
 42
0.0000000001
 43
0.0000000001
 40
0.0
 40
0.0
 40
0.0
 40
0.0
 40
1.0
 40
1.0
 40
1.0
 40
1.0
 10
72.2264002576311
 20
-61.50628289847181
 30
0.0
 10
71.97836173195738
 20
-62.7703429948361
 30
0.0
 10
71.63983433899852
 20
-64.01495169556681
 30
0.0
 10
71.21343227543381
 20
-65.23049407388886
 30
0.0
  0
SPLINE
  5
107
330
E0
100
AcDbEntity
  8
Camada 1
 62
    18
420
        0
370
    15
100
AcDbSpline
210
0.0
220
0.0
230
1.0
 70
     8
 71
     3
 72
     8
 73
     4
 74
     0
 42
0.0000000001
 43
0.0000000001
 40
0.0
 40
0.0
 40
0.0
 40
0.0
 40
1.0
 40
1.0
 40
1.0
 40
1.0
 10
73.99383721726277
 20
-59.30780256846013
 30
0.0
 10
73.73374680180951
 20
-61.79447223586759
 30
0.0
 10
73.08516755938888
 20
-64.22495144412798
 30
0.0
 10
72.07174910827247
 20
-66.51059381768073
 30
0.0
  0
SPLINE
  5
108
330
E0
100
AcDbEntity
  8
Camada 1
 62
    18
420
        0
370
    15
100
AcDbSpline
210
0.0
220
0.0
230
1.0
 70
     8
 71
     3
 72
     8
 73
     4
 74
     0
 42
0.0000000001
 43
0.0000000001
 40
0.0
 40
0.0
 40
0.0
 40
0.0
 40
1.0
 40
1.0
 40
1.0
 40
1.0
 10
73.98209179404408
 20
-59.3119269437297
 30
0.0
 10
74.10979973270483
 20
-59.05441010890761
 30
0.0
 10
74.37620409776627
 20
-58.89526903982613
 30
0.0
 10
74.66348880495548
 20
-58.90488765896696
 30
0.0
  0
SPLINE
  5
109
330
E0
100
AcDbEntity
  8
Camada 1
 62
    18
420
        0
370
    15
100
AcDbSpline
210
0.0
220
0.0
230
1.0
 70
     8
 71
     3
 72
     8
 73
     4
 74
     0
 42
0.0000000001
 43
0.0000000001
 40
0.0
 40
0.0
 40
0.0
 40
0.0
 40
1.0
 40
1.0
 40
1.0
 40
1.0
 10
72.07920584583672
 20
-66.50646944241116
 30
0.0
 10
71.9894332979809
 20
-66.70211695580599
 30
0.0
 10
71.83303196609898
 20
-66.85948199578952
 30
0.0
 10
71.63794200029922
 20
-66.95045087093678
 30
0.0
  0
SPLINE
  5
10A
330
E0
100
AcDbEntity
  8
Camada 1
 62
    18
420
        0
370
    15
100
AcDbSpline
210
0.0
220
0.0
230
1.0
 70
     8
 71
     3
 72
     8
 73
     4
 74
     0
 42
0.0000000001
 43
0.0000000001
 40
0.0
 40
0.0
 40
0.0
 40
0.0
 40
1.0
 40
1.0
 40
1.0
 40
1.0
 10
73.45707396080448
 20
-59.88468340532655
 30
0.0
 10
73.16421377764527
 20
-62.10807614353043
 30
0.0
 10
72.55556011248716
 20
-64.27829877976532
 30
0.0
 10
71.64951942076595
 20
-66.32972316179027
 30
0.0
  0
SPLINE
  5
10B
330
E0
100
AcDbEntity
  8
Camada 1
 62
    18
420
        0
370
    15
100
AcDbSpline
210
0.0
220
0.0
230
1.0
 70
     8
 71
     3
 72
     8
 73
     4
 74
     0
 42
0.0000000001
 43
0.0000000001
 40
0.0
 40
0.0
 40
0.0
 40
0.0
 40
1.0
 40
1.0
 40
1.0
 40
1.0
 10
71.64267377013733
 20
-66.3184023609122
 30
0.0
 10
71.59743118267958
 20
-66.41700705348457
 30
0.0
 10
71.51860281414603
 20
-66.49631912225117
 30
0.0
 10
71.42027874155731
 20
-66.54217095046229
 30
0.0
  0
LINE
  5
10C
330
E0
100
AcDbEntity
  8
Camada 1
 62
    18
420
        0
370
    15
100
AcDbLine
 10
69.78235898100213
 20
-67.81913218129249
 30
0.0
 11
67.69162564720476
 21
-67.81913218129249
 31
0.0
  0
SPLINE
  5
10D
330
E0
100
AcDbEntity
  8
Camada 1
 62
    18
420
        0
370
    15
100
AcDbSpline
210
0.0
220
0.0
230
1.0
 70
     8
 71
     3
 72
     8
 73
     4
 74
     0
 42
0.0000000001
 43
0.0000000001
 40
0.0
 40
0.0
 40
0.0
 40
0.0
 40
1.0
 40
1.0
 40
1.0
 40
1.0
 10
58.73446472938294
 20
-68.03298676224208
 30
0.0
 10
59.13288971915453
 20
-66.54224110545723
 30
0.0
 10
60.05226355241767
 20
-65.24358351913074
 30
0.0
 10
61.32591642134687
 20
-64.37245416866419
 30
0.0
  0
SPLINE
  5
10E
330
E0
100
AcDbEntity
  8
Camada 1
 62
    18
420
        0
370
    15
100
AcDbSpline
210
0.0
220
0.0
230
1.0
 70
     8
 71
     3
 72
     8
 73
     4
 74
     0
 42
0.0000000001
 43
0.0000000001
 40
0.0
 40
0.0
 40
0.0
 40
0.0
 40
1.0
 40
1.0
 40
1.0
 40
1.0
 10
58.26843617038113
 20
-68.09068001524405
 30
0.0
 10
58.6605767494901
 20
-66.50388847704457
 30
0.0
 10
59.59965305942618
 20
-65.10616465212279
 30
0.0
 10
60.92050177858713
 20
-64.14333164524172
 30
0.0
  0
LINE
  5
10F
330
E0
100
AcDbEntity
  8
Camada 1
 62
    18
420
        0
370
    15
100
AcDbLine
 10
67.22701864995781
 20
-67.81913218129249
 30
0.0
 11
67.69162564720476
 21
-67.81913218129249
 31
0.0
  0
LINE
  5
110
330
E0
100
AcDbEntity
  8
Camada 1
 62
    18
420
        0
370
    15
100
AcDbLine
 10
71.61175018652814
 20
-66.96251014545303
 30
0.0
 11
70.24696597824908
 21
-67.60134522821636
 31
0.0
  0
LINE
  5
111
330
E0
100
AcDbEntity
  8
Camada 1
 62
    18
420
        0
370
    15
100
AcDbLine
 10
71.42300370928345
 20
-66.55598040750184
 30
0.0
 11
70.24696597824908
 21
-67.10770144750378
 31
0.0
  0
LINE
  5
112
330
E0
100
AcDbEntity
  8
Camada 1
 62
    18
420
        0
370
    15
100
AcDbLine
 10
70.24696597824908
 20
-66.25107941166691
 30
0.0
 11
69.78235898100213
 21
-66.25107941166691
 31
0.0
  0
LINE
  5
113
330
E0
100
AcDbEntity
  8
Camada 1
 62
    18
420
        0
370
    15
100
AcDbLine
 10
70.24696597824908
 20
-66.70116801718297
 30
0.0
 11
69.78235898100213
 21
-66.70116801718297
 31
0.0
  0
LINE
  5
114
330
E0
100
AcDbEntity
  8
Camada 1
 62
     8
420
  8421761
370
    15
100
AcDbLine
 10
69.78235898100213
 20
-66.70116801718297
 30
0.0
 11
69.78235898100213
 21
-66.25107941166691
 31
0.0
  0
LINE
  5
115
330
E0
100
AcDbEntity
  8
Camada 1
 62
     8
420
  8421761
370
    15
100
AcDbLine
 10
70.24696597824908
 20
-66.70116801718297
 30
0.0
 11
70.24696597824908
 21
-66.25107941166691
 31
0.0
  0
LINE
  5
116
330
E0
100
AcDbEntity
  8
Camada 1
 62
    18
420
        0
370
    15
100
AcDbLine
 10
67.69162564720476
 20
-66.09137341025363
 30
0.0
 11
67.25605543342087
 21
-65.6848399799328
 31
0.0
  0
SPLINE
  5
117
330
E0
100
AcDbEntity
  8
Camada 1
 62
    18
420
        0
370
    15
100
AcDbSpline
210
0.0
220
0.0
230
1.0
 70
     8
 71
     3
 72
    11
 73
     7
 74
     0
 42
0.0000000001
 43
0.0000000001
 40
0.0
 40
0.0
 40
0.0
 40
0.0
 40
1.0
 40
1.0
 40
1.0
 40
2.0
 40
2.0
 40
2.0
 40
2.0
 10
72.54518086549928
 20
-59.74997104420422
 30
0.0
 10
72.57938696443095
 20
-59.49972078998044
 30
0.0
 10
72.80998274276531
 20
-59.32458068952589
 30
0.0
 10
73.06023299698781
 20
-59.35877571135378
 30
0.0
 10
73.31048694357737
 20
-59.39297073318168
 30
0.0
 10
73.48563812113956
 20
-59.62355543440711
 30
0.0
 10
73.45145417641674
 20
-59.87380938100053
 30
0.0
  0
SPLINE
  5
118
330
E0
100
AcDbEntity
  8
Camada 1
 62
    18
420
        0
370
    15
100
AcDbSpline
210
0.0
220
0.0
230
1.0
 70
     8
 71
     3
 72
     8
 73
     4
 74
     0
 42
0.0000000001
 43
0.0000000001
 40
0.0
 40
0.0
 40
0.0
 40
0.0
 40
1.0
 40
1.0
 40
1.0
 40
1.0
 10
72.19458312092038
 20
-58.868218750451
 30
0.0
 10
72.21701795005488
 20
-58.63354290526095
 30
0.0
 10
72.41415718020082
 20
-58.45436704637229
 30
0.0
 10
72.64990011979621
 20
-58.45438550821408
 30
0.0
  0
SPLINE
  5
119
330
E0
100
AcDbEntity
  8
Camada 1
 62
    18
420
        0
370
    15
100
AcDbSpline
210
0.0
220
0.0
230
1.0
 70
     8
 71
     3
 72
     8
 73
     4
 74
     0
 42
0.0000000001
 43
0.0000000001
 40
0.0
 40
0.0
 40
0.0
 40
0.0
 40
1.0
 40
1.0
 40
1.0
 40
1.0
 10
56.12730201076118
 20
-58.43986711648063
 30
0.0
 10
56.29474906209071
 20
-58.43988557832241
 30
0.0
 10
56.44880204780232
 20
-58.53140830870025
 30
0.0
 10
56.52889505244258
 20
-58.67846056432118
 30
0.0
  0
LINE
  5
11A
330
E0
100
AcDbEntity
  8
Camada 1
 62
    18
420
        0
370
    15
100
AcDbLine
 10
72.424813354804
 20
-60.54511884201017
 30
0.0
 11
71.96020635755576
 21
-60.54511884201017
 31
0.0
  0
LINE
  5
11B
330
E0
100
AcDbEntity
  8
Camada 1
 62
    18
420
        0
370
    15
100
AcDbLine
 10
72.22154848582713
 20
-61.50337331233677
 30
0.0
 11
71.75694148858018
 21
-61.50337331233677
 31
0.0
  0
LINE
  5
11C
330
E0
100
AcDbEntity
  8
Camada 1
 62
     8
420
  8421761
370
    15
100
AcDbLine
 10
71.75694148858018
 20
-61.50337331233677
 30
0.0
 11
71.96020635755576
 21
-60.54511884201017
 31
0.0
  0
LINE
  5
11D
330
E0
100
AcDbEntity
  8
Camada 1
 62
     8
420
  8421761
370
    15
100
AcDbLine
 10
72.22154848582713
 20
-61.50337331233677
 30
0.0
 11
72.424813354804
 21
-60.54511884201017
 31
0.0
  0
LINE
  5
11E
330
E0
100
AcDbEntity
  8
Camada 1
 62
    18
420
        0
370
    15
100
AcDbLine
 10
70.24696597824908
 20
-67.81913218129249
 30
0.0
 11
69.78235898100213
 21
-67.81913218129249
 31
0.0
  0
LINE
  5
11F
330
E0
100
AcDbEntity
  8
Camada 1
 62
    18
420
        0
370
    15
100
AcDbLine
 10
69.78235898100213
 20
-66.09137341025363
 30
0.0
 11
70.20341080305512
 21
-65.67032158820062
 31
0.0
  0
SPLINE
  5
120
330
E0
100
AcDbEntity
  8
Camada 1
 62
    18
420
        0
370
    15
100
AcDbSpline
210
0.0
220
0.0
230
1.0
 70
     8
 71
     3
 72
     8
 73
     4
 74
     0
 42
0.0000000001
 43
0.0000000001
 40
0.0
 40
0.0
 40
0.0
 40
0.0
 40
1.0
 40
1.0
 40
1.0
 40
1.0
 10
67.1516980312063
 20
-65.6850652143898
 30
0.0
 10
67.2147895265048
 20
-65.68225901456621
 30
0.0
 10
67.2761566858572
 20
-65.70609694361507
 30
0.0
 10
67.32081587914136
 20
-65.7507524445296
 30
0.0
  0
LINE
  5
121
330
E0
100
AcDbEntity
  8
Camada 1
 62
    18
420
        0
370
    15
100
AcDbLine
 10
54.36320110579255
 20
-58.45438550821408
 30
0.0
 11
57.77516162649021
 21
-71.92800319785928
 31
0.0
  0
LINE
  5
122
330
E0
100
AcDbEntity
  8
Camada 1
 62
    18
420
        0
370
    15
100
AcDbLine
 10
54.95847916717454
 20
-58.90447411372885
 30
0.0
 11
57.86227566924776
 21
-70.51966012201791
 31
0.0
  0
LINE
  5
123
330
E0
100
AcDbEntity
  8
Camada 1
 62
    18
420
        0
370
    15
100
AcDbLine
 10
78.3340387934376
 20
-63.02786721439876
 30
0.0
 11
78.3340387934376
 21
-58.45438550821408
 31
0.0
  0
LINE
  5
124
330
E0
100
AcDbEntity
  8
Camada 1
 62
    18
420
        0
370
    15
100
AcDbLine
 10
74.79140720860361
 20
-58.91899619782811
 30
0.0
 11
76.38849676169098
 21
-58.91899619782811
 31
0.0
  0
LINE
  5
125
330
E0
100
AcDbEntity
  8
Camada 1
 62
    18
420
        0
370
    15
100
AcDbLine
 10
77.86943179618937
 20
-63.02786721439876
 30
0.0
 11
77.86943179618937
 21
-71.92800319785928
 31
0.0
  0
LINE
  5
126
330
E0
100
AcDbEntity
  8
Camada 1
 62
    18
420
        0
370
    15
100
AcDbLine
 10
78.3340387934376
 20
-63.02786721439876
 30
0.0
 11
78.3340387934376
 21
-71.92800319785928
 31
0.0
  0
LINE
  5
127
330
E0
100
AcDbEntity
  8
Camada 1
 62
    18
420
        0
370
    15
100
AcDbLine
 10
69.78235898100213
 20
-67.81913218129249
 30
0.0
 11
67.69162564720476
 21
-67.81913218129249
 31
0.0
  0
ENDBLK
  5
E3
330
E0
100
AcDbEntity
  8
0
100
AcDbBlockEnd
  0
ENDSEC
  0
SECTION
  2
ENTITIES
  0
INSERT
  5
7A
330
70
100
AcDbEntity
  8
Camada 1
100
AcDbBlockReference
  2
Block_0
 10
0.0
 20
0.0
 30
0.0
  0
ENDSEC
  0
SECTION
  2
OBJECTS
  0
DICTIONARY
  5
C
330
0
100
AcDbDictionary
281
     1
  3
ACAD_COLOR
350
63
  3
ACAD_DETAILVIEWSTYLE
350
6A
  3
ACAD_GROUP
350
D
  3
ACAD_LAYOUT
350
62
  3
ACAD_MATERIAL
350
10
  3
ACAD_MLEADERSTYLE
350
66
  3
ACAD_MLINESTYLE
350
5F
  3
ACAD_PLOTSETTINGS
350
61
  3
ACAD_PLOTSTYLENAME
350
E
  3
ACAD_SCALELIST
350
42
  3
ACAD_SECTIONVIEWSTYLE
350
68
  3
ACAD_TABLESTYLE
350
64
  3
ACAD_VISUALSTYLE
350
29
  3
ACDB_RECOMPOSE_DATA
350
130
  3
AcDbVariableDictionary
350
128
  0
DICTIONARY
  5
63
102
{ACAD_REACTORS
330
C
102
}
330
C
100
AcDbDictionary
281
     1
  0
DICTIONARY
  5
6A
102
{ACAD_REACTORS
330
C
102
}
330
C
100
AcDbDictionary
281
     1
  3
Imperial24
350
6B
  0
DICTIONARY
  5
D
102
{ACAD_REACTORS
330
C
102
}
330
C
100
AcDbDictionary
281
     1
  0
DICTIONARY
  5
62
102
{ACAD_REACTORS
330
C
102
}
330
C
100
AcDbDictionary
281
     1
  3
Layout1
350
6F
  3
Layout2
350
77
  3
Model
350
73
  0
DICTIONARY
  5
10
102
{ACAD_REACTORS
330
C
102
}
330
C
100
AcDbDictionary
281
     1
  3
ByBlock
350
19
  3
ByLayer
350
11
  3
Global
350
21
  0
DICTIONARY
  5
66
102
{ACAD_REACTORS
330
C
102
}
330
C
100
AcDbDictionary
281
     1
  3
Standard
350
67
  0
DICTIONARY
  5
5F
102
{ACAD_REACTORS
330
C
102
}
330
C
100
AcDbDictionary
281
     1
  3
Standard
350
60
  0
DICTIONARY
  5
61
102
{ACAD_REACTORS
330
C
102
}
330
C
100
AcDbDictionary
281
     1
  0
ACDBDICTIONARYWDFLT
  5
E
102
{ACAD_REACTORS
330
C
102
}
330
C
100
AcDbDictionary
281
     1
  3
Normal
350
F
100
AcDbDictionaryWithDefault
340
F
  0
DICTIONARY
  5
42
102
{ACAD_REACTORS
330
C
102
}
330
C
100
AcDbDictionary
281
     1
  3
A0
350
43
  3
A1
350
44
  3
A2
350
45
  3
A3
350
46
  3
A4
350
47
  3
A5
350
48
  3
A6
350
49
  3
A7
350
4A
  3
A8
350
4B
  3
A9
350
4C
  3
B0
350
4D
  3
B1
350
4E
  3
B2
350
4F
  3
B3
350
50
  3
B4
350
51
  3
B5
350
52
  3
B6
350
53
  0
DICTIONARY
  5
68
102
{ACAD_REACTORS
330
C
102
}
330
C
100
AcDbDictionary
281
     1
  3
Imperial24
350
69
  0
DICTIONARY
  5
64
102
{ACAD_REACTORS
330
C
102
}
330
C
100
AcDbDictionary
281
     1
  3
Standard
350
65
  0
DICTIONARY
  5
29
102
{ACAD_REACTORS
330
C
102
}
330
C
100
AcDbDictionary
281
     1
  3
2dWireframe
350
2F
  3
Basic
350
2E
  3
Brighten
350
35
  3
ColorChange
350
39
  3
Conceptual
350
32
  3
Dim
350
34
  3
EdgeColorOff
350
41
  3
Facepattern
350
38
  3
Flat
350
2A
  3
FlatWithEdges
350
2B
  3
Gouraud
350
2C
  3
GouraudWithEdges
350
2D
  3
Hidden
350
31
  3
JitterOff
350
3F
  3
Linepattern
350
37
  3
OverhangOff
350
40
  3
Realistic
350
33
  3
Shaded
350
3E
  3
Shaded with edges
350
3D
  3
Shades of Gray
350
3A
  3
Sketchy
350
3B
  3
Thicken
350
36
  3
Wireframe
350
30
  3
X-Ray
350
3C
  0
XRECORD
  5
130
102
{ACAD_REACTORS
330
C
102
}
330
C
100
AcDbXrecord
280
     1
 90
        1
330
65
  0
DICTIONARY
  5
128
102
{ACAD_REACTORS
330
C
102
}
330
C
100
AcDbDictionary
281
     1
  3
CANNOSCALE
350
12D
  3
CMLEADERSTYLE
350
12A
  3
CTABLESTYLE
350
129
  3
CVIEWDETAILSTYLE
350
12B
  3
CVIEWSECTIONSTYLE
350
12C
  0
ACDBDETAILVIEWSTYLE
  5
6B
102
{ACAD_REACTORS
330
6A
102
}
330
6A
100
AcDbModelDocViewStyle
 70
     0
  3
Imperial24
290
     1
300
Imperial24
 90
        0
100
AcDbDetailViewStyle
 70
     0
 71
     0
 90
        3
 71
     1
340
55
 62
   256
 40
0.24
340
0
 62
   256
 40
0.24
300

 40
0.36
280
     3
 71
     2
340
5D
 90
       25
 62
   256
 71
     3
340
55
 62
   256
 40
0.24
 90
        1
 40
0.75
 90
        1
300
%<\AcVar ViewType \f "%tc1">% %<\AcVar ViewDetailId>%\PSCALE %<\AcVar ViewScale \f "%sn">%
 71
     4
340
5D
 90
       25
 62
   256
340
5D
 90
       25
 62
   256
280
     0
  0
LAYOUT
  5
6F
102
{ACAD_REACTORS
330
62
102
}
330
62
100
AcDbPlotSettings
  1

  2

  4

  6

 40
0.0
 41
0.0
 42
0.0
 43
0.0
 44
0.0
 45
0.0
 46
0.0
 47
0.0
 48
0.0
 49
0.0
140
0.0
141
0.0
142
1.0
143
1.0
 70
   688
 72
     0
 73
     0
 74
     5
  7

 75
    16
147
1.0
 76
     0
 77
     2
 78
   300
148
0.0
149
0.0
100
AcDbLayout
  1
Layout1
 70
     1
 71
     1
 10
0.0
 20
0.0
 11
12.0
 21
9.0
 12
0.0
 22
0.0
 32
0.0
 14
0.0
 24
0.0
 34
0.0
 15
0.0
 25
0.0
 35
0.0
146
0.0
 13
0.0
 23
0.0
 33
0.0
 16
1.0
 26
0.0
 36
0.0
 17
0.0
 27
1.0
 37
0.0
 76
     0
330
6C
  0
LAYOUT
  5
77
102
{ACAD_REACTORS
330
62
102
}
330
62
100
AcDbPlotSettings
  1

  2

  4

  6

 40
0.0
 41
0.0
 42
0.0
 43
0.0
 44
0.0
 45
0.0
 46
0.0
 47
0.0
 48
0.0
 49
0.0
140
0.0
141
0.0
142
1.0
143
1.0
 70
   688
 72
     0
 73
     0
 74
     5
  7

 75
    16
147
1.0
 76
     0
 77
     2
 78
   300
148
0.0
149
0.0
100
AcDbLayout
  1
Layout2
 70
     1
 71
     2
 10
0.0
 20
0.0
 11
12.0
 21
9.0
 12
0.0
 22
0.0
 32
0.0
 14
0.0
 24
0.0
 34
0.0
 15
0.0
 25
0.0
 35
0.0
146
0.0
 13
0.0
 23
0.0
 33
0.0
 16
1.0
 26
0.0
 36
0.0
 17
0.0
 27
1.0
 37
0.0
 76
     0
330
74
  0
LAYOUT
  5
73
102
{ACAD_REACTORS
330
62
102
}
330
62
100
AcDbPlotSettings
  1

  2

  4

  6

 40
0.0
 41
0.0
 42
0.0
 43
0.0
 44
0.0
 45
0.0
 46
0.0
 47
0.0
 48
0.0
 49
0.0
140
0.0
141
0.0
142
1.0
143
1.0
 70
  1712
 72
     0
 73
     0
 74
     0
  7

 75
     0
147
1.0
 76
     0
 77
     2
 78
   300
148
0.0
149
0.0
100
AcDbLayout
  1
Model
 70
     1
 71
     0
 10
0.0
 20
0.0
 11
12.0
 21
9.0
 12
0.0
 22
0.0
 32
0.0
 14
0.0
 24
0.0
 34
0.0
 15
0.0
 25
0.0
 35
0.0
146
0.0
 13
0.0
 23
0.0
 33
0.0
 16
1.0
 26
0.0
 36
0.0
 17
0.0
 27
1.0
 37
0.0
 76
     0
330
70
  0
MATERIAL
  5
19
102
{ACAD_XDICTIONARY
360
1A
102
}
102
{ACAD_REACTORS
330
10
102
}
330
10
100
AcDbMaterial
  1
ByBlock
 72
     0
 43
0.0208333333333333
 43
0.0
 43
0.0
 43
0.0
 43
0.0
 43
0.0208333333333333
 43
0.0
 43
0.0
 43
0.0
 43
0.0
 43
1.0
 43
0.0
 43
0.0
 43
0.0
 43
0.0
 43
1.0
 77
     0
 47
0.0208333333333333
 47
0.0
 47
0.0
 47
0.0
 47
0.0
 47
0.0208333333333333
 47
0.0
 47
0.0
 47
0.0
 47
0.0
 47
1.0
 47
0.0
 47
0.0
 47
0.0
 47
0.0
 47
1.0
171
     0
 49
0.0208333333333333
 49
0.0
 49
0.0
 49
0.0
 49
0.0
 49
0.0208333333333333
 49
0.0
 49
0.0
 49
0.0
 49
0.0
 49
1.0
 49
0.0
 49
0.0
 49
0.0
 49
0.0
 49
1.0
175
     0
142
0.0208333333333333
142
0.0
142
0.0
142
0.0
142
0.0
142
0.0208333333333333
142
0.0
142
0.0
142
0.0
142
0.0
142
1.0
142
0.0
142
0.0
142
0.0
142
0.0
142
1.0
179
     0
144
0.0208333333333333
144
0.0
144
0.0
144
0.0
144
0.0
144
0.0208333333333333
144
0.0
144
0.0
144
0.0
144
0.0
144
1.0
144
0.0
144
0.0
144
0.0
144
0.0
144
1.0
147
0.0208333333333333
147
0.0
147
0.0
147
0.0
147
0.0
147
0.0208333333333333
147
0.0
147
0.0
147
0.0
147
0.0
147
1.0
147
0.0
147
0.0
147
0.0
147
0.0
147
1.0
  0
MATERIAL
  5
11
102
{ACAD_XDICTIONARY
360
12
102
}
102
{ACAD_REACTORS
330
10
102
}
330
10
100
AcDbMaterial
  1
ByLayer
 72
     0
 43
0.0208333333333333
 43
0.0
 43
0.0
 43
0.0
 43
0.0
 43
0.0208333333333333
 43
0.0
 43
0.0
 43
0.0
 43
0.0
 43
1.0
 43
0.0
 43
0.0
 43
0.0
 43
0.0
 43
1.0
 77
     0
 47
0.0208333333333333
 47
0.0
 47
0.0
 47
0.0
 47
0.0
 47
0.0208333333333333
 47
0.0
 47
0.0
 47
0.0
 47
0.0
 47
1.0
 47
0.0
 47
0.0
 47
0.0
 47
0.0
 47
1.0
171
     0
 49
0.0208333333333333
 49
0.0
 49
0.0
 49
0.0
 49
0.0
 49
0.0208333333333333
 49
0.0
 49
0.0
 49
0.0
 49
0.0
 49
1.0
 49
0.0
 49
0.0
 49
0.0
 49
0.0
 49
1.0
175
     0
142
0.0208333333333333
142
0.0
142
0.0
142
0.0
142
0.0
142
0.0208333333333333
142
0.0
142
0.0
142
0.0
142
0.0
142
1.0
142
0.0
142
0.0
142
0.0
142
0.0
142
1.0
179
     0
144
0.0208333333333333
144
0.0
144
0.0
144
0.0
144
0.0
144
0.0208333333333333
144
0.0
144
0.0
144
0.0
144
0.0
144
1.0
144
0.0
144
0.0
144
0.0
144
0.0
144
1.0
147
0.0208333333333333
147
0.0
147
0.0
147
0.0
147
0.0
147
0.0208333333333333
147
0.0
147
0.0
147
0.0
147
0.0
147
1.0
147
0.0
147
0.0
147
0.0
147
0.0
147
1.0
  0
MATERIAL
  5
21
102
{ACAD_XDICTIONARY
360
22
102
}
102
{ACAD_REACTORS
330
10
102
}
330
10
100
AcDbMaterial
  1
Global
 72
     0
 43
0.0208333333333333
 43
0.0
 43
0.0
 43
0.0
 43
0.0
 43
0.0208333333333333
 43
0.0
 43
0.0
 43
0.0
 43
0.0
 43
1.0
 43
0.0
 43
0.0
 43
0.0
 43
0.0
 43
1.0
 77
     0
 47
0.0208333333333333
 47
0.0
 47
0.0
 47
0.0
 47
0.0
 47
0.0208333333333333
 47
0.0
 47
0.0
 47
0.0
 47
0.0
 47
1.0
 47
0.0
 47
0.0
 47
0.0
 47
0.0
 47
1.0
171
     0
 49
0.0208333333333333
 49
0.0
 49
0.0
 49
0.0
 49
0.0
 49
0.0208333333333333
 49
0.0
 49
0.0
 49
0.0
 49
0.0
 49
1.0
 49
0.0
 49
0.0
 49
0.0
 49
0.0
 49
1.0
175
     0
142
0.0208333333333333
142
0.0
142
0.0
142
0.0
142
0.0
142
0.0208333333333333
142
0.0
142
0.0
142
0.0
142
0.0
142
1.0
142
0.0
142
0.0
142
0.0
142
0.0
142
1.0
179
     0
144
0.0208333333333333
144
0.0
144
0.0
144
0.0
144
0.0
144
0.0208333333333333
144
0.0
144
0.0
144
0.0
144
0.0
144
1.0
144
0.0
144
0.0
144
0.0
144
0.0
144
1.0
147
0.0208333333333333
147
0.0
147
0.0
147
0.0
147
0.0
147
0.0208333333333333
147
0.0
147
0.0
147
0.0
147
0.0
147
1.0
147
0.0
147
0.0
147
0.0
147
0.0
147
1.0
  0
MLEADERSTYLE
  5
67
102
{ACAD_REACTORS
330
66
102
}
330
66
100
AcDbMLeaderStyle
179
     2
170
     2
171
     1
172
     0
 90
        2
 40
0.0
 41
0.0
173
     1
 91
-1056964608
340
5B
 92
       -2
290
     1
 42
0.09
291
     1
 43
0.36
  3
Standard
 44
0.18
300

342
55
174
     1
178
     6
175
     1
176
     0
 93
-1056964608
 45
0.18
292
     0
297
     0
 46
0.18
 94
-1056964608
 47
1.0
 49
1.0
140
1.0
293
     1
141
0.0
294
     1
177
     0
142
1.0
295
     1
296
     0
143
0.125
271
     0
272
     9
273
     9
298
     1
  0
MLINESTYLE
  5
60
102
{ACAD_REACTORS
330
5F
102
}
330
5F
100
AcDbMlineStyle
  2
STANDARD
 70
     0
  3

 62
   256
 51
90.0
 52
90.0
 71
     2
 49
0.5
 62
   256
  6
BYLAYER
 49
-0.5
 62
   256
  6
BYLAYER
  0
ACDBPLACEHOLDER
  5
F
102
{ACAD_REACTORS
330
E
102
}
330
E
  0
SCALE
  5
43
102
{ACAD_REACTORS
330
42
102
}
330
42
100
AcDbScale
 70
     0
300
1:1
140
1.0
141
1.0
290
     1
  0
SCALE
  5
44
102
{ACAD_REACTORS
330
42
102
}
330
42
100
AcDbScale
 70
     0
300
1/128" = 1'-0"
140
0.0078125
141
12.0
290
     0
  0
SCALE
  5
45
102
{ACAD_REACTORS
330
42
102
}
330
42
100
AcDbScale
 70
     0
300
1/64" = 1'-0"
140
0.015625
141
12.0
290
     0
  0
SCALE
  5
46
102
{ACAD_REACTORS
330
42
102
}
330
42
100
AcDbScale
 70
     0
300
1/32" = 1'-0"
140
0.03125
141
12.0
290
     0
  0
SCALE
  5
47
102
{ACAD_REACTORS
330
42
102
}
330
42
100
AcDbScale
 70
     0
300
1/16" = 1'-0"
140
0.0625
141
12.0
290
     0
  0
SCALE
  5
48
102
{ACAD_REACTORS
330
42
102
}
330
42
100
AcDbScale
 70
     0
300
3/32" = 1'-0"
140
0.09375
141
12.0
290
     0
  0
SCALE
  5
49
102
{ACAD_REACTORS
330
42
102
}
330
42
100
AcDbScale
 70
     0
300
1/8" = 1'-0"
140
0.125
141
12.0
290
     0
  0
SCALE
  5
4A
102
{ACAD_REACTORS
330
42
102
}
330
42
100
AcDbScale
 70
     0
300
3/16" = 1'-0"
140
0.1875
141
12.0
290
     0
  0
SCALE
  5
4B
102
{ACAD_REACTORS
330
42
102
}
330
42
100
AcDbScale
 70
     0
300
1/4" = 1'-0"
140
0.25
141
12.0
290
     0
  0
SCALE
  5
4C
102
{ACAD_REACTORS
330
42
102
}
330
42
100
AcDbScale
 70
     0
300
3/8" = 1'-0"
140
0.375
141
12.0
290
     0
  0
SCALE
  5
4D
102
{ACAD_REACTORS
330
42
102
}
330
42
100
AcDbScale
 70
     0
300
1/2" = 1'-0"
140
0.5
141
12.0
290
     0
  0
SCALE
  5
4E
102
{ACAD_REACTORS
330
42
102
}
330
42
100
AcDbScale
 70
     0
300
3/4" = 1'-0"
140
0.75
141
12.0
290
     0
  0
SCALE
  5
4F
102
{ACAD_REACTORS
330
42
102
}
330
42
100
AcDbScale
 70
     0
300
1" = 1'-0"
140
1.0
141
12.0
290
     0
  0
SCALE
  5
50
102
{ACAD_REACTORS
330
42
102
}
330
42
100
AcDbScale
 70
     0
300
1-1/2" = 1'-0"
140
1.5
141
12.0
290
     0
  0
SCALE
  5
51
102
{ACAD_REACTORS
330
42
102
}
330
42
100
AcDbScale
 70
     0
300
3" = 1'-0"
140
3.0
141
12.0
290
     0
  0
SCALE
  5
52
102
{ACAD_REACTORS
330
42
102
}
330
42
100
AcDbScale
 70
     0
300
6" = 1'-0"
140
6.0
141
12.0
290
     0
  0
SCALE
  5
53
102
{ACAD_REACTORS
330
42
102
}
330
42
100
AcDbScale
 70
     0
300
1'-0" = 1'-0"
140
12.0
141
12.0
290
     0
  0
ACDBSECTIONVIEWSTYLE
  5
69
102
{ACAD_REACTORS
330
68
102
}
330
68
100
AcDbModelDocViewStyle
 70
     0
  3
Imperial24
290
     1
300
Imperial24
 90
        0
100
AcDbSectionViewStyle
 70
     0
 71
     0
 90
       78
 71
     1
340
55
 62
   256
 40
0.24
340
0
340
0
 62
   256
 40
0.24
300
I, O, Q, S, X, Z
 40
0.48
 90
        3
 40
0.18
 90
        1
 71
     2
340
5D
 90
       25
 62
   256
340
5D
 90
       50
 62
   256
 40
0.24
 40
0.0
 40
0.24
 71
     3
340
55
 62
   256
 40
0.24
 90
        1
 40
0.75
 90
        1
300
%<\AcVar ViewType \f "%tc1">% %<\AcVar ViewSectionStartId>%-%<\AcVar ViewSectionEndId>%\PSCALE %<\AcVar ViewScale \f "%sn">%
 71
     4
 62
   256
 62
   257
300
ANSI31
 40
1.0
 90
        0
290
     0
290
     0
 90
        6
 40
0.0
 40
1.570796326794896
 40
0.2617993877991494
 40
1.308996938995747
 40
-0.2617993877991494
 40
1.832595714594046
  0
TABLESTYLE
  5
65
102
{ACAD_XDICTIONARY
360
12E
102
}
102
{ACAD_REACTORS
330
64
102
}
330
64
100
AcDbTableStyle
280
     0
  3
Standard
 70
     0
 71
     0
 40
0.06
 41
0.06
280
     0
281
     0
  7
Standard
140
0.18
170
     2
 62
     0
 63
     7
283
     0
 90
      512
 91
        0
  1

274
    -2
284
     1
 64
     0
275
    -2
285
     1
 65
     0
276
    -2
286
     1
 66
     0
277
    -2
287
     1
 67
     0
278
    -2
288
     1
 68
     0
279
    -2
289
     1
 69
     0
  7
Standard
140
0.25
170
     5
 62
     0
 63
     7
283
     0
 90
      512
 91
        0
  1

274
    -2
284
     1
 64
     0
275
    -2
285
     1
 65
     0
276
    -2
286
     1
 66
     0
277
    -2
287
     1
 67
     0
278
    -2
288
     1
 68
     0
279
    -2
289
     1
 69
     0
  7
Standard
140
0.18
170
     5
 62
     0
 63
     7
283
     0
 90
      512
 91
        0
  1

274
    -2
284
     1
 64
     0
275
    -2
285
     1
 65
     0
276
    -2
286
     1
 66
     0
277
    -2
287
     1
 67
     0
278
    -2
288
     1
 68
     0
279
    -2
289
     1
 69
     0
  0
VISUALSTYLE
  5
2F
102
{ACAD_REACTORS
330
29
102
}
330
29
100
AcDbVisualStyle
  2
2dWireframe
 70
     4
177
     3
291
     0
 70
    58
 90
        0
176
     1
 90
        2
176
     1
 90
        0
176
     1
 90
        0
176
     1
 40
0.6
176
     1
 40
30.0
176
     1
 62
     7
420
 16777215
176
     1
 90
        1
176
     1
 90
        4
176
     1
 62
     7
176
     1
 62
   257
176
     1
 90
        1
176
     1
 90
        1
176
     1
 40
1.0
176
     1
 90
        0
176
     1
 62
   257
176
     1
 40
1.0
176
     1
 90
        1
176
     1
 90
        6
176
     1
 90
        2
176
     1
 62
     7
176
     1
 90
        5
176
     1
 90
        0
176
     1
 90
        0
176
     1
290
     0
176
     1
 90
        1
176
     1
 40
0.0
176
     1
 90
        0
176
     1
290
     1
176
     1
290
     1
176
     1
290
     0
176
     1
290
     0
176
     1
290
     0
176
     1
290
     0
176
     1
290
     0
176
     1
290
     0
176
     1
290
     0
176
     1
 90
       50
176
     1
 40
0.0
176
     1
 40
1.0
176
     1
 90
        0
176
     1
 62
    18
420
        0
176
     1
 90
       50
176
     1
 90
        3
176
     1
 62
     5
420
      255
176
     1
290
     0
176
     1
 90
       50
176
     1
 90
       50
176
     1
 90
       50
176
     1
290
     0
176
     1
 90
       50
176
     1
 62
   256
176
     0
 40
1.0
176
     0
 90
        2
176
     1
  1
strokes_ogs.tif
176
     1
290
     0
176
     1
 40
1.0
176
     1
 40
1.0
176
     1
  0
VISUALSTYLE
  5
2E
102
{ACAD_REACTORS
330
29
102
}
330
29
100
AcDbVisualStyle
  2
Basic
 70
     7
177
     3
291
     1
 70
    58
 90
        1
176
     1
 90
        0
176
     1
 90
        1
176
     1
 90
        0
176
     1
 40
0.6
176
     1
 40
30.0
176
     1
 62
     7
420
 16777215
176
     1
 90
        0
176
     1
 90
        4
176
     1
 62
     7
176
     1
 62
   257
176
     1
 90
        1
176
     1
 90
        1
176
     1
 40
1.0
176
     1
 90
        8
176
     1
 62
     7
176
     1
 40
1.0
176
     1
 90
        1
176
     1
 90
        6
176
     1
 90
        2
176
     1
 62
     7
176
     1
 90
        5
176
     1
 90
        0
176
     1
 90
        0
176
     1
290
     0
176
     1
 90
        1
176
     1
 40
0.0
176
     1
 90
        0
176
     1
290
     0
176
     1
290
     1
176
     1
290
     1
176
     1
290
     0
176
     1
290
     0
176
     1
290
     0
176
     1
290
     0
176
     1
290
     0
176
     1
290
     0
176
     1
 90
       50
176
     1
 40
0.0
176
     1
 40
1.0
176
     1
 90
        0
176
     1
 62
    18
420
        0
176
     1
 90
       50
176
     1
 90
        3
176
     1
 62
     5
420
      255
176
     1
290
     0
176
     1
 90
       50
176
     1
 90
       50
176
     1
 90
       50
176
     1
290
     0
176
     1
 90
       50
176
     1
 62
   256
176
     0
 40
1.0
176
     0
 90
        2
176
     1
  1
strokes_ogs.tif
176
     1
290
     0
176
     1
 40
1.0
176
     1
 40
1.0
176
     1
  0
VISUALSTYLE
  5
35
102
{ACAD_REACTORS
330
29
102
}
330
29
100
AcDbVisualStyle
  2
Brighten
 70
    12
177
     3
291
     1
 70
    58
 90
        2
176
     1
 90
        2
176
     1
 90
        0
176
     1
 90
        0
176
     1
 40
0.6
176
     1
 40
30.0
176
     1
 62
     7
420
 16777215
176
     1
 90
        1
176
     1
 90
        4
176
     1
 62
     7
176
     1
 62
   257
176
     1
 90
        1
176
     1
 90
        1
176
     1
 40
1.0
176
     1
 90
        8
176
     1
 62
     7
176
     1
 40
1.0
176
     1
 90
        1
176
     1
 90
        6
176
     1
 90
        2
176
     1
 62
     7
176
     1
 90
        5
176
     1
 90
        0
176
     1
 90
        0
176
     1
290
     0
176
     1
 90
        1
176
     1
 40
50.0
176
     1
 90
        0
176
     1
290
     0
176
     1
290
     1
176
     1
290
     1
176
     1
290
     0
176
     1
290
     0
176
     1
290
     0
176
     1
290
     0
176
     1
290
     0
176
     1
290
     0
176
     1
 90
       50
176
     1
 40
0.0
176
     1
 40
1.0
176
     1
 90
        0
176
     1
 62
    18
420
        0
176
     1
 90
       50
176
     1
 90
        3
176
     1
 62
     5
420
      255
176
     1
290
     0
176
     1
 90
       50
176
     1
 90
       50
176
     1
 90
       50
176
     1
290
     0
176
     1
 90
       50
176
     1
 62
   256
176
     0
 40
1.0
176
     0
 90
        2
176
     1
  1
strokes_ogs.tif
176
     1
290
     0
176
     1
 40
1.0
176
     1
 40
1.0
176
     1
  0
VISUALSTYLE
  5
39
102
{ACAD_REACTORS
330
29
102
}
330
29
100
AcDbVisualStyle
  2
ColorChange
 70
    16
177
     3
291
     1
 70
    58
 90
        2
176
     1
 90
        2
176
     1
 90
        3
176
     1
 90
        0
176
     1
 40
0.6
176
     1
 40
30.0
176
     1
 62
     8
420
  8421504
176
     1
 90
        1
176
     1
 90
        4
176
     1
 62
     7
176
     1
 62
   257
176
     1
 90
        1
176
     1
 90
        1
176
     1
 40
1.0
176
     1
 90
        8
176
     1
 62
     8
420
  8421504
176
     1
 40
1.0
176
     1
 90
        1
176
     1
 90
        6
176
     1
 90
        2
176
     1
 62
     7
176
     1
 90
        5
176
     1
 90
        0
176
     1
 90
        0
176
     1
290
     0
176
     1
 90
        1
176
     1
 40
0.0
176
     1
 90
        0
176
     1
290
     0
176
     1
290
     1
176
     1
290
     1
176
     1
290
     0
176
     1
290
     0
176
     1
290
     0
176
     1
290
     0
176
     1
290
     0
176
     1
290
     0
176
     1
 90
       50
176
     1
 40
0.0
176
     1
 40
1.0
176
     1
 90
        0
176
     1
 62
    18
420
        0
176
     1
 90
       50
176
     1
 90
        3
176
     1
 62
     5
420
      255
176
     1
290
     0
176
     1
 90
       50
176
     1
 90
       50
176
     1
 90
       50
176
     1
290
     0
176
     1
 90
       50
176
     1
 62
   256
176
     0
 40
1.0
176
     0
 90
        2
176
     1
  1
strokes_ogs.tif
176
     1
290
     0
176
     1
 40
1.0
176
     1
 40
1.0
176
     1
  0
VISUALSTYLE
  5
32
102
{ACAD_REACTORS
330
29
102
}
330
29
100
AcDbVisualStyle
  2
Conceptual
 70
     9
177
     3
291
     0
 70
    58
 90
        3
176
     1
 90
        2
176
     1
 90
        0
176
     1
 90
        0
176
     1
 40
0.6
176
     1
 40
30.0
176
     1
 62
     7
420
 16777215
176
     1
 90
        2
176
     1
 90
        2
176
     1
 62
     7
176
     1
 62
   257
176
     1
 90
        1
176
     1
 90
        1
176
     1
 40
179.0
176
     1
 90
        8
176
     1
 62
     7
176
     1
 40
1.0
176
     1
 90
        1
176
     1
 90
        6
176
     1
 90
        2
176
     1
 62
     7
176
     1
 90
        3
176
     1
 90
        0
176
     1
 90
        0
176
     1
290
     0
176
     1
 90
        1
176
     1
 40
0.0
176
     1
 90
        0
176
     1
290
     0
176
     1
290
     1
176
     1
290
     1
176
     1
290
     0
176
     1
290
     0
176
     1
290
     0
176
     1
290
     0
176
     1
290
     0
176
     1
290
     0
176
     1
 90
       50
176
     1
 40
0.0
176
     1
 40
1.0
176
     1
 90
        0
176
     1
 62
    18
420
        0
176
     1
 90
       50
176
     1
 90
        3
176
     1
 62
     5
420
      255
176
     1
290
     0
176
     1
 90
       50
176
     1
 90
       50
176
     1
 90
       50
176
     1
290
     0
176
     1
 90
       50
176
     1
 62
   256
176
     0
 40
1.0
176
     0
 90
        2
176
     1
  1
strokes_ogs.tif
176
     1
290
     0
176
     1
 40
1.0
176
     1
 40
1.0
176
     1
  0
VISUALSTYLE
  5
34
102
{ACAD_REACTORS
330
29
102
}
330
29
100
AcDbVisualStyle
  2
Dim
 70
    11
177
     3
291
     1
 70
    58
 90
        2
176
     1
 90
        2
176
     1
 90
        0
176
     1
 90
        0
176
     1
 40
0.6
176
     1
 40
30.0
176
     1
 62
     7
420
 16777215
176
     1
 90
        1
176
     1
 90
        4
176
     1
 62
     7
176
     1
 62
   257
176
     1
 90
        1
176
     1
 90
        1
176
     1
 40
1.0
176
     1
 90
        8
176
     1
 62
     7
176
     1
 40
1.0
176
     1
 90
        1
176
     1
 90
        6
176
     1
 90
        2
176
     1
 62
     7
176
     1
 90
        5
176
     1
 90
        0
176
     1
 90
        0
176
     1
290
     0
176
     1
 90
        1
176
     1
 40
-50.0
176
     1
 90
        0
176
     1
290
     0
176
     1
290
     1
176
     1
290
     1
176
     1
290
     0
176
     1
290
     0
176
     1
290
     0
176
     1
290
     0
176
     1
290
     0
176
     1
290
     0
176
     1
 90
       50
176
     1
 40
0.0
176
     1
 40
1.0
176
     1
 90
        0
176
     1
 62
    18
420
        0
176
     1
 90
       50
176
     1
 90
        3
176
     1
 62
     5
420
      255
176
     1
290
     0
176
     1
 90
       50
176
     1
 90
       50
176
     1
 90
       50
176
     1
290
     0
176
     1
 90
       50
176
     1
 62
   256
176
     0
 40
1.0
176
     0
 90
        2
176
     1
  1
strokes_ogs.tif
176
     1
290
     0
176
     1
 40
1.0
176
     1
 40
1.0
176
     1
  0
VISUALSTYLE
  5
41
102
{ACAD_REACTORS
330
29
102
}
330
29
100
AcDbVisualStyle
  2
EdgeColorOff
 70
    22
177
     3
291
     1
 70
    58
 90
        2
176
     0
 90
        2
176
     0
 90
        0
176
     0
 90
        0
176
     0
 40
0.6
176
     0
 40
30.0
176
     0
 62
     7
420
 16777215
176
     0
 90
        1
176
     0
 90
        4
176
     0
 62
     7
176
     0
 62
   257
176
     0
 90
        1
176
     0
 90
        1
176
     0
 40
1.0
176
     0
 90
        8
176
     2
 62
     7
176
     0
 40
1.0
176
     0
 90
        1
176
     0
 90
        6
176
     0
 90
        2
176
     0
 62
     7
176
     0
 90
        5
176
     0
 90
        0
176
     0
 90
        0
176
     0
290
     0
176
     0
 90
        1
176
     0
 40
0.0
176
     0
 90
        0
176
     0
290
     0
176
     0
290
     1
176
     0
290
     1
176
     0
290
     0
176
     0
290
     0
176
     0
290
     0
176
     0
290
     0
176
     0
290
     0
176
     0
290
     0
176
     0
 90
       50
176
     0
 40
0.0
176
     0
 40
1.0
176
     0
 90
        0
176
     0
 62
    18
420
        0
176
     0
 90
       50
176
     0
 90
        3
176
     0
 62
     5
420
      255
176
     0
290
     0
176
     0
 90
       50
176
     0
 90
       50
176
     0
 90
       50
176
     0
290
     0
176
     0
 90
       50
176
     0
 62
   256
176
     0
 40
1.0
176
     0
 90
        2
176
     0
  1
strokes_ogs.tif
176
     0
290
     0
176
     0
 40
1.0
176
     0
 40
1.0
176
     0
  0
VISUALSTYLE
  5
38
102
{ACAD_REACTORS
330
29
102
}
330
29
100
AcDbVisualStyle
  2
Facepattern
 70
    15
177
     3
291
     1
 70
    58
 90
        2
176
     1
 90
        2
176
     1
 90
        0
176
     1
 90
        0
176
     1
 40
0.6
176
     1
 40
30.0
176
     1
 62
     7
420
 16777215
176
     1
 90
        1
176
     1
 90
        4
176
     1
 62
     7
176
     1
 62
   257
176
     1
 90
        1
176
     1
 90
        1
176
     1
 40
1.0
176
     1
 90
        8
176
     1
 62
     7
176
     1
 40
1.0
176
     1
 90
        1
176
     1
 90
        6
176
     1
 90
        2
176
     1
 62
     7
176
     1
 90
        5
176
     1
 90
        0
176
     1
 90
        0
176
     1
290
     0
176
     1
 90
        1
176
     1
 40
0.0
176
     1
 90
        0
176
     1
290
     0
176
     1
290
     1
176
     1
290
     1
176
     1
290
     0
176
     1
290
     0
176
     1
290
     0
176
     1
290
     0
176
     1
290
     0
176
     1
290
     0
176
     1
 90
       50
176
     1
 40
0.0
176
     1
 40
1.0
176
     1
 90
        0
176
     1
 62
    18
420
        0
176
     1
 90
       50
176
     1
 90
        3
176
     1
 62
     5
420
      255
176
     1
290
     0
176
     1
 90
       50
176
     1
 90
       50
176
     1
 90
       50
176
     1
290
     0
176
     1
 90
       50
176
     1
 62
   256
176
     0
 40
1.0
176
     0
 90
        2
176
     1
  1
strokes_ogs.tif
176
     1
290
     0
176
     1
 40
1.0
176
     1
 40
1.0
176
     1
  0
VISUALSTYLE
  5
2A
102
{ACAD_REACTORS
330
29
102
}
330
29
100
AcDbVisualStyle
  2
Flat
 70
     0
177
     3
291
     1
 70
    58
 90
        2
176
     1
 90
        1
176
     1
 90
        1
176
     1
 90
        2
176
     1
 40
0.6
176
     1
 40
30.0
176
     1
 62
     7
420
 16777215
176
     1
 90
        0
176
     1
 90
        0
176
     1
 62
     7
176
     1
 62
   257
176
     1
 90
        1
176
     1
 90
        1
176
     1
 40
1.0
176
     1
 90
        8
176
     1
 62
     7
176
     1
 40
1.0
176
     1
 90
        1
176
     1
 90
        6
176
     1
 90
        2
176
     1
 62
     7
176
     1
 90
        5
176
     1
 90
        0
176
     1
 90
        0
176
     1
290
     0
176
     1
 90
       13
176
     1
 40
0.0
176
     1
 90
        0
176
     1
290
     0
176
     1
290
     1
176
     1
290
     1
176
     1
290
     0
176
     1
290
     0
176
     1
290
     0
176
     1
290
     0
176
     1
290
     0
176
     1
290
     0
176
     1
 90
       50
176
     1
 40
0.0
176
     1
 40
1.0
176
     1
 90
        0
176
     1
 62
    18
420
        0
176
     1
 90
       50
176
     1
 90
        3
176
     1
 62
     5
420
      255
176
     1
290
     0
176
     1
 90
       50
176
     1
 90
       50
176
     1
 90
       50
176
     1
290
     0
176
     1
 90
       50
176
     1
 62
   256
176
     0
 40
1.0
176
     0
 90
        2
176
     1
  1
strokes_ogs.tif
176
     1
290
     0
176
     1
 40
1.0
176
     1
 40
1.0
176
     1
  0
VISUALSTYLE
  5
2B
102
{ACAD_REACTORS
330
29
102
}
330
29
100
AcDbVisualStyle
  2
FlatWithEdges
 70
     1
177
     3
291
     1
 70
    58
 90
        2
176
     1
 90
        1
176
     1
 90
        1
176
     1
 90
        2
176
     1
 40
0.6
176
     1
 40
30.0
176
     1
 62
     7
420
 16777215
176
     1
 90
        1
176
     1
 90
        0
176
     1
 62
     7
176
     1
 62
   257
176
     1
 90
        1
176
     1
 90
        1
176
     1
 40
1.0
176
     1
 90
        0
176
     1
 62
   257
176
     1
 40
1.0
176
     1
 90
        1
176
     1
 90
        6
176
     1
 90
        2
176
     1
 62
     7
176
     1
 90
        5
176
     1
 90
        0
176
     1
 90
        0
176
     1
290
     0
176
     1
 90
       13
176
     1
 40
0.0
176
     1
 90
        0
176
     1
290
     0
176
     1
290
     1
176
     1
290
     1
176
     1
290
     0
176
     1
290
     0
176
     1
290
     0
176
     1
290
     0
176
     1
290
     0
176
     1
290
     0
176
     1
 90
       50
176
     1
 40
0.0
176
     1
 40
1.0
176
     1
 90
        0
176
     1
 62
    18
420
        0
176
     1
 90
       50
176
     1
 90
        3
176
     1
 62
     5
420
      255
176
     1
290
     0
176
     1
 90
       50
176
     1
 90
       50
176
     1
 90
       50
176
     1
290
     0
176
     1
 90
       50
176
     1
 62
   256
176
     0
 40
1.0
176
     0
 90
        2
176
     1
  1
strokes_ogs.tif
176
     1
290
     0
176
     1
 40
1.0
176
     1
 40
1.0
176
     1
  0
VISUALSTYLE
  5
2C
102
{ACAD_REACTORS
330
29
102
}
330
29
100
AcDbVisualStyle
  2
Gouraud
 70
     2
177
     3
291
     1
 70
    58
 90
        2
176
     1
 90
        2
176
     1
 90
        1
176
     1
 90
        2
176
     1
 40
0.6
176
     1
 40
30.0
176
     1
 62
     7
420
 16777215
176
     1
 90
        0
176
     1
 90
        0
176
     1
 62
     7
176
     1
 62
   257
176
     1
 90
        1
176
     1
 90
        1
176
     1
 40
1.0
176
     1
 90
        0
176
     1
 62
     7
176
     1
 40
1.0
176
     1
 90
        1
176
     1
 90
        6
176
     1
 90
        2
176
     1
 62
     7
176
     1
 90
        5
176
     1
 90
        0
176
     1
 90
        0
176
     1
290
     0
176
     1
 90
       13
176
     1
 40
0.0
176
     1
 90
        0
176
     1
290
     0
176
     1
290
     1
176
     1
290
     1
176
     1
290
     0
176
     1
290
     0
176
     1
290
     0
176
     1
290
     0
176
     1
290
     0
176
     1
290
     0
176
     1
 90
       50
176
     1
 40
0.0
176
     1
 40
1.0
176
     1
 90
        0
176
     1
 62
    18
420
        0
176
     1
 90
       50
176
     1
 90
        3
176
     1
 62
     5
420
      255
176
     1
290
     0
176
     1
 90
       50
176
     1
 90
       50
176
     1
 90
       50
176
     1
290
     0
176
     1
 90
       50
176
     1
 62
   256
176
     0
 40
1.0
176
     0
 90
        2
176
     1
  1
strokes_ogs.tif
176
     1
290
     0
176
     1
 40
1.0
176
     1
 40
1.0
176
     1
  0
VISUALSTYLE
  5
2D
102
{ACAD_REACTORS
330
29
102
}
330
29
100
AcDbVisualStyle
  2
GouraudWithEdges
 70
     3
177
     3
291
     1
 70
    58
 90
        2
176
     1
 90
        2
176
     1
 90
        1
176
     1
 90
        2
176
     1
 40
0.6
176
     1
 40
30.0
176
     1
 62
     7
420
 16777215
176
     1
 90
        1
176
     1
 90
        0
176
     1
 62
     7
176
     1
 62
   257
176
     1
 90
        1
176
     1
 90
        1
176
     1
 40
1.0
176
     1
 90
        0
176
     1
 62
   257
176
     1
 40
1.0
176
     1
 90
        1
176
     1
 90
        6
176
     1
 90
        2
176
     1
 62
     7
176
     1
 90
        5
176
     1
 90
        0
176
     1
 90
        0
176
     1
290
     0
176
     1
 90
       13
176
     1
 40
0.0
176
     1
 90
        0
176
     1
290
     0
176
     1
290
     1
176
     1
290
     1
176
     1
290
     0
176
     1
290
     0
176
     1
290
     0
176
     1
290
     0
176
     1
290
     0
176
     1
290
     0
176
     1
 90
       50
176
     1
 40
0.0
176
     1
 40
1.0
176
     1
 90
        0
176
     1
 62
    18
420
        0
176
     1
 90
       50
176
     1
 90
        3
176
     1
 62
     5
420
      255
176
     1
290
     0
176
     1
 90
       50
176
     1
 90
       50
176
     1
 90
       50
176
     1
290
     0
176
     1
 90
       50
176
     1
 62
   256
176
     0
 40
1.0
176
     0
 90
        2
176
     1
  1
strokes_ogs.tif
176
     1
290
     0
176
     1
 40
1.0
176
     1
 40
1.0
176
     1
  0
VISUALSTYLE
  5
31
102
{ACAD_REACTORS
330
29
102
}
330
29
100
AcDbVisualStyle
  2
Hidden
 70
     6
177
     3
291
     0
 70
    58
 90
        1
176
     1
 90
        2
176
     1
 90
        2
176
     1
 90
        0
176
     1
 40
0.6
176
     1
 40
30.0
176
     1
 62
     7
420
 16777215
176
     1
 90
        2
176
     1
 90
        2
176
     1
 62
     7
176
     1
 62
   257
176
     1
 90
        2
176
     1
 90
        1
176
     1
 40
40.0
176
     1
 90
        0
176
     1
 62
   257
176
     1
 40
1.0
176
     1
 90
        1
176
     1
 90
        6
176
     1
 90
        2
176
     1
 62
     7
176
     1
 90
        3
176
     1
 90
        0
176
     1
 90
        0
176
     1
290
     0
176
     1
 90
        1
176
     1
 40
0.0
176
     1
 90
        0
176
     1
290
     0
176
     1
290
     1
176
     1
290
     1
176
     1
290
     0
176
     1
290
     0
176
     1
290
     0
176
     1
290
     0
176
     1
290
     0
176
     1
290
     0
176
     1
 90
       50
176
     1
 40
0.0
176
     1
 40
1.0
176
     1
 90
        0
176
     1
 62
    18
420
        0
176
     1
 90
       50
176
     1
 90
        3
176
     1
 62
     5
420
      255
176
     1
290
     0
176
     1
 90
       50
176
     1
 90
       50
176
     1
 90
       50
176
     1
290
     0
176
     1
 90
       50
176
     1
 62
   256
176
     0
 40
1.0
176
     0
 90
        2
176
     1
  1
strokes_ogs.tif
176
     1
290
     0
176
     1
 40
1.0
176
     1
 40
1.0
176
     1
  0
VISUALSTYLE
  5
3F
102
{ACAD_REACTORS
330
29
102
}
330
29
100
AcDbVisualStyle
  2
JitterOff
 70
    20
177
     3
291
     1
 70
    58
 90
        2
176
     0
 90
        2
176
     0
 90
        0
176
     0
 90
        0
176
     0
 40
0.6
176
     0
 40
30.0
176
     0
 62
     7
420
 16777215
176
     0
 90
        1
176
     0
 90
        4
176
     0
 62
     7
176
     0
 62
   257
176
     0
 90
        1
176
     0
 90
        1
176
     0
 40
1.0
176
     0
 90
       10
176
     2
 62
     7
176
     0
 40
1.0
176
     0
 90
        1
176
     0
 90
        6
176
     0
 90
        2
176
     0
 62
     7
176
     0
 90
        5
176
     0
 90
        0
176
     0
 90
        0
176
     0
290
     0
176
     0
 90
        1
176
     0
 40
0.0
176
     0
 90
        0
176
     0
290
     0
176
     0
290
     1
176
     0
290
     1
176
     0
290
     0
176
     0
290
     0
176
     0
290
     0
176
     0
290
     0
176
     0
290
     0
176
     0
290
     0
176
     0
 90
       50
176
     0
 40
0.0
176
     0
 40
1.0
176
     0
 90
        0
176
     0
 62
    18
420
        0
176
     0
 90
       50
176
     0
 90
        3
176
     0
 62
     5
420
      255
176
     0
290
     0
176
     0
 90
       50
176
     0
 90
       50
176
     0
 90
       50
176
     0
290
     0
176
     0
 90
       50
176
     0
 62
   256
176
     0
 40
1.0
176
     0
 90
        2
176
     0
  1
strokes_ogs.tif
176
     0
290
     0
176
     0
 40
1.0
176
     0
 40
1.0
176
     0
  0
VISUALSTYLE
  5
37
102
{ACAD_REACTORS
330
29
102
}
330
29
100
AcDbVisualStyle
  2
Linepattern
 70
    14
177
     3
291
     1
 70
    58
 90
        2
176
     1
 90
        2
176
     1
 90
        0
176
     1
 90
        0
176
     1
 40
0.6
176
     1
 40
30.0
176
     1
 62
     7
420
 16777215
176
     1
 90
        1
176
     1
 90
        4
176
     1
 62
     7
176
     1
 62
   257
176
     1
 90
        7
176
     1
 90
        7
176
     1
 40
1.0
176
     1
 90
        8
176
     1
 62
     7
176
     1
 40
1.0
176
     1
 90
        1
176
     1
 90
        6
176
     1
 90
        2
176
     1
 62
     7
176
     1
 90
        5
176
     1
 90
        0
176
     1
 90
        0
176
     1
290
     0
176
     1
 90
        1
176
     1
 40
0.0
176
     1
 90
        0
176
     1
290
     0
176
     1
290
     1
176
     1
290
     1
176
     1
290
     0
176
     1
290
     0
176
     1
290
     0
176
     1
290
     0
176
     1
290
     0
176
     1
290
     0
176
     1
 90
       50
176
     1
 40
0.0
176
     1
 40
1.0
176
     1
 90
        0
176
     1
 62
    18
420
        0
176
     1
 90
       50
176
     1
 90
        3
176
     1
 62
     5
420
      255
176
     1
290
     0
176
     1
 90
       50
176
     1
 90
       50
176
     1
 90
       50
176
     1
290
     0
176
     1
 90
       50
176
     1
 62
   256
176
     0
 40
1.0
176
     0
 90
        2
176
     1
  1
strokes_ogs.tif
176
     1
290
     0
176
     1
 40
1.0
176
     1
 40
1.0
176
     1
  0
VISUALSTYLE
  5
40
102
{ACAD_REACTORS
330
29
102
}
330
29
100
AcDbVisualStyle
  2
OverhangOff
 70
    21
177
     3
291
     1
 70
    58
 90
        2
176
     0
 90
        2
176
     0
 90
        0
176
     0
 90
        0
176
     0
 40
0.6
176
     0
 40
30.0
176
     0
 62
     7
420
 16777215
176
     0
 90
        1
176
     0
 90
        4
176
     0
 62
     7
176
     0
 62
   257
176
     0
 90
        1
176
     0
 90
        1
176
     0
 40
1.0
176
     0
 90
        9
176
     2
 62
     7
176
     0
 40
1.0
176
     0
 90
        1
176
     0
 90
        6
176
     0
 90
        2
176
     0
 62
     7
176
     0
 90
        5
176
     0
 90
        0
176
     0
 90
        0
176
     0
290
     0
176
     0
 90
        1
176
     0
 40
0.0
176
     0
 90
        0
176
     0
290
     0
176
     0
290
     1
176
     0
290
     1
176
     0
290
     0
176
     0
290
     0
176
     0
290
     0
176
     0
290
     0
176
     0
290
     0
176
     0
290
     0
176
     0
 90
       50
176
     0
 40
0.0
176
     0
 40
1.0
176
     0
 90
        0
176
     0
 62
    18
420
        0
176
     0
 90
       50
176
     0
 90
        3
176
     0
 62
     5
420
      255
176
     0
290
     0
176
     0
 90
       50
176
     0
 90
       50
176
     0
 90
       50
176
     0
290
     0
176
     0
 90
       50
176
     0
 62
   256
176
     0
 40
1.0
176
     0
 90
        2
176
     0
  1
strokes_ogs.tif
176
     0
290
     0
176
     0
 40
1.0
176
     0
 40
1.0
176
     0
  0
VISUALSTYLE
  5
33
102
{ACAD_REACTORS
330
29
102
}
330
29
100
AcDbVisualStyle
  2
Realistic
 70
     8
177
     3
291
     0
 70
    58
 90
        2
176
     1
 90
        3
176
     1
 90
        0
176
     1
 90
        2
176
     1
 40
0.6
176
     1
 40
30.0
176
     1
 62
     7
420
 16777215
176
     1
 90
        0
176
     1
 90
        0
176
     1
 62
     7
176
     1
 62
   257
176
     1
 90
        1
176
     1
 90
        1
176
     1
 40
1.0
176
     1
 90
        8
176
     1
 62
   257
176
     1
 40
1.0
176
     1
 90
        1
176
     1
 90
        6
176
     1
 90
        2
176
     1
 62
     7
176
     1
 90
        3
176
     1
 90
        0
176
     1
 90
        0
176
     1
290
     0
176
     1
 90
       13
176
     1
 40
0.0
176
     1
 90
        0
176
     1
290
     0
176
     1
290
     1
176
     1
290
     1
176
     1
290
     0
176
     1
290
     0
176
     1
290
     0
176
     1
290
     0
176
     1
290
     0
176
     1
290
     0
176
     1
 90
       50
176
     1
 40
0.0
176
     1
 40
1.0
176
     1
 90
        0
176
     1
 62
    18
420
        0
176
     1
 90
       50
176
     1
 90
        3
176
     1
 62
     5
420
      255
176
     1
290
     0
176
     1
 90
       50
176
     1
 90
       50
176
     1
 90
       50
176
     1
290
     0
176
     1
 90
       50
176
     1
 62
   256
176
     0
 40
1.0
176
     0
 90
        2
176
     1
  1
strokes_ogs.tif
176
     1
290
     0
176
     1
 40
1.0
176
     1
 40
1.0
176
     1
  0
VISUALSTYLE
  5
3E
102
{ACAD_REACTORS
330
29
102
}
330
29
100
AcDbVisualStyle
  2
Shaded
 70
    27
177
     3
291
     0
 70
    58
 90
        2
176
     1
 90
        2
176
     1
 90
        1
176
     1
 90
        2
176
     1
 40
0.6
176
     1
 40
30.0
176
     1
 62
     7
420
 16777215
176
     1
 90
        0
176
     1
 90
        4
176
     1
 62
     7
176
     1
 62
   257
176
     1
 90
        1
176
     1
 90
        1
176
     1
 40
1.0
176
     1
 90
        8
176
     1
 62
   257
176
     1
 40
1.0
176
     1
 90
        1
176
     1
 90
        6
176
     1
 90
        2
176
     1
 62
     8
420
  7895160
176
     1
 90
        3
176
     1
 90
        0
176
     1
 90
        0
176
     1
290
     0
176
     1
 90
        5
176
     1
 40
0.0
176
     1
 90
        0
176
     1
290
     0
176
     1
290
     1
176
     1
290
     1
176
     1
290
     0
176
     1
290
     0
176
     1
290
     0
176
     1
290
     0
176
     1
290
     0
176
     1
290
     0
176
     1
 90
       50
176
     1
 40
0.0
176
     1
 40
1.0
176
     1
 90
        0
176
     1
 62
    18
420
        0
176
     1
 90
       50
176
     1
 90
        3
176
     1
 62
     5
420
      255
176
     1
290
     0
176
     1
 90
       50
176
     1
 90
       50
176
     1
 90
       50
176
     1
290
     0
176
     1
 90
       50
176
     1
 62
   256
176
     0
 40
1.0
176
     0
 90
        2
176
     1
  1
strokes_ogs.tif
176
     1
290
     0
176
     1
 40
1.0
176
     1
 40
1.0
176
     1
  0
VISUALSTYLE
  5
3D
102
{ACAD_REACTORS
330
29
102
}
330
29
100
AcDbVisualStyle
  2
Shaded with edges
 70
    26
177
     3
291
     0
 70
    58
 90
        2
176
     1
 90
        2
176
     1
 90
        1
176
     1
 90
        2
176
     1
 40
0.6
176
     1
 40
30.0
176
     1
 62
     7
420
 16777215
176
     1
 90
        1
176
     1
 90
        2
176
     1
 62
     7
176
     1
 62
   257
176
     1
 90
        2
176
     1
 90
        1
176
     1
 40
1.0
176
     1
 90
        8
176
     1
 62
   257
176
     1
 40
1.0
176
     1
 90
        1
176
     1
 90
        6
176
     1
 90
        2
176
     1
 62
     7
176
     1
 90
        3
176
     1
 90
        0
176
     1
 90
        0
176
     1
290
     0
176
     1
 90
        5
176
     1
 40
0.0
176
     1
 90
        0
176
     1
290
     0
176
     1
290
     1
176
     1
290
     1
176
     1
290
     0
176
     1
290
     0
176
     1
290
     0
176
     1
290
     0
176
     1
290
     0
176
     1
290
     0
176
     1
 90
       50
176
     1
 40
0.0
176
     1
 40
1.0
176
     1
 90
        0
176
     1
 62
    18
420
        0
176
     1
 90
       50
176
     1
 90
        3
176
     1
 62
     5
420
      255
176
     1
290
     0
176
     1
 90
       50
176
     1
 90
       50
176
     1
 90
       50
176
     1
290
     0
176
     1
 90
       50
176
     1
 62
   256
176
     0
 40
1.0
176
     0
 90
        2
176
     1
  1
strokes_ogs.tif
176
     1
290
     0
176
     1
 40
1.0
176
     1
 40
1.0
176
     1
  0
VISUALSTYLE
  5
3A
102
{ACAD_REACTORS
330
29
102
}
330
29
100
AcDbVisualStyle
  2
Shades of Gray
 70
    23
177
     3
291
     0
 70
    58
 90
        2
176
     1
 90
        2
176
     1
 90
        3
176
     1
 90
        0
176
     1
 40
0.6
176
     1
 40
30.0
176
     1
 62
     7
420
 16777215
176
     1
 90
        2
176
     1
 90
        2
176
     1
 62
     7
176
     1
 62
     7
176
     1
 90
        1
176
     1
 90
        1
176
     1
 40
40.0
176
     1
 90
        8
176
     1
 62
     7
176
     1
 40
1.0
176
     1
 90
        1
176
     1
 90
        6
176
     1
 90
        2
176
     1
 62
     7
176
     1
 90
        3
176
     1
 90
        0
176
     1
 90
        0
176
     1
290
     0
176
     1
 90
        1
176
     1
 40
0.0
176
     1
 90
        0
176
     1
290
     0
176
     1
290
     1
176
     1
290
     1
176
     1
290
     0
176
     1
290
     0
176
     1
290
     0
176
     1
290
     0
176
     1
290
     0
176
     1
290
     0
176
     1
 90
       50
176
     1
 40
0.0
176
     1
 40
1.0
176
     1
 90
        0
176
     1
 62
    18
420
        0
176
     1
 90
       50
176
     1
 90
        3
176
     1
 62
     5
420
      255
176
     1
290
     0
176
     1
 90
       50
176
     1
 90
       50
176
     1
 90
       50
176
     1
290
     0
176
     1
 90
       50
176
     1
 62
   256
176
     0
 40
1.0
176
     0
 90
        2
176
     1
  1
strokes_ogs.tif
176
     1
290
     0
176
     1
 40
1.0
176
     1
 40
1.0
176
     1
  0
VISUALSTYLE
  5
3B
102
{ACAD_REACTORS
330
29
102
}
330
29
100
AcDbVisualStyle
  2
Sketchy
 70
    24
177
     3
291
     0
 70
    58
 90
        1
176
     1
 90
        2
176
     1
 90
        2
176
     1
 90
        0
176
     1
 40
0.6
176
     1
 40
30.0
176
     1
 62
     7
420
 16777215
176
     1
 90
        2
176
     1
 90
        2
176
     1
 62
     7
176
     1
 62
     7
176
     1
 90
        1
176
     1
 90
        1
176
     1
 40
40.0
176
     1
 90
       11
176
     1
 62
     7
176
     1
 40
1.0
176
     1
 90
        1
176
     1
 90
        6
176
     1
 90
        2
176
     1
 62
     7
176
     1
 90
        6
176
     1
 90
        0
176
     1
 90
        0
176
     1
290
     0
176
     1
 90
        1
176
     1
 40
0.0
176
     1
 90
        0
176
     1
290
     0
176
     1
290
     1
176
     1
290
     1
176
     1
290
     0
176
     1
290
     0
176
     1
290
     0
176
     1
290
     0
176
     1
290
     0
176
     1
290
     0
176
     1
 90
       50
176
     1
 40
0.0
176
     1
 40
1.0
176
     1
 90
        0
176
     1
 62
    18
420
        0
176
     1
 90
       50
176
     1
 90
        3
176
     1
 62
     5
420
      255
176
     1
290
     0
176
     1
 90
       50
176
     1
 90
       50
176
     1
 90
       50
176
     1
290
     0
176
     1
 90
       50
176
     1
 62
   256
176
     0
 40
1.0
176
     0
 90
        2
176
     1
  1
strokes_ogs.tif
176
     1
290
     0
176
     1
 40
1.0
176
     1
 40
1.0
176
     1
  0
VISUALSTYLE
  5
36
102
{ACAD_REACTORS
330
29
102
}
330
29
100
AcDbVisualStyle
  2
Thicken
 70
    13
177
     3
291
     1
 70
    58
 90
        2
176
     1
 90
        2
176
     1
 90
        0
176
     1
 90
        0
176
     1
 40
0.6
176
     1
 40
30.0
176
     1
 62
     7
420
 16777215
176
     1
 90
        1
176
     1
 90
        4
176
     1
 62
     7
176
     1
 62
   257
176
     1
 90
        1
176
     1
 90
        1
176
     1
 40
1.0
176
     1
 90
       12
176
     1
 62
     7
176
     1
 40
1.0
176
     1
 90
        1
176
     1
 90
        6
176
     1
 90
        2
176
     1
 62
     7
176
     1
 90
        5
176
     1
 90
        0
176
     1
 90
        0
176
     1
290
     0
176
     1
 90
        1
176
     1
 40
0.0
176
     1
 90
        0
176
     1
290
     0
176
     1
290
     1
176
     1
290
     1
176
     1
290
     0
176
     1
290
     0
176
     1
290
     0
176
     1
290
     0
176
     1
290
     0
176
     1
290
     0
176
     1
 90
       50
176
     1
 40
0.0
176
     1
 40
1.0
176
     1
 90
        0
176
     1
 62
    18
420
        0
176
     1
 90
       50
176
     1
 90
        3
176
     1
 62
     5
420
      255
176
     1
290
     0
176
     1
 90
       50
176
     1
 90
       50
176
     1
 90
       50
176
     1
290
     0
176
     1
 90
       50
176
     1
 62
   256
176
     0
 40
1.0
176
     0
 90
        2
176
     1
  1
strokes_ogs.tif
176
     1
290
     0
176
     1
 40
1.0
176
     1
 40
1.0
176
     1
  0
VISUALSTYLE
  5
30
102
{ACAD_REACTORS
330
29
102
}
330
29
100
AcDbVisualStyle
  2
Wireframe
 70
     5
177
     3
291
     0
 70
    58
 90
        0
176
     1
 90
        2
176
     1
 90
        0
176
     1
 90
        0
176
     1
 40
0.6
176
     1
 40
30.0
176
     1
 62
     7
420
 16777215
176
     1
 90
        1
176
     1
 90
        4
176
     1
 62
     7
176
     1
 62
   257
176
     1
 90
        1
176
     1
 90
        1
176
     1
 40
1.0
176
     1
 90
        0
176
     1
 62
   257
176
     1
 40
1.0
176
     1
 90
        1
176
     1
 90
        6
176
     1
 90
        2
176
     1
 62
     7
176
     1
 90
        3
176
     1
 90
        0
176
     1
 90
        0
176
     1
290
     0
176
     1
 90
        1
176
     1
 40
0.0
176
     1
 90
        0
176
     1
290
     0
176
     1
290
     1
176
     1
290
     1
176
     1
290
     0
176
     1
290
     0
176
     1
290
     0
176
     1
290
     0
176
     1
290
     0
176
     1
290
     0
176
     1
 90
       50
176
     1
 40
0.0
176
     1
 40
1.0
176
     1
 90
        0
176
     1
 62
    18
420
        0
176
     1
 90
       50
176
     1
 90
        3
176
     1
 62
     5
420
      255
176
     1
290
     0
176
     1
 90
       50
176
     1
 90
       50
176
     1
 90
       50
176
     1
290
     0
176
     1
 90
       50
176
     1
 62
   256
176
     0
 40
1.0
176
     0
 90
        2
176
     1
  1
strokes_ogs.tif
176
     1
290
     0
176
     1
 40
1.0
176
     1
 40
1.0
176
     1
  0
VISUALSTYLE
  5
3C
102
{ACAD_REACTORS
330
29
102
}
330
29
100
AcDbVisualStyle
  2
X-Ray
 70
    25
177
     3
291
     0
 70
    58
 90
        2
176
     1
 90
        2
176
     1
 90
        1
176
     1
 90
        1
176
     1
 40
0.5
176
     1
 40
30.0
176
     1
 62
     7
420
 16777215
176
     1
 90
        1
176
     1
 90
        0
176
     1
 62
     7
176
     1
 62
   257
176
     1
 90
        1
176
     1
 90
        1
176
     1
 40
1.0
176
     1
 90
        8
176
     1
 62
     7
176
     1
 40
1.0
176
     1
 90
        1
176
     1
 90
        6
176
     1
 90
        2
176
     1
 62
     7
176
     1
 90
        3
176
     1
 90
        0
176
     1
 90
        0
176
     1
290
     0
176
     1
 90
       13
176
     1
 40
0.0
176
     1
 90
        0
176
     1
290
     0
176
     1
290
     1
176
     1
290
     1
176
     1
290
     0
176
     1
290
     0
176
     1
290
     0
176
     1
290
     0
176
     1
290
     0
176
     1
290
     0
176
     1
 90
       50
176
     1
 40
0.0
176
     1
 40
1.0
176
     1
 90
        0
176
     1
 62
    18
420
        0
176
     1
 90
       50
176
     1
 90
        3
176
     1
 62
     5
420
      255
176
     1
290
     0
176
     1
 90
       50
176
     1
 90
       50
176
     1
 90
       50
176
     1
290
     0
176
     1
 90
       50
176
     1
 62
   256
176
     0
 40
1.0
176
     0
 90
        2
176
     1
  1
strokes_ogs.tif
176
     1
290
     0
176
     1
 40
1.0
176
     1
 40
1.0
176
     1
  0
DICTIONARYVAR
  5
12D
102
{ACAD_REACTORS
330
128
102
}
330
128
100
DictionaryVariables
280
     0
  1
1:1
  0
DICTIONARYVAR
  5
12A
102
{ACAD_REACTORS
330
128
102
}
330
128
100
DictionaryVariables
280
     0
  1
STANDARD
  0
DICTIONARYVAR
  5
129
102
{ACAD_REACTORS
330
128
102
}
330
128
100
DictionaryVariables
280
     0
  1
STANDARD
  0
DICTIONARYVAR
  5
12B
102
{ACAD_REACTORS
330
128
102
}
330
128
100
DictionaryVariables
280
     0
  1
Imperial24
  0
DICTIONARYVAR
  5
12C
102
{ACAD_REACTORS
330
128
102
}
330
128
100
DictionaryVariables
280
     0
  1
Imperial24
  0
DICTIONARY
  5
1A
330
19
100
AcDbDictionary
280
     1
281
     1
  3
BUMPTILE
360
1C
  3
DIFFUSETILE
360
1B
  3
OPACITYTILE
360
1F
  3
REFLECTIONTILE
360
1E
  3
REFRACTIONTILE
360
20
  3
SPECULARTILE
360
1D
  0
DICTIONARY
  5
12
330
11
100
AcDbDictionary
280
     1
281
     1
  3
BUMPTILE
360
14
  3
DIFFUSETILE
360
13
  3
OPACITYTILE
360
17
  3
REFLECTIONTILE
360
16
  3
REFRACTIONTILE
360
18
  3
SPECULARTILE
360
15
  0
DICTIONARY
  5
22
330
21
100
AcDbDictionary
280
     1
281
     1
  3
BUMPTILE
360
24
  3
DIFFUSETILE
360
23
  3
OPACITYTILE
360
27
  3
REFLECTIONTILE
360
26
  3
REFRACTIONTILE
360
28
  3
SPECULARTILE
360
25
  0
DICTIONARY
  5
12E
330
65
100
AcDbDictionary
280
     1
281
     1
  3
ACAD_ROUNDTRIP_2008_TABLESTYLE_CELLSTYLEMAP
360
12F
  0
XRECORD
  5
1C
102
{ACAD_REACTORS
330
1A
102
}
330
1A
100
AcDbXrecord
280
     1
270
     1
271
     1
  0
XRECORD
  5
1B
102
{ACAD_REACTORS
330
1A
102
}
330
1A
100
AcDbXrecord
280
     1
270
     1
271
     1
  0
XRECORD
  5
1F
102
{ACAD_REACTORS
330
1A
102
}
330
1A
100
AcDbXrecord
280
     1
270
     1
271
     1
  0
XRECORD
  5
1E
102
{ACAD_REACTORS
330
1A
102
}
330
1A
100
AcDbXrecord
280
     1
270
     1
271
     1
  0
XRECORD
  5
20
102
{ACAD_REACTORS
330
1A
102
}
330
1A
100
AcDbXrecord
280
     1
270
     1
271
     1
  0
XRECORD
  5
1D
102
{ACAD_REACTORS
330
1A
102
}
330
1A
100
AcDbXrecord
280
     1
270
     1
271
     1
  0
XRECORD
  5
14
102
{ACAD_REACTORS
330
12
102
}
330
12
100
AcDbXrecord
280
     1
270
     1
271
     1
  0
XRECORD
  5
13
102
{ACAD_REACTORS
330
12
102
}
330
12
100
AcDbXrecord
280
     1
270
     1
271
     1
  0
XRECORD
  5
17
102
{ACAD_REACTORS
330
12
102
}
330
12
100
AcDbXrecord
280
     1
270
     1
271
     1
  0
XRECORD
  5
16
102
{ACAD_REACTORS
330
12
102
}
330
12
100
AcDbXrecord
280
     1
270
     1
271
     1
  0
XRECORD
  5
18
102
{ACAD_REACTORS
330
12
102
}
330
12
100
AcDbXrecord
280
     1
270
     1
271
     1
  0
XRECORD
  5
15
102
{ACAD_REACTORS
330
12
102
}
330
12
100
AcDbXrecord
280
     1
270
     1
271
     1
  0
XRECORD
  5
24
102
{ACAD_REACTORS
330
22
102
}
330
22
100
AcDbXrecord
280
     1
270
     1
271
     1
  0
XRECORD
  5
23
102
{ACAD_REACTORS
330
22
102
}
330
22
100
AcDbXrecord
280
     1
270
     1
271
     1
  0
XRECORD
  5
27
102
{ACAD_REACTORS
330
22
102
}
330
22
100
AcDbXrecord
280
     1
270
     1
271
     1
  0
XRECORD
  5
26
102
{ACAD_REACTORS
330
22
102
}
330
22
100
AcDbXrecord
280
     1
270
     1
271
     1
  0
XRECORD
  5
28
102
{ACAD_REACTORS
330
22
102
}
330
22
100
AcDbXrecord
280
     1
270
     1
271
     1
  0
XRECORD
  5
25
102
{ACAD_REACTORS
330
22
102
}
330
22
100
AcDbXrecord
280
     1
270
     1
271
     1
  0
CELLSTYLEMAP
  5
12F
102
{ACAD_REACTORS
330
12E
102
}
330
12E
100
AcDbCellStyleMap
 90
        3
300
CELLSTYLE
  1
TABLEFORMAT_BEGIN
 90
        5
170
     1
 91
        0
 92
    32768
 62
   257
 93
        1
300
CONTENTFORMAT
  1
CONTENTFORMAT_BEGIN
 90
        0
 91
        0
 92
      512
 93
        0
300

 40
0.0
140
1.0
 94
        5
 62
     0
340
55
144
0.25
309
CONTENTFORMAT_END
171
     0
 94
        0
309
TABLEFORMAT_END
  1
CELLSTYLE_BEGIN
 90
        1
 91
        1
300
_TITLE
309
CELLSTYLE_END
300
CELLSTYLE
  1
TABLEFORMAT_BEGIN
 90
        5
170
     1
 91
        0
 92
        0
 62
   257
 93
        1
300
CONTENTFORMAT
  1
CONTENTFORMAT_BEGIN
 90
        0
 91
        0
 92
      512
 93
        0
300

 40
0.0
140
1.0
 94
        5
 62
     0
340
55
144
0.18
309
CONTENTFORMAT_END
171
     0
 94
        0
309
TABLEFORMAT_END
  1
CELLSTYLE_BEGIN
 90
        2
 91
        1
300
_HEADER
309
CELLSTYLE_END
300
CELLSTYLE
  1
TABLEFORMAT_BEGIN
 90
        5
170
     1
 91
        0
 92
        0
 62
   257
 93
        1
300
CONTENTFORMAT
  1
CONTENTFORMAT_BEGIN
 90
        0
 91
        0
 92
      512
 93
        0
300

 40
0.0
140
1.0
 94
        2
 62
     0
340
55
144
0.18
309
CONTENTFORMAT_END
171
     0
 94
        0
309
TABLEFORMAT_END
  1
CELLSTYLE_BEGIN
 90
        3
 91
        2
300
_DATA
309
CELLSTYLE_END
  0
ENDSEC
  0
EOF
