  0
SECTION
  2
HEADER
  9
$ACADVER
  1
AC1032
  9
$ACADMAINTVER
 90
      327
  9
$DWGCODEPAGE
  3
ANSI_1252
  9
$REQUIREDVERSIONS
160
                 0
  9
$INSBASE
 10
0.0
 20
0.0
 30
0.0
  9
$EXTMIN
 10
1.000000000000000E+20
 20
1.000000000000000E+20
 30
1.000000000000000E+20
  9
$EXTMAX
 10
-1.000000000000000E+20
 20
-1.000000000000000E+20
 30
-1.000000000000000E+20
  9
$LIMMIN
 10
0.0
 20
0.0
  9
$LIMMAX
 10
12.0
 20
9.0
  9
$ORTHOMODE
 70
     0
  9
$REGENMODE
 70
     1
  9
$FILLMODE
 70
     1
  9
$QTEXTMODE
 70
     0
  9
$MIRRTEXT
 70
     0
  9
$LTSCALE
 40
1.0
  9
$ATTMODE
 70
     1
  9
$TEXTSIZE
 40
0.2
  9
$TRACEWID
 40
0.05
  9
$TEXTSTYLE
  7
Standard
  9
$CLAYER
  8
0
  9
$CELTYPE
  6
ByLayer
  9
$CECOLOR
 62
   256
  9
$CELTSCALE
 40
1.0
  9
$DISPSILH
 70
     0
  9
$DIMSCALE
 40
1.0
  9
$DIMASZ
 40
0.18
  9
$DIMEXO
 40
0.0625
  9
$DIMDLI
 40
0.38
  9
$DIMRND
 40
0.0
  9
$DIMDLE
 40
0.0
  9
$DIMEXE
 40
0.18
  9
$DIMTP
 40
0.0
  9
$DIMTM
 40
0.0
  9
$DIMTXT
 40
0.18
  9
$DIMCEN
 40
0.09
  9
$DIMTSZ
 40
0.0
  9
$DIMTOL
 70
     0
  9
$DIMLIM
 70
     0
  9
$DIMTIH
 70
     1
  9
$DIMTOH
 70
     1
  9
$DIMSE1
 70
     0
  9
$DIMSE2
 70
     0
  9
$DIMTAD
 70
     0
  9
$DIMZIN
 70
     0
  9
$DIMBLK
  1

  9
$DIMASO
 70
     1
  9
$DIMSHO
 70
     1
  9
$DIMPOST
  1

  9
$DIMAPOST
  1

  9
$DIMALT
 70
     0
  9
$DIMALTD
 70
     2
  9
$DIMALTF
 40
25.4
  9
$DIMLFAC
 40
1.0
  9
$DIMTOFL
 70
     0
  9
$DIMTVP
 40
0.0
  9
$DIMTIX
 70
     0
  9
$DIMSOXD
 70
     0
  9
$DIMSAH
 70
     0
  9
$DIMBLK1
  1

  9
$DIMBLK2
  1

  9
$DIMSTYLE
  2
Standard
  9
$DIMCLRD
 70
     0
  9
$DIMCLRE
 70
     0
  9
$DIMCLRT
 70
     0
  9
$DIMTFAC
 40
1.0
  9
$DIMGAP
 40
0.09
  9
$DIMJUST
 70
     0
  9
$DIMSD1
 70
     0
  9
$DIMSD2
 70
     0
  9
$DIMTOLJ
 70
     1
  9
$DIMTZIN
 70
     0
  9
$DIMALTZ
 70
     0
  9
$DIMALTTZ
 70
     0
  9
$DIMUPT
 70
     0
  9
$DIMDEC
 70
     4
  9
$DIMTDEC
 70
     4
  9
$DIMALTU
 70
     2
  9
$DIMALTTD
 70
     2
  9
$DIMTXSTY
  7
Standard
  9
$DIMAUNIT
 70
     0
  9
$DIMADEC
 70
     0
  9
$DIMALTRND
 40
0.0
  9
$DIMAZIN
 70
     0
  9
$DIMDSEP
 70
    46
  9
$DIMATFIT
 70
     3
  9
$DIMFRAC
 70
     0
  9
$DIMLDRBLK
  1

  9
$DIMLUNIT
 70
     2
  9
$DIMLWD
 70
    -2
  9
$DIMLWE
 70
    -2
  9
$DIMTMOVE
 70
     0
  9
$DIMFXL
 40
1.0
  9
$DIMFXLON
 70
     0
  9
$DIMJOGANG
 40
0.7853981633974483
  9
$DIMTFILL
 70
     0
  9
$DIMTFILLCLR
 70
     0
  9
$DIMARCSYM
 70
     0
  9
$DIMLTYPE
  6

  9
$DIMLTEX1
  6

  9
$DIMLTEX2
  6

  9
$DIMTXTDIRECTION
 70
     0
  9
$LUNITS
 70
     2
  9
$LUPREC
 70
     4
  9
$SKETCHINC
 40
0.1
  9
$FILLETRAD
 40
0.0
  9
$AUNITS
 70
     0
  9
$AUPREC
 70
     0
  9
$MENU
  1
.
  9
$ELEVATION
 40
0.0
  9
$PELEVATION
 40
0.0
  9
$THICKNESS
 40
0.0
  9
$LIMCHECK
 70
     0
  9
$CHAMFERA
 40
0.0
  9
$CHAMFERB
 40
0.0
  9
$CHAMFERC
 40
0.0
  9
$CHAMFERD
 40
0.0
  9
$SKPOLY
 70
     0
  9
$TDCREATE
 40
2460704.752326389
  9
$TDUCREATE
 40
2460704.752326389
  9
$TDUPDATE
 40
2460704.752326389
  9
$TDUUPDATE
 40
2460704.752326389
  9
$TDINDWG
 40
0.0000000000
  9
$TDUSRTIMER
 40
0.0000000000
  9
$USRTIMER
 70
     1
  9
$ANGBASE
 50
0.0
  9
$ANGDIR
 70
     0
  9
$PDMODE
 70
     0
  9
$PDSIZE
 40
0.0
  9
$PLINEWID
 40
0.0
  9
$SPLFRAME
 70
     0
  9
$SPLINETYPE
 70
     6
  9
$SPLINESEGS
 70
     8
  9
$HANDSEED
  5
15C
  9
$SURFTAB1
 70
     6
  9
$SURFTAB2
 70
     6
  9
$SURFTYPE
 70
     6
  9
$SURFU
 70
     6
  9
$SURFV
 70
     6
  9
$UCSBASE
  2

  9
$UCSNAME
  2

  9
$UCSORG
 10
0.0
 20
0.0
 30
0.0
  9
$UCSXDIR
 10
1.0
 20
0.0
 30
0.0
  9
$UCSYDIR
 10
0.0
 20
1.0
 30
0.0
  9
$UCSORTHOREF
  2

  9
$UCSORTHOVIEW
 70
     0
  9
$UCSORGTOP
 10
0.0
 20
0.0
 30
0.0
  9
$UCSORGBOTTOM
 10
0.0
 20
0.0
 30
0.0
  9
$UCSORGLEFT
 10
0.0
 20
0.0
 30
0.0
  9
$UCSORGRIGHT
 10
0.0
 20
0.0
 30
0.0
  9
$UCSORGFRONT
 10
0.0
 20
0.0
 30
0.0
  9
$UCSORGBACK
 10
0.0
 20
0.0
 30
0.0
  9
$PUCSBASE
  2

  9
$PUCSNAME
  2

  9
$PUCSORG
 10
0.0
 20
0.0
 30
0.0
  9
$PUCSXDIR
 10
1.0
 20
0.0
 30
0.0
  9
$PUCSYDIR
 10
0.0
 20
1.0
 30
0.0
  9
$PUCSORTHOREF
  2

  9
$PUCSORTHOVIEW
 70
     0
  9
$PUCSORGTOP
 10
0.0
 20
0.0
 30
0.0
  9
$PUCSORGBOTTOM
 10
0.0
 20
0.0
 30
0.0
  9
$PUCSORGLEFT
 10
0.0
 20
0.0
 30
0.0
  9
$PUCSORGRIGHT
 10
0.0
 20
0.0
 30
0.0
  9
$PUCSORGFRONT
 10
0.0
 20
0.0
 30
0.0
  9
$PUCSORGBACK
 10
0.0
 20
0.0
 30
0.0
  9
$USERI1
 70
     0
  9
$USERI2
 70
     0
  9
$USERI3
 70
     0
  9
$USERI4
 70
     0
  9
$USERI5
 70
     0
  9
$USERR1
 40
0.0
  9
$USERR2
 40
0.0
  9
$USERR3
 40
0.0
  9
$USERR4
 40
0.0
  9
$USERR5
 40
0.0
  9
$WORLDVIEW
 70
     1
  9
$SHADEDGE
 70
     3
  9
$SHADEDIF
 70
    70
  9
$TILEMODE
 70
     1
  9
$MAXACTVP
 70
    64
  9
$PINSBASE
 10
0.0
 20
0.0
 30
0.0
  9
$PLIMCHECK
 70
     0
  9
$PEXTMIN
 10
1.000000000000000E+20
 20
1.000000000000000E+20
 30
1.000000000000000E+20
  9
$PEXTMAX
 10
-1.000000000000000E+20
 20
-1.000000000000000E+20
 30
-1.000000000000000E+20
  9
$PLIMMIN
 10
0.0
 20
0.0
  9
$PLIMMAX
 10
12.0
 20
9.0
  9
$UNITMODE
 70
     0
  9
$VISRETAIN
 70
     1
  9
$PLINEGEN
 70
     0
  9
$PSLTSCALE
 70
     1
  9
$TREEDEPTH
 70
  3020
  9
$CMLSTYLE
  2
Standard
  9
$CMLJUST
 70
     0
  9
$CMLSCALE
 40
1.0
  9
$PROXYGRAPHICS
 70
     1
  9
$MEASUREMENT
 70
     0
  9
$CELWEIGHT
370
    -1
  9
$ENDCAPS
280
     0
  9
$JOINSTYLE
280
     0
  9
$LWDISPLAY
290
     1
  9
$INSUNITS
 70
     4
  9
$HYPERLINKBASE
  1

  9
$STYLESHEET
  1

  9
$XEDIT
290
     1
  9
$CEPSNTYPE
380
     0
  9
$PSTYLEMODE
290
     1
  9
$FINGERPRINTGUID
  2
{A56ED0B8-0172-104F-B05D-87804DBDFB89}
  9
$VERSIONGUID
  2
{AA4FB001-A53F-A847-93AE-F8141CF2104B}
  9
$EXTNAMES
290
     1
  9
$PSVPSCALE
 40
0.0
  9
$OLESTARTUP
290
     0
  9
$SORTENTS
280
   127
  9
$INDEXCTL
280
     0
  9
$HIDETEXT
280
     1
  9
$XCLIPFRAME
280
     2
  9
$HALOGAP
280
     0
  9
$OBSCOLOR
 70
   257
  9
$OBSLTYPE
280
     0
  9
$INTERSECTIONDISPLAY
280
     0
  9
$INTERSECTIONCOLOR
 70
   257
  9
$DIMASSOC
280
     2
  9
$PROJECTNAME
  1

  9
$CAMERADISPLAY
290
     0
  9
$LENSLENGTH
 40
50.0
  9
$CAMERAHEIGHT
 40
0.0
  9
$STEPSPERSEC
 40
2.0
  9
$STEPSIZE
 40
6.0
  9
$3DDWFPREC
 40
2.0
  9
$PSOLWIDTH
 40
0.25
  9
$PSOLHEIGHT
 40
4.0
  9
$LOFTANG1
 40
1.570796326794896
  9
$LOFTANG2
 40
1.570796326794896
  9
$LOFTMAG1
 40
0.0
  9
$LOFTMAG2
 40
0.0
  9
$LOFTPARAM
 70
     7
  9
$LOFTNORMALS
280
     1
  9
$LATITUDE
 40
37.795
  9
$LONGITUDE
 40
-122.394
  9
$NORTHDIRECTION
 40
0.0
  9
$TIMEZONE
 70
 -8000
  9
$LIGHTGLYPHDISPLAY
280
     1
  9
$TILEMODELIGHTSYNCH
280
     1
  9
$CMATERIAL
347
11
  9
$SOLIDHIST
280
     0
  9
$SHOWHIST
280
     1
  9
$DWFFRAME
280
     2
  9
$DGNFRAME
280
     0
  9
$REALWORLDSCALE
290
     1
  9
$INTERFERECOLOR
 62
     1
  9
$INTERFEREOBJVS
345
33
  9
$INTERFEREVPVS
346
30
  9
$CSHADOW
280
     0
  9
$SHADOWPLANELOCATION
 40
0.0
  0
ENDSEC
  0
SECTION
  2
CLASSES
  0
CLASS
  1
ACDBDICTIONARYWDFLT
  2
AcDbDictionaryWithDefault
  3
ObjectDBX Classes
 90
        0
 91
        1
280
     0
281
     0
  0
CLASS
  1
MATERIAL
  2
AcDbMaterial
  3
ObjectDBX Classes
 90
     1153
 91
        3
280
     0
281
     0
  0
CLASS
  1
VISUALSTYLE
  2
AcDbVisualStyle
  3
ObjectDBX Classes
 90
     4095
 91
       24
280
     0
281
     0
  0
CLASS
  1
SCALE
  2
AcDbScale
  3
ObjectDBX Classes
 90
     1153
 91
       17
280
     0
281
     0
  0
CLASS
  1
TABLESTYLE
  2
AcDbTableStyle
  3
ObjectDBX Classes
 90
     4095
 91
        1
280
     0
281
     0
  0
CLASS
  1
MLEADERSTYLE
  2
AcDbMLeaderStyle
  3
ACDB_MLEADERSTYLE_CLASS
 90
     4095
 91
        1
280
     0
281
     0
  0
CLASS
  1
ACDBSECTIONVIEWSTYLE
  2
AcDbSectionViewStyle
  3
ObjectDBX Classes
 90
     1025
 91
        1
280
     0
281
     0
  0
CLASS
  1
ACDBDETAILVIEWSTYLE
  2
AcDbDetailViewStyle
  3
ObjectDBX Classes
 90
     1025
 91
        1
280
     0
281
     0
  0
CLASS
  1
DICTIONARYVAR
  2
AcDbDictionaryVar
  3
ObjectDBX Classes
 90
        0
 91
        5
280
     0
281
     0
  0
CLASS
  1
CELLSTYLEMAP
  2
AcDbCellStyleMap
  3
ObjectDBX Classes
 90
     1152
 91
        1
280
     0
281
     0
  0
ENDSEC
  0
SECTION
  2
TABLES
  0
TABLE
  2
VPORT
  5
8
330
0
100
AcDbSymbolTable
 70
     1
  0
VPORT
  5
57
330
8
100
AcDbSymbolTableRecord
100
AcDbViewportTableRecord
  2
*Active
 70
     0
 10
0.0
 20
0.0
 11
1.0
 21
1.0
 12
0.0
 22
0.0
 13
0.0
 23
0.0
 14
1.0
 24
1.0
 15
0.0
 25
0.0
 16
0.0
 26
0.0
 36
1.0
 17
49.99999998749986
 27
-49.99999998749986
 37
0.0
 40
101.9999999744997
 41
1.0
 42
50.0
 43
0.0
 44
0.0
 50
0.0
 51
0.0
 71
     0
 72
   100
 73
     1
 74
     1
 75
     0
 76
     0
 77
     0
 78
     0
281
     0
 65
     1
110
0.0
120
0.0
130
0.0
111
1.0
121
0.0
131
0.0
112
0.0
122
1.0
132
0.0
 79
     0
146
0.0
 60
     3
 61
     5
292
     1
282
     1
141
0.0
142
0.0
 63
   250
421
  3355443
  0
ENDTAB
  0
TABLE
  2
LTYPE
  5
5
330
0
100
AcDbSymbolTable
 70
     1
  0
LTYPE
  5
5B
330
5
100
AcDbSymbolTableRecord
100
AcDbLinetypeTableRecord
  2
ByBlock
 70
     0
  3

 72
    65
 73
     0
 40
0.0
  0
LTYPE
  5
5C
330
5
100
AcDbSymbolTableRecord
100
AcDbLinetypeTableRecord
  2
ByLayer
 70
     0
  3

 72
    65
 73
     0
 40
0.0
  0
LTYPE
  5
5D
330
5
100
AcDbSymbolTableRecord
100
AcDbLinetypeTableRecord
  2
Continuous
 70
     0
  3
Solid line
 72
    65
 73
     0
 40
0.0
  0
ENDTAB
  0
TABLE
  2
LAYER
  5
2
330
0
100
AcDbSymbolTable
 70
     2
  0
LAYER
  5
54
330
2
100
AcDbSymbolTableRecord
100
AcDbLayerTableRecord
  2
0
 70
     0
 62
     7
  6
Continuous
370
    -3
390
F
347
21
348
0
  0
LAYER
  5
78
330
2
100
AcDbSymbolTableRecord
100
AcDbLayerTableRecord
  2
Camada 1
 70
     0
 62
     7
  6
Continuous
370
     0
390
F
347
21
348
0
  0
ENDTAB
  0
TABLE
  2
STYLE
  5
3
330
0
100
AcDbSymbolTable
 70
     2
  0
STYLE
  5
55
330
3
100
AcDbSymbolTableRecord
100
AcDbTextStyleTableRecord
  2
Standard
 70
     0
 40
0.0
 41
1.0
 50
0.0
 71
     0
 42
0.2
  3
txt
  4

  0
STYLE
  5
5A
330
3
100
AcDbSymbolTableRecord
100
AcDbTextStyleTableRecord
  2
Annotative
 70
     0
 40
0.0
 41
1.0
 50
0.0
 71
     0
 42
0.2
  3
txt
  4

1001
AcadAnnotative
1000
AnnotativeData
1002
{
1070
     1
1070
     1
1002
}
  0
ENDTAB
  0
TABLE
  2
VIEW
  5
6
330
0
100
AcDbSymbolTable
 70
     0
  0
ENDTAB
  0
TABLE
  2
UCS
  5
7
330
0
100
AcDbSymbolTable
 70
     0
  0
ENDTAB
  0
TABLE
  2
APPID
  5
9
330
0
100
AcDbSymbolTable
 70
     2
  0
APPID
  5
56
330
9
100
AcDbSymbolTableRecord
100
AcDbRegAppTableRecord
  2
ACAD
 70
     0
  0
APPID
  5
5E
330
9
100
AcDbSymbolTableRecord
100
AcDbRegAppTableRecord
  2
AcadAnnotative
 70
     0
  0
ENDTAB
  0
TABLE
  2
DIMSTYLE
  5
A
330
0
100
AcDbSymbolTable
 70
     2
100
AcDbDimStyleTable
 71
     0
  0
DIMSTYLE
105
58
330
A
100
AcDbSymbolTableRecord
100
AcDbDimStyleTableRecord
  2
Standard
 70
     0
340
55
  0
DIMSTYLE
105
59
330
A
100
AcDbSymbolTableRecord
100
AcDbDimStyleTableRecord
  2
Annotative
 70
     0
340
55
1001
AcadAnnotative
1000
AnnotativeData
1002
{
1070
     1
1070
     1
1002
}
  0
ENDTAB
  0
TABLE
  2
BLOCK_RECORD
  5
1
330
0
100
AcDbSymbolTable
 70
     3
  0
BLOCK_RECORD
  5
70
330
1
100
AcDbSymbolTableRecord
100
AcDbBlockTableRecord
  2
*Model_Space
340
73
 70
     0
280
     1
281
     0
  0
BLOCK_RECORD
  5
6C
330
1
100
AcDbSymbolTableRecord
100
AcDbBlockTableRecord
  2
*Paper_Space
340
6F
 70
     0
280
     1
281
     0
  0
BLOCK_RECORD
  5
74
330
1
100
AcDbSymbolTableRecord
100
AcDbBlockTableRecord
  2
*Paper_Space0
340
77
 70
     0
280
     1
281
     0
  0
BLOCK_RECORD
  5
118
330
1
100
AcDbSymbolTableRecord
100
AcDbBlockTableRecord
  2
Block_0
340
0
102
{BLKREFS
331
119
102
}
 70
     0
280
     1
281
     0
  0
BLOCK_RECORD
  5
12C
330
1
100
AcDbSymbolTableRecord
100
AcDbBlockTableRecord
  2
Block_1
340
0
102
{BLKREFS
331
12D
102
}
 70
     0
280
     1
281
     0
  0
ENDTAB
  0
ENDSEC
  0
SECTION
  2
BLOCKS
  0
BLOCK
  5
71
330
70
100
AcDbEntity
  8
0
100
AcDbBlockBegin
  2
*Model_Space
 70
     0
 10
0.0
 20
0.0
 30
0.0
  3
*Model_Space
  1

  0
ENDBLK
  5
72
330
70
100
AcDbEntity
  8
0
100
AcDbBlockEnd
  0
BLOCK
  5
6D
330
6C
100
AcDbEntity
 67
     1
  8
0
100
AcDbBlockBegin
  2
*Paper_Space
 70
     0
 10
0.0
 20
0.0
 30
0.0
  3
*Paper_Space
  1

  0
ENDBLK
  5
6E
330
6C
100
AcDbEntity
 67
     1
  8
0
100
AcDbBlockEnd
  0
BLOCK
  5
75
330
74
100
AcDbEntity
 67
     1
  8
0
100
AcDbBlockBegin
  2
*Paper_Space0
 70
     0
 10
0.0
 20
0.0
 30
0.0
  3
*Paper_Space0
  1

  0
ENDBLK
  5
76
330
74
100
AcDbEntity
 67
     1
  8
0
100
AcDbBlockEnd
  0
BLOCK
  5
11A
330
118
100
AcDbEntity
  8
0
100
AcDbBlockBegin
  2
Block_0
 70
     0
 10
0.0
 20
0.0
 30
0.0
  3
Block_0
  1

  0
LWPOLYLINE
  5
11C
330
118
100
AcDbEntity
  8
Camada 1
 62
    18
420
        0
370
    15
100
AcDbPolyline
 90
       34
 70
     0
 43
0.0
 10
55.80270910686642
 20
-33.19655160232529
 10
55.80981221488598
 20
-33.54461473415947
 10
55.83633144828297
 20
-33.94903665642171
 10
55.88202835073565
 20
-34.3515617670308
 10
55.9471413785619
 20
-34.75172037929184
 10
56.03120084507423
 20
-35.14808898122167
 10
56.13443075469138
 20
-35.54019788612477
 10
56.25613741629683
 20
-35.92662358201892
 10
56.39631360393587
 20
-36.30688915625839
 10
56.55448240497014
 20
-36.67982039210644
 10
56.73041258903131
 20
-37.04493315096969
 10
56.92385847383908
 20
-37.40104960313596
 10
57.13388068600432
 20
-37.74769644893623
 10
57.36047922553215
 20
-38.0836886327078
 10
57.60270749307746
 20
-38.40831078548574
 10
57.86031980637662
 20
-38.72110044652345
 10
58.13285370467118
 20
-39.0211001775582
 10
58.41912413231479
 20
-39.30760183557302
 10
58.71912386335019
 20
-39.58013573387303
 10
59.03167506806647
 20
-39.83799011646553
 10
59.35630083381759
 20
-40.08045322736037
 10
59.69205456127125
 20
-40.30728661023419
 10
60.03845933777371
 20
-40.51754727872278
 10
60.39457578993966
 20
-40.71123523282676
 10
60.75945731842784
 20
-40.8871618039093
 10
61.132381328326
 20
-41.04580390461484
 10
61.51241567219586
 20
-41.18621493560502
 10
61.89883775511491
 20
-41.30815644055615
 10
62.29094666001704
 20
-41.41162841946983
 10
62.68731887492262
 20
-41.49592272932848
 10
63.08723903085871
 20
-41.56127421347937
 10
63.4899989848186
 20
-41.60720957225219
 10
63.89418245075813
 20
-41.6337288056479
 10
64.24698941821148
 20
-41.64130521333617
  0
LWPOLYLINE
  5
11D
330
118
100
AcDbEntity
  8
Camada 1
 62
    18
420
        0
370
    15
100
AcDbPolyline
 90
       34
 70
     0
 43
0.0
 10
64.24710503339951
 20
-24.7518919286537
 10
63.89429806594487
 20
-24.75922988001958
 10
63.48987614367974
 20
-24.78598756973768
 10
63.08735464604287
 20
-24.83192292851082
 10
62.68719603378504
 20
-24.89727441266138
 10
62.29082381888331
 20
-24.98156510954525
 10
61.89895337029907
 20
-25.08480224511133
 10
61.51253128738003
 20
-25.20698220638485
 10
61.13225848719227
 20
-25.3473932373747
 10
60.75933447729283
 20
-25.5057968817585
 10
60.39445294879822
 20
-25.68196190916343
 10
60.03857495295658
 20
-25.87541140694469
 10
59.69217017645413
 20
-26.0859069187812
 10
59.35617799268
 20
-26.31250545830776
 10
59.0317906832532
 20
-26.55496856920228
 10
58.71900102221644
 20
-26.81282295179509
 10
58.41923974749896
 20
-27.0853568500951
 10
58.13273086354001
 20
-27.37209696443168
 10
57.86043542155951
 20
-27.67209669546674
 10
57.60282310826163
 20
-27.98464790018238
 10
57.36035638439457
 20
-28.30950850928207
 10
57.13375784487058
 20
-28.64550069305396
 10
56.92373563270021
 20
-28.99190908253184
 10
56.73052097826719
 20
-29.34802553469811
 10
56.55459802016071
 20
-29.71313829356136
 10
56.39642921912388
 20
-30.08630437275702
 10
56.25625303147971
 20
-30.4663351036492
 10
56.13431513950337
 20
-30.85299925586479
 10
56.0313092343101
 20
-31.24486970444613
 10
55.94725699374992
 20
-31.64147676269803
 10
55.88214396592238
 20
-32.04139691863701
 10
55.83620860714796
 20
-32.44416048556816
 10
55.80992060412571
 20
-32.84857879485594
 10
55.80281749610743
 20
-33.19664553966459
  0
LINE
  5
11E
330
118
100
AcDbEntity
  8
Camada 1
 62
    18
420
        0
370
    15
100
AcDbLine
 10
82.07644810620667
 20
-24.7518919286537
 30
0.0
 11
64.24715561504008
 21
-24.7518919286537
 31
0.0
  0
LINE
  5
11F
330
118
100
AcDbEntity
  8
Camada 1
 62
    18
420
        0
370
    15
100
AcDbLine
 10
64.43935141064383
 20
-26.96895764814461
 30
0.0
 11
67.53382800618279
 21
-26.97369064484038
 31
0.0
  0
LINE
  5
120
330
118
100
AcDbEntity
  8
Camada 1
 62
    18
420
        0
370
    15
100
AcDbLine
 10
68.19669322589392
 20
-31.20137310351259
 30
0.0
 11
68.27885226777927
 21
-31.1999495915291
 31
0.0
  0
LINE
  5
121
330
118
100
AcDbEntity
  8
Camada 1
 62
    18
420
        0
370
    15
100
AcDbLine
 10
68.27888117157498
 20
-31.20014469215631
 30
0.0
 11
68.35346019279727
 21
-31.19943293616457
 31
0.0
  0
LINE
  5
122
330
118
100
AcDbEntity
  8
Camada 1
 62
    18
420
        0
370
    15
100
AcDbLine
 10
68.35353245228657
 20
-31.19936067667302
 30
0.0
 11
68.42219342115104
 21
-31.19912222035095
 31
0.0
  0
LINE
  5
123
330
118
100
AcDbEntity
  8
Camada 1
 62
    18
420
        0
370
    15
100
AcDbLine
 10
68.1960067607244
 20
-31.19907886465608
 30
0.0
 11
69.82291476089551
 21
-31.19907886465608
 31
0.0
  0
LWPOLYLINE
  5
124
330
118
100
AcDbEntity
  8
Camada 1
 62
    18
420
        0
370
    15
100
AcDbPolyline
 90
       20
 70
     0
 43
0.0
 10
66.9162839395684
 20
-31.66127225040584
 10
66.96387404069849
 20
-31.62196669998162
 10
67.02969521154298
 20
-31.57224133087696
 10
67.09693989437096
 20
-31.52630597210382
 10
67.16395334682805
 20
-31.48486876667917
 10
67.23190617267555
 20
-31.44698311526365
 10
67.30128251050524
 20
-31.41194087484032
 10
67.37065884833111
 20
-31.37997688875678
 10
67.43980395578991
 20
-31.35132600036063
 10
67.50918029361962
 20
-31.32575336630362
 10
67.57973446116148
 20
-31.30254723059499
 10
67.65077276729257
 20
-31.28147636286125
 10
67.72156539115875
 20
-31.26300683682317
 10
67.7916570979537
 20
-31.24738072177727
 10
67.86079497946166
 20
-31.23412110507941
 10
67.92970163059615
 20
-31.22322798672929
 10
67.99836259946061
 20
-31.21446652337992
 10
68.06560728228858
 20
-31.20783671503099
 10
68.13072753606569
 20
-31.20357340502978
 10
68.19654870690762
 20
-31.20144536300413
  0
LINE
  5
125
330
118
100
AcDbEntity
  8
Camada 1
 62
    18
420
        0
370
    15
100
AcDbLine
 10
69.82289308304681
 20
-35.1940532437915
 30
0.0
 11
68.19597785692868
 21
-35.1940532437915
 31
0.0
  0
LINE
  5
126
330
118
100
AcDbEntity
  8
Camada 1
 62
    18
420
        0
370
    15
100
AcDbLine
 10
68.3886288873272
 20
-35.19395569347805
 30
0.0
 11
68.31688243817787
 21
-35.19347878083392
 31
0.0
  0
LWPOLYLINE
  5
127
330
118
100
AcDbEntity
  8
Camada 1
 62
    18
420
        0
370
    15
100
AcDbPolyline
 90
        3
 70
     0
 43
0.0
 10
68.31692579387144
 20
-35.19343542513873
 10
68.23926129236046
 20
-35.19248521282491
 10
68.19687387462423
 20
-35.19177706980796
  0
LWPOLYLINE
  5
128
330
118
100
AcDbEntity
  8
Camada 1
 62
    18
420
        0
370
    15
100
AcDbPolyline
 90
       20
 70
     0
 43
0.0
 10
68.19669322589392
 20
-35.19175539196053
 10
68.13062637277683
 20
-35.18938528063801
 10
68.06551334495058
 20
-35.18512197063682
 10
67.99850711844306
 20
-35.17873061860996
 10
67.92983892363159
 20
-35.16996915526059
 10
67.86070104212363
 20
-35.15907964988524
 10
67.79155593466867
 20
-35.14582003318738
 10
67.72147145382074
 20
-35.1299554618191
 10
67.65091006032801
 20
-35.11172077912862
 10
67.57964052382219
 20
-35.09064991139489
 10
67.5090791303269
 20
-35.06720893233865
 10
67.43970279250103
 20
-35.04163629828196
 10
67.37056491098925
 20
-35.01298540988549
 10
67.3014270294877
 20
-34.98125626714955
 10
67.232050691658
 20
-34.94621402672622
 10
67.16409063986093
 20
-34.90832837531103
 10
67.09684595703294
 20
-34.86689116988606
 10
67.02960127420496
 20
-34.82095581111292
 10
66.96378010335918
 20
-34.77123405498272
 10
66.91642123260128
 20
-34.7319285045585
  0
LINE
  5
129
330
118
100
AcDbEntity
  8
Camada 1
 62
    18
420
        0
370
    15
100
AcDbLine
 10
69.92518361927354
 20
-31.30027828256038
 30
0.0
 11
69.92494516295178
 21
-31.29980136991624
 31
0.0
  0
LINE
  5
12A
330
118
100
AcDbEntity
  8
Camada 1
 62
    18
420
        0
370
    15
100
AcDbLine
 10
70.50598373443607
 20
-31.88202138409228
 30
0.0
 11
70.50598373443607
 21
-34.51098788321964
 31
0.0
  0
LINE
  5
12B
330
118
100
AcDbEntity
  8
Camada 1
 62
    18
420
        0
370
    15
100
AcDbLine
 10
67.53382800618279
 20
-39.41953178797171
 30
0.0
 11
64.43935141064383
 21
-39.42426478466748
 31
0.0
  0
INSERT
  5
12D
330
118
100
AcDbEntity
  8
Camada 1
100
AcDbBlockReference
  2
Block_1
 10
0.0
 20
0.0
 30
0.0
  0
LINE
  5
144
330
118
100
AcDbEntity
  8
Camada 1
 62
    18
420
        0
370
    15
100
AcDbLine
 10
77.15059805322986
 20
-29.16189592340943
 30
0.0
 11
77.14585783059061
 21
-29.16189592340943
 31
0.0
  0
LINE
  5
145
330
118
100
AcDbEntity
  8
Camada 1
 62
    18
420
        0
370
    15
100
AcDbLine
 10
77.15059805322986
 20
-36.66826609940933
 30
0.0
 11
77.14585783059061
 21
-36.66826609940933
 31
0.0
  0
LWPOLYLINE
  5
146
330
118
100
AcDbEntity
  8
Camada 1
 62
    18
420
        0
370
    15
100
AcDbPolyline
 90
       46
 70
     0
 43
0.0
 10
73.93869978393761
 20
-33.19655160232529
 10
73.93395956129451
 20
-33.43451294689685
 10
73.91975334525667
 20
-33.67295120411256
 10
73.89607390987965
 20
-33.9111510050062
 10
73.89063277016531
 20
-33.95613976444031
 10
73.85605660346304
 20
-34.19268121000286
 10
73.81202166931817
 20
-34.42733306986151
 10
73.75874474620371
 20
-34.66008811806763
 10
73.69623306007055
 20
-34.89118481094234
 10
73.62472506723912
 20
-35.11967654914727
 10
73.54398231139025
 20
-35.34580178900414
 10
73.52906795233417
 20
-35.38463403975868
 10
73.43814383412916
 20
-35.60673081296228
 10
73.33846186554893
 20
-35.82504480178361
 10
73.22977636431703
 20
-36.04003846696861
 10
73.11257146904063
 20
-36.25101089144926
 10
72.98707841007908
 20
-36.45795484927631
 10
72.85329718743622
 20
-36.66016581040695
 10
72.83506611772053
 20
-36.68645020045537
 10
72.69252704470502
 20
-36.8825010399323
 10
72.54216949470471
 20
-37.07311073969649
 10
72.38447038036309
 20
-37.25779877412871
 10
72.21943692763227
 20
-37.43656875620343
 10
72.20215245725272
 20
-37.45432652625009
 10
72.02977744017933
 20
-37.62599340030621
 10
71.85053777140684
 20
-37.79079200969133
 10
71.66418776867034
 20
-37.9494341103972
 10
71.47097311423731
 20
-38.10144640275414
 10
71.27160917707556
 20
-38.24635558709216
 10
71.06608150528082
 20
-38.38392320708983
 10
70.85511269377047
 20
-38.51415287572161
 10
70.84232276377296
 20
-38.52172928341021
 10
70.62638249924861
 20
-38.64296264534438
 10
70.40594046840034
 20
-38.75590423062439
 10
70.18194327057073
 20
-38.86008796552982
 10
69.95487504435025
 20
-38.95551023708556
 10
69.72401319482026
 20
-39.04193620194432
 10
69.48912649161496
 20
-39.12007400312307
 10
69.25021493472927
 20
-39.18968518430006
 10
69.00822512350186
 20
-39.25030005878008
 10
68.76316428389128
 20
-39.30191862656279
 10
68.51620301964219
 20
-39.34430243132712
 10
68.27942311776078
 20
-39.37579673071545
 10
68.03056142889239
 20
-39.39994585278897
 10
67.78170696597101
 20
-39.41439052514792
 10
67.53379910238706
 20
-39.41960043448847
  0
LWPOLYLINE
  5
147
330
118
100
AcDbEntity
  8
Camada 1
 62
    18
420
        0
370
    15
100
AcDbPolyline
 90
       46
 70
     0
 43
0.0
 10
64.43935141064383
 20
-39.42414916948075
 10
64.19120509074068
 20
-39.41988585947987
 10
63.94258185819405
 20
-39.40591448679027
 10
63.69348893894708
 20
-39.38271196405609
 10
63.45079098470527
 20
-39.35074436499809
 10
63.20359126414212
 20
-39.30883385990377
 10
62.95852319857684
 20
-39.25792704811247
 10
62.71606370065679
 20
-39.19778547330213
 10
62.47691368744806
 20
-39.1288824351421
 10
62.24155729754756
 20
-39.05098309028542
 10
62.01045699169839
 20
-38.96503042509568
 10
61.78291185283184
 20
-38.87008145320994
 10
61.55868342463005
 20
-38.76637101797417
 10
61.33800293746005
 20
-38.65390273236384
 10
61.12158576028964
 20
-38.53314628307348
 10
61.10359314689954
 20
-38.52248800807096
 10
60.89238587906872
 20
-38.39297009543156
 10
60.68661975095094
 20
-38.25540247543388
 10
60.48701735746745
 20
-38.11072813444315
 10
60.29357147265968
 20
-37.95895429840764
 10
60.10698301360143
 20
-37.8005470410497
 10
59.92750488850976
 20
-37.63598688798664
 10
59.75466018474244
 20
-37.46479331359988
 10
59.58867290671951
 20
-37.28673508751658
 10
59.57020338068208
 20
-37.26613390647806
 10
59.41203457964395
 20
-37.08144587204615
 10
59.26168425559449
 20
-36.89083978525643
 10
59.11890672625723
 20
-36.69502378912679
 10
59.09877523191071
 20
-36.66637290073064
 10
58.96476277889825
 20
-36.46416193959935
 10
58.83903126361495
 20
-36.25745282511991
 10
58.72158791201167
 20
-36.04624555729197
 10
58.61267118040887
 20
-35.83124827913251
 10
58.51298198587906
 20
-35.61293790328565
 10
58.42158818097757
 20
-35.39083751710759
 10
58.40571999663321
 20
-35.34916546833565
 10
58.32497724078562
 20
-35.12327868480085
 10
58.25299956126027
 20
-34.89454849027385
 10
58.19048787512838
 20
-34.66345179739882
 10
58.1372109520165
 20
-34.43069674919301
 10
58.09317601786905
 20
-34.19604850230852
 10
58.05836862079076
 20
-33.95926860042389
 10
58.05244334248594
 20
-33.9114364299976
 10
58.02877113305719
 20
-33.67323662910428
 10
58.01456491701807
 20
-33.43456352854097
 10
58.01006315069672
 20
-33.19659857099494
  0
LWPOLYLINE
  5
148
330
118
100
AcDbEntity
  8
Camada 1
 62
    18
420
        0
370
    15
100
AcDbPolyline
 90
       46
 70
     0
 43
0.0
 10
58.00994753550615
 20
-33.19655160232529
 10
58.01468053220608
 20
-32.95834818845718
 10
58.02888674824393
 20
-32.71991354421626
 10
58.05256618362095
 20
-32.48147528700056
 10
58.05824577965318
 20
-32.43388157289633
 10
58.09329163305579
 20
-32.19710167101171
 10
58.13709533682849
 20
-31.96245342412753
 10
58.19060349031511
 20
-31.72969837592173
 10
58.25311517644828
 20
-31.49860168304669
 10
58.32486162560146
 20
-31.2698714885197
 10
58.40560438145033
 20
-31.04374624866282
 10
58.42146533984255
 20
-31.00230904323785
 10
58.5128663706949
 20
-30.78021227003457
 10
58.61278679559944
 20
-30.56189828121325
 10
58.72170352719969
 20
-30.34690461602857
 10
58.83914687880168
 20
-30.13545889187857
 10
58.96487839408498
 20
-29.9287497773988
 10
59.09889807304958
 20
-29.72677727258991
 10
59.11878388511965
 20
-29.69789154084583
 10
59.26156141446075
 20
-29.50207193174173
 10
59.41215742078282
 20
-29.31170068829992
 10
59.57008776549534
 20
-29.1270126538677
 10
59.58855729153278
 20
-29.10617662948157
 10
59.75477579992531
 20
-28.92835685972034
 10
59.92738927332303
 20
-28.7569284419863
 10
60.10686739841471
 20
-28.59236467594877
 10
60.29368708784641
 20
-28.4339574185902
 10
60.48713297265418
 20
-28.28218358255564
 10
60.68674259208853
 20
-28.13750924156459
 10
60.8922630379337
 20
-28.00018007788931
 10
61.10347030576067
 20
-27.8704237089272
 10
61.1217086014285
 20
-27.85976904689946
 10
61.33812577859506
 20
-27.73900898463463
 10
61.55879903981421
 20
-27.62654069902398
 10
61.78303469396944
 20
-27.52283026378822
 10
62.01057983282955
 20
-27.42811974822422
 10
62.24143445641255
 20
-27.34192862671306
 10
62.47679807226518
 20
-27.26426773817813
 10
62.71594808546877
 20
-27.19512624369635
 10
62.95840758338883
 20
-27.13498466888601
 10
63.2034756489541
 20
-27.08407785709471
 10
63.45067536952111
 20
-27.04216735200038
 10
63.69337332376291
 20
-27.01019975294206
 10
63.94222778668429
 20
-26.98723207355549
 10
64.19132070592741
 20
-26.97326431384035
 10
64.4392285695088
 20
-26.96900100383948
  0
LWPOLYLINE
  5
149
330
118
100
AcDbEntity
  8
Camada 1
 62
    18
420
        0
370
    15
100
AcDbPolyline
 90
       46
 70
     0
 43
0.0
 10
67.53382800618279
 20
-26.97357502965397
 10
67.78173586976802
 20
-26.97878132601973
 10
68.03059033268812
 20
-26.99322599837901
 10
68.27944479560949
 20
-27.01737873342667
 10
68.51669438419124
 20
-27.04910426318814
 10
68.76365564842879
 20
-27.09148806795214
 10
69.00849248362317
 20
-27.1431066357355
 10
69.25071352522149
 20
-27.2037215102152
 10
69.48962508210718
 20
-27.27310146101936
 10
69.72451178531247
 20
-27.35123564922365
 10
69.95513517851815
 20
-27.43790007040449
 10
70.1822106306882
 20
-27.53308388563816
 10
70.40643905889256
 20
-27.63750246389087
 10
70.62640417709733
 20
-27.75021281879806
 10
70.84235166756868
 20
-27.87168102408016
 10
70.85537282794092
 20
-27.8792564264917
 10
71.06611040907911
 20
-28.00924864407783
 10
71.27186931124218
 20
-28.1468162640755
 10
71.47124047435863
 20
-28.29172544841351
 10
71.66444790284081
 20
-28.44397619709252
 10
71.85079790557729
 20
-28.60238345445079
 10
72.03003757435107
 20
-28.76741690718351
 10
72.20241259142318
 20
-28.93884532491788
 10
72.2196970617989
 20
-28.95684155128629
 10
72.38449928415879
 20
-29.13561153336133
 10
72.54242962887132
 20
-29.32029956779324
 10
72.69254872255373
 20
-29.51090565458296
 10
72.83508779556925
 20
-29.70672526368707
 10
72.85331886528493
 20
-29.73324449708277
 10
72.98710008792394
 20
-29.93521700189199
 10
73.11259314688164
 20
-30.14192611637144
 10
73.22980526811659
 20
-30.35336822754698
 10
73.33848354339508
 20
-30.56836550570644
 10
73.43816551197789
 20
-30.78667588155298
 10
73.52932808650463
 20
-31.00877626773104
 10
73.54401121518598
 20
-31.04737006216351
 10
73.6247539710387
 20
-31.27349530202039
 10
73.69649319424102
 20
-31.50222549654738
 10
73.75876642405244
 20
-31.73308734607545
 10
73.81180489084129
 20
-31.96560393795854
 10
73.85584705093702
 20
-32.20048952672511
 10
73.89065444801403
 20
-32.43703208672798
 10
73.89610281367537
 20
-32.48202084616178
 10
73.91977502310538
 20
-32.71998580370781
 10
73.93398846509152
 20
-32.9586589042708
 10
73.93872146178633
 20
-33.19662386181683
  0
LWPOLYLINE
  5
14A
330
118
100
AcDbEntity
  8
Camada 1
 62
    18
420
        0
370
    15
100
AcDbPolyline
 90
       11
 70
     0
 43
0.0
 10
66.34500039943607
 20
-32.54543216296433
 10
66.36583281084998
 20
-32.48410553249289
 10
66.38856564688703
 20
-32.42301374536842
 10
66.41319168160404
 20
-32.36263732721079
 10
66.43971091499718
 20
-32.3032038954174
 10
66.4678848907524
 20
-32.24448221961577
 10
66.49819052150165
 20
-32.18670714315347
 10
66.52991966424079
 20
-32.12988227900467
 10
66.56354200565735
 20
-32.07400040122106
 10
66.59906477170089
 20
-32.0195420354203
 10
66.63599659782491
 20
-31.96626511230618
  0
LWPOLYLINE
  5
14B
330
118
100
AcDbEntity
  8
Camada 1
 62
    18
420
        0
370
    15
100
AcDbPolyline
 90
       11
 70
     0
 43
0.0
 10
66.34500039943607
 20
-33.84767465466135
 10
66.36583281084998
 20
-33.908997672158
 10
66.38856564688703
 20
-33.97008945928216
 10
66.41319168160404
 20
-34.0304658774401
 10
66.43971091499718
 20
-34.08989930923349
 10
66.4678848907524
 20
-34.14862098503513
 10
66.49819052150165
 20
-34.20639606149742
 10
66.52991966424079
 20
-34.26322092564622
 10
66.56354200565735
 20
-34.31910280343015
 10
66.59906477170089
 20
-34.37356116923027
 10
66.63599659782491
 20
-34.42683809234472
  0
LWPOLYLINE
  5
14C
330
118
100
AcDbEntity
  8
Camada 1
 62
    18
420
        0
370
    15
100
AcDbPolyline
 90
       12
 70
     0
 43
0.0
 10
66.63600382377193
 20
-31.96629040312839
 10
66.64618518612934
 20
-31.95255387378608
 10
66.67080399490321
 20
-31.91916998869416
 10
66.69685354160371
 20
-31.88672908996584
 10
66.71224481330328
 20
-31.86802472058047
 10
66.73923373339292
 20
-31.83629557784421
 10
66.76693802244781
 20
-31.80551664742208
 10
66.79558891084652
 20
-31.77520740369484
 10
66.82471671188745
 20
-31.74560991595903
 10
66.8545454299932
 20
-31.71695902756288
 10
66.88508951706419
 20
-31.68878143883608
 10
66.91634897311198
 20
-31.6613156061007
  0
LWPOLYLINE
  5
14D
330
118
100
AcDbEntity
  8
Camada 1
 62
    18
420
        0
370
    15
100
AcDbPolyline
 90
       11
 70
     0
 43
0.0
 10
66.63600382377193
 20
-34.4268128015225
 10
66.66062263254193
 20
-34.46019668661506
 10
66.68596403622804
 20
-34.49311088501242
 10
66.71224481330328
 20
-34.52507487109596
 10
66.73923373339292
 20
-34.55680401383189
 10
66.76717647877341
 20
-34.58758294425435
 10
66.79558891084652
 20
-34.61789218798158
 10
66.82494794225835
 20
-34.64748967571708
 10
66.8545454299932
 20
-34.67614056411355
 10
66.88532797339364
 20
-34.70431815284035
 10
66.91634897311198
 20
-34.73178398557573
  0
ENDBLK
  5
11B
330
118
100
AcDbEntity
  8
0
100
AcDbBlockEnd
  0
BLOCK
  5
12E
330
12C
100
AcDbEntity
  8
0
100
AcDbBlockBegin
  2
Block_1
 70
     0
 10
0.0
 20
0.0
 30
0.0
  3
Block_1
  1

  0
LINE
  5
130
330
12C
100
AcDbEntity
  8
Camada 1
 62
    18
420
        0
370
    15
100
AcDbLine
 10
64.24703999985592
 20
-41.6412148889723
 30
0.0
 11
82.07632526507678
 21
-41.6412148889723
 31
0.0
  0
LINE
  5
131
330
12C
100
AcDbEntity
  8
Camada 1
 62
    18
420
        0
370
    15
100
AcDbLine
 10
82.07644810620667
 20
-24.7518919286537
 30
0.0
 11
82.07644810620667
 21
-41.64116430732755
 31
0.0
  0
SPLINE
  5
132
330
12C
100
AcDbEntity
  8
Camada 1
 62
    18
420
        0
370
    15
100
AcDbSpline
210
0.0
220
0.0
230
1.0
 70
     8
 71
     3
 72
     8
 73
     4
 74
     0
 42
0.0000000001
 43
0.0000000001
 40
0.0
 40
0.0
 40
0.0
 40
0.0
 40
1.0
 40
1.0
 40
1.0
 40
1.0
 10
66.34500039943607
 20
-32.54543216296433
 30
0.0
 10
66.27751726028634
 20
-32.75592767480084
 30
0.0
 10
66.24341800622244
 20
-32.97565794965639
 30
0.0
 10
66.2429410935828
 20
-33.19657689314718
 30
0.0
  0
SPLINE
  5
133
330
12C
100
AcDbEntity
  8
Camada 1
 62
    18
420
        0
370
    15
100
AcDbSpline
210
0.0
220
0.0
230
1.0
 70
     8
 71
     3
 72
     8
 73
     4
 74
     0
 42
0.0000000001
 43
0.0000000001
 40
0.0
 40
0.0
 40
0.0
 40
0.0
 40
1.0
 40
1.0
 40
1.0
 40
1.0
 10
66.24307116066868
 20
-33.19655160232529
 30
0.0
 10
66.24307116066868
 20
-33.41746693284225
 30
0.0
 10
66.27740164509834
 20
-33.63719720769749
 30
0.0
 10
66.34512324057365
 20
-33.84769633250846
 30
0.0
  0
SPLINE
  5
134
330
12C
100
AcDbEntity
  8
Camada 1
 62
    18
420
        0
370
    15
100
AcDbSpline
210
0.0
220
0.0
230
1.0
 70
     8
 71
     3
 72
     8
 73
     4
 74
     0
 42
0.0000000001
 43
0.0000000001
 40
0.0
 40
0.0
 40
0.0
 40
0.0
 40
1.0
 40
1.0
 40
1.0
 40
1.0
 10
70.5058608933049
 20
-31.86949520123328
 30
0.0
 10
70.49875055933833
 20
-31.49727572137665
 30
0.0
 10
70.19520288726987
 20
-31.19940764534267
 30
0.0
 10
69.82298702038867
 20
-31.19893434567299
 30
0.0
  0
SPLINE
  5
135
330
12C
100
AcDbEntity
  8
Camada 1
 62
    18
420
        0
370
    15
100
AcDbSpline
210
0.0
220
0.0
230
1.0
 70
     8
 71
     3
 72
     8
 73
     4
 74
     0
 42
0.0000000001
 43
0.0000000001
 40
0.0
 40
0.0
 40
0.0
 40
0.0
 40
1.0
 40
1.0
 40
1.0
 40
1.0
 10
69.82287140520066
 20
-35.1940532437915
 30
0.0
 10
70.19508727208187
 20
-35.19381478746942
 30
0.0
 10
70.49887340047334
 20
-34.89570825511305
 30
0.0
 10
70.5059765084929
 20
-34.52349238823121
 30
0.0
  0
SPLINE
  5
136
330
12C
100
AcDbEntity
  8
Camada 1
 62
    18
420
        0
370
    15
100
AcDbSpline
210
0.0
220
0.0
230
1.0
 70
     8
 71
     3
 72
     8
 73
     4
 74
     0
 42
0.0000000001
 43
0.0000000001
 40
0.0
 40
0.0
 40
0.0
 40
0.0
 40
1.0
 40
1.0
 40
1.0
 40
1.0
 10
70.50598373443607
 20
-31.88197441542263
 30
0.0
 10
70.50598373443607
 20
-31.87794594876903
 30
0.0
 10
70.50598373443607
 20
-31.87368625174262
 30
0.0
 10
70.50574527811432
 20
-31.86966139806381
 30
0.0
  0
SPLINE
  5
137
330
12C
100
AcDbEntity
  8
Camada 1
 62
    18
420
        0
370
    15
100
AcDbSpline
210
0.0
220
0.0
230
1.0
 70
     8
 71
     3
 72
     8
 73
     4
 74
     0
 42
0.0000000001
 43
0.0000000001
 40
0.0
 40
0.0
 40
0.0
 40
0.0
 40
1.0
 40
1.0
 40
1.0
 40
1.0
 10
70.5058608933049
 20
-34.52360800341761
 30
0.0
 10
70.5058608933049
 20
-34.51957953676402
 30
0.0
 10
70.50609212367963
 20
-34.51531983973759
 30
0.0
 10
70.50609212367963
 20
-34.51105652973672
 30
0.0
  0
SPLINE
  5
138
330
12C
100
AcDbEntity
  8
Camada 1
 62
    18
420
        0
370
    15
100
AcDbSpline
210
0.0
220
0.0
230
1.0
 70
     8
 71
     3
 72
     8
 73
     4
 74
     0
 42
0.0000000001
 43
0.0000000001
 40
0.0
 40
0.0
 40
0.0
 40
0.0
 40
1.0
 40
1.0
 40
1.0
 40
1.0
 10
77.15059805322986
 20
-29.72486239606411
 30
0.0
 10
77.29953209124669
 20
-29.72486239606411
 30
0.0
 10
77.42265503889246
 20
-29.60883894346952
 30
0.0
 10
77.43165134558815
 20
-29.46013974879997
 30
0.0
  0
SPLINE
  5
139
330
12C
100
AcDbEntity
  8
Camada 1
 62
    18
420
        0
370
    15
100
AcDbSpline
210
0.0
220
0.0
230
1.0
 70
     8
 71
     3
 72
     8
 73
     4
 74
     0
 42
0.0000000001
 43
0.0000000001
 40
0.0
 40
0.0
 40
0.0
 40
0.0
 40
1.0
 40
1.0
 40
1.0
 40
1.0
 10
77.43165134558815
 20
-29.46013974879997
 30
0.0
 10
77.44041642191167
 20
-29.31167901045249
 30
0.0
 10
77.33196937700535
 20
-29.18168779814278
 30
0.0
 10
77.18422039465025
 20
-29.16393002809643
 30
0.0
  0
SPLINE
  5
13A
330
12C
100
AcDbEntity
  8
Camada 1
 62
    18
420
        0
370
    15
100
AcDbSpline
210
0.0
220
0.0
230
1.0
 70
     8
 71
     3
 72
     8
 73
     4
 74
     0
 42
0.0000000001
 43
0.0000000001
 40
0.0
 40
0.0
 40
0.0
 40
0.0
 40
1.0
 40
1.0
 40
1.0
 40
1.0
 10
77.15059805322986
 20
-37.23123618503782
 30
0.0
 10
77.29953209124669
 20
-37.23123618503782
 30
0.0
 10
77.42265503889246
 20
-37.11521273244323
 30
0.0
 10
77.43165134558815
 20
-36.96651353777369
 30
0.0
  0
SPLINE
  5
13B
330
12C
100
AcDbEntity
  8
Camada 1
 62
    18
420
        0
370
    15
100
AcDbSpline
210
0.0
220
0.0
230
1.0
 70
     8
 71
     3
 72
     8
 73
     4
 74
     0
 42
0.0000000001
 43
0.0000000001
 40
0.0
 40
0.0
 40
0.0
 40
0.0
 40
1.0
 40
1.0
 40
1.0
 40
1.0
 10
77.43165134558815
 20
-36.96651353777369
 30
0.0
 10
77.44041642191167
 20
-36.81805279942621
 30
0.0
 10
77.33196937700535
 20
-36.68806158711649
 30
0.0
 10
77.18422039465025
 20
-36.67030381707047
 30
0.0
  0
SPLINE
  5
13C
330
12C
100
AcDbEntity
  8
Camada 1
 62
    18
420
        0
370
    15
100
AcDbSpline
210
0.0
220
0.0
230
1.0
 70
     8
 71
     3
 72
     8
 73
     4
 74
     0
 42
0.0000000001
 43
0.0000000001
 40
0.0
 40
0.0
 40
0.0
 40
0.0
 40
1.0
 40
1.0
 40
1.0
 40
1.0
 10
77.14574221540388
 20
-29.16191760125719
 30
0.0
 10
76.99775477672703
 20
-29.16428409960492
 30
0.0
 10
76.87723317078333
 20
-29.28125415153852
 30
0.0
 10
76.86941469379852
 20
-29.42876829054698
 30
0.0
  0
SPLINE
  5
13D
330
12C
100
AcDbEntity
  8
Camada 1
 62
    18
420
        0
370
    15
100
AcDbSpline
210
0.0
220
0.0
230
1.0
 70
     8
 71
     3
 72
     8
 73
     4
 74
     0
 42
0.0000000001
 43
0.0000000001
 40
0.0
 40
0.0
 40
0.0
 40
0.0
 40
1.0
 40
1.0
 40
1.0
 40
1.0
 10
76.86941469379852
 20
-29.42876829054698
 30
0.0
 10
76.86184189908246
 20
-29.5767557292251
 30
0.0
 10
76.9700504876683
 20
-29.70508858620341
 30
0.0
 10
77.11685287068341
 20
-29.72284635625007
 30
0.0
  0
SPLINE
  5
13E
330
12C
100
AcDbEntity
  8
Camada 1
 62
    18
420
        0
370
    15
100
AcDbSpline
210
0.0
220
0.0
230
1.0
 70
     8
 71
     3
 72
     8
 73
     4
 74
     0
 42
0.0000000001
 43
0.0000000001
 40
0.0
 40
0.0
 40
0.0
 40
0.0
 40
1.0
 40
1.0
 40
1.0
 40
1.0
 10
77.14574221540388
 20
-36.66831306807865
 30
0.0
 10
76.99775477672703
 20
-36.67067956642606
 30
0.0
 10
76.87723317078333
 20
-36.78764961835999
 30
0.0
 10
76.86941469379852
 20
-36.93516375736844
 30
0.0
  0
SPLINE
  5
13F
330
12C
100
AcDbEntity
  8
Camada 1
 62
    18
420
        0
370
    15
100
AcDbSpline
210
0.0
220
0.0
230
1.0
 70
     8
 71
     3
 72
     8
 73
     4
 74
     0
 42
0.0000000001
 43
0.0000000001
 40
0.0
 40
0.0
 40
0.0
 40
0.0
 40
1.0
 40
1.0
 40
1.0
 40
1.0
 10
76.86941469379852
 20
-36.93516375736844
 30
0.0
 10
76.86184189908246
 20
-37.08315119604626
 30
0.0
 10
76.9700504876683
 20
-37.21148405302456
 30
0.0
 10
77.11685287068341
 20
-37.22924182307122
 30
0.0
  0
SPLINE
  5
140
330
12C
100
AcDbEntity
  8
Camada 1
 62
    18
420
        0
370
    15
100
AcDbSpline
210
0.0
220
0.0
230
1.0
 70
     8
 71
     3
 72
     8
 73
     4
 74
     0
 42
0.0000000001
 43
0.0000000001
 40
0.0
 40
0.0
 40
0.0
 40
0.0
 40
1.0
 40
1.0
 40
1.0
 40
1.0
 10
77.11699738966714
 20
-29.72282467840264
 30
0.0
 10
77.12812535136328
 20
-29.72424457741134
 30
0.0
 10
77.13925331306454
 20
-29.72471787708101
 30
0.0
 10
77.15061973107856
 20
-29.72471787708101
 30
0.0
  0
SPLINE
  5
141
330
12C
100
AcDbEntity
  8
Camada 1
 62
    18
420
        0
370
    15
100
AcDbSpline
210
0.0
220
0.0
230
1.0
 70
     8
 71
     3
 72
     8
 73
     4
 74
     0
 42
0.0000000001
 43
0.0000000001
 40
0.0
 40
0.0
 40
0.0
 40
0.0
 40
1.0
 40
1.0
 40
1.0
 40
1.0
 10
77.11699738966714
 20
-37.22919846737604
 30
0.0
 10
77.12812535136328
 20
-37.23061836638505
 30
0.0
 10
77.13925331306454
 20
-37.23109166605472
 30
0.0
 10
77.15061973107856
 20
-37.23109166605472
 30
0.0
  0
SPLINE
  5
142
330
12C
100
AcDbEntity
  8
Camada 1
 62
    18
420
        0
370
    15
100
AcDbSpline
210
0.0
220
0.0
230
1.0
 70
     8
 71
     3
 72
     8
 73
     4
 74
     0
 42
0.0000000001
 43
0.0000000001
 40
0.0
 40
0.0
 40
0.0
 40
0.0
 40
1.0
 40
1.0
 40
1.0
 40
1.0
 10
77.18422039465025
 20
-29.16393002809643
 30
0.0
 10
77.17308520700199
 20
-29.16250651611327
 30
0.0
 10
77.16195724530585
 20
-29.1620332164436
 30
0.0
 10
77.15059082728671
 20
-29.1620332164436
 30
0.0
  0
SPLINE
  5
143
330
12C
100
AcDbEntity
  8
Camada 1
 62
    18
420
        0
370
    15
100
AcDbSpline
210
0.0
220
0.0
230
1.0
 70
     8
 71
     3
 72
     8
 73
     4
 74
     0
 42
0.0000000001
 43
0.0000000001
 40
0.0
 40
0.0
 40
0.0
 40
0.0
 40
1.0
 40
1.0
 40
1.0
 40
1.0
 10
77.18422039465025
 20
-36.67027852624793
 30
0.0
 10
77.17308520700199
 20
-36.66885501426509
 30
0.0
 10
77.16195724530585
 20
-36.66838171459573
 30
0.0
 10
77.15059082728671
 20
-36.66838171459573
 30
0.0
  0
ENDBLK
  5
12F
330
12C
100
AcDbEntity
  8
0
100
AcDbBlockEnd
  0
ENDSEC
  0
SECTION
  2
ENTITIES
  0
LINE
  5
79
330
70
100
AcDbEntity
  8
Camada 1
 62
    18
420
        0
370
    15
100
AcDbLine
 10
82.34275017961181
 20
-59.11502285870703
 30
0.0
 11
82.34275017961181
 21
-56.57315523613272
 31
0.0
  0
LINE
  5
7A
330
70
100
AcDbEntity
  8
Camada 1
 62
    18
420
        0
370
    15
100
AcDbLine
 10
82.22519093301022
 20
-63.91533101260926
 30
0.0
 11
82.22519093301022
 21
-59.11504819475106
 31
0.0
  0
LINE
  5
7B
330
70
100
AcDbEntity
  8
Camada 1
 62
    18
420
        0
370
    15
100
AcDbLine
 10
82.34275017961181
 20
-69.04691518756408
 30
0.0
 11
82.34275017961181
 21
-63.91526224334671
 31
0.0
  0
LINE
  5
7C
330
70
100
AcDbEntity
  8
Camada 1
 62
    18
420
        0
370
    15
100
AcDbLine
 10
82.22519093301022
 20
-74.97578667969097
 30
0.0
 11
82.22519093301022
 21
-68.7046071288395
 31
0.0
  0
LWPOLYLINE
  5
7D
330
70
100
AcDbEntity
  8
Camada 1
 62
    18
420
        0
370
    15
100
AcDbPolyline
 90
      127
 70
     0
 43
0.0
 10
30.00923604605562
 20
-64.00693891074668
 10
29.95111877934662
 20
-64.0078908221342
 10
29.89205684012028
 20
-64.01050043472086
 10
29.83299128146045
 20
-64.01358419328229
 10
29.77416460550444
 20
-64.01951282770132
 10
29.7160509582315
 20
-64.02615449080279
 10
29.65793731095855
 20
-64.03327029988033
 10
29.59982004424891
 20
-64.04346986751928
 10
29.54170639697597
 20
-64.05414358113429
 10
29.48430215895004
 20
-64.06647861538385
 10
29.42713680363113
 20
-64.08047497026666
 10
29.37044559428507
 20
-64.09541599766746
 10
29.31398964820869
 20
-64.11178308243183
 10
29.25753732157285
 20
-64.13005037053455
 10
29.20202966745051
 20
-64.14902706788557
 10
29.14723866144472
 20
-64.16966146643445
 10
29.09315344524862
 20
-64.19219606832296
 10
29.03931073119623
 20
-64.21520481618752
 10
28.98522913443682
 20
-64.23987488468663
 10
28.93304412158484
 20
-64.26620265438358
 10
28.88038496275296
 20
-64.29372121817443
 10
28.82986127053424
 20
-64.32265860045802
 10
28.77909869560915
 20
-64.35230901142407
 10
28.7292844126336
 20
-64.38385600629432
 10
28.68042204104814
 20
-64.41588076657478
 10
28.63226907870649
 20
-64.44979849132531
 10
28.58482914505112
 20
-64.48442924475827
 10
28.53833750334338
 20
-64.52096020152959
 10
28.49255527088521
 20
-64.55701339289072
 10
28.44867324176732
 20
-64.59615396224871
 10
28.40455232994242
 20
-64.63481676619649
 10
28.36233162145459
 20
-64.67537977348263
 10
28.32082032221698
 20
-64.71665219001578
 10
28.28002205165923
 20
-64.75958592718348
 10
28.24017207305488
 20
-64.8025196643499
 10
28.20198341508444
 20
-64.84735360485723
 10
28.16545245831376
 20
-64.89265807190522
 10
28.12892512097656
 20
-64.93867556763435
 10
28.09381660213277
 20
-64.98588023802195
 10
28.06084716933242
 20
-65.0337943176553
 10
28.02834826307592
 20
-65.08336971792319
 10
27.99680126820567
 20
-65.13294511819109
 10
27.96691559396931
 20
-65.18346881041108
 10
27.93773932897933
 20
-65.2337572393614
 10
27.91045964789678
 20
-65.28570336951085
 10
27.88460602417395
 20
-65.33883667431623
 10
27.85969707296783
 20
-65.39149583314683
 10
27.83645306183551
 20
-65.44510328392954
 10
27.81415372321669
 20
-65.49966264609977
 10
27.7932804419608
 20
-65.5542183888346
 10
27.77430374461234
 20
-65.60948716025056
 10
27.75675310462361
 20
-65.6649911949375
 10
27.74014713715543
 20
-65.72120825830686
 10
27.7252024903205
 20
-65.77813835035738
 10
27.71120975487246
 20
-65.83530370567756
 10
27.69863583791782
 20
-65.89223379772808
 10
27.6879621242996
 20
-65.94987329902561
 10
27.67871084861532
 20
-66.00775168302823
 10
27.67112089356109
 20
-66.06562644759545
 10
27.6644792304609
 20
-66.12350483159935
 10
27.65973415126365
 20
-66.18209624428311
 10
27.65641512942998
 20
-66.24068403753276
 10
27.65380551684268
 20
-66.29951071348749
 10
27.65380551684268
 20
-66.35715021478502
 10
27.65404439954906
 20
-66.37280789030238
 10
27.65641512942998
 20
-66.4745646839894
 10
27.66044717994672
 20
-66.53315609667316
 10
27.6654275224143
 20
-66.5910344806758
 10
27.67301747746467
 20
-66.64962227392544
 10
27.68108519792909
 20
-66.70750065792806
 10
27.69033647361657
 20
-66.7651401592256
 10
27.70195847918433
 20
-66.82230551454707
 10
27.71452877670613
 20
-66.88018389854969
 10
27.72852513158766
 20
-66.93640096191777
 10
27.74346977842194
 20
-66.99333105396957
 10
27.76007212645728
 20
-67.04954811733765
 10
27.77833579512587
 20
-67.10481688875361
 10
27.79826078442837
 20
-67.16008566017086
 10
27.81913768511647
 20
-67.2146414029057
 10
27.84143340429924
 20
-67.26919714564052
 10
27.8656293268255
 20
-67.32304347912831
 10
27.89053465859107
 20
-67.37570263795891
 10
27.9171013109976
 20
-67.42788765081218
 10
27.94438099208016
 20
-67.47912075228048
 10
27.9735572570695
 20
-67.53035747318162
 10
28.00344293130649
 20
-67.58040701942558
 10
28.03498992617676
 20
-67.63022130239985
 10
28.06843712438665
 20
-67.67884841071434
 10
28.10235846857388
 20
-67.72676249034898
 10
28.13722448527396
 20
-67.77301886878447
 10
28.17375544204785
 20
-67.81951051048965
 10
28.21123469077192
 20
-67.86481497753763
 10
28.24942334874237
 20
-67.90869700665744
 10
28.28927332734672
 20
-67.95234377250629
 10
28.32983633463414
 20
-67.99456448099156
 10
28.3713440144357
 20
-68.03583689752471
 10
28.41451663430977
 20
-68.07545161285874
 10
28.45863754613468
 20
-68.11506270875864
 10
28.50346786720596
 20
-68.15325498616451
 10
28.54924648023127
 20
-68.18930817752435
 10
28.59573812193581
 20
-68.22583913429696
 10
28.64294279232471
 20
-68.25952159577653
 10
28.6910957546625
 20
-68.29343932052707
 10
28.74019700895435
 20
-68.32593822678486
 10
28.79072070117691
 20
-68.35630166643203
 10
28.841483276102
 20
-68.38595207739807
 10
28.89295526027412
 20
-68.41417643100053
 10
28.94442724444623
 20
-68.441456112085
 10
28.99779943195862
 20
-68.46707447253622
 10
29.05093273676399
 20
-68.491979804305
 10
29.10477907025308
 20
-68.51475328889988
 10
29.15957369569235
 20
-68.53633597940087
 10
29.21531661308502
 20
-68.55697399738516
 10
29.27082064777451
 20
-68.57618595800587
 10
29.32656356516334
 20
-68.59421436340349
 10
29.38301589180623
 20
-68.60987203892086
 10
29.44042012983215
 20
-68.62481306632165
 10
29.4975854851517
 20
-68.63809639252202
 10
29.55498972317763
 20
-68.65043142677285
 10
29.61310337045058
 20
-68.66110514038787
 10
29.67122063716021
 20
-68.67035641607471
 10
29.72933428443252
 20
-68.67771110785733
 10
29.78816096038917
 20
-68.68435277095753
 10
29.8465134903685
 20
-68.68909785015478
 10
29.90557542959163
 20
-68.69265575469225
 10
29.96440210554764
 20
-68.6940781926217
 10
30.00923604605562
 20
-68.6940781926217
  0
LWPOLYLINE
  5
7E
330
70
100
AcDbEntity
  8
Camada 1
 62
    18
420
        0
370
    15
100
AcDbPolyline
 90
      127
 70
     0
 43
0.0
 10
30.00923604605562
 20
-68.6942157311481
 10
30.06805910257559
 20
-68.69326743919599
 10
30.12712466123541
 20
-68.69160973799687
 10
30.18595133719143
 20
-68.68757406804791
 10
30.24430386717075
 20
-68.68259372558099
 10
30.30336580639388
 20
-68.67619094518587
 10
30.36147945366682
 20
-68.6686009901323
 10
30.41959672037582
 20
-68.6586366857643
 10
30.47771036764876
 20
-68.64796297214802
 10
30.53487572297217
 20
-68.63539267462879
 10
30.59227996099745
 20
-68.62139631974469
 10
30.64873590706998
 20
-68.60669055561486
 10
30.70518823370967
 20
-68.59008458814539
 10
30.76164417978541
 20
-68.57205618274775
 10
30.81643880522468
 20
-68.55284422212704
 10
30.8721781031845
 20
-68.53220620414276
 10
30.92602443667359
 20
-68.51014936766573
 10
30.98010603343235
 20
-68.48595344514269
 10
31.03323933823773
 20
-68.46128337664485
 10
31.08637264304374
 20
-68.43542975292267
 10
31.13784824665191
 20
-68.40838895454329
 10
31.18932023082466
 20
-68.37944795282428
 10
31.24008280574976
 20
-68.34979754185953
 10
31.28989346928861
 20
-68.31825054698926
 10
31.33899472358044
 20
-68.28599052343658
 10
31.38714768591889
 20
-68.25230806195701
 10
31.43435235630714
 20
-68.21743842581894
 10
31.48084399801232
 20
-68.18114635175271
 10
31.526622611037
 20
-68.14414486843947
 10
31.57050464015488
 20
-68.10595259103362
 10
31.61462555197978
 20
-68.06634149513371
 10
31.65708514317079
 20
-68.02577848784757
 10
31.69859644241161
 20
-67.98474133458538
 10
31.73915944969582
 20
-67.9425206261001
 10
31.7782963996203
 20
-67.89863859698029
 10
31.81719808627126
 20
-67.85499183113144
 10
31.85372542360845
 20
-67.80944848137838
 10
31.89025638038233
 20
-67.76319572237828
 10
31.92512601651911
 20
-67.71527802330952
 10
31.95833433202263
 20
-67.6673639436749
 10
31.99082961884628
 20
-67.61850157208815
 10
32.02238023314939
 20
-67.56916143509123
 10
32.05226590738575
 20
-67.51863774287122
 10
32.08120328967256
 20
-67.4674010219688
 10
32.10872185346213
 20
-67.41640318377273
 10
32.13457547718109
 20
-67.36326987896608
 10
32.15948080895053
 20
-67.31037183743038
 10
32.18272843952275
 20
-67.25676438664767
 10
32.20502415870552
 20
-67.20244752661795
 10
32.22494914800801
 20
-67.147888164449
 10
32.24487413730987
 20
-67.09238412976207
 10
32.26242839673144
 20
-67.0361670663927
 10
32.27903436420348
 20
-66.9801852662943
 10
32.29397539160171
 20
-66.92396820292621
 10
32.30797174648644
 20
-66.86704173030983
 10
32.32054204400439
 20
-66.80987637498964
 10
32.33121575762261
 20
-66.75223325425669
 10
32.34046703330689
 20
-66.69411960698311
 10
32.34782172509079
 20
-66.63624122298178
 10
32.35446338819098
 20
-66.57788869300181
 10
32.35944373065855
 20
-66.51977504572823
 10
32.36276637192572
 20
-66.46118725247987
 10
32.36537598451237
 20
-66.40259583979482
 10
32.36537598451237
 20
-66.34400804654517
 10
32.36442407312612
 20
-66.28518137059043
 10
32.36205334324585
 20
-66.22777713256387
 10
32.35873432141153
 20
-66.16895045660914
 10
32.35280206755772
 20
-66.1101237806544
 10
32.34616040445753
 20
-66.05224901608591
 10
32.33785742071959
 20
-65.99460589535425
 10
32.32884502773848
 20
-65.93672751135162
 10
32.31722302217072
 20
-65.87908801005409
 10
32.30464910521607
 20
-65.82192265473389
 10
32.29065636976803
 20
-65.76499256268211
 10
32.27571172293311
 20
-65.70877549931402
 10
32.25910575546493
 20
-65.65255843594465
 10
32.24084208679633
 20
-65.59728966452869
 10
32.22091709749384
 20
-65.54178562984176
 10
32.20004381623795
 20
-65.48746515037662
 10
32.17774809705581
 20
-65.4329094076418
 10
32.15355217453341
 20
-65.37906307415399
 10
32.12864684276398
 20
-65.32616865205371
 10
32.10208019036129
 20
-65.27398363919918
 10
32.07456162656852
 20
-65.222037509051
 10
32.04562424428491
 20
-65.17174908010068
 10
32.01573857004856
 20
-65.12122538788069
 10
31.98418795574545
 20
-65.07188525088375
 10
31.95097964024193
 20
-65.02325814256797
 10
31.91682303278502
 20
-64.97510879966238
 10
31.88195339664761
 20
-64.92813939254573
 10
31.84542605931041
 20
-64.88283492549775
 10
31.80818569328951
 20
-64.83729157574469
 10
31.76999341588621
 20
-64.79246125467276
 10
31.73014343728187
 20
-64.74952751750634
 10
31.68934516672412
 20
-64.70754207229075
 10
31.6478338674833
 20
-64.66626965575759
 10
31.60466486704849
 20
-64.62570664847145
 10
31.56054395522037
 20
-64.58704384452494
 10
31.51571363414909
 20
-64.54885156711781
 10
31.47017028439731
 20
-64.5123242297819
 10
31.42367864269277
 20
-64.47626741898535
 10
31.3762350895975
 20
-64.44163666555367
 10
31.32808574669255
 20
-64.40842835004886
 10
31.27921975567424
 20
-64.37640720920255
 10
31.22846080018199
 20
-64.34580488685027
 10
31.17793348852658
 20
-64.31591921261456
 10
31.12646150435447
 20
-64.28698183032967
 10
31.07380234552194
 20
-64.2606504411973
 10
31.02161733266996
 20
-64.23408378879398
 10
30.96848402786074
 20
-64.2101267489773
 10
30.91368940242211
 20
-64.18711800111274
 10
30.8596078056627
 20
-64.16482228192932
 10
30.80410377097705
 20
-64.14489367319205
 10
30.74836085358438
 20
-64.12592059527644
 10
30.69261793619172
 20
-64.10789218987881
 10
30.63616199011598
 20
-64.09199925109177
 10
30.57899663479643
 20
-64.07705460425558
 10
30.5215923967705
 20
-64.06306186880688
 10
30.46442704144775
 20
-64.05167512651073
 10
30.4063133941748
 20
-64.04100141289444
 10
30.34819612746901
 20
-64.03175013720759
 10
30.28984721692189
 20
-64.02439544542497
 10
30.23078165826271
 20
-64.01775378232478
 10
30.17266801098977
 20
-64.01277343985785
 10
30.11384133503375
 20
-64.00945079859005
 10
30.05477577637392
 20
-64.00779309739092
 10
30.00923604605562
 20
-64.00708006870977
  0
CIRCLE
  5
7F
330
70
100
AcDbEntity
  8
Camada 1
 62
    18
420
        0
370
    15
100
AcDbCircle
 10
30.01006489665406
 20
-66.37271107041762
 30
0.0
 40
1.882682107389969
  0
LINE
  5
80
330
70
100
AcDbEntity
  8
Camada 1
 62
    18
420
        0
370
    15
100
AcDbLine
 10
30.01020605461763
 20
-69.18053024752571
 30
0.0
 11
30.01020605461763
 21
-63.56474530619527
 31
0.0
  0
LINE
  5
81
330
70
100
AcDbEntity
  8
Camada 1
 62
    18
420
        0
370
    15
100
AcDbLine
 10
27.20207470124861
 20
-66.37237717754485
 30
0.0
 11
32.81785964257776
 21
-66.37237717754485
 31
0.0
  0
LINE
  5
82
330
70
100
AcDbEntity
  8
Camada 1
 62
    18
420
        0
370
    15
100
AcDbLine
 10
24.83248856201464
 20
-74.86309195363851
 30
0.0
 11
24.36187515437484
 21
-70.12566786224859
 31
0.0
  0
LINE
  5
83
330
70
100
AcDbEntity
  8
Camada 1
 62
    18
420
        0
370
    15
100
AcDbLine
 10
23.43396062077828
 20
-59.91881249073711
 30
0.0
 11
24.36189687098731
 21
-70.12566967196693
 31
0.0
  0
LINE
  5
84
330
70
100
AcDbEntity
  8
Camada 1
 62
    18
420
        0
370
    15
100
AcDbLine
 10
26.4303134489331
 20
-69.48472203697652
 30
0.0
 11
25.58847631689373
 21
-60.22454254003515
 31
0.0
  0
LINE
  5
85
330
70
100
AcDbEntity
  8
Camada 1
 62
    18
420
        0
370
    15
100
AcDbLine
 10
26.39814753068956
 20
-70.46508218274455
 30
0.0
 11
26.4311169634867
 21
-69.51650791455188
 31
0.0
  0
LWPOLYLINE
  5
86
330
70
100
AcDbEntity
  8
Camada 1
 62
    18
420
        0
370
    15
100
AcDbPolyline
 90
        8
 70
     0
 43
0.0
 10
28.0294413324259
 20
-72.37051198625472
 10
28.03252147155319
 20
-72.39067585826297
 10
28.03536996684302
 20
-72.41154913951692
 10
28.03868898867733
 20
-72.43289656674822
 10
28.04248577592055
 20
-72.45614238760082
 10
28.04675670914109
 20
-72.48152367506401
 10
28.05173705160803
 20
-72.50856447344339
 10
28.05482081017202
 20
-72.52398326625438
  0
LINE
  5
87
330
70
100
AcDbEntity
  8
Camada 1
 62
    18
420
        0
370
    15
100
AcDbLine
 10
28.02702354989233
 20
-72.35265188458129
 30
0.0
 11
28.02939427977261
 21
-72.37044321699089
 31
0.0
  0
LINE
  5
88
330
70
100
AcDbEntity
  8
Camada 1
 62
    18
420
        0
370
    15
100
AcDbLine
 10
27.7221694038465
 20
-58.02210914484836
 30
0.0
 11
27.6294213837071
 21
-56.3602636928491
 31
0.0
  0
LINE
  5
89
330
70
100
AcDbEntity
  8
Camada 1
 62
    18
420
        0
370
    15
100
AcDbLine
 10
25.5885016529384
 20
-60.22461492873311
 30
0.0
 11
23.89605387858559
 21
-56.524481075163
 31
0.0
  0
LINE
  5
8A
330
70
100
AcDbEntity
  8
Camada 1
 62
    18
420
        0
370
    15
100
AcDbLine
 10
32.39025959967317
 20
-56.36023835680379
 30
0.0
 11
32.29751157953057
 21
-58.02208742823847
 31
0.0
  0
LINE
  5
8B
330
70
100
AcDbEntity
  8
Camada 1
 62
    18
420
        0
370
    15
100
AcDbLine
 10
36.12376826275457
 20
-56.52433629776578
 30
0.0
 11
34.43132048840175
 21
-60.22447377077131
 31
0.0
  0
LINE
  5
8C
330
70
100
AcDbEntity
  8
Camada 1
 62
    18
420
        0
370
    15
100
AcDbLine
 10
33.58863278915227
 20
-69.51648257850784
 30
0.0
 11
33.62160222195262
 21
-70.46505865641758
 31
0.0
  0
LINE
  5
8D
330
70
100
AcDbEntity
  8
Camada 1
 62
    18
420
        0
370
    15
100
AcDbLine
 10
31.9951005520662
 20
-72.33483702584472
 30
0.0
 11
31.99272620274986
 21
-72.35262835825432
 31
0.0
  0
LWPOLYLINE
  5
8E
330
70
100
AcDbEntity
  8
Camada 1
 62
    18
420
        0
370
    15
100
AcDbPolyline
 90
        9
 70
     0
 43
0.0
 10
31.96492894247017
 20
-72.52407737156352
 10
31.96800908159746
 20
-72.50842331548158
 10
31.97299304350109
 20
-72.4813825171022
 10
31.97726035728495
 20
-72.45623830262704
 10
31.98105714452816
 20
-72.43299248177445
 10
31.98437616636248
 20
-72.41140617183805
 10
31.98745992492262
 20
-72.39076996357083
 10
31.99030842021629
 20
-72.37060790127967
 10
31.99267915009657
 20
-72.35281837858841
  0
LINE
  5
8F
330
70
100
AcDbEntity
  8
Camada 1
 62
    18
420
        0
370
    15
100
AcDbLine
 10
34.43132048840175
 20
-60.22461492873311
 30
0.0
 11
33.58948335636239
 21
-69.48479442567577
 31
0.0
  0
LINE
  5
90
330
70
100
AcDbEntity
  8
Camada 1
 62
    18
420
        0
370
    15
100
AcDbLine
 10
35.65799403961861
 20
-70.12569138857556
 30
0.0
 11
36.585930289827
 21
-59.91883420734573
 31
0.0
  0
LINE
  5
91
330
70
100
AcDbEntity
  8
Camada 1
 62
    18
420
        0
370
    15
100
AcDbLine
 10
35.18726481005975
 20
-74.86309195363851
 30
0.0
 11
35.6578745982635
 21
-70.12566786224859
 31
0.0
  0
LINE
  5
92
330
70
100
AcDbEntity
  8
Camada 1
 62
    18
420
        0
370
    15
100
AcDbLine
 10
35.77484025753714
 20
-56.00562059987497
 30
0.0
 11
24.24509770572144
 21
-56.00562059987497
 31
0.0
  0
LINE
  5
93
330
70
100
AcDbEntity
  8
Camada 1
 62
    18
420
        0
370
    15
100
AcDbLine
 10
21.82012335372087
 20
-55.53489137031803
 30
0.0
 11
38.19924635825442
 21
-55.53489137031803
 31
0.0
  0
SPLINE
  5
94
330
70
100
AcDbEntity
  8
Camada 1
 62
    18
420
        0
370
    15
100
AcDbSpline
210
0.0
220
0.0
230
1.0
 70
     8
 71
     3
 72
     8
 73
     4
 74
     0
 42
0.0000000001
 43
0.0000000001
 40
0.0
 40
0.0
 40
0.0
 40
0.0
 40
1.0
 40
1.0
 40
1.0
 40
1.0
 10
22.94982862366714
 20
-59.30034878554586
 30
0.0
 10
22.94982862366714
 20
-59.51241147823054
 30
0.0
 10
23.09167427866231
 20
-59.69813916234746
 30
0.0
 10
23.29614339686058
 20
-59.75412096244586
 30
0.0
  0
SPLINE
  5
95
330
70
100
AcDbEntity
  8
Camada 1
 62
    18
420
        0
370
    15
100
AcDbSpline
210
0.0
220
0.0
230
1.0
 70
     8
 71
     3
 72
     8
 73
     4
 74
     0
 42
0.0000000001
 43
0.0000000001
 40
0.0
 40
0.0
 40
0.0
 40
0.0
 40
1.0
 40
1.0
 40
1.0
 40
1.0
 10
23.43396062077828
 20
-59.91881249073711
 30
0.0
 10
23.42684119226469
 20
-59.8405385908907
 30
0.0
 10
23.3718113035551
 20
-59.7750702518345
 30
0.0
 10
23.29614339686058
 20
-59.75419697057925
 30
0.0
  0
SPLINE
  5
96
330
70
100
AcDbEntity
  8
Camada 1
 62
    18
420
        0
370
    15
100
AcDbSpline
210
0.0
220
0.0
230
1.0
 70
     8
 71
     3
 72
     8
 73
     4
 74
     0
 42
0.0000000001
 43
0.0000000001
 40
0.0
 40
0.0
 40
0.0
 40
0.0
 40
1.0
 40
1.0
 40
1.0
 40
1.0
 10
26.4021795812031
 20
-70.38528631050962
 30
0.0
 10
26.36422618650233
 20
-71.47784531974413
 30
0.0
 10
27.16383899062037
 20
-72.41977973455369
 30
0.0
 10
28.24809501612272
 20
-72.55949173265854
 30
0.0
  0
SPLINE
  5
97
330
70
100
AcDbEntity
  8
Camada 1
 62
    18
420
        0
370
    15
100
AcDbSpline
210
0.0
220
0.0
230
1.0
 70
     8
 71
     3
 72
     8
 73
     4
 74
     0
 42
0.0000000001
 43
0.0000000001
 40
0.0
 40
0.0
 40
0.0
 40
0.0
 40
1.0
 40
1.0
 40
1.0
 40
1.0
 10
33.61766789617852
 20
-70.38528631050962
 30
0.0
 10
33.65561767144644
 20
-71.47784531974413
 30
0.0
 10
32.85600486732776
 20
-72.41977973455369
 30
0.0
 10
31.77174884182606
 20
-72.55949173265854
 30
0.0
  0
SPLINE
  5
98
330
70
100
AcDbEntity
  8
Camada 1
 62
    18
420
        0
370
    15
100
AcDbSpline
210
0.0
220
0.0
230
1.0
 70
     8
 71
     3
 72
     8
 73
     4
 74
     0
 42
0.0000000001
 43
0.0000000001
 40
0.0
 40
0.0
 40
0.0
 40
0.0
 40
1.0
 40
1.0
 40
1.0
 40
1.0
 10
25.64429162298437
 20
-60.83868463991586
 30
0.0
 10
25.64215615637441
 20
-60.81544062878033
 30
0.0
 10
25.63669804849729
 20
-60.79267076362086
 30
0.0
 10
25.62792453822256
 20
-60.77108445368446
 30
0.0
  0
SPLINE
  5
99
330
70
100
AcDbEntity
  8
Camada 1
 62
    18
420
        0
370
    15
100
AcDbSpline
210
0.0
220
0.0
230
1.0
 70
     8
 71
     3
 72
     8
 73
     4
 74
     0
 42
0.0000000001
 43
0.0000000001
 40
0.0
 40
0.0
 40
0.0
 40
0.0
 40
1.0
 40
1.0
 40
1.0
 40
1.0
 10
23.93239300530639
 20
-56.17190106010021
 30
0.0
 10
23.8621795870555
 20
-56.27603582253834
 30
0.0
 10
23.84866099758415
 20
-56.40815605587254
 30
0.0
 10
23.89610093123888
 20
-56.52438696985513
 30
0.0
  0
SPLINE
  5
9A
330
70
100
AcDbEntity
  8
Camada 1
 62
    18
420
        0
370
    15
100
AcDbSpline
210
0.0
220
0.0
230
1.0
 70
     8
 71
     3
 72
     8
 73
     4
 74
     0
 42
0.0000000001
 43
0.0000000001
 40
0.0
 40
0.0
 40
0.0
 40
0.0
 40
1.0
 40
1.0
 40
1.0
 40
1.0
 10
24.24502893645632
 20
-56.00562059987497
 30
0.0
 10
24.11954674678625
 20
-56.00562059987497
 30
0.0
 10
24.00236754085411
 20
-56.0677699170975
 30
0.0
 10
23.93239300530639
 20
-56.17190106010021
 30
0.0
  0
SPLINE
  5
9B
330
70
100
AcDbEntity
  8
Camada 1
 62
    18
420
        0
370
    15
100
AcDbSpline
210
0.0
220
0.0
230
1.0
 70
     8
 71
     3
 72
     8
 73
     4
 74
     0
 42
0.0000000001
 43
0.0000000001
 40
0.0
 40
0.0
 40
0.0
 40
0.0
 40
1.0
 40
1.0
 40
1.0
 40
1.0
 10
27.62951548901369
 20
-56.36023835680379
 30
0.0
 10
27.6195511846457
 20
-56.18992946549913
 30
0.0
 10
27.49644334429324
 20
-56.04737078181959
 30
0.0
 10
27.32921459211524
 20
-56.01321055492856
 30
0.0
  0
SPLINE
  5
9C
330
70
100
AcDbEntity
  8
Camada 1
 62
    18
420
        0
370
    15
100
AcDbSpline
210
0.0
220
0.0
230
1.0
 70
     8
 71
     3
 72
     8
 73
     4
 74
     0
 42
0.0000000001
 43
0.0000000001
 40
0.0
 40
0.0
 40
0.0
 40
0.0
 40
1.0
 40
1.0
 40
1.0
 40
1.0
 10
30.00987668603752
 20
-72.67242534141736
 30
0.0
 10
30.59908811810669
 20
-72.67242534141736
 30
0.0
 10
31.18735125821926
 20
-72.63447375643366
 30
0.0
 10
31.77182123052788
 20
-72.55927999571454
 30
0.0
  0
SPLINE
  5
9D
330
70
100
AcDbEntity
  8
Camada 1
 62
    18
420
        0
370
    15
100
AcDbSpline
210
0.0
220
0.0
230
1.0
 70
     8
 71
     3
 72
     8
 73
     4
 74
     0
 42
0.0000000001
 43
0.0000000001
 40
0.0
 40
0.0
 40
0.0
 40
0.0
 40
1.0
 40
1.0
 40
1.0
 40
1.0
 10
28.24802262742411
 20
-72.55942115367765
 30
0.0
 10
28.83225371702314
 20
-72.63461491439675
 30
0.0
 10
29.4207521204086
 20
-72.67256830909623
 30
0.0
 10
30.00996717191126
 20
-72.67256830909623
 30
0.0
  0
SPLINE
  5
9E
330
70
100
AcDbEntity
  8
Camada 1
 62
    18
420
        0
370
    15
100
AcDbSpline
210
0.0
220
0.0
230
1.0
 70
     8
 71
     3
 72
     8
 73
     4
 74
     0
 42
0.0000000001
 43
0.0000000001
 40
0.0
 40
0.0
 40
0.0
 40
0.0
 40
1.0
 40
1.0
 40
1.0
 40
1.0
 10
30.00987668603752
 20
-60.18552141202908
 30
0.0
 10
30.99806205012945
 20
-60.18409897410092
 30
0.0
 10
31.87429105289541
 20
-59.55053136693845
 30
0.0
 10
32.1850304001379
 20
-58.61239192965569
 30
0.0
  0
SPLINE
  5
9F
330
70
100
AcDbEntity
  8
Camada 1
 62
    18
420
        0
370
    15
100
AcDbSpline
210
0.0
220
0.0
230
1.0
 70
     8
 71
     3
 72
     8
 73
     4
 74
     0
 42
0.0000000001
 43
0.0000000001
 40
0.0
 40
0.0
 40
0.0
 40
0.0
 40
1.0
 40
1.0
 40
1.0
 40
1.0
 10
27.7221694038465
 20
-58.02210914484836
 30
0.0
 10
27.73355252670789
 20
-58.22302035850658
 30
0.0
 10
27.77103177543196
 20
-58.42156084228452
 30
0.0
 10
27.83460353058523
 20
-58.61251137100887
 30
0.0
  0
SPLINE
  5
A0
330
70
100
AcDbEntity
  8
Camada 1
 62
    18
420
        0
370
    15
100
AcDbSpline
210
0.0
220
0.0
230
1.0
 70
     9
 71
     3
 72
    17
 73
    13
 74
     0
 42
0.0000000001
 43
0.0000000001
 40
0.0
 40
0.0
 40
0.0
 40
0.0
 40
1.0
 40
1.0
 40
1.0
 40
2.0
 40
2.0
 40
2.0
 40
3.0
 40
3.0
 40
3.0
 40
4.0
 40
4.0
 40
4.0
 40
4.0
 10
31.77521264105631
 20
-57.88882345346557
 30
0.0
 10
31.77521264105631
 20
-56.91392141557595
 30
0.0
 10
30.98485111262576
 20
-56.12355988714475
 30
0.0
 10
30.00994545530264
 20
-56.12355988714475
 30
0.0
 10
29.03503979797568
 20
-56.12355988714475
 30
0.0
 10
28.24467826954576
 20
-56.91392141557595
 30
0.0
 10
28.24467826954576
 20
-57.88882345346557
 30
0.0
 10
28.24467826954576
 20
-58.86372911079061
 30
0.0
 10
29.03503979797568
 20
-59.65409063922181
 30
0.0
 10
30.00994545530264
 20
-59.65409063922181
 30
0.0
 10
30.98485111262576
 20
-59.65409063922181
 30
0.0
 10
31.77521264105631
 20
-58.86372911079061
 30
0.0
 10
31.77521264105631
 20
-57.88882345346557
 30
0.0
  0
SPLINE
  5
A1
330
70
100
AcDbEntity
  8
Camada 1
 62
    18
420
        0
370
    15
100
AcDbSpline
210
0.0
220
0.0
230
1.0
 70
     8
 71
     3
 72
     8
 73
     4
 74
     0
 42
0.0000000001
 43
0.0000000001
 40
0.0
 40
0.0
 40
0.0
 40
0.0
 40
1.0
 40
1.0
 40
1.0
 40
1.0
 10
27.83479174120226
 20
-58.61250775157346
 30
0.0
 10
28.14552746900805
 20
-59.55041192558525
 30
0.0
 10
29.02175647177465
 20
-60.18421841545411
 30
0.0
 10
30.00994545530264
 20
-60.18564085338227
 30
0.0
  0
SPLINE
  5
A2
330
70
100
AcDbEntity
  8
Camada 1
 62
    18
420
        0
370
    15
100
AcDbSpline
210
0.0
220
0.0
230
1.0
 70
     8
 71
     3
 72
     8
 73
     4
 74
     0
 42
0.0000000001
 43
0.0000000001
 40
0.0
 40
0.0
 40
0.0
 40
0.0
 40
1.0
 40
1.0
 40
1.0
 40
1.0
 10
32.18521861075493
 20
-58.61250775157346
 30
0.0
 10
32.24855148320183
 20
-58.42156084228452
 30
0.0
 10
32.28626599519557
 20
-58.22302035850658
 30
0.0
 10
32.29765273749366
 20
-58.02210914484836
 30
0.0
  0
SPLINE
  5
A3
330
70
100
AcDbEntity
  8
Camada 1
 62
    18
420
        0
370
    15
100
AcDbSpline
210
0.0
220
0.0
230
1.0
 70
     8
 71
     3
 72
     8
 73
     4
 74
     0
 42
0.0000000001
 43
0.0000000001
 40
0.0
 40
0.0
 40
0.0
 40
0.0
 40
1.0
 40
1.0
 40
1.0
 40
1.0
 10
32.61830571701736
 20
-56.03577049286109
 30
0.0
 10
32.48689489293017
 20
-56.09199117566459
 30
0.0
 10
32.3986530692778
 20
-56.21770862860369
 30
0.0
 10
32.39011482227339
 20
-56.36026731228323
 30
0.0
  0
SPLINE
  5
A4
330
70
100
AcDbEntity
  8
Camada 1
 62
    18
420
        0
370
    15
100
AcDbSpline
210
0.0
220
0.0
230
1.0
 70
     8
 71
     3
 72
     8
 73
     4
 74
     0
 42
0.0000000001
 43
0.0000000001
 40
0.0
 40
0.0
 40
0.0
 40
0.0
 40
1.0
 40
1.0
 40
1.0
 40
1.0
 10
36.72365340843491
 20
-59.75421506775502
 30
0.0
 10
36.92812252663317
 20
-59.69823688709075
 30
0.0
 10
37.06996818162835
 20
-59.5125055835397
 30
0.0
 10
37.06996818162835
 20
-59.30044651029042
 30
0.0
  0
SPLINE
  5
A5
330
70
100
AcDbEntity
  8
Camada 1
 62
    18
420
        0
370
    15
100
AcDbSpline
210
0.0
220
0.0
230
1.0
 70
     8
 71
     3
 72
     8
 73
     4
 74
     0
 42
0.0000000001
 43
0.0000000001
 40
0.0
 40
0.0
 40
0.0
 40
0.0
 40
1.0
 40
1.0
 40
1.0
 40
1.0
 10
35.77481492149246
 20
-56.00569298857422
 30
0.0
 10
35.90005822845615
 20
-56.00569298857422
 30
0.0
 10
36.01747269765797
 20
-56.06783868636135
 30
0.0
 10
36.08745085264271
 20
-56.17196982936405
 30
0.0
  0
SPLINE
  5
A6
330
70
100
AcDbEntity
  8
Camada 1
 62
    18
420
        0
370
    15
100
AcDbSpline
210
0.0
220
0.0
230
1.0
 70
     8
 71
     3
 72
     8
 73
     4
 74
     0
 42
0.0000000001
 43
0.0000000001
 40
0.0
 40
0.0
 40
0.0
 40
0.0
 40
1.0
 40
1.0
 40
1.0
 40
1.0
 10
36.08745085264271
 20
-56.17196982936405
 30
0.0
 10
36.15742538819012
 20
-56.27610459180218
 30
0.0
 10
36.17094397766145
 20
-56.40798956186671
 30
0.0
 10
36.12374292670958
 20
-56.5242168564126
 30
0.0
  0
SPLINE
  5
A7
330
70
100
AcDbEntity
  8
Camada 1
 62
    18
420
        0
370
    15
100
AcDbSpline
210
0.0
220
0.0
230
1.0
 70
     8
 71
     3
 72
     8
 73
     4
 74
     0
 42
0.0000000001
 43
0.0000000001
 40
0.0
 40
0.0
 40
0.0
 40
0.0
 40
1.0
 40
1.0
 40
1.0
 40
1.0
 10
34.39192293916227
 20
-60.77105911764043
 30
0.0
 10
34.38314580945148
 20
-60.79264542757683
 30
0.0
 10
34.37768770157437
 20
-60.8156541754414
 30
0.0
 10
34.37555585439726
 20
-60.83866292330595
 30
0.0
  0
SPLINE
  5
A8
330
70
100
AcDbEntity
  8
Camada 1
 62
    18
420
        0
370
    15
100
AcDbSpline
210
0.0
220
0.0
230
1.0
 70
     8
 71
     3
 72
     8
 73
     4
 74
     0
 42
0.0000000001
 43
0.0000000001
 40
0.0
 40
0.0
 40
0.0
 40
0.0
 40
1.0
 40
1.0
 40
1.0
 40
1.0
 10
36.72365340843491
 20
-59.75421506775502
 30
0.0
 10
36.64774661903722
 20
-59.77485308573802
 30
0.0
 10
36.59295199359474
 20
-59.84079557077029
 30
0.0
 10
36.58583618451721
 20
-59.91883420734573
 30
0.0
  0
SPLINE
  5
A9
330
70
100
AcDbEntity
  8
Camada 1
 62
    18
420
        0
370
    15
100
AcDbSpline
210
0.0
220
0.0
230
1.0
 70
     8
 71
     3
 72
    74
 73
    70
 74
     0
 42
0.0000000001
 43
0.0000000001
 40
0.0
 40
0.0
 40
0.0
 40
0.0
 40
1.0
 40
1.0
 40
1.0
 40
2.0
 40
2.0
 40
2.0
 40
3.0
 40
3.0
 40
3.0
 40
4.0
 40
4.0
 40
4.0
 40
5.0
 40
5.0
 40
5.0
 40
6.0
 40
6.0
 40
6.0
 40
7.0
 40
7.0
 40
7.0
 40
8.0
 40
8.0
 40
8.0
 40
9.0
 40
9.0
 40
9.0
 40
10.0
 40
10.0
 40
10.0
 40
11.0
 40
11.0
 40
11.0
 40
12.0
 40
12.0
 40
12.0
 40
13.0
 40
13.0
 40
13.0
 40
14.0
 40
14.0
 40
14.0
 40
15.0
 40
15.0
 40
15.0
 40
16.0
 40
16.0
 40
16.0
 40
17.0
 40
17.0
 40
17.0
 40
18.0
 40
18.0
 40
18.0
 40
19.0
 40
19.0
 40
19.0
 40
20.0
 40
20.0
 40
20.0
 40
21.0
 40
21.0
 40
21.0
 40
22.0
 40
22.0
 40
22.0
 40
23.0
 40
23.0
 40
23.0
 40
23.0
 10
22.94982862366714
 20
-59.30034878554586
 30
0.0
 10
22.94982862366714
 20
-59.30034878554586
 30
0.0
 10
22.94626709969039
 20
-59.13905228722295
 30
0.0
 10
22.94626709969039
 20
-59.13905228722295
 30
0.0
 10
22.94626709969039
 20
-59.13905228722295
 30
0.0
 10
22.93559338607538
 20
-58.97632973153519
 30
0.0
 10
22.93559338607538
 20
-58.97632973153519
 30
0.0
 10
22.93559338607538
 20
-58.97632973153519
 30
0.0
 10
22.92112650465064
 20
-58.83804198107556
 30
0.0
 10
22.92112650465064
 20
-58.83804198107556
 30
0.0
 10
22.92112650465064
 20
-58.83804198107556
 30
0.0
 10
22.89645643615154
 20
-58.66630703240732
 30
0.0
 10
22.89645643615154
 20
-58.66630703240732
 30
0.0
 10
22.89645643615154
 20
-58.66630703240732
 30
0.0
 10
22.86395752989504
 20
-58.49291076310454
 30
0.0
 10
22.86395752989504
 20
-58.49291076310454
 30
0.0
 10
22.86395752989504
 20
-58.49291076310454
 30
0.0
 10
22.83691673151501
 20
-58.37027706872815
 30
0.0
 10
22.83691673151501
 20
-58.37027706872815
 30
0.0
 10
22.83691673151501
 20
-58.37027706872815
 30
0.0
 10
22.79066397251685
 20
-58.19047801903027
 30
0.0
 10
22.79066397251685
 20
-58.19047801903027
 30
0.0
 10
22.79066397251685
 20
-58.19047801903027
 30
0.0
 10
22.73634349305106
 20
-58.00925291196882
 30
0.0
 10
22.73634349305106
 20
-58.00925291196882
 30
0.0
 10
22.73634349305106
 20
-58.00925291196882
 30
0.0
 10
22.70977684064838
 20
-57.92883992607769
 30
0.0
 10
22.70977684064838
 20
-57.92883992607769
 30
0.0
 10
22.70977684064838
 20
-57.92883992607769
 30
0.0
 10
22.64288606366465
 20
-57.74263809598472
 30
0.0
 10
22.64288606366465
 20
-57.74263809598472
 30
0.0
 10
22.64288606366465
 20
-57.74263809598472
 30
0.0
 10
22.56697927426311
 20
-57.55501020852817
 30
0.0
 10
22.56697927426311
 20
-57.55501020852817
 30
0.0
 10
22.56697927426311
 20
-57.55501020852817
 30
0.0
 10
22.54705428496125
 20
-57.50875383009266
 30
0.0
 10
22.54705428496125
 20
-57.50875383009266
 30
0.0
 10
22.54705428496125
 20
-57.50875383009266
 30
0.0
 10
22.45976437269833
 20
-57.31780692080373
 30
0.0
 10
22.45976437269833
 20
-57.31780692080373
 30
0.0
 10
22.45976437269833
 20
-57.31780692080373
 30
0.0
 10
22.36346206745493
 20
-57.12662112880841
 30
0.0
 10
22.36346206745493
 20
-57.12662112880841
 30
0.0
 10
22.36346206745493
 20
-57.12662112880841
 30
0.0
 10
22.25814374979373
 20
-56.93495757140162
 30
0.0
 10
22.25814374979373
 20
-56.93495757140162
 30
0.0
 10
22.25814374979373
 20
-56.93495757140162
 30
0.0
 10
22.14357415644826
 20
-56.74234934147943
 30
0.0
 10
22.14357415644826
 20
-56.74234934147943
 30
0.0
 10
22.14357415644826
 20
-56.74234934147943
 30
0.0
 10
22.13147438546711
 20
-56.72313738085872
 30
0.0
 10
22.13147438546711
 20
-56.72313738085872
 30
0.0
 10
22.13147438546711
 20
-56.72313738085872
 30
0.0
 10
22.00552166925703
 20
-56.52957723954771
 30
0.0
 10
22.00552166925703
 20
-56.52957723954771
 30
0.0
 10
22.00552166925703
 20
-56.52957723954771
 30
0.0
 10
21.87078820390269
 20
-56.33744315560028
 30
0.0
 10
21.87078820390269
 20
-56.33744315560028
 30
0.0
 10
21.87078820390269
 20
-56.33744315560028
 30
0.0
 10
21.72728122827104
 20
-56.14720565555708
 30
0.0
 10
21.72728122827104
 20
-56.14720565555708
 30
0.0
 10
21.72728122827104
 20
-56.14720565555708
 30
0.0
 10
21.63121418629732
 20
-56.02718157376734
 30
0.0
 10
21.63121418629732
 20
-56.02718157376734
 30
0.0
 10
21.54415953730472
 20
-55.94890405448552
 30
0.0
 10
21.51450912633804
 20
-55.82532206815701
 30
0.0
 10
21.5564945715562
 20
-55.71621058268736
 30
0.0
 10
21.5984800167705
 20
-55.6070954777823
 30
0.0
 10
21.70308530574799
 20
-55.53474659291953
 30
0.0
 10
21.82002924841043
 20
-55.53474659291953
 30
0.0
  0
LWPOLYLINE
  5
AA
330
70
100
AcDbEntity
  8
Camada 1
 62
    18
420
        0
370
    15
100
AcDbPolyline
 90
       11
 70
     0
 43
0.0
 10
33.58863278915227
 20
-69.51648257850784
 10
33.58839390644526
 20
-69.51316355667545
 10
33.58839390644526
 20
-69.51007979811274
 10
33.58839390644526
 20
-69.50676077627907
 10
33.58839390644526
 20
-69.50391228098732
 10
33.58839390644526
 20
-69.50059325915494
 10
33.58863278915227
 20
-69.49750950059223
 10
33.5888680524226
 20
-69.49418685932442
 10
33.58910693512897
 20
-69.49134198346809
 10
33.58981634437599
 20
-69.48801934220028
 10
33.59052937305906
 20
-69.48517446634267
  0
LWPOLYLINE
  5
AB
330
70
100
AcDbEntity
  8
Camada 1
 62
    18
420
        0
370
    15
100
AcDbPolyline
 90
       11
 70
     0
 43
0.0
 10
26.43121468822935
 20
-69.51648257850784
 10
26.43121468822935
 20
-69.51316355667545
 10
26.43144995150352
 20
-69.51007979811274
 10
26.43144995150352
 20
-69.50676077627907
 10
26.43144995150352
 20
-69.50391228098732
 10
26.43144995150352
 20
-69.50059325915494
 10
26.43121468822935
 20
-69.49750950059223
 10
26.43097580552618
 20
-69.49418685932442
 10
26.43050165954948
 20
-69.49134198346809
 10
26.43002751357279
 20
-69.48801934220028
 10
26.42931448489292
 20
-69.48517446634267
  0
LWPOLYLINE
  5
AC
330
70
100
AcDbEntity
  8
Camada 1
 62
    18
420
        0
370
    15
100
AcDbPolyline
 90
       12
 70
     0
 43
0.0
 10
27.26102081855653
 20
-62.67534879914606
 10
27.2617302277997
 20
-62.65044346737727
 10
27.26647530699695
 20
-62.61533856796826
 10
27.27548769997742
 20
-62.58070781453657
 10
27.28877102617908
 20
-62.54773476230273
 10
27.30656054887098
 20
-62.51784908806701
 10
27.31272806599832
 20
-62.50978136760196
 10
27.33644984254403
 20
-62.48416300715203
 10
27.36420366960328
 20
-62.46210617067371
 10
27.39432822654666
 20
-62.44312947332396
 10
27.42611410412329
 20
-62.42747179780661
 10
27.45908353692043
 20
-62.41442735431004
  0
LWPOLYLINE
  5
AD
330
70
100
AcDbEntity
  8
Camada 1
 62
    18
420
        0
370
    15
100
AcDbPolyline
 90
       12
 70
     0
 43
0.0
 10
27.29109832284276
 20
-62.92135455262661
 10
27.28777568157239
 20
-62.90593937924976
 10
27.28303060237835
 20
-62.88174345672671
 10
27.27852440588812
 20
-62.85707338822889
 10
27.27710196795803
 20
-62.8482962585181
 10
27.27306991744385
 20
-62.82362980945441
 10
27.26974727617733
 20
-62.79919500422627
 10
27.26690240032035
 20
-62.7742896724562
 10
27.26429278773306
 20
-62.74985848666347
 10
27.2626314670998
 20
-62.7249531548934
 10
27.26144791187608
 20
-62.70028308639558
 10
27.26097014646654
 20
-62.6753777546255
  0
LWPOLYLINE
  5
AE
330
70
100
AcDbEntity
  8
Camada 1
 62
    18
420
        0
370
    15
100
AcDbPolyline
 90
       12
 70
     0
 43
0.0
 10
27.6540914522062
 20
-66.3727101655591
 10
27.54806010586129
 20
-64.11382444373327
 10
27.52528662126577
 20
-63.98691981613567
 10
27.50038128950019
 20
-63.86049295395082
 10
27.47452766577673
 20
-63.73406247232929
 10
27.44724798469097
 20
-63.60834501939018
 10
27.41902001165438
 20
-63.48238868374598
 10
27.40573668545336
 20
-63.4240361537673
 10
27.37656042046338
 20
-63.29855758353328
 10
27.34738415547404
 20
-63.17284013059417
 10
27.31892091916713
 20
-63.04712267765506
 10
27.29116709210468
 20
-62.92140522471596
  0
LWPOLYLINE
  5
AF
330
70
100
AcDbEntity
  8
Camada 1
 62
    18
420
        0
370
    15
100
AcDbPolyline
 90
       13
 70
     0
 43
0.0
 10
31.63414878400676
 20
-62.51725550073778
 10
31.68917867271571
 20
-62.49899183206918
 10
31.77955234354199
 20
-62.47124162444277
 10
31.87063904304813
 20
-62.44680681921463
 10
31.96290929777863
 20
-62.42569827468971
 10
32.0558962006244
 20
-62.40861816124418
 10
32.14935363001082
 20
-62.39533483504252
 10
32.1889647259088
 20
-62.39106390182261
 10
32.28313518397893
 20
-62.38489638469719
 10
32.37754090531874
 20
-62.38537053067453
 10
32.4074301989918
 20
-62.38727073401288
 10
32.48950088608077
 20
-62.39723141894675
 10
32.56090147899143
 20
-62.41454679566323
  0
LWPOLYLINE
  5
B0
330
70
100
AcDbEntity
  8
Camada 1
 62
    18
420
        0
370
    15
100
AcDbPolyline
 90
       12
 70
     0
 43
0.0
 10
30.16854185516579
 20
-62.79357040234074
 10
30.1723350229768
 20
-62.79357040234074
 10
30.32177425245905
 20
-62.78645459326321
 10
30.47097459924135
 20
-62.7748325876961
 10
30.61993968275075
 20
-62.75846550293172
 10
30.76819173757965
 20
-62.73735333897266
 10
30.91573076372548
 20
-62.71149971525048
 10
31.05876359338043
 20
-62.68184930428445
 10
31.20440603562268
 20
-62.64697966814638
 10
31.34886492263799
 20
-62.60784271822383
 10
31.49213301556648
 20
-62.56443483508007
 10
31.63421755326867
 20
-62.51723016469374
  0
LWPOLYLINE
  5
B1
330
70
100
AcDbEntity
  8
Camada 1
 62
    18
420
        0
370
    15
100
AcDbPolyline
 90
       12
 70
     0
 43
0.0
 10
32.72874553510602
 20
-62.92135455262661
 10
32.71593635488105
 20
-62.97970708260528
 10
32.68770838184511
 20
-63.1054245355444
 10
32.65876738012545
 20
-63.23114560791892
 10
32.62982999784248
 20
-63.35662417815164
 10
32.6006537328525
 20
-63.48234163109204
 10
32.58570908601758
 20
-63.54994543675757
 10
32.55795887839118
 20
-63.67566288969667
 10
32.53139222598849
 20
-63.80185448861183
 10
32.50600912880567
 20
-63.92828497023209
 10
32.48205208899028
 20
-64.05495071512459
 10
32.365347029031
 20
-66.37242784963419
  0
LWPOLYLINE
  5
B2
330
70
100
AcDbEntity
  8
Camada 1
 62
    18
420
        0
370
    15
100
AcDbPolyline
 90
       12
 70
     0
 43
0.0
 10
32.7588230393961
 20
-62.67534879914606
 10
32.75858415668972
 20
-62.68555198622043
 10
32.75787112800986
 20
-62.71021843528412
 10
32.75644869007912
 20
-62.73488850378323
 10
32.75526151542256
 20
-62.74983315061815
 10
32.75289078554229
 20
-62.77450321911725
 10
32.75004590968531
 20
-62.79916966818095
 10
32.74672326841494
 20
-62.82383973668006
 10
32.74269121790077
 20
-62.84827092247279
 10
32.73842028468021
 20
-62.8727021082668
 10
32.73367882491965
 20
-62.89713691349366
 10
32.72869486301988
 20
-62.92132921658129
  0
LWPOLYLINE
  5
B3
330
70
100
AcDbEntity
  8
Camada 1
 62
    18
420
        0
370
    15
100
AcDbPolyline
 90
       12
 70
     0
 43
0.0
 10
32.56076032102834
 20
-62.41444907091994
 10
32.57024685998615
 20
-62.41801059489412
 10
32.6027421468098
 20
-62.43176806707184
 10
32.63452802438259
 20
-62.44813515183493
 10
32.66394317207895
 20
-62.46782125843169
 10
32.69050982448227
 20
-62.49106888900263
 10
32.7132796896411
 20
-62.51763554140596
 10
32.72656301584213
 20
-62.53898296863726
 10
32.7410335167042
 20
-62.57100410948229
 10
32.75099420163485
 20
-62.6051607169392
 10
32.75692645548867
 20
-62.64026923578235
 10
32.7588230393961
 20
-62.67537413519138
  0
LWPOLYLINE
  5
B4
330
70
100
AcDbEntity
  8
Camada 1
 62
    18
420
        0
370
    15
100
AcDbPolyline
 90
       11
 70
     0
 43
0.0
 10
32.36544475377428
 20
-66.37237717754485
 10
32.24328158594173
 20
-67.69692386876719
 10
32.21956342882887
 20
-68.15425033077055
 10
32.19560638901284
 20
-68.61157679277392
 10
32.17141046648722
 20
-69.06914213748237
 10
32.14768868994151
 20
-69.52647221892114
 10
32.12349638685515
 20
-69.9840375636296
 10
32.09953934703912
 20
-70.4413622159159
 10
32.07558230721988
 20
-70.89892756062436
 10
32.05186053067417
 20
-71.35625583234606
 10
31.99516932132811
 20
-72.33471939420859
  0
LWPOLYLINE
  5
B5
330
70
100
AcDbEntity
  8
Camada 1
 62
    18
420
        0
370
    15
100
AcDbPolyline
 90
       11
 70
     0
 43
0.0
 10
28.0294413324259
 20
-72.37051198625472
 10
27.96800504388258
 20
-71.35623230601911
 10
27.94404800406655
 20
-70.89890403429738
 10
27.92008734481447
 20
-70.44133868958893
 10
27.89613030499844
 20
-69.98401222758556
 10
27.8721732651824
 20
-69.52644688287711
 10
27.84821622536316
 20
-69.06911680143834
 10
27.82425918554777
 20
-68.61155145672988
 10
27.80030214573173
 20
-68.15422499472652
 10
27.7763451059125
 20
-67.69689853272315
 10
27.65465970348949
 20
-66.41599860734967
  0
LWPOLYLINE
  5
B6
330
70
100
AcDbEntity
  8
Camada 1
 62
    18
420
        0
370
    15
100
AcDbPolyline
 90
       12
 70
     0
 43
0.0
 10
27.26970384295688
 20
-56.00740136186142
 10
27.27112628088376
 20
-56.00764024456651
 10
27.27658076932803
 20
-56.00930156520105
 10
27.28227414047868
 20
-56.01096288583559
 10
27.2877286289191
 20
-56.01333361571587
 10
27.29294785409305
 20
-56.01594322830252
 10
27.29816707926314
 20
-56.01878810415886
 10
27.30314742173072
 20
-56.02187186272157
 10
27.30765361822095
 20
-56.02519450398936
 10
27.31121152276164
 20
-56.02780411657602
 10
27.31571771925187
 20
-56.03159728438447
 10
27.31998865247243
 20
-56.03539407162832
  0
LWPOLYLINE
  5
B7
330
70
100
AcDbEntity
  8
Camada 1
 62
    18
420
        0
370
    15
100
AcDbPolyline
 90
       12
 70
     0
 43
0.0
 10
28.38569869337871
 20
-62.51725550073778
 10
28.52398644383641
 20
-62.56303773319721
 10
28.66725815619838
 20
-62.60668449904606
 10
28.81171342378407
 20
-62.64606033167371
 10
28.95735586602246
 20
-62.68092634837765
 10
29.10395021965479
 20
-62.71152505129451
 10
29.10774338746195
 20
-62.71247696268204
 10
29.25528241360778
 20
-62.73785644042816
 10
29.40377335113985
 20
-62.75872972168213
 10
29.55249955194545
 20
-62.7750968064465
 10
29.70169989872518
 20
-62.78671881201362
 10
29.85137439148095
 20
-62.79359935782019
  0
LWPOLYLINE
  5
B8
330
70
100
AcDbEntity
  8
Camada 1
 62
    18
420
        0
370
    15
100
AcDbPolyline
 90
       13
 70
     0
 43
0.0
 10
27.45908715635328
 20
-62.41444907091994
 10
27.53024524712472
 20
-62.39713369420346
 10
27.61255481692007
 20
-62.3871730092696
 10
27.64220522788675
 20
-62.38551168863634
 10
27.6820552064911
 20
-62.38432451397785
 10
27.77646454726761
 20
-62.38669886329354
 10
27.87039612263072
 20
-62.39547599300433
 10
27.92780036065665
 20
-62.40282706535282
 10
28.02101890733669
 20
-62.41848474087017
 10
28.11352804477357
 20
-62.43817084746694
 10
28.20508889025641
 20
-62.4611795953315
 10
28.29594032649222
 20
-62.48774624773482
 10
28.3858398513418
 20
-62.5171613954299
  0
LWPOLYLINE
  5
B9
330
70
100
AcDbEntity
  8
Camada 1
 62
    18
420
        0
370
    15
100
AcDbPolyline
 90
       11
 70
     0
 43
0.0
 10
32.7661306785235
 20
-56.00562059987497
 10
32.75094714898156
 20
-56.00585948258006
 10
32.73600250214728
 20
-56.00704665723855
 10
32.72082259204204
 20
-56.00846909516672
 10
32.70564268193358
 20
-56.01060456177731
 10
32.69069803509866
 20
-56.01344943763365
 10
32.67599227097075
 20
-56.01653319619636
 10
32.661286506839
 20
-56.02080412941627
 10
32.6465771232744
 20
-56.02507144320076
 10
32.63234550511934
 20
-56.03029066837407
 10
32.61835276967065
 20
-56.03598403952215
  0
LINE
  5
BA
330
70
100
AcDbEntity
  8
Camada 1
 62
   250
420
  1907995
370
    18
100
AcDbLine
 10
24.83248856201464
 20
-74.86309195363851
 30
0.0
 11
35.18712365209667
 21
-74.86309195363851
 31
0.0
  0
LINE
  5
BB
330
70
100
AcDbEntity
  8
Camada 1
 62
    18
420
        0
370
    15
100
AcDbLine
 10
29.85130562221904
 20
-62.79357040234074
 30
0.0
 11
30.16868301312952
 21
-62.79357040234074
 31
0.0
  0
SPLINE
  5
BC
330
70
100
AcDbEntity
  8
Camada 1
 62
    18
420
        0
370
    15
100
AcDbSpline
210
0.0
220
0.0
230
1.0
 70
     9
 71
     3
 72
    17
 73
    13
 74
     0
 42
0.0000000001
 43
0.0000000001
 40
0.0
 40
0.0
 40
0.0
 40
0.0
 40
1.0
 40
1.0
 40
1.0
 40
2.0
 40
2.0
 40
2.0
 40
3.0
 40
3.0
 40
3.0
 40
4.0
 40
4.0
 40
4.0
 40
4.0
 10
28.71526634114024
 20
-57.8889899474727
 30
0.0
 10
28.71526634114024
 20
-57.17406106246571
 30
0.0
 10
29.29475235154523
 20
-56.59457505206199
 30
0.0
 10
30.00944597328127
 20
-56.59457505206199
 30
0.0
 10
30.724613740994
 20
-56.59457505206199
 30
0.0
 10
31.30409975139835
 20
-57.17406106246571
 30
0.0
 10
31.30409975139835
 20
-57.8889899474727
 30
0.0
 10
31.30409975139835
 20
-58.60392245191382
 30
0.0
 10
30.724613740994
 20
-59.18340846231753
 30
0.0
 10
30.00944597328127
 20
-59.18340846231753
 30
0.0
 10
29.29475235154523
 20
-59.18340846231753
 30
0.0
 10
28.71526634114024
 20
-58.60392245191382
 30
0.0
 10
28.71526634114024
 20
-57.8889899474727
 30
0.0
  0
SPLINE
  5
BD
330
70
100
AcDbEntity
  8
Camada 1
 62
    18
420
        0
370
    15
100
AcDbSpline
210
0.0
220
0.0
230
1.0
 70
     9
 71
     3
 72
    17
 73
    13
 74
     0
 42
0.0000000001
 43
0.0000000001
 40
0.0
 40
0.0
 40
0.0
 40
0.0
 40
1.0
 40
1.0
 40
1.0
 40
2.0
 40
2.0
 40
2.0
 40
3.0
 40
3.0
 40
3.0
 40
4.0
 40
4.0
 40
4.0
 40
4.0
 10
30.95634082366619
 20
-57.8844620343732
 30
0.0
 10
30.95634082366619
 20
-57.36166723331363
 30
0.0
 10
30.53245794043474
 20
-56.93778435008475
 30
0.0
 10
30.00965951994297
 20
-56.93778435008475
 30
0.0
 10
29.48662583617702
 20
-56.93778435008475
 30
0.0
 10
29.06274657238227
 20
-57.36166723331363
 30
0.0
 10
29.06274657238227
 20
-57.8844620343732
 30
0.0
 10
29.06274657238227
 20
-58.4072604548669
 30
0.0
 10
29.48662583617702
 20
-58.83114333809451
 30
0.0
 10
30.00965951994297
 20
-58.83114333809451
 30
0.0
 10
30.53245794043474
 20
-58.83114333809451
 30
0.0
 10
30.95634082366619
 20
-58.4072604548669
 30
0.0
 10
30.95634082366619
 20
-57.8844620343732
 30
0.0
  0
LINE
  5
BE
330
70
100
AcDbEntity
  8
Camada 1
 62
    18
420
        0
370
    15
100
AcDbLine
 10
30.00973190864094
 20
-59.43330148891568
 30
0.0
 11
30.00973190864094
 21
-56.34444314275875
 31
0.0
  0
LINE
  5
BF
330
70
100
AcDbEntity
  8
Camada 1
 62
    18
420
        0
370
    15
100
AcDbLine
 10
28.46523215658221
 20
-57.88882345346557
 30
0.0
 11
31.55409050273272
 21
-57.88882345346557
 31
0.0
  0
LINE
  5
C0
330
70
100
AcDbEntity
  8
Camada 1
 62
    18
420
        0
370
    15
100
AcDbLine
 10
71.82890700516418
 20
-62.00876108709582
 30
0.0
 11
72.51323356781634
 21
-61.60172305404277
 31
0.0
  0
LWPOLYLINE
  5
C1
330
70
100
AcDbEntity
  8
Camada 1
 62
    18
420
        0
370
    15
100
AcDbPolyline
 90
        9
 70
     0
 43
0.0
 10
71.44689012579513
 20
-62.79471052434401
 10
71.45708969343537
 20
-62.78664642331565
 10
71.46799867032007
 20
-62.77905646826207
 10
71.47866876450223
 20
-62.77122763050339
 10
71.48982386296284
 20
-62.7636376754511
 10
71.50073283984752
 20
-62.7560477203975
 10
71.51188069943859
 20
-62.7486966480503
 10
71.52278967632714
 20
-62.74157721953735
 10
71.53346700937756
 20
-62.73470029316619
  0
LWPOLYLINE
  5
C2
330
70
100
AcDbEntity
  8
Camada 1
 62
    18
420
        0
370
    15
100
AcDbPolyline
 90
        8
 70
     0
 43
0.0
 10
73.61646629066715
 20
-61.45825951162965
 10
73.83966960407079
 20
-61.30431770508808
 10
74.05338999795718
 20
-61.14871095847785
 10
74.25667194149568
 20
-60.99025933601128
 10
74.45023208280154
 20
-60.82824980900594
 10
74.63240548181769
 20
-60.66244349475675
 10
74.80295325583
 20
-60.49236986672177
 10
74.96116599559019
 20
-60.31826056873656
  0
LWPOLYLINE
  5
C3
330
70
100
AcDbEntity
  8
Camada 1
 62
    18
420
        0
370
    15
100
AcDbPolyline
 90
        3
 70
     0
 43
0.0
 10
71.5351029939655
 20
-62.73356017116293
 10
71.81808489471269
 20
-62.55850620066103
 10
72.09869244614676
 20
-62.39009027382518
  0
LWPOLYLINE
  5
C4
330
70
100
AcDbEntity
  8
Camada 1
 62
    18
420
        0
370
    15
100
AcDbPolyline
 90
        5
 70
     0
 43
0.0
 10
72.63835743342493
 20
-62.0693902416469
 10
72.89453379906497
 20
-61.91544843510662
 10
73.14431100374534
 20
-61.76245130108175
 10
73.38482969386806
 20
-61.61040245901028
 10
73.61658211258235
 20
-61.45811835366784
  0
LINE
  5
C5
330
70
100
AcDbEntity
  8
Camada 1
 62
    18
420
        0
370
    15
100
AcDbLine
 10
72.09872140162748
 20
-62.38997083247328
 30
0.0
 11
72.63835743342493
 21
-62.06927441972912
 31
0.0
  0
LWPOLYLINE
  5
C6
330
70
100
AcDbEntity
  8
Camada 1
 62
    18
420
        0
370
    15
100
AcDbPolyline
 90
        8
 70
     0
 43
0.0
 10
71.28084492884084
 20
-62.97564969604644
 10
71.30005688946283
 20
-62.94671231376283
 10
71.32092655128268
 20
-62.91872322343006
 10
71.34346115317119
 20
-62.89168242505066
 10
71.36742181242327
 20
-62.8653510359183
 10
71.39256240746302
 20
-62.84068458685461
 10
71.41889017715868
 20
-62.8169628103089
 10
71.4468828869256
 20
-62.79466709112549
  0
LWPOLYLINE
  5
C7
330
70
100
AcDbEntity
  8
Camada 1
 62
    18
420
        0
370
    15
100
AcDbPolyline
 90
        8
 70
     0
 43
0.0
 10
74.9610067404539
 20
-60.31816646342869
 10
74.98258581152075
 20
-60.29492245229317
 10
75.00606870536008
 20
-60.27357502506315
 10
75.03168706581259
 20
-60.25435944500703
 10
75.05873148362866
 20
-60.2375182142666
 10
75.08695583722856
 20
-60.22281245013677
 10
75.11637460435776
 20
-60.21047741588722
 10
75.14697330727719
 20
-60.20051673095335
  0
LWPOLYLINE
  5
C8
330
70
100
AcDbEntity
  8
Camada 1
 62
    18
420
        0
370
    15
100
AcDbPolyline
 90
        8
 70
     0
 43
0.0
 10
71.17721326785822
 20
-63.28164034465948
 10
71.18290301957218
 20
-63.23538758565939
 10
71.19167652984242
 20
-63.18960897263536
 10
71.20354103755774
 20
-63.14477503212802
 10
71.21848206495598
 20
-63.10041885703343
 10
71.23627520708392
 20
-63.05748511986573
 10
71.25714486890377
 20
-63.01573855735652
 10
71.28086664544948
 20
-62.97564969604644
  0
LWPOLYLINE
  5
C9
330
70
100
AcDbEntity
  8
Camada 1
 62
    18
420
        0
370
    15
100
AcDbPolyline
 90
       14
 70
     0
 43
0.0
 10
73.37145950122934
 20
-55.78914943544269
 10
73.37761977948393
 20
-55.76637957028321
 10
73.38616164592119
 20
-55.74408385110108
 10
73.39707062280844
 20
-55.72297168714074
 10
73.41012230517327
 20
-55.70257255186155
 10
73.42530221528173
 20
-55.6835958545118
 10
73.44261759199693
 20
-55.66651574106629
 10
73.46159066991254
 20
-55.65110056768943
 10
73.48222868789811
 20
-55.63781724148777
 10
73.50429276324341
 20
-55.6266657624613
 10
73.52753677437894
 20
-55.61765336947954
 10
73.55149019476148
 20
-55.61101170637935
 10
73.5763991459644
 20
-55.60674077315944
 10
73.60153974100414
 20
-55.60579248120604
  0
LWPOLYLINE
  5
CA
330
70
100
AcDbEntity
  8
Camada 1
 62
    18
420
        0
370
    15
100
AcDbPolyline
 90
        4
 70
     0
 43
0.0
 10
75.1469950238858
 20
-60.20046605886529
 10
75.17806425334588
 20
-60.19335024978776
 10
75.20985013091994
 20
-60.18884405329688
 10
75.24187489120295
 20
-60.18694746939266
  0
LINE
  5
CB
330
70
100
AcDbEntity
  8
Camada 1
 62
    18
420
        0
370
    15
100
AcDbLine
 10
75.24185317459433
 20
-60.18682802804075
 30
0.0
 11
81.26895070163056
 21
-60.08317103101282
 31
0.0
  0
LINE
  5
CC
330
70
100
AcDbEntity
  8
Camada 1
 62
    18
420
        0
370
    15
100
AcDbLine
 10
75.24835367973143
 20
-56.95922588262264
 30
0.0
 11
75.24811479702506
 21
-56.95021348964218
 31
0.0
  0
LINE
  5
CD
330
70
100
AcDbEntity
  8
Camada 1
 62
    18
420
        0
370
    15
100
AcDbLine
 10
74.65276118387707
 20
-68.15004816681448
 30
0.0
 11
74.65276118387707
 21
-64.46865574732314
 31
0.0
  0
LWPOLYLINE
  5
CE
330
70
100
AcDbEntity
  8
Camada 1
 62
    18
420
        0
370
    15
100
AcDbPolyline
 90
        4
 70
     0
 43
0.0
 10
81.68133464007837
 20
-56.08344568978935
 10
81.71524874539606
 20
-56.07538158876099
 10
81.74964785499218
 20
-56.07087539227012
 10
81.78403972572006
 20
-56.06921407163557
  0
LINE
  5
CF
330
70
100
AcDbEntity
  8
Camada 1
 62
    18
420
        0
370
    15
100
AcDbLine
 10
78.17580332508052
 20
-59.01594444686921
 30
0.0
 11
78.19643410419655
 21
-59.01665747555164
 31
0.0
  0
LINE
  5
D0
330
70
100
AcDbEntity
  8
Camada 1
 62
    18
420
        0
370
    15
100
AcDbLine
 10
78.17226351771497
 20
-59.01577795286208
 30
0.0
 11
78.17581780281961
 21
-59.01601683556847
 31
0.0
  0
LINE
  5
D1
330
70
100
AcDbEntity
  8
Camada 1
 62
    18
420
        0
370
    15
100
AcDbLine
 10
78.19641238758409
 20
-59.0165850868524
 30
0.0
 11
78.20684359905858
 21
-59.01682396955749
 31
0.0
  0
LINE
  5
D2
330
70
100
AcDbEntity
  8
Camada 1
 62
    18
420
        0
370
    15
100
AcDbLine
 10
78.20694494323856
 20
-59.01691807486663
 30
0.0
 11
78.22330478913084
 21
-59.01763110354778
 31
0.0
  0
LWPOLYLINE
  5
D3
330
70
100
AcDbEntity
  8
Camada 1
 62
    18
420
        0
370
    15
100
AcDbPolyline
 90
        7
 70
     0
 43
0.0
 10
78.15229147575919
 20
-59.01447495628711
 10
78.15276200229982
 20
-59.01447495628711
 10
78.1530008850062
 20
-59.01447495628711
 10
78.15347141154685
 20
-59.01447495628711
 10
78.15371029424936
 20
-59.01447495628711
 10
78.15371029424936
 20
-59.0147138389922
 10
78.1539491769596
 20
-59.0147138389922
  0
LWPOLYLINE
  5
D4
330
70
100
AcDbEntity
  8
Camada 1
 62
    18
420
        0
370
    15
100
AcDbPolyline
 90
       11
 70
     0
 43
0.0
 10
78.15570822233614
 20
-59.01480432486595
 10
78.15665651428696
 20
-59.01480432486595
 10
78.15807533278101
 20
-59.01504320757104
 10
78.15926250744077
 20
-59.01504320757104
 10
78.16092020863348
 20
-59.01528209027613
 10
78.16258514870344
 20
-59.01528209027613
 10
78.16400396720132
 20
-59.01551735354837
 10
78.16566890727128
 20
-59.01551735354837
 10
78.16708772576532
 20
-59.01551735354837
 10
78.16875266583143
 20
-59.01551735354837
 10
78.17230695093478
 20
-59.01575623625347
  0
LINE
  5
D5
330
70
100
AcDbEntity
  8
Camada 1
 62
    18
420
        0
370
    15
100
AcDbLine
 10
78.15426044836137
 20
-59.01463783085882
 30
0.0
 11
78.15449209219821
 21
-59.01463783085882
 31
0.0
  0
LWPOLYLINE
  5
D6
330
70
100
AcDbEntity
  8
Camada 1
 62
    18
420
        0
370
    15
100
AcDbPolyline
 90
       22
 70
     0
 43
0.0
 10
72.51319013459653
 20
-61.60157827664555
 10
72.73734173995357
 20
-61.46637428474864
 10
72.95746853367048
 20
-61.32998311819323
 10
73.17142781025555
 20
-61.19382721491008
 10
73.37803239506441
 20
-61.05719716564959
 10
73.5765656399728
 20
-60.91985770714336
 10
73.76704202271982
 20
-60.78038278202524
 10
73.94921542173594
 20
-60.6387723902991
 10
74.1221375450601
 20
-60.4947912686914
 10
74.28580839270127
 20
-60.34724862310952
 10
74.43998908194792
 20
-60.19567754644952
 10
74.58326079430989
 20
-60.04007079983928
 10
74.71538464707695
 20
-59.87924844749114
 10
74.83588287484273
 20
-59.71320325053686
 10
74.94380718565775
 20
-59.54123303859638
 10
75.03773876102151
 20
-59.36499189343727
 10
75.11696819168957
 20
-59.18495396103431
 10
75.18148823879238
 20
-59.00088397811651
 10
75.23106001962486
 20
-58.81373023663602
 10
75.26569077305911
 20
-58.62562820320213
 10
75.28632879104083
 20
-58.43610373184263
 10
78.15221908705736
 20
-59.01440256758785
  0
LINE
  5
D7
330
70
100
AcDbEntity
  8
Camada 1
 62
    18
420
        0
370
    15
100
AcDbLine
 10
73.57640638483393
 20
-55.53569850430705
 30
0.0
 11
58.13660637280623
 21
-55.53427606637889
 31
0.0
  0
LINE
  5
D8
330
70
100
AcDbEntity
  8
Camada 1
 62
    18
420
        0
370
    15
100
AcDbLine
 10
79.83005882202878
 20
-56.76528932008015
 30
0.0
 11
79.83005882202878
 21
-59.08347948327218
 31
0.0
  0
LWPOLYLINE
  5
D9
330
70
100
AcDbEntity
  8
Camada 1
 62
    18
420
        0
370
    15
100
AcDbPolyline
 90
       15
 70
     0
 43
0.0
 10
81.40764744823654
 20
-56.44017719671886
 10
81.40930514943695
 20
-56.40673361794438
 10
81.41404660919752
 20
-56.37305115646481
 10
81.42164018368523
 20
-56.33984284096001
 10
81.4325491605725
 20
-56.3075828174086
 10
81.44631025218433
 20
-56.27627108580931
 10
81.46314786348936
 20
-56.24614652886721
 10
81.48283758952151
 20
-56.21768329255966
 10
81.50513330870365
 20
-56.19111664015633
 10
81.52980337720276
 20
-56.16668183492819
 10
81.55684779501884
 20
-56.14462499845116
 10
81.58554991403148
 20
-56.12517415512407
 10
81.61614861694834
 20
-56.10833292438492
 10
81.64816613835924
 20
-56.09433656950083
 10
81.68137807329946
 20
-56.08342397318073
  0
LINE
  5
DA
330
70
100
AcDbEntity
  8
Camada 1
 62
    18
420
        0
370
    15
100
AcDbLine
 10
81.47752425904036
 20
-56.58351767834339
 30
0.0
 11
81.47752425904036
 21
-59.2729315659337
 31
0.0
  0
SPLINE
  5
DB
330
70
100
AcDbEntity
  8
Camada 1
 62
    18
420
        0
370
    15
100
AcDbSpline
210
0.0
220
0.0
230
1.0
 70
     8
 71
     3
 72
     8
 73
     4
 74
     0
 42
0.0000000001
 43
0.0000000001
 40
0.0
 40
0.0
 40
0.0
 40
0.0
 40
1.0
 40
1.0
 40
1.0
 40
1.0
 10
75.19484395369201
 20
-57.32503855179775
 30
0.0
 10
75.15238074306495
 20
-57.72686097911417
 30
0.0
 10
75.18250891944117
 20
-57.97331554252546
 30
0.0
 10
75.28640117973878
 20
-58.43586484913626
 30
0.0
  0
SPLINE
  5
DC
330
70
100
AcDbEntity
  8
Camada 1
 62
    18
420
        0
370
    15
100
AcDbSpline
210
0.0
220
0.0
230
1.0
 70
     8
 71
     3
 72
     8
 73
     4
 74
     0
 42
0.0000000001
 43
0.0000000001
 40
0.0
 40
0.0
 40
0.0
 40
0.0
 40
1.0
 40
1.0
 40
1.0
 40
1.0
 10
75.24835367973143
 20
-56.95922588262264
 30
0.0
 10
75.22534131243275
 20
-57.08020187580119
 30
0.0
 10
75.20754817030478
 20
-57.2025966874725
 30
0.0
 10
75.1949814922197
 20
-57.32499511857922
 30
0.0
  0
SPLINE
  5
DD
330
70
100
AcDbEntity
  8
Camada 1
 62
    18
420
        0
370
    15
100
AcDbSpline
210
0.0
220
0.0
230
1.0
 70
     8
 71
     3
 72
     8
 73
     4
 74
     0
 42
0.0000000001
 43
0.0000000001
 40
0.0
 40
0.0
 40
0.0
 40
0.0
 40
1.0
 40
1.0
 40
1.0
 40
1.0
 10
81.51062037206278
 20
-56.18544498561687
 30
0.0
 10
81.44443538488873
 20
-56.25423596594089
 30
0.0
 10
81.40766916484773
 20
-56.34555792871799
 30
0.0
 10
81.40766916484773
 20
-56.44020253276418
 30
0.0
  0
SPLINE
  5
DE
330
70
100
AcDbEntity
  8
Camada 1
 62
    18
420
        0
370
    15
100
AcDbSpline
210
0.0
220
0.0
230
1.0
 70
     8
 71
     3
 72
     8
 73
     4
 74
     0
 42
0.0000000001
 43
0.0000000001
 40
0.0
 40
0.0
 40
0.0
 40
0.0
 40
1.0
 40
1.0
 40
1.0
 40
1.0
 10
66.37431721797923
 20
-73.53280845804829
 30
0.0
 10
66.303629653751
 20
-73.49390858111377
 30
0.0
 10
66.2177621794156
 20
-73.49319555243133
 30
0.0
 10
66.14659684977848
 20
-73.53138602012013
 30
0.0
  0
SPLINE
  5
DF
330
70
100
AcDbEntity
  8
Camada 1
 62
    18
420
        0
370
    15
100
AcDbSpline
210
0.0
220
0.0
230
1.0
 70
     8
 71
     3
 72
     8
 73
     4
 74
     0
 42
0.0000000001
 43
0.0000000001
 40
0.0
 40
0.0
 40
0.0
 40
0.0
 40
1.0
 40
1.0
 40
1.0
 40
1.0
 10
74.58157413762747
 20
-64.12093663337538
 30
0.0
 10
74.58157413762747
 20
-64.04408517145714
 30
0.0
 10
74.51823402631489
 20
-63.98170059096365
 30
0.0
 10
74.44019900917229
 20
-63.98170059096365
 30
0.0
  0
SPLINE
  5
E0
330
70
100
AcDbEntity
  8
Camada 1
 62
    18
420
        0
370
    15
100
AcDbSpline
210
0.0
220
0.0
230
1.0
 70
     8
 71
     3
 72
     8
 73
     4
 74
     0
 42
0.0000000001
 43
0.0000000001
 40
0.0
 40
0.0
 40
0.0
 40
0.0
 40
1.0
 40
1.0
 40
1.0
 40
1.0
 10
74.44034378656951
 20
-68.61850077179901
 30
0.0
 10
74.51837880371082
 20
-68.61850077179901
 30
0.0
 10
74.58171167615771
 20
-68.55635507401188
 30
0.0
 10
74.58171167615771
 20
-68.47926472938856
 30
0.0
  0
SPLINE
  5
E1
330
70
100
AcDbEntity
  8
Camada 1
 62
    18
420
        0
370
    15
100
AcDbSpline
210
0.0
220
0.0
230
1.0
 70
     8
 71
     3
 72
     8
 73
     4
 74
     0
 42
0.0000000001
 43
0.0000000001
 40
0.0
 40
0.0
 40
0.0
 40
0.0
 40
1.0
 40
1.0
 40
1.0
 40
1.0
 10
81.40764744823654
 20
-59.94409786317408
 30
0.0
 10
81.40764744823654
 20
-60.02000465257433
 30
0.0
 10
81.34597227699007
 20
-60.08191508709177
 30
0.0
 10
81.26887831293261
 20
-60.08333752501994
 30
0.0
  0
LWPOLYLINE
  5
E2
330
70
100
AcDbEntity
  8
Camada 1
 62
    18
420
        0
370
    15
100
AcDbPolyline
 90
       11
 70
     0
 43
0.0
 10
78.10383448088593
 20
-59.00363474866498
 10
78.10240842352236
 20
-59.00339948539401
 10
78.10075072232194
 20
-59.00292533941795
 10
78.09956354766602
 20
-59.00268645671286
 10
78.09789860759607
 20
-59.0024511934419
 10
78.09647978910203
 20
-59.00221231073681
 10
78.09505373173846
 20
-59.00221231073681
 10
78.09362767437872
 20
-59.00221231073681
 10
78.09220885588469
 20
-59.00197704746585
 10
78.09078279851854
 20
-59.00173816475947
 10
78.08936398002835
 20
-59.00173816475947
  0
LWPOLYLINE
  5
E3
330
70
100
AcDbEntity
  8
Camada 1
 62
    18
420
        0
370
    15
100
AcDbPolyline
 90
       13
 70
     0
 43
0.0
 10
66.37431721797923
 20
-73.53280845804829
 10
66.40514756473294
 20
-73.54965149850579
 10
66.50999535584964
 20
-73.60444431422864
 10
66.61697137471126
 20
-73.65520688915373
 10
66.72537345093259
 20
-73.70264682281231
 10
66.76190078826978
 20
-73.71782854263654
 10
66.87243833110557
 20
-73.76052520681493
 10
66.98440193129981
 20
-73.79942508375075
 10
67.09730658457918
 20
-73.83476886586485
 10
67.13976979520367
 20
-73.84686682712511
 10
67.25457827125937
 20
-73.8769913840672
 10
67.37009615655825
 20
-73.90355803647053
 10
67.48656233381051
 20
-73.92632971134706
  0
LWPOLYLINE
  5
E4
330
70
100
AcDbEntity
  8
Camada 1
 62
    18
420
        0
370
    15
100
AcDbPolyline
 90
       13
 70
     0
 43
0.0
 10
75.24835367973143
 20
-56.95922588262264
 10
75.24384386380515
 20
-56.98342180514569
 10
75.23743746397464
 20
-57.01829144128375
 10
75.2312699468505
 20
-57.05482239805635
 10
75.23032165489711
 20
-57.06075103247411
 10
75.22439302047935
 20
-57.09727836981258
 10
75.21893491260223
 20
-57.13380932658391
 10
75.21371568742893
 20
-57.17034028335522
 10
75.21253575164127
 20
-57.17816550167977
 10
75.20754817030478
 20
-57.21493172172205
 10
75.20328447595314
 20
-57.25169794176434
 10
75.19877466002686
 20
-57.28822889853694
 10
75.1949814922197
 20
-57.32499511857922
  0
LWPOLYLINE
  5
E5
330
70
100
AcDbEntity
  8
Camada 1
 62
    18
420
        0
370
    15
100
AcDbPolyline
 90
       11
 70
     0
 43
0.0
 10
78.10383448088593
 20
-59.00363474866498
 10
78.10240842352236
 20
-59.00339948539401
 10
78.10075072232194
 20
-59.00292533941795
 10
78.09956354766602
 20
-59.00268645671286
 10
78.09789860759607
 20
-59.0024511934419
 10
78.09647978910203
 20
-59.00221231073681
 10
78.09505373173846
 20
-59.00221231073681
 10
78.09362767437872
 20
-59.00221231073681
 10
78.09220885588469
 20
-59.00197704746585
 10
78.09078279851854
 20
-59.00173816475947
 10
78.08936398002835
 20
-59.00173816475947
  0
LWPOLYLINE
  5
E6
330
70
100
AcDbEntity
  8
Camada 1
 62
    18
420
        0
370
    15
100
AcDbPolyline
 90
       13
 70
     0
 43
0.0
 10
78.25120339358988
 20
-59.01869521741896
 10
78.24764186961698
 20
-59.01845995414799
 10
78.23791282851995
 20
-59.01822107144162
 10
78.2279521435848
 20
-59.01774692546556
 10
78.21823034135731
 20
-59.01727277948951
 10
78.21277223348021
 20
-59.01703751621854
 10
78.20281154854505
 20
-59.01656337024249
 10
78.19285086361119
 20
-59.0163244875374
 10
78.18312182251289
 20
-59.01561507829038
 10
78.18193464785696
 20
-59.01561507829038
 10
78.17197396292181
 20
-59.01513731287892
 10
78.16225216069432
 20
-59.01513731287892
 10
78.15228423688964
 20
-59.01466316690285
  0
SPLINE
  5
E7
330
70
100
AcDbEntity
  8
Camada 1
 62
    18
420
        0
370
    15
100
AcDbSpline
210
0.0
220
0.0
230
1.0
 70
     8
 71
     3
 72
    14
 73
    10
 74
     0
 42
0.0000000001
 43
0.0000000001
 40
0.0
 40
0.0
 40
0.0
 40
0.0
 40
1.0
 40
1.0
 40
1.0
 40
2.0
 40
2.0
 40
2.0
 40
3.0
 40
3.0
 40
3.0
 40
3.0
 10
71.17721326785822
 20
-63.28164034465948
 30
0.0
 10
71.17721326785822
 20
-63.28164034465948
 30
0.0
 10
71.15135602470193
 20
-63.57150279121452
 30
0.0
 10
71.15135602470193
 20
-63.57150279121452
 30
0.0
 10
71.13142741596337
 20
-63.80586120308134
 30
0.0
 10
71.33969694083834
 20
-63.98186708497077
 30
0.0
 10
71.57239041264034
 20
-63.98186708497077
 30
0.0
 10
71.57239041264034
 20
-63.98186708497077
 30
0.0
 10
74.44017729256495
 20
-63.98186708497077
 30
0.0
 10
74.44017729256495
 20
-63.98186708497077
 30
0.0
  0
LINE
  5
E8
330
70
100
AcDbEntity
  8
Camada 1
 62
    18
420
        0
370
    15
100
AcDbLine
 10
81.78416278650738
 20
-56.06916701898164
 30
0.0
 11
82.11363270952691
 21
-56.06916701898164
 31
0.0
  0
LINE
  5
E9
330
70
100
AcDbEntity
  8
Camada 1
 62
    18
420
        0
370
    15
100
AcDbLine
 10
82.11379920353147
 20
-55.60557893454627
 30
0.0
 11
82.11379920353147
 21
-56.06907653310789
 31
0.0
  0
LINE
  5
EA
330
70
100
AcDbEntity
  8
Camada 1
 62
    18
420
        0
370
    15
100
AcDbLine
 10
73.60154697987368
 20
-55.60557893454627
 30
0.0
 11
82.11382092014394
 21
-55.60557893454627
 31
0.0
  0
SPLINE
  5
EB
330
70
100
AcDbEntity
  8
Camada 1
 62
    18
420
        0
370
    15
100
AcDbSpline
210
0.0
220
0.0
230
1.0
 70
     9
 71
     3
 72
    38
 73
    34
 74
     0
 42
0.0000000001
 43
0.0000000001
 40
0.0
 40
0.0
 40
0.0
 40
0.0
 40
1.0
 40
1.0
 40
1.0
 40
2.0
 40
2.0
 40
2.0
 40
3.0
 40
3.0
 40
3.0
 40
4.0
 40
4.0
 40
4.0
 40
5.0
 40
5.0
 40
5.0
 40
6.0
 40
6.0
 40
6.0
 40
7.0
 40
7.0
 40
7.0
 40
8.0
 40
8.0
 40
8.0
 40
9.0
 40
9.0
 40
9.0
 40
10.0
 40
10.0
 40
10.0
 40
11.0
 40
11.0
 40
11.0
 40
11.0
 10
79.38352189555691
 20
-56.30105697622618
 30
0.0
 10
79.38352189555691
 20
-56.2657168135462
 30
0.0
 10
79.39443087244161
 20
-55.97656377623818
 30
0.0
 10
79.32943305992861
 20
-55.97656377623818
 30
0.0
 10
79.32943305992861
 20
-55.97656377623818
 30
0.0
 10
73.81137286177294
 20
-55.97656377623818
 30
0.0
 10
73.81137286177294
 20
-55.97656377623818
 30
0.0
 10
73.75563356381376
 20
-55.97656377623818
 30
0.0
 10
73.70771948417399
 20
-56.01475605364403
 30
0.0
 10
73.69609385917659
 20
-56.06859876769771
 30
0.0
 10
73.69609385917659
 20
-56.06859876769771
 30
0.0
 10
73.3519145525931
 20
-57.66402758868865
 30
0.0
 10
73.3519145525931
 20
-57.66402758868865
 30
0.0
 10
73.3367346424885
 20
-57.73471515291689
 30
0.0
 10
73.39009959112813
 20
-57.80184481260763
 30
0.0
 10
73.46340038737844
 20
-57.80445442519301
 30
0.0
 10
73.46340038737844
 20
-57.80445442519301
 30
0.0
 10
73.86284846537789
 20
-57.81726360541862
 30
0.0
 10
73.86284846537789
 20
-57.81726360541862
 30
0.0
 10
73.92025270340446
 20
-57.81916018932284
 30
0.0
 10
73.97030224964969
 20
-57.78025850267123
 30
0.0
 10
73.98239840119415
 20
-57.72498973125398
 30
0.0
 10
73.98239840119415
 20
-57.72498973125398
 30
0.0
 10
74.19706708702624
 20
-56.72043366296419
 30
0.0
 10
74.19706708702624
 20
-56.72043366296419
 30
0.0
 10
74.20821494662115
 20
-56.6687227960857
 30
0.0
 10
74.25352303310326
 20
-56.63077302082035
 30
0.0
 10
74.30736574715564
 20
-56.62839867150466
 30
0.0
 10
74.30736574715564
 20
-56.62839867150466
 30
0.0
 10
79.22910232360388
 20
-56.41420413164478
 30
0.0
 10
79.29029972944018
 20
-56.41420413164478
 30
0.0
 10
79.38423130480393
 20
-56.41420413164478
 30
0.0
 10
79.38352189555691
 20
-56.37625073694401
 30
0.0
 10
79.38352189555691
 20
-56.30105697622618
 30
0.0
  0
SPLINE
  5
EC
330
70
100
AcDbEntity
  8
Camada 1
 62
    18
420
        0
370
    15
100
AcDbSpline
210
0.0
220
0.0
230
1.0
 70
     8
 71
     3
 72
    32
 73
    28
 74
     0
 42
0.0000000001
 43
0.0000000001
 40
0.0
 40
0.0
 40
0.0
 40
0.0
 40
1.0
 40
1.0
 40
1.0
 40
2.0
 40
2.0
 40
2.0
 40
3.0
 40
3.0
 40
3.0
 40
4.0
 40
4.0
 40
4.0
 40
5.0
 40
5.0
 40
5.0
 40
6.0
 40
6.0
 40
6.0
 40
7.0
 40
7.0
 40
7.0
 40
8.0
 40
8.0
 40
8.0
 40
9.0
 40
9.0
 40
9.0
 40
9.0
 10
81.40764744823654
 20
-56.44017719671886
 30
0.0
 10
81.40764744823654
 20
-56.44017719671886
 30
0.0
 10
81.40764744823654
 20
-56.57989100454207
 30
0.0
 10
81.40764744823654
 20
-56.57989100454207
 30
0.0
 10
81.40764744823654
 20
-56.57989100454207
 30
0.0
 10
79.76002999495564
 20
-56.57989100454207
 30
0.0
 10
79.76002999495564
 20
-56.57989100454207
 30
0.0
 10
79.76002999495564
 20
-56.57989100454207
 30
0.0
 10
79.76002999495564
 20
-56.76538342538802
 30
0.0
 10
79.76002999495564
 20
-56.76538342538802
 30
0.0
 10
79.76002999495564
 20
-56.76538342538802
 30
0.0
 10
74.61295463849316
 20
-56.98669377432543
 30
0.0
 10
74.61295463849316
 20
-56.98669377432543
 30
0.0
 10
74.56076962563733
 20
-56.98906812363983
 30
0.0
 10
74.51664871381244
 20
-57.02559546097702
 30
0.0
 10
74.50597861963155
 20
-57.07612277263244
 30
0.0
 10
74.50597861963155
 20
-57.07612277263244
 30
0.0
 10
74.26521380793551
 20
-58.20165121466665
 30
0.0
 10
74.26521380793551
 20
-58.20165121466665
 30
0.0
 10
74.26521380793551
 20
-58.20165121466665
 30
0.0
 10
73.02725123916513
 20
-58.16108820737923
 30
0.0
 10
73.02725123916513
 20
-58.16108820737923
 30
0.0
 10
72.94067435558142
 20
-58.15847859479386
 30
0.0
 10
72.87734148313838
 20
-58.07877863758388
 30
0.0
 10
72.89536626910059
 20
-57.99504662986036
 30
0.0
 10
72.89536626910059
 20
-57.99504662986036
 30
0.0
 10
73.37143054574733
 20
-55.78905533013482
 30
0.0
 10
73.37143054574733
 20
-55.78905533013482
 30
0.0
  0
SPLINE
  5
ED
330
70
100
AcDbEntity
  8
Camada 1
 62
    18
420
        0
370
    15
100
AcDbSpline
210
0.0
220
0.0
230
1.0
 70
     9
 71
     3
 72
    11
 73
     7
 74
     0
 42
0.0000000001
 43
0.0000000001
 40
0.0
 40
0.0
 40
0.0
 40
0.0
 40
1.0
 40
1.0
 40
1.0
 40
2.0
 40
2.0
 40
2.0
 40
2.0
 10
65.00105293256609
 20
-73.7243037117296
 30
0.0
 10
65.00057516715592
 20
-73.72454259443599
 30
0.0
 10
65.00009740174701
 20
-73.72501674041204
 30
0.0
 10
64.99938799249999
 20
-73.72501674041204
 30
0.0
 10
64.99938799249999
 20
-73.72501674041204
 30
0.0
 10
65.00105293256609
 20
-73.7243037117296
 30
0.0
 10
65.00105293256609
 20
-73.7243037117296
 30
0.0
  0
SPLINE
  5
EE
330
70
100
AcDbEntity
  8
Camada 1
 62
    18
420
        0
370
    15
100
AcDbSpline
210
0.0
220
0.0
230
1.0
 70
     9
 71
     3
 72
   224
 73
   220
 74
     0
 42
0.0000000001
 43
0.0000000001
 40
0.0
 40
0.0
 40
0.0
 40
0.0
 40
1.0
 40
1.0
 40
1.0
 40
2.0
 40
2.0
 40
2.0
 40
3.0
 40
3.0
 40
3.0
 40
4.0
 40
4.0
 40
4.0
 40
5.0
 40
5.0
 40
5.0
 40
6.0
 40
6.0
 40
6.0
 40
7.0
 40
7.0
 40
7.0
 40
8.0
 40
8.0
 40
8.0
 40
9.0
 40
9.0
 40
9.0
 40
10.0
 40
10.0
 40
10.0
 40
11.0
 40
11.0
 40
11.0
 40
12.0
 40
12.0
 40
12.0
 40
13.0
 40
13.0
 40
13.0
 40
14.0
 40
14.0
 40
14.0
 40
15.0
 40
15.0
 40
15.0
 40
16.0
 40
16.0
 40
16.0
 40
17.0
 40
17.0
 40
17.0
 40
18.0
 40
18.0
 40
18.0
 40
19.0
 40
19.0
 40
19.0
 40
20.0
 40
20.0
 40
20.0
 40
21.0
 40
21.0
 40
21.0
 40
22.0
 40
22.0
 40
22.0
 40
23.0
 40
23.0
 40
23.0
 40
24.0
 40
24.0
 40
24.0
 40
25.0
 40
25.0
 40
25.0
 40
26.0
 40
26.0
 40
26.0
 40
27.0
 40
27.0
 40
27.0
 40
28.0
 40
28.0
 40
28.0
 40
29.0
 40
29.0
 40
29.0
 40
30.0
 40
30.0
 40
30.0
 40
31.0
 40
31.0
 40
31.0
 40
32.0
 40
32.0
 40
32.0
 40
33.0
 40
33.0
 40
33.0
 40
34.0
 40
34.0
 40
34.0
 40
35.0
 40
35.0
 40
35.0
 40
36.0
 40
36.0
 40
36.0
 40
37.0
 40
37.0
 40
37.0
 40
38.0
 40
38.0
 40
38.0
 40
39.0
 40
39.0
 40
39.0
 40
40.0
 40
40.0
 40
40.0
 40
41.0
 40
41.0
 40
41.0
 40
42.0
 40
42.0
 40
42.0
 40
43.0
 40
43.0
 40
43.0
 40
44.0
 40
44.0
 40
44.0
 40
45.0
 40
45.0
 40
45.0
 40
46.0
 40
46.0
 40
46.0
 40
47.0
 40
47.0
 40
47.0
 40
48.0
 40
48.0
 40
48.0
 40
49.0
 40
49.0
 40
49.0
 40
50.0
 40
50.0
 40
50.0
 40
51.0
 40
51.0
 40
51.0
 40
52.0
 40
52.0
 40
52.0
 40
53.0
 40
53.0
 40
53.0
 40
54.0
 40
54.0
 40
54.0
 40
55.0
 40
55.0
 40
55.0
 40
56.0
 40
56.0
 40
56.0
 40
57.0
 40
57.0
 40
57.0
 40
58.0
 40
58.0
 40
58.0
 40
59.0
 40
59.0
 40
59.0
 40
60.0
 40
60.0
 40
60.0
 40
61.0
 40
61.0
 40
61.0
 40
62.0
 40
62.0
 40
62.0
 40
63.0
 40
63.0
 40
63.0
 40
64.0
 40
64.0
 40
64.0
 40
65.0
 40
65.0
 40
65.0
 40
66.0
 40
66.0
 40
66.0
 40
67.0
 40
67.0
 40
67.0
 40
68.0
 40
68.0
 40
68.0
 40
69.0
 40
69.0
 40
69.0
 40
70.0
 40
70.0
 40
70.0
 40
71.0
 40
71.0
 40
71.0
 40
72.0
 40
72.0
 40
72.0
 40
73.0
 40
73.0
 40
73.0
 40
73.0
 10
56.61252747263788
 20
-55.97658549284808
 30
0.0
 10
56.50222157364022
 20
-55.97990813411588
 30
0.0
 10
56.41279981419633
 20
-56.0861747437292
 30
0.0
 10
56.50151216439319
 20
-56.19671228656241
 30
0.0
 10
56.50151216439319
 20
-56.19671228656241
 30
0.0
 10
56.63007449318736
 20
-56.32954554857777
 30
0.0
 10
56.63007449318736
 20
-56.32954554857777
 30
0.0
 10
56.63007449318736
 20
-56.32954554857777
 30
0.0
 10
56.83193761823181
 20
-56.55536209400604
 30
0.0
 10
56.83193761823181
 20
-56.55536209400604
 30
0.0
 10
56.83193761823181
 20
-56.55536209400604
 30
0.0
 10
56.99323411655857
 20
-56.75153184790243
 30
0.0
 10
56.99323411655857
 20
-56.75153184790243
 30
0.0
 10
56.99323411655857
 20
-56.75153184790243
 30
0.0
 10
57.14527933919463
 20
-56.95173003287822
 30
0.0
 10
57.14527933919463
 20
-56.95173003287822
 30
0.0
 10
57.14527933919463
 20
-56.95173003287822
 30
0.0
 10
57.28475788374686
 20
-57.1528801292428
 30
0.0
 10
57.28475788374686
 20
-57.1528801292428
 30
0.0
 10
57.28475788374686
 20
-57.1528801292428
 30
0.0
 10
57.44415779816684
 20
-57.40763405695341
 30
0.0
 10
57.44415779816684
 20
-57.40763405695341
 30
0.0
 10
57.44415779816684
 20
-57.40763405695341
 30
0.0
 10
57.56038509271272
 20
-57.6175612830275
 30
0.0
 10
57.56038509271272
 20
-57.6175612830275
 30
0.0
 10
57.56038509271272
 20
-57.6175612830275
 30
0.0
 10
57.69274782818615
 20
-57.89176605406519
 30
0.0
 10
57.69274782818615
 20
-57.89176605406519
 30
0.0
 10
57.69274782818615
 20
-57.89176605406519
 30
0.0
 10
57.77837641981517
 20
-58.09955781352997
 30
0.0
 10
57.77837641981517
 20
-58.09955781352997
 30
0.0
 10
57.77837641981517
 20
-58.09955781352997
 30
0.0
 10
57.88298532822935
 20
-58.41266427122054
 30
0.0
 10
57.88298532822935
 20
-58.41266427122054
 30
0.0
 10
57.88298532822935
 20
-58.41266427122054
 30
0.0
 10
57.93587975033219
 20
-58.61950773873193
 30
0.0
 10
57.93587975033219
 20
-58.61950773873193
 30
0.0
 10
57.93587975033219
 20
-58.61950773873193
 30
0.0
 10
57.99447116301468
 20
-58.96250349009362
 30
0.0
 10
57.99447116301468
 20
-58.96250349009362
 30
0.0
 10
57.99447116301468
 20
-58.96250349009362
 30
0.0
 10
58.01036048236631
 20
-59.14538629835421
 30
0.0
 10
58.01036048236631
 20
-59.14538629835421
 30
0.0
 10
58.01036048236631
 20
-59.14538629835421
 30
0.0
 10
58.01510918100025
 20
-59.30407318409174
 30
0.0
 10
58.01510918100025
 20
-59.30407318409174
 30
0.0
 10
58.01534082483453
 20
-59.35791951757955
 30
0.0
 10
58.04499123580056
 20
-59.39515988359788
 30
0.0
 10
58.08745444642505
 20
-59.40512418796716
 30
0.0
 10
58.08745444642505
 20
-59.40512418796716
 30
0.0
 10
58.32086456634232
 20
-59.52230339390057
 30
0.0
 10
58.32086456634232
 20
-59.52230339390057
 30
0.0
 10
58.32086456634232
 20
-59.52230339390057
 30
0.0
 10
58.46033587202503
 20
-59.69783151037853
 30
0.0
 10
58.46033587202503
 20
-59.69783151037853
 30
0.0
 10
58.46033587202503
 20
-59.69783151037853
 30
0.0
 10
58.50564395850586
 20
-59.82283955407062
 30
0.0
 10
58.50564395850586
 20
-59.82283955407062
 30
0.0
 10
58.50564395850586
 20
-59.82283955407062
 30
0.0
 10
60.82857558145843
 20
-69.89069595616097
 30
0.0
 10
60.82857558145843
 20
-69.89069595616097
 30
0.0
 10
60.82857558145843
 20
-69.89069595616097
 30
0.0
 10
61.93892411338677
 20
-74.29627034606191
 30
0.0
 10
61.93892411338677
 20
-74.29627034606191
 30
0.0
 10
61.9548134327384
 20
-74.35889199954345
 30
0.0
 10
62.01245655347134
 20
-74.40301110165129
 30
0.0
 10
62.07792489252755
 20
-74.40253695567523
 30
0.0
 10
62.07792489252755
 20
-74.40253695567523
 30
0.0
 10
62.59526520514285
 20
-74.39779368619632
 30
0.0
 10
62.59526520514285
 20
-74.39779368619632
 30
0.0
 10
62.66144295344735
 20
-74.3973177305032
 30
0.0
 10
62.71813778222561
 20
-74.35201326345524
 30
0.0
 10
62.73165999113366
 20
-74.28844150830324
 30
0.0
 10
62.80068261529194
 20
-73.96086454975381
 30
0.0
 10
63.10643800063401
 20
-73.70800539623036
 30
0.0
 10
63.47197197331834
 20
-73.70800539623036
 30
0.0
 10
63.47197197331834
 20
-73.70800539623036
 30
0.0
 10
64.96540149848432
 20
-73.70800539623036
 30
0.0
 10
64.96540149848432
 20
-73.70800539623036
 30
0.0
 10
65.00952241030923
 20
-73.70800539623036
 30
0.0
 10
65.05292667401757
 20
-73.69685753663801
 30
0.0
 10
65.0913578341234
 20
-73.67598244566569
 30
0.0
 10
65.0913578341234
 20
-73.67598244566569
 30
0.0
 10
65.78114250466036
 20
-73.29930423282442
 30
0.0
 10
65.78114250466036
 20
-73.29930423282442
 30
0.0
 10
65.89950526581685
 20
-73.23478599543868
 30
0.0
 10
65.90140184971978
 20
-73.05712060263305
 30
0.0
 10
65.79608353206244
 20
-72.96650804910297
 30
0.0
 10
65.79608353206244
 20
-72.96650804910297
 30
0.0
 10
65.64665154144588
 20
-72.82300107347132
 30
0.0
 10
65.64665154144588
 20
-72.82300107347132
 30
0.0
 10
65.64665154144588
 20
-72.82300107347132
 30
0.0
 10
65.52211402429316
 20
-72.68708224317491
 30
0.0
 10
65.52211402429316
 20
-72.68708224317491
 30
0.0
 10
65.52211402429316
 20
-72.68708224317491
 30
0.0
 10
65.40944825372143
 20
-72.54808146403414
 30
0.0
 10
65.40944825372143
 20
-72.54808146403414
 30
0.0
 10
65.40944825372143
 20
-72.54808146403414
 30
0.0
 10
65.30389105335387
 20
-72.40006648219455
 30
0.0
 10
65.30389105335387
 20
-72.40006648219455
 30
0.0
 10
65.30389105335387
 20
-72.40006648219455
 30
0.0
 10
65.20924282987355
 20
-72.24825652282817
 30
0.0
 10
65.20924282987355
 20
-72.24825652282817
 30
0.0
 10
65.20924282987355
 20
-72.24825652282817
 30
0.0
 10
65.12836293687847
 20
-72.09834495708436
 30
0.0
 10
65.12836293687847
 20
-72.09834495708436
 30
0.0
 10
65.12836293687847
 20
-72.09834495708436
 30
0.0
 10
65.05435273137987
 20
-71.93752079501916
 30
0.0
 10
65.05435273137987
 20
-71.93752079501916
 30
0.0
 10
65.05435273137987
 20
-71.93752079501916
 30
0.0
 10
64.94524124591151
 20
-71.62678325749181
 30
0.0
 10
64.94524124591151
 20
-71.62678325749181
 30
0.0
 10
64.94524124591151
 20
-71.62678325749181
 30
0.0
 10
64.90325580069463
 20
-71.45813206738499
 30
0.0
 10
64.90325580069463
 20
-71.45813206738499
 30
0.0
 10
64.90325580069463
 20
-71.45813206738499
 30
0.0
 10
64.8766891482913
 20
-71.31225255215601
 30
0.0
 10
64.8766891482913
 20
-71.31225255215601
 30
0.0
 10
64.77706058234407
 20
-70.64405057212515
 30
0.0
 10
64.68075465766718
 20
-69.98747240738104
 30
0.0
 10
64.5861136730577
 20
-69.33113131562369
 30
0.0
 10
64.5861136730577
 20
-69.33113131562369
 30
0.0
 10
64.56049531260518
 20
-69.15441602448852
 30
0.0
 10
64.56049531260518
 20
-69.15441602448852
 30
0.0
 10
64.56049531260518
 20
-69.15441602448852
 30
0.0
 10
64.01255629707302
 20
-65.20996307411644
 30
0.0
 10
64.01255629707302
 20
-65.20996307411644
 30
0.0
 10
64.01255629707302
 20
-65.20996307411644
 30
0.0
 10
63.9615584588744
 20
-64.98485593793645
 30
0.0
 10
63.9615584588744
 20
-64.98485593793645
 30
0.0
 10
63.9615584588744
 20
-64.98485593793645
 30
0.0
 10
63.89585123711438
 20
-64.76212315107088
 30
0.0
 10
63.89585123711438
 20
-64.76212315107088
 30
0.0
 10
63.89585123711438
 20
-64.76212315107088
 30
0.0
 10
63.81401581329252
 20
-64.54176109408559
 30
0.0
 10
63.81401581329252
 20
-64.54176109408559
 30
0.0
 10
63.81401581329252
 20
-64.54176109408559
 30
0.0
 10
63.71557442200119
 20
-64.32495694164034
 30
0.0
 10
63.71557442200119
 20
-64.32495694164034
 30
0.0
 10
63.71557442200119
 20
-64.32495694164034
 30
0.0
 10
63.59982489286934
 20
-64.11408142361285
 30
0.0
 10
63.59982489286934
 20
-64.11408142361285
 30
0.0
 10
63.59982489286934
 20
-64.11408142361285
 30
0.0
 10
63.46580445619549
 20
-63.90795460421802
 30
0.0
 10
63.46580445619549
 20
-63.90795460421802
 30
0.0
 10
63.46580445619549
 20
-63.90795460421802
 30
0.0
 10
63.31352035085178
 20
-63.70609147917228
 30
0.0
 10
63.31352035085178
 20
-63.70609147917228
 30
0.0
 10
63.31352035085178
 20
-63.70609147917228
 30
0.0
 10
63.14415251263097
 20
-63.51087363666343
 30
0.0
 10
63.14415251263097
 20
-63.51087363666343
 30
0.0
 10
63.14415251263097
 20
-63.51087363666343
 30
0.0
 10
62.95818594580768
 20
-63.32158804800775
 30
0.0
 10
62.95818594580768
 20
-63.32158804800775
 30
0.0
 10
62.95818594580768
 20
-63.32158804800775
 30
0.0
 10
62.75585229422001
 20
-63.13680503640753
 30
0.0
 10
62.75585229422001
 20
-63.13680503640753
 30
0.0
 10
62.75585229422001
 20
-63.13680503640753
 30
0.0
 10
62.53288062464934
 20
-62.95131261556157
 30
0.0
 10
62.53288062464934
 20
-62.95131261556157
 30
0.0
 10
62.53288062464934
 20
-62.95131261556157
 30
0.0
 10
62.30303202870882
 20
-62.77364903247302
 30
0.0
 10
62.30303202870882
 20
-62.77364903247302
 30
0.0
 10
62.30303202870882
 20
-62.77364903247302
 30
0.0
 10
61.80822631797944
 20
-62.42092424001429
 30
0.0
 10
61.80822631797944
 20
-62.42092424001429
 30
0.0
 10
61.80822631797944
 20
-62.42092424001429
 30
0.0
 10
60.71851580403668
 20
-61.66994216364744
 30
0.0
 10
60.71851580403668
 20
-61.66994216364744
 30
0.0
 10
60.71851580403668
 20
-61.66994216364744
 30
0.0
 10
60.43695272178096
 20
-61.45954079159601
 30
0.0
 10
60.43695272178096
 20
-61.45954079159601
 30
0.0
 10
60.43695272178096
 20
-61.45954079159601
 30
0.0
 10
60.14708665579307
 20
-61.22613429111542
 30
0.0
 10
60.14708665579307
 20
-61.22613429111542
 30
0.0
 10
60.14708665579307
 20
-61.22613429111542
 30
0.0
 10
59.87549149734076
 20
-60.98632139080561
 30
0.0
 10
59.87549149734076
 20
-60.98632139080561
 30
0.0
 10
59.87549149734076
 20
-60.98632139080561
 30
0.0
 10
59.61480531577699
 20
-60.72895423107294
 30
0.0
 10
59.61480531577699
 20
-60.72895423107294
 30
0.0
 10
59.61480531577699
 20
-60.72895423107294
 30
0.0
 10
59.37191227633345
 20
-60.45759433589158
 30
0.0
 10
59.37191227633345
 20
-60.45759433589158
 30
0.0
 10
59.37191227633345
 20
-60.45759433589158
 30
0.0
 10
59.14941113330728
 20
-60.17223808582741
 30
0.0
 10
59.14941113330728
 20
-60.17223808582741
 30
0.0
 10
59.14941113330728
 20
-60.17223808582741
 30
0.0
 10
58.94850353908577
 20
-59.87170192565737
 30
0.0
 10
58.94850353908577
 20
-59.87170192565737
 30
0.0
 10
58.94850353908577
 20
-59.87170192565737
 30
0.0
 10
58.77439424110055
 20
-59.56238863577652
 30
0.0
 10
58.77439424110055
 20
-59.56238863577652
 30
0.0
 10
58.77439424110055
 20
-59.56238863577652
 30
0.0
 10
58.62732936093142
 20
-59.24975632406201
 30
0.0
 10
58.62732936093142
 20
-59.24975632406201
 30
0.0
 10
58.62732936093142
 20
-59.24975632406201
 30
0.0
 10
58.50469566655245
 20
-58.93380137108098
 30
0.0
 10
58.50469566655245
 20
-58.93380137108098
 30
0.0
 10
58.50469566655245
 20
-58.93380137108098
 30
0.0
 10
58.4060153925586
 20
-58.61974300200289
 30
0.0
 10
58.4060153925586
 20
-58.61974300200289
 30
0.0
 10
58.4060153925586
 20
-58.61974300200289
 30
0.0
 10
58.32987695932408
 20
-58.31398761666082
 30
0.0
 10
58.32987695932408
 20
-58.31398761666082
 30
0.0
 10
58.32987695932408
 20
-58.31398761666082
 30
0.0
 10
58.27199495588477
 20
-58.01677409775856
 30
0.0
 10
58.27199495588477
 20
-58.01677409775856
 30
0.0
 10
58.27199495588477
 20
-58.01677409775856
 30
0.0
 10
58.23214497727978
 20
-57.74517531987211
 30
0.0
 10
58.23214497727978
 20
-57.74517531987211
 30
0.0
 10
58.23214497727978
 20
-57.74517531987211
 30
0.0
 10
58.02672756713196
 20
-56.09661319407323
 30
0.0
 10
58.02672756713196
 20
-56.09661319407323
 30
0.0
 10
58.0181929395604
 20
-56.02806109645561
 30
0.0
 10
57.95912376146516
 20
-55.97658549284808
 30
0.0
 10
57.88891396264712
 20
-55.97658549284808
 30
0.0
 10
57.88891396264712
 20
-55.97658549284808
 30
0.0
 10
56.61252747263788
 20
-55.97658549284808
 30
0.0
 10
56.61252747263788
 20
-55.97658549284808
 30
0.0
  0
SPLINE
  5
EF
330
70
100
AcDbEntity
  8
Camada 1
 62
    18
420
        0
370
    15
100
AcDbSpline
210
0.0
220
0.0
230
1.0
 70
     8
 71
     3
 72
    62
 73
    58
 74
     0
 42
0.0000000001
 43
0.0000000001
 40
0.0
 40
0.0
 40
0.0
 40
0.0
 40
1.0
 40
1.0
 40
1.0
 40
2.0
 40
2.0
 40
2.0
 40
3.0
 40
3.0
 40
3.0
 40
4.0
 40
4.0
 40
4.0
 40
5.0
 40
5.0
 40
5.0
 40
6.0
 40
6.0
 40
6.0
 40
7.0
 40
7.0
 40
7.0
 40
8.0
 40
8.0
 40
8.0
 40
9.0
 40
9.0
 40
9.0
 40
10.0
 40
10.0
 40
10.0
 40
11.0
 40
11.0
 40
11.0
 40
12.0
 40
12.0
 40
12.0
 40
13.0
 40
13.0
 40
13.0
 40
14.0
 40
14.0
 40
14.0
 40
15.0
 40
15.0
 40
15.0
 40
16.0
 40
16.0
 40
16.0
 40
17.0
 40
17.0
 40
17.0
 40
18.0
 40
18.0
 40
18.0
 40
19.0
 40
19.0
 40
19.0
 40
19.0
 10
71.82890700516418
 20
-62.00876108709582
 30
0.0
 10
71.82890700516418
 20
-62.00876108709582
 30
0.0
 10
71.60308322086379
 20
-62.1446817271093
 30
0.0
 10
71.60308322086379
 20
-62.1446817271093
 30
0.0
 10
71.60308322086379
 20
-62.1446817271093
 30
0.0
 10
71.38058931670588
 20
-62.28107289366469
 30
0.0
 10
71.38058931670588
 20
-62.28107289366469
 30
0.0
 10
71.38058931670588
 20
-62.28107289366469
 30
0.0
 10
71.16378516426063
 20
-62.41793820619487
 30
0.0
 10
71.16378516426063
 20
-62.41793820619487
 30
0.0
 10
71.16378516426063
 20
-62.41793820619487
 30
0.0
 10
70.95362629435098
 20
-62.55480351872504
 30
0.0
 10
70.95362629435098
 20
-62.55480351872504
 30
0.0
 10
70.95362629435098
 20
-62.55480351872504
 30
0.0
 10
70.75105376005565
 20
-62.69309488862008
 30
0.0
 10
70.75105376005565
 20
-62.69309488862008
 30
0.0
 10
70.75105376005565
 20
-62.69309488862008
 30
0.0
 10
70.55559703484171
 20
-62.83328284241806
 30
0.0
 10
70.55559703484171
 20
-62.83328284241806
 30
0.0
 10
70.55559703484171
 20
-62.83328284241806
 30
0.0
 10
70.36868217606887
 20
-62.97536738012154
 30
0.0
 10
70.36868217606887
 20
-62.97536738012154
 30
0.0
 10
70.36868217606887
 20
-62.97536738012154
 30
0.0
 10
70.19054082756628
 20
-63.12029679368135
 30
0.0
 10
70.19054082756628
 20
-63.12029679368135
 30
0.0
 10
70.19054082756628
 20
-63.12029679368135
 30
0.0
 10
70.02094134550865
 20
-63.2692618771914
 30
0.0
 10
70.02094134550865
 20
-63.2692618771914
 30
0.0
 10
70.02094134550865
 20
-63.2692618771914
 30
0.0
 10
69.86130254838487
 20
-63.4217812458048
 30
0.0
 10
69.86130254838487
 20
-63.4217812458048
 30
0.0
 10
69.86130254838487
 20
-63.4217812458048
 30
0.0
 10
69.71210220160642
 20
-63.57857516707223
 30
0.0
 10
69.71210220160642
 20
-63.57857516707223
 30
0.0
 10
69.71210220160642
 20
-63.57857516707223
 30
0.0
 10
69.57381083171139
 20
-63.74058469407757
 30
0.0
 10
69.57381083171139
 20
-63.74058469407757
 30
0.0
 10
69.57381083171139
 20
-63.74058469407757
 30
0.0
 10
69.57381083171139
 20
-63.74081995734854
 30
0.0
 10
69.57381083171139
 20
-63.74081995734854
 30
0.0
 10
69.23152810903212
 20
-64.17016094845454
 30
0.0
 10
68.96538381958738
 20
-64.59712397081071
 30
0.0
 10
68.93478511667051
 20
-65.38297930275104
 30
0.0
 10
68.93478511667051
 20
-65.38297930275104
 30
0.0
 10
68.79009458581451
 20
-69.08856764476414
 30
0.0
 10
68.79009458581451
 20
-69.08856764476414
 30
0.0
 10
68.79009458581451
 20
-69.08856764476414
 30
0.0
 10
68.79056511235515
 20
-69.07694563919702
 30
0.0
 10
68.79056511235515
 20
-69.07694563919702
 30
0.0
 10
68.79056511235515
 20
-69.07694563919702
 30
0.0
 10
68.72960658922522
 20
-70.56515774890548
 30
0.0
 10
68.72960658922522
 20
-70.56515774890548
 30
0.0
 10
68.72960658922522
 20
-70.56515774890548
 30
0.0
 10
68.72936770652143
 20
-70.56634492356396
 30
0.0
 10
68.72936770652143
 20
-70.56634492356396
 30
0.0
 10
68.72936770652143
 20
-70.56634492356396
 30
0.0
 10
69.10557177338535
 20
-70.58437151924325
 30
0.0
 10
69.10557177338535
 20
-70.58437151924325
 30
0.0
  0
SPLINE
  5
F0
330
70
100
AcDbEntity
  8
Camada 1
 62
    18
420
        0
370
    15
100
AcDbSpline
210
0.0
220
0.0
230
1.0
 70
     8
 71
     3
 72
   329
 73
   325
 74
     0
 42
0.0000000001
 43
0.0000000001
 40
0.0
 40
0.0
 40
0.0
 40
0.0
 40
1.0
 40
1.0
 40
1.0
 40
2.0
 40
2.0
 40
2.0
 40
3.0
 40
3.0
 40
3.0
 40
4.0
 40
4.0
 40
4.0
 40
5.0
 40
5.0
 40
5.0
 40
6.0
 40
6.0
 40
6.0
 40
7.0
 40
7.0
 40
7.0
 40
8.0
 40
8.0
 40
8.0
 40
9.0
 40
9.0
 40
9.0
 40
10.0
 40
10.0
 40
10.0
 40
11.0
 40
11.0
 40
11.0
 40
12.0
 40
12.0
 40
12.0
 40
13.0
 40
13.0
 40
13.0
 40
14.0
 40
14.0
 40
14.0
 40
15.0
 40
15.0
 40
15.0
 40
16.0
 40
16.0
 40
16.0
 40
17.0
 40
17.0
 40
17.0
 40
18.0
 40
18.0
 40
18.0
 40
19.0
 40
19.0
 40
19.0
 40
20.0
 40
20.0
 40
20.0
 40
21.0
 40
21.0
 40
21.0
 40
22.0
 40
22.0
 40
22.0
 40
23.0
 40
23.0
 40
23.0
 40
24.0
 40
24.0
 40
24.0
 40
25.0
 40
25.0
 40
25.0
 40
26.0
 40
26.0
 40
26.0
 40
27.0
 40
27.0
 40
27.0
 40
28.0
 40
28.0
 40
28.0
 40
29.0
 40
29.0
 40
29.0
 40
30.0
 40
30.0
 40
30.0
 40
31.0
 40
31.0
 40
31.0
 40
32.0
 40
32.0
 40
32.0
 40
33.0
 40
33.0
 40
33.0
 40
34.0
 40
34.0
 40
34.0
 40
35.0
 40
35.0
 40
35.0
 40
36.0
 40
36.0
 40
36.0
 40
37.0
 40
37.0
 40
37.0
 40
38.0
 40
38.0
 40
38.0
 40
39.0
 40
39.0
 40
39.0
 40
40.0
 40
40.0
 40
40.0
 40
41.0
 40
41.0
 40
41.0
 40
42.0
 40
42.0
 40
42.0
 40
43.0
 40
43.0
 40
43.0
 40
44.0
 40
44.0
 40
44.0
 40
45.0
 40
45.0
 40
45.0
 40
46.0
 40
46.0
 40
46.0
 40
47.0
 40
47.0
 40
47.0
 40
48.0
 40
48.0
 40
48.0
 40
49.0
 40
49.0
 40
49.0
 40
50.0
 40
50.0
 40
50.0
 40
51.0
 40
51.0
 40
51.0
 40
52.0
 40
52.0
 40
52.0
 40
53.0
 40
53.0
 40
53.0
 40
54.0
 40
54.0
 40
54.0
 40
55.0
 40
55.0
 40
55.0
 40
56.0
 40
56.0
 40
56.0
 40
57.0
 40
57.0
 40
57.0
 40
58.0
 40
58.0
 40
58.0
 40
59.0
 40
59.0
 40
59.0
 40
60.0
 40
60.0
 40
60.0
 40
61.0
 40
61.0
 40
61.0
 40
62.0
 40
62.0
 40
62.0
 40
63.0
 40
63.0
 40
63.0
 40
64.0
 40
64.0
 40
64.0
 40
65.0
 40
65.0
 40
65.0
 40
66.0
 40
66.0
 40
66.0
 40
67.0
 40
67.0
 40
67.0
 40
68.0
 40
68.0
 40
68.0
 40
69.0
 40
69.0
 40
69.0
 40
70.0
 40
70.0
 40
70.0
 40
71.0
 40
71.0
 40
71.0
 40
72.0
 40
72.0
 40
72.0
 40
73.0
 40
73.0
 40
73.0
 40
74.0
 40
74.0
 40
74.0
 40
75.0
 40
75.0
 40
75.0
 40
76.0
 40
76.0
 40
76.0
 40
77.0
 40
77.0
 40
77.0
 40
78.0
 40
78.0
 40
78.0
 40
79.0
 40
79.0
 40
79.0
 40
80.0
 40
80.0
 40
80.0
 40
81.0
 40
81.0
 40
81.0
 40
82.0
 40
82.0
 40
82.0
 40
83.0
 40
83.0
 40
83.0
 40
84.0
 40
84.0
 40
84.0
 40
85.0
 40
85.0
 40
85.0
 40
86.0
 40
86.0
 40
86.0
 40
87.0
 40
87.0
 40
87.0
 40
88.0
 40
88.0
 40
88.0
 40
89.0
 40
89.0
 40
89.0
 40
90.0
 40
90.0
 40
90.0
 40
91.0
 40
91.0
 40
91.0
 40
92.0
 40
92.0
 40
92.0
 40
93.0
 40
93.0
 40
93.0
 40
94.0
 40
94.0
 40
94.0
 40
95.0
 40
95.0
 40
95.0
 40
96.0
 40
96.0
 40
96.0
 40
97.0
 40
97.0
 40
97.0
 40
98.0
 40
98.0
 40
98.0
 40
99.0
 40
99.0
 40
99.0
 40
100.0
 40
100.0
 40
100.0
 40
101.0
 40
101.0
 40
101.0
 40
102.0
 40
102.0
 40
102.0
 40
103.0
 40
103.0
 40
103.0
 40
104.0
 40
104.0
 40
104.0
 40
105.0
 40
105.0
 40
105.0
 40
106.0
 40
106.0
 40
106.0
 40
107.0
 40
107.0
 40
107.0
 40
108.0
 40
108.0
 40
108.0
 40
108.0
 10
71.65996626026293
 20
-68.70655076539765
 30
0.0
 10
71.65996626026293
 20
-68.70655076539765
 30
0.0
 10
71.26004041685073
 20
-71.32859611059341
 30
0.0
 10
71.26004041685073
 20
-71.32859611059341
 30
0.0
 10
70.86035345614489
 20
-73.7053740670338
 30
0.0
 10
68.54240217565923
 20
-73.60100404132599
 30
0.0
 10
67.56512578845136
 20
-73.44563617742085
 30
0.0
 10
67.56512578845136
 20
-73.44563617742085
 30
0.0
 10
67.27455031321388
 20
-73.36498611854169
 30
0.0
 10
67.27455031321388
 20
-73.36498611854169
 30
0.0
 10
67.27455031321388
 20
-73.36498611854169
 30
0.0
 10
67.10115042447569
 20
-73.30948208385476
 30
0.0
 10
67.10115042447569
 20
-73.30948208385476
 30
0.0
 10
67.10115042447569
 20
-73.30948208385476
 30
0.0
 10
67.09118973954568
 20
-73.3056852966109
 30
0.0
 10
67.09118973954568
 20
-73.3056852966109
 30
0.0
 10
67.09118973954568
 20
-73.3056852966109
 30
0.0
 10
66.92301631484649
 20
-73.24092998623584
 30
0.0
 10
66.92301631484649
 20
-73.24092998623584
 30
0.0
 10
66.92301631484649
 20
-73.24092998623584
 30
0.0
 10
66.76029375916001
 20
-73.16787169212734
 30
0.0
 10
66.76029375916001
 20
-73.16787169212734
 30
0.0
 10
66.76029375916001
 20
-73.16787169212734
 30
0.0
 10
66.60373872060022
 20
-73.08674748727212
 30
0.0
 10
66.60373872060022
 20
-73.08674748727212
 30
0.0
 10
66.60373872060022
 20
-73.08674748727212
 30
0.0
 10
66.59686179422521
 20
-73.08295250974532
 30
0.0
 10
66.59686179422521
 20
-73.08295250974532
 30
0.0
 10
66.59686179422521
 20
-73.08295250974532
 30
0.0
 10
66.44694479933021
 20
-72.99400127684851
 30
0.0
 10
66.44694479933021
 20
-72.99400127684851
 30
0.0
 10
66.44694479933021
 20
-72.99400127684851
 30
0.0
 10
66.30462137892163
 20
-72.89817130786346
 30
0.0
 10
66.30462137892163
 20
-72.89817130786346
 30
0.0
 10
66.30462137892163
 20
-72.89817130786346
 30
0.0
 10
66.16989153300078
 20
-72.79569967577694
 30
0.0
 10
66.16989153300078
 20
-72.79569967577694
 30
0.0
 10
66.16989153300078
 20
-72.79569967577694
 30
0.0
 10
66.04417408005653
 20
-72.6880088185184
 30
0.0
 10
66.04417408005653
 20
-72.6880088185184
 30
0.0
 10
66.04417408005653
 20
-72.6880088185184
 30
0.0
 10
65.92533355349501
 20
-72.57391337114642
 30
0.0
 10
65.92533355349501
 20
-72.57391337114642
 30
0.0
 10
65.92533355349501
 20
-72.57391337114642
 30
0.0
 10
65.81551265877577
 20
-72.45436343533144
 30
0.0
 10
65.81551265877577
 20
-72.45436343533144
 30
0.0
 10
65.81551265877577
 20
-72.45436343533144
 30
0.0
 10
65.71660074094893
 20
-72.33338925187124
 30
0.0
 10
65.71660074094893
 20
-72.33338925187124
 30
0.0
 10
65.71660074094893
 20
-72.33338925187124
 30
0.0
 10
65.62408798407536
 20
-72.20482511335744
 30
0.0
 10
65.62408798407536
 20
-72.20482511335744
 30
0.0
 10
65.62408798407536
 20
-72.20482511335744
 30
0.0
 10
65.54106538560015
 20
-72.07270307030618
 30
0.0
 10
65.54106538560015
 20
-72.07270307030618
 30
0.0
 10
65.54106538560015
 20
-72.07270307030618
 30
0.0
 10
65.470616704077
 20
-71.94319063984027
 30
0.0
 10
65.470616704077
 20
-71.94319063984027
 30
0.0
 10
65.470616704077
 20
-71.94319063984027
 30
0.0
 10
65.40585777426653
 20
-71.80466400667555
 30
0.0
 10
65.40585777426653
 20
-71.80466400667555
 30
0.0
 10
65.40585777426653
 20
-71.80466400667555
 30
0.0
 10
65.35106676826332
 20
-71.6637648339135
 30
0.0
 10
65.35106676826332
 20
-71.6637648339135
 30
0.0
 10
65.35106676826332
 20
-71.6637648339135
 30
0.0
 10
65.31050738041258
 20
-71.53733616200902
 30
0.0
 10
65.31050738041258
 20
-71.53733616200902
 30
0.0
 10
65.31050738041258
 20
-71.53733616200902
 30
0.0
 10
65.27374116036902
 20
-71.39216786574412
 30
0.0
 10
65.27374116036902
 20
-71.39216786574412
 30
0.0
 10
65.27374116036902
 20
-71.39216786574412
 30
0.0
 10
65.24717450796185
 20
-71.24628654079677
 30
0.0
 10
65.24717450796185
 20
-71.24628654079677
 30
0.0
 10
65.14968140862904
 20
-70.59065666800478
 30
0.0
 10
65.05361436665598
 20
-69.93479153194055
 30
0.0
 10
64.9589733820452
 20
-69.27868570345416
 30
0.0
 10
64.9589733820452
 20
-69.27868570345416
 30
0.0
 10
64.9333550215927
 20
-69.10197041231899
 30
0.0
 10
64.9333550215927
 20
-69.10197041231899
 30
0.0
 10
64.9333550215927
 20
-69.10197041231899
 30
0.0
 10
64.42360104459557
 20
-65.3866566486417
 30
0.0
 10
64.42360104459557
 20
-65.3866566486417
 30
0.0
 10
64.42360104459557
 20
-65.3866566486417
 30
0.0
 10
64.3825638913308
 20
-65.13972793925437
 30
0.0
 10
64.3825638913308
 20
-65.13972793925437
 30
0.0
 10
64.3825638913308
 20
-65.13972793925437
 30
0.0
 10
64.32634682796529
 20
-64.89232508389097
 30
0.0
 10
64.32634682796529
 20
-64.89232508389097
 30
0.0
 10
64.32634682796529
 20
-64.89232508389097
 30
0.0
 10
64.25376267983027
 20
-64.6465799297267
 30
0.0
 10
64.25376267983027
 20
-64.6465799297267
 30
0.0
 10
64.25376267983027
 20
-64.6465799297267
 30
0.0
 10
64.16339262843684
 20
-64.40202556965378
 30
0.0
 10
64.16339262843684
 20
-64.40202556965378
 30
0.0
 10
64.16339262843684
 20
-64.40202556965378
 30
0.0
 10
64.05332561214554
 20
-64.16079023141451
 30
0.0
 10
64.05332561214554
 20
-64.16079023141451
 30
0.0
 10
64.05332561214554
 20
-64.16079023141451
 30
0.0
 10
63.9245244006463
 20
-63.92571879086524
 30
0.0
 10
63.9245244006463
 20
-63.92571879086524
 30
0.0
 10
63.9245244006463
 20
-63.92571879086524
 30
0.0
 10
63.77627234581996
 20
-63.69705736958191
 30
0.0
 10
63.77627234581996
 20
-63.69705736958191
 30
0.0
 10
63.77627234581996
 20
-63.69705736958191
 30
0.0
 10
63.60809892112591
 20
-63.4745598459873
 30
0.0
 10
63.60809892112591
 20
-63.4745598459873
 30
0.0
 10
63.60809892112591
 20
-63.4745598459873
 30
0.0
 10
63.42284176354963
 20
-63.26107471537444
 30
0.0
 10
63.42284176354963
 20
-63.26107471537444
 30
0.0
 10
63.42284176354963
 20
-63.26107471537444
 30
0.0
 10
63.22192693045472
 20
-63.05660559717747
 30
0.0
 10
63.22192693045472
 20
-63.05660559717747
 30
0.0
 10
63.22192693045472
 20
-63.05660559717747
 30
0.0
 10
63.00560054342223
 20
-62.85901702478705
 30
0.0
 10
63.00560054342223
 20
-62.85901702478705
 30
0.0
 10
63.00560054342223
 20
-62.85901702478705
 30
0.0
 10
62.77622247402105
 20
-62.66783123279173
 30
0.0
 10
62.77622247402105
 20
-62.66783123279173
 30
0.0
 10
62.77622247402105
 20
-62.66783123279173
 30
0.0
 10
62.53570378389834
 20
-62.48186466596973
 30
0.0
 10
62.53570378389834
 20
-62.48186466596973
 30
0.0
 10
62.53570378389834
 20
-62.48186466596973
 30
0.0
 10
62.28544881380522
 20
-62.2992171209801
 30
0.0
 10
62.28544881380522
 20
-62.2992171209801
 30
0.0
 10
62.28544881380522
 20
-62.2992171209801
 30
0.0
 10
62.02618868960374
 20
-62.11823089662374
 30
0.0
 10
62.02618868960374
 20
-62.11823089662374
 30
0.0
 10
62.02618868960374
 20
-62.11823089662374
 30
0.0
 10
61.48844924171053
 20
-61.75270054337482
 30
0.0
 10
61.48844924171053
 20
-61.75270054337482
 30
0.0
 10
61.48844924171053
 20
-61.75270054337482
 30
0.0
 10
61.21447973394509
 20
-61.56435962723584
 30
0.0
 10
61.21447973394509
 20
-61.56435962723584
 30
0.0
 10
61.21447973394509
 20
-61.56435962723584
 30
0.0
 10
60.93884528610584
 20
-61.36890652145602
 30
0.0
 10
60.93884528610584
 20
-61.36890652145602
 30
0.0
 10
60.93884528610584
 20
-61.36890652145602
 30
0.0
 10
60.6648757783404
 20
-61.16396325728299
 30
0.0
 10
60.6648757783404
 20
-61.16396325728299
 30
0.0
 10
60.6648757783404
 20
-61.16396325728299
 30
0.0
 10
60.39802207965249
 20
-60.94929457144704
 30
0.0
 10
60.39802207965249
 20
-60.94929457144704
 30
0.0
 10
60.39802207965249
 20
-60.94929457144704
 30
0.0
 10
60.1413679485984
 20
-60.72347440658464
 30
0.0
 10
60.1413679485984
 20
-60.72347440658464
 30
0.0
 10
60.1413679485984
 20
-60.72347440658464
 30
0.0
 10
59.8965783252545
 20
-60.48318736029877
 30
0.0
 10
59.8965783252545
 20
-60.48318736029877
 30
0.0
 10
59.8965783252545
 20
-60.48318736029877
 30
0.0
 10
59.66981348787796
 20
-60.23104304517353
 30
0.0
 10
59.66981348787796
 20
-60.23104304517353
 30
0.0
 10
59.66981348787796
 20
-60.23104304517353
 30
0.0
 10
59.46344778577547
 20
-59.96750836831672
 30
0.0
 10
59.46344778577547
 20
-59.96750836831672
 30
0.0
 10
59.46344778577547
 20
-59.96750836831672
 30
0.0
 10
59.27724233624965
 20
-59.69045510198601
 30
0.0
 10
59.27724233624965
 20
-59.69045510198601
 30
0.0
 10
59.27724233624965
 20
-59.69045510198601
 30
0.0
 10
59.11570695521909
 20
-59.40533773462822
 30
0.0
 10
59.11570695521909
 20
-59.40533773462822
 30
0.0
 10
59.11570695521909
 20
-59.40533773462822
 30
0.0
 10
58.97860275998126
 20
-59.11689772600134
 30
0.0
 10
58.97860275998126
 20
-59.11689772600134
 30
0.0
 10
58.97860275998126
 20
-59.11689772600134
 30
0.0
 10
58.86427204934215
 20
-58.82347737490881
 30
0.0
 10
58.86427204934215
 20
-58.82347737490881
 30
0.0
 10
58.86427204934215
 20
-58.82347737490881
 30
0.0
 10
58.77175929246859
 20
-58.53077005249744
 30
0.0
 10
58.77175929246859
 20
-58.53077005249744
 30
0.0
 10
58.77175929246859
 20
-58.53077005249744
 30
0.0
 10
58.69941402704122
 20
-58.24375248179873
 30
0.0
 10
58.69941402704122
 20
-58.24375248179873
 30
0.0
 10
58.69941402704122
 20
-58.24375248179873
 30
0.0
 10
58.64461578216975
 20
-57.96361545690659
 30
0.0
 10
58.64461578216975
 20
-57.96361545690659
 30
0.0
 10
58.64461578216975
 20
-57.96361545690659
 30
0.0
 10
58.60476580356219
 20
-57.69225556172653
 30
0.0
 10
58.60476580356219
 20
-57.69225556172653
 30
0.0
 10
58.60476580356219
 20
-57.69225556172653
 30
0.0
 10
58.37017574785981
 20
-55.80909614135444
 30
0.0
 10
58.37017574785981
 20
-55.80909614135444
 30
0.0
 10
58.35024713912126
 20
-55.69476543071278
 30
0.0
 10
58.26580572214815
 20
-55.60557893454627
 30
0.0
 10
58.13652674523872
 20
-55.60557893454627
 30
0.0
 10
58.13652674523872
 20
-55.60557893454627
 30
0.0
 10
56.03846337575975
 20
-55.60557893454627
 30
0.0
 10
56.03846337575975
 20
-55.60557893454627
 30
0.0
 10
55.92176555467321
 20
-55.60557893454627
 30
0.0
 10
55.81691776355265
 20
-55.67650176204418
 30
0.0
 10
55.77493231833835
 20
-55.78419080958566
 30
0.0
 10
55.73294687312404
 20
-55.89164459385617
 30
0.0
 10
55.76283616679646
 20
-56.01356525955142
 30
0.0
 10
55.84965193308268
 20
-56.09065922361017
 30
0.0
 10
55.84965193308268
 20
-56.09065922361017
 30
0.0
 10
55.97987920194679
 20
-56.20878672149569
 30
0.0
 10
55.97987920194679
 20
-56.20878672149569
 30
0.0
 10
55.97987920194679
 20
-56.20878672149569
 30
0.0
 10
56.17485816175055
 20
-56.39617572624715
 30
0.0
 10
56.17485816175055
 20
-56.39617572624715
 30
0.0
 10
56.17485816175055
 20
-56.39617572624715
 30
0.0
 10
56.35750208730348
 20
-56.58522605163186
 30
0.0
 10
56.35750208730348
 20
-56.58522605163186
 30
0.0
 10
56.35750208730348
 20
-56.58522605163186
 30
0.0
 10
56.52852762672854
 20
-56.77617658035622
 30
0.0
 10
56.52852762672854
 20
-56.77617658035622
 30
0.0
 10
56.52852762672854
 20
-56.77617658035622
 30
0.0
 10
56.54489471148907
 20
-56.79515327770596
 30
0.0
 10
56.54489471148907
 20
-56.79515327770596
 30
0.0
 10
56.54489471148907
 20
-56.79515327770596
 30
0.0
 10
56.70050145810316
 20
-56.98467774906802
 30
0.0
 10
56.70050145810316
 20
-56.98467774906802
 30
0.0
 10
56.70050145810316
 20
-56.98467774906802
 30
0.0
 10
56.84329540505109
 20
-57.17349281118178
 30
0.0
 10
56.84329540505109
 20
-57.17349281118178
 30
0.0
 10
56.84329540505109
 20
-57.17349281118178
 30
0.0
 10
56.97376155662158
 20
-57.36183010788534
 30
0.0
 10
56.97376155662158
 20
-57.36183010788534
 30
0.0
 10
56.97376155662158
 20
-57.36183010788534
 30
0.0
 10
57.09259484431743
 20
-57.55017102402304
 30
0.0
 10
57.09259484431743
 20
-57.55017102402304
 30
0.0
 10
57.09259484431743
 20
-57.55017102402304
 30
0.0
 10
57.11940037942714
 20
-57.59571437377611
 30
0.0
 10
57.11940037942714
 20
-57.59571437377611
 30
0.0
 10
57.11940037942714
 20
-57.59571437377611
 30
0.0
 10
57.22234434777135
 20
-57.7807326486473
 30
0.0
 10
57.22234434777135
 20
-57.7807326486473
 30
0.0
 10
57.22234434777135
 20
-57.7807326486473
 30
0.0
 10
57.31319940344452
 20
-57.96385072017756
 30
0.0
 10
57.31319940344452
 20
-57.96385072017756
 30
0.0
 10
57.31319940344452
 20
-57.96385072017756
 30
0.0
 10
57.34901733153468
 20
-58.04284126814052
 30
0.0
 10
57.34901733153468
 20
-58.04284126814052
 30
0.0
 10
57.34901733153468
 20
-58.04284126814052
 30
0.0
 10
57.42302029815989
 20
-58.22193090859266
 30
0.0
 10
57.42302029815989
 20
-58.22193090859266
 30
0.0
 10
57.42302029815989
 20
-58.22193090859266
 30
0.0
 10
57.48588264406614
 20
-58.39888146299879
 30
0.0
 10
57.48588264406614
 20
-58.39888146299879
 30
0.0
 10
57.48588264406614
 20
-58.39888146299879
 30
0.0
 10
57.52240998140333
 20
-58.51938331020001
 30
0.0
 10
57.52240998140333
 20
-58.51938331020001
 30
0.0
 10
57.52240998140333
 20
-58.51938331020001
 30
0.0
 10
57.56629201052186
 20
-58.69040523018709
 30
0.0
 10
57.56629201052186
 20
-58.69040523018709
 30
0.0
 10
57.56629201052186
 20
-58.69040523018709
 30
0.0
 10
57.59973558929505
 20
-58.85953056626996
 30
0.0
 10
57.59973558929505
 20
-58.85953056626996
 30
0.0
 10
57.59973558929505
 20
-58.85953056626996
 30
0.0
 10
57.61942531532723
 20
-58.99568646955311
 30
0.0
 10
57.61942531532723
 20
-58.99568646955311
 30
0.0
 10
57.61942531532723
 20
-58.99568646955311
 30
0.0
 10
57.63413469889119
 20
-59.15603467592519
 30
0.0
 10
57.63413469889119
 20
-59.15603467592519
 30
0.0
 10
57.63413469889119
 20
-59.15603467592519
 30
0.0
 10
57.63887615865175
 20
-59.31496406380322
 30
0.0
 10
57.63887615865175
 20
-59.31496406380322
 30
0.0
 10
57.63887615865175
 20
-59.5291586036631
 30
0.0
 10
57.78783762272766
 20
-59.71559931646117
 30
0.0
 10
57.99919090616662
 20
-59.76564886270512
 30
0.0
 10
57.99919090616662
 20
-59.76564886270512
 30
0.0
 10
58.01769345753903
 20
-59.77110335114811
 30
0.0
 10
58.01769345753903
 20
-59.77110335114811
 30
0.0
 10
58.01769345753903
 20
-59.77110335114811
 30
0.0
 10
58.03500883425808
 20
-59.77821916022563
 30
0.0
 10
58.03500883425808
 20
-59.77821916022563
 30
0.0
 10
58.03500883425808
 20
-59.77821916022563
 30
0.0
 10
58.05184644556309
 20
-59.78699628993641
 30
0.0
 10
58.05184644556309
 20
-59.78699628993641
 30
0.0
 10
58.05184644556309
 20
-59.78699628993641
 30
0.0
 10
58.06750412107788
 20
-59.79743474028175
 30
0.0
 10
58.06750412107788
 20
-59.79743474028175
 30
0.0
 10
58.06750412107788
 20
-59.79743474028175
 30
0.0
 10
58.08244514847995
 20
-59.80929562855397
 30
0.0
 10
58.08244514847995
 20
-59.80929562855397
 30
0.0
 10
58.08244514847995
 20
-59.80929562855397
 30
0.0
 10
58.09572847468033
 20
-59.82257895475562
 30
0.0
 10
58.09572847468033
 20
-59.82257895475562
 30
0.0
 10
58.09572847468033
 20
-59.82257895475562
 30
0.0
 10
58.10735409968543
 20
-59.83704583618036
 30
0.0
 10
58.10735409968543
 20
-59.83704583618036
 30
0.0
 10
58.10735409968543
 20
-59.83704583618036
 30
0.0
 10
58.11779255002563
 20
-59.85293877496868
 30
0.0
 10
58.11779255002563
 20
-59.85293877496868
 30
0.0
 10
58.11779255002563
 20
-59.85293877496868
 30
0.0
 10
58.12656606030358
 20
-59.86930585973177
 30
0.0
 10
58.12656606030358
 20
-59.86930585973177
 30
0.0
 10
58.12656606030358
 20
-59.86930585973177
 30
0.0
 10
58.13344298667088
 20
-59.88662123644825
 30
0.0
 10
58.13344298667088
 20
-59.88662123644825
 30
0.0
 10
58.13344298667088
 20
-59.88662123644825
 30
0.0
 10
58.13866221184932
 20
-59.90488852455226
 30
0.0
 10
58.13866221184932
 20
-59.90488852455226
 30
0.0
 10
58.13866221184932
 20
-59.90488852455226
 30
0.0
 10
60.46136219096507
 20
-69.97274492664131
 30
0.0
 10
60.46136219096507
 20
-69.97274492664131
 30
0.0
 10
60.46136219096507
 20
-69.97274492664131
 30
0.0
 10
60.46301989216549
 20
-69.97938658974151
 30
0.0
 10
60.46301989216549
 20
-69.97938658974151
 30
0.0
 10
60.46301989216549
 20
-69.97938658974151
 30
0.0
 10
60.46443871065953
 20
-69.98626351611395
 30
0.0
 10
60.46443871065953
 20
-69.98626351611395
 30
0.0
 10
60.46443871065953
 20
-69.98626351611395
 30
0.0
 10
61.67180981538002
 20
-74.77444837271062
 30
0.0
 10
61.67180981538002
 20
-74.77444837271062
 30
0.0
 10
61.67180981538002
 20
-74.77444837271062
 30
0.0
 10
61.67228034192323
 20
-74.77444837271062
 30
0.0
 10
61.67228034192323
 20
-74.77444837271062
 30
0.0
 10
61.67228034192323
 20
-74.77444837271062
 30
0.0
 10
63.08411332597372
 20
-74.76543417001181
 30
0.0
 10
63.08411332597372
 20
-74.76543417001181
 30
0.0
 10
63.08411332597372
 20
-74.76543417001181
 30
0.0
 10
63.09336460166056
 20
-74.43927964939054
 30
0.0
 10
63.09336460166056
 20
-74.43927964939054
 30
0.0
 10
63.09336460166056
 20
-74.24002975636686
 30
0.0
 10
63.26296408371948
 20
-74.07873144832433
 30
0.0
 10
63.47194301784147
 20
-74.07873144832433
 30
0.0
 10
63.47194301784147
 20
-74.07873144832433
 30
0.0
 10
65.06784598480717
 20
-74.07873144832433
 30
0.0
 10
65.06784598480717
 20
-74.07873144832433
 30
0.0
 10
65.10769596341474
 20
-74.07873144832433
 30
0.0
 10
65.14683653277143
 20
-74.06876895367469
 30
0.0
 10
65.18193781274632
 20
-74.04979225632366
 30
0.0
 10
65.18193781274632
 20
-74.04979225632366
 30
0.0
 10
66.14664752186526
 20
-73.53150365175498
 30
0.0
 10
66.14664752186526
 20
-73.53150365175498
 30
0.0
  0
SPLINE
  5
F1
330
70
100
AcDbEntity
  8
Camada 1
 62
    18
420
        0
370
    15
100
AcDbSpline
210
0.0
220
0.0
230
1.0
 70
     8
 71
     3
 72
    62
 73
    58
 74
     0
 42
0.0000000001
 43
0.0000000001
 40
0.0
 40
0.0
 40
0.0
 40
0.0
 40
1.0
 40
1.0
 40
1.0
 40
2.0
 40
2.0
 40
2.0
 40
3.0
 40
3.0
 40
3.0
 40
4.0
 40
4.0
 40
4.0
 40
5.0
 40
5.0
 40
5.0
 40
6.0
 40
6.0
 40
6.0
 40
7.0
 40
7.0
 40
7.0
 40
8.0
 40
8.0
 40
8.0
 40
9.0
 40
9.0
 40
9.0
 40
10.0
 40
10.0
 40
10.0
 40
11.0
 40
11.0
 40
11.0
 40
12.0
 40
12.0
 40
12.0
 40
13.0
 40
13.0
 40
13.0
 40
14.0
 40
14.0
 40
14.0
 40
15.0
 40
15.0
 40
15.0
 40
16.0
 40
16.0
 40
16.0
 40
17.0
 40
17.0
 40
17.0
 40
18.0
 40
18.0
 40
18.0
 40
19.0
 40
19.0
 40
19.0
 40
19.0
 10
67.48651890058941
 20
-73.92635323767402
 30
0.0
 10
69.10542699598813
 20
-74.18348332441867
 30
0.0
 10
71.33039499306471
 20
-73.88792750671555
 30
0.0
 10
71.74739733048574
 20
-71.40820377221131
 30
0.0
 10
71.74739733048574
 20
-71.40820377221131
 30
0.0
 10
71.83872291269826
 20
-70.77249888872117
 30
0.0
 10
71.83872291269826
 20
-70.77249888872117
 30
0.0
 10
71.83872291269826
 20
-70.77249888872117
 30
0.0
 10
72.09822191960611
 20
-68.96477211177456
 30
0.0
 10
72.09822191960611
 20
-68.96477211177456
 30
0.0
 10
72.09822191960611
 20
-68.96477211177456
 30
0.0
 10
72.10581549409255
 20
-68.928005891731
 30
0.0
 10
72.10581549409255
 20
-68.928005891731
 30
0.0
 10
72.10581549409255
 20
-68.928005891731
 30
0.0
 10
72.1169633536849
 20
-68.89218796364211
 30
0.0
 10
72.1169633536849
 20
-68.89218796364211
 30
0.0
 10
72.1169633536849
 20
-68.89218796364211
 30
0.0
 10
72.13166549837547
 20
-68.85732194693819
 30
0.0
 10
72.13166549837547
 20
-68.85732194693819
 30
0.0
 10
72.13166549837547
 20
-68.85732194693819
 30
0.0
 10
72.14969752321493
 20
-68.82387474872958
 30
0.0
 10
72.14969752321493
 20
-68.82387474872958
 30
0.0
 10
72.14969752321493
 20
-68.82387474872958
 30
0.0
 10
72.17128383315004
 20
-68.79232775385931
 30
0.0
 10
72.17128383315004
 20
-68.79232775385931
 30
0.0
 10
72.17128383315004
 20
-68.79232775385931
 30
0.0
 10
72.19571501894276
 20
-68.76338675214029
 30
0.0
 10
72.19571501894276
 20
-68.76338675214029
 30
0.0
 10
72.19571501894276
 20
-68.76338675214029
 30
0.0
 10
72.22322996329949
 20
-68.73682009973697
 30
0.0
 10
72.22322996329949
 20
-68.73682009973697
 30
0.0
 10
72.22322996329949
 20
-68.73682009973697
 30
0.0
 10
72.25335090080617
 20
-68.71286305992029
 30
0.0
 10
72.25335090080617
 20
-68.71286305992029
 30
0.0
 10
72.25335090080617
 20
-68.71286305992029
 30
0.0
 10
72.28561454379171
 20
-68.69222866137142
 30
0.0
 10
72.28561454379171
 20
-68.69222866137142
 30
0.0
 10
72.28561454379171
 20
-68.69222866137142
 30
0.0
 10
72.31905812256619
 20
-68.67490966521953
 30
0.0
 10
72.31905812256619
 20
-68.67490966521953
 30
0.0
 10
72.31905812256619
 20
-68.67490966521953
 30
0.0
 10
72.35463716794999
 20
-68.6611521930418
 30
0.0
 10
72.35463716794999
 20
-68.6611521930418
 30
0.0
 10
72.35463716794999
 20
-68.6611521930418
 30
0.0
 10
72.39164227069991
 20
-68.65095262540285
 30
0.0
 10
72.39164227069991
 20
-68.65095262540285
 30
0.0
 10
72.39164227069991
 20
-68.65095262540285
 30
0.0
 10
72.42935678269431
 20
-68.64431096230267
 30
0.0
 10
72.42935678269431
 20
-68.64431096230267
 30
0.0
 10
72.42935678269431
 20
-68.64431096230267
 30
0.0
 10
72.46683241198233
 20
-68.6419402324211
 30
0.0
 10
72.46683241198233
 20
-68.6419402324211
 30
0.0
 10
72.46683241198233
 20
-68.6419402324211
 30
0.0
 10
73.80917224533391
 20
-68.61869260185016
 30
0.0
 10
73.80917224533391
 20
-68.61869260185016
 30
0.0
 10
73.80917224533391
 20
-68.61869260185016
 30
0.0
 10
74.4403655031807
 20
-68.61845733858048
 30
0.0
 10
74.4403655031807
 20
-68.61845733858048
 30
0.0
  0
SPLINE
  5
F2
330
70
100
AcDbEntity
  8
Camada 1
 62
    18
420
        0
370
    15
100
AcDbSpline
210
0.0
220
0.0
230
1.0
 70
     8
 71
     3
 72
     8
 73
     4
 74
     0
 42
0.0000000001
 43
0.0000000001
 40
0.0
 40
0.0
 40
0.0
 40
0.0
 40
1.0
 40
1.0
 40
1.0
 40
1.0
 10
71.65996626026293
 20
-68.70655076539765
 30
0.0
 10
71.74156280137457
 20
-68.38229644811602
 30
0.0
 10
72.01695112763406
 20
-68.15505384532544
 30
0.0
 10
72.45839188972121
 20
-68.15505384532544
 30
0.0
  0
LINE
  5
F3
330
70
100
AcDbEntity
  8
Camada 1
 62
    18
420
        0
370
    15
100
AcDbLine
 10
64.77421570648772
 20
-57.89288084002443
 30
0.0
 11
72.86070656018819
 21
-58.15570248820009
 31
0.0
  0
SPLINE
  5
F4
330
70
100
AcDbEntity
  8
Camada 1
 62
    18
420
        0
370
    15
100
AcDbSpline
210
0.0
220
0.0
230
1.0
 70
     8
 71
     3
 72
    41
 73
    37
 74
     0
 42
0.0000000001
 43
0.0000000001
 40
0.0
 40
0.0
 40
0.0
 40
0.0
 40
1.0
 40
1.0
 40
1.0
 40
2.0
 40
2.0
 40
2.0
 40
3.0
 40
3.0
 40
3.0
 40
4.0
 40
4.0
 40
4.0
 40
5.0
 40
5.0
 40
5.0
 40
6.0
 40
6.0
 40
6.0
 40
7.0
 40
7.0
 40
7.0
 40
8.0
 40
8.0
 40
8.0
 40
9.0
 40
9.0
 40
9.0
 40
10.0
 40
10.0
 40
10.0
 40
11.0
 40
11.0
 40
11.0
 40
12.0
 40
12.0
 40
12.0
 40
12.0
 10
74.58157413762747
 20
-64.12093663337538
 30
0.0
 10
74.58157413762747
 20
-64.12093663337538
 30
0.0
 10
74.58157413762747
 20
-64.46867746393305
 30
0.0
 10
74.58157413762747
 20
-64.46867746393305
 30
0.0
 10
74.58157413762747
 20
-64.46867746393305
 30
0.0
 10
71.57241212924896
 20
-64.46867746393305
 30
0.0
 10
71.57241212924896
 20
-64.46867746393305
 30
0.0
 10
71.30911271566055
 20
-64.46867746393305
 30
0.0
 10
71.05815557519381
 20
-64.36146256236764
 30
0.0
 10
70.8835685117997
 20
-64.1745477035935
 30
0.0
 10
70.71847884566449
 20
-63.99759352975197
 30
0.0
 10
70.63877888845579
 20
-63.76892848903193
 30
0.0
 10
70.65893914102861
 20
-63.53077690935538
 30
0.0
 10
70.65893914102861
 20
-63.40648189434443
 30
0.0
 10
70.49597770263833
 20
-63.36141269056742
 30
0.0
 10
70.37239571630853
 20
-63.46317310368986
 30
0.0
 10
70.37239571630853
 20
-63.46317310368986
 30
0.0
 10
70.13021208611587
 20
-63.68163857676965
 30
0.0
 10
70.13021208611587
 20
-63.68163857676965
 30
0.0
 10
70.13021208611587
 20
-63.68163857676965
 30
0.0
 10
69.99382453899716
 20
-63.8251455524013
 30
0.0
 10
69.99382453899716
 20
-63.8251455524013
 30
0.0
 10
69.99382453899716
 20
-63.8251455524013
 30
0.0
 10
69.86193956893392
 20
-63.97956512435434
 30
0.0
 10
69.86193956893392
 20
-63.97956512435434
 30
0.0
 10
69.58037648667691
 20
-64.33299932606008
 30
0.0
 10
69.33843173919192
 20
-64.69141387023275
 30
0.0
 10
69.31091679483519
 20
-65.39733036225801
 30
0.0
 10
69.31091679483519
 20
-65.39733036225801
 30
0.0
 10
69.16669679052368
 20
-69.09200610794972
 30
0.0
 10
69.16669679052368
 20
-69.09200610794972
 30
0.0
 10
69.16669679052368
 20
-69.09200610794972
 30
0.0
 10
69.16692843436051
 20
-69.09200610794972
 30
0.0
 10
69.16692843436051
 20
-69.09200610794972
 30
0.0
 10
69.16692843436051
 20
-69.09200610794972
 30
0.0
 10
69.10549214581784
 20
-70.58448915087936
 30
0.0
 10
69.10549214581784
 20
-70.58448915087936
 30
0.0
  0
LWPOLYLINE
  5
F5
330
70
100
AcDbEntity
  8
Camada 1
 62
    18
420
        0
370
    15
100
AcDbPolyline
 90
        3
 70
     0
 43
0.0
 10
74.58157413762747
 20
-68.47938417074046
 10
74.58157413762747
 20
-68.1501495109919
 10
72.45812405153667
 20
-68.15512985345882
  0
LWPOLYLINE
  5
F6
330
70
100
AcDbEntity
  8
Camada 1
 62
    18
420
        0
370
    15
100
AcDbPolyline
 90
        5
 70
     0
 43
0.0
 10
78.22316725060315
 20
-59.01755509541441
 10
79.76000103947749
 20
-59.0835011998808
 10
79.76000103947749
 20
-59.26922888399772
 10
81.40761849275838
 20
-59.26922888399772
 10
81.40761849275838
 20
-59.94407252712876
  0
SPLINE
  5
F7
330
70
100
AcDbEntity
  8
Camada 1
 62
    18
420
        0
370
    15
100
AcDbSpline
210
0.0
220
0.0
230
1.0
 70
     8
 71
     3
 72
     8
 73
     4
 74
     0
 42
0.0000000001
 43
0.0000000001
 40
0.0
 40
0.0
 40
0.0
 40
0.0
 40
1.0
 40
1.0
 40
1.0
 40
1.0
 10
27.52517079935056
 20
-63.98698858540079
 30
0.0
 10
27.21941541400848
 20
-63.82213418253784
 30
0.0
 10
26.00943831613355
 20
-63.44118503647666
 30
0.0
 10
25.80663051857175
 20
-62.79836615362606
 30
0.0
  0
SPLINE
  5
F8
330
70
100
AcDbEntity
  8
Camada 1
 62
    18
420
        0
370
    15
100
AcDbSpline
210
0.0
220
0.0
230
1.0
 70
     8
 71
     3
 72
     8
 73
     4
 74
     0
 42
0.0000000001
 43
0.0000000001
 40
0.0
 40
0.0
 40
0.0
 40
0.0
 40
1.0
 40
1.0
 40
1.0
 40
1.0
 10
32.48203037238166
 20
-63.98698858540079
 30
0.0
 10
32.78778213828768
 20
-63.82213418253784
 30
0.0
 10
33.99775923616263
 20
-63.44118503647666
 30
0.0
 10
34.20056703372377
 20
-62.79836615362606
 30
0.0
  0
LINE
  5
F9
330
70
100
AcDbEntity
  8
Camada 1
 62
    18
420
        0
370
    15
100
AcDbLine
 10
25.20883378684166
 20
-62.62508570624106
 30
0.0
 11
25.20883378684166
 21
-60.22458959268909
 31
0.0
  0
LINE
  5
FA
330
70
100
AcDbEntity
  8
Camada 1
 62
    18
420
        0
370
    15
100
AcDbLine
 10
25.20883378684166
 20
-62.62508570624106
 30
0.0
 11
25.80682234862162
 21
-62.62508570624106
 31
0.0
  0
LINE
  5
FB
330
70
100
AcDbEntity
  8
Camada 1
 62
    18
420
        0
370
    15
100
AcDbLine
 10
34.21306856198045
 20
-62.62508570624106
 30
0.0
 11
34.81058297778372
 21
-62.62508570624106
 31
0.0
  0
LINE
  5
FC
330
70
100
AcDbEntity
  8
Camada 1
 62
    18
420
        0
370
    15
100
AcDbLine
 10
34.81051420851859
 20
-62.62508570624106
 30
0.0
 11
34.81051420851859
 21
-60.22458959268909
 31
0.0
  0
LINE
  5
FD
330
70
100
AcDbEntity
  8
Camada 1
 62
    18
420
        0
370
    15
100
AcDbLine
 10
25.20883378684166
 20
-60.22461492873311
 30
0.0
 11
25.58859575824885
 21
-60.22461492873311
 31
0.0
  0
LINE
  5
FE
330
70
100
AcDbEntity
  8
Camada 1
 62
    18
420
        0
370
    15
100
AcDbLine
 10
34.43132048840175
 20
-60.22461492873311
 30
0.0
 11
34.81060831382839
 21
-60.22461492873311
 31
0.0
  0
LINE
  5
FF
330
70
100
AcDbEntity
  8
Camada 1
 62
    18
420
        0
370
    15
100
AcDbLine
 10
82.11379920353147
 20
-68.69535585315266
 30
0.0
 11
81.78170880962289
 21
-68.69583361856284
 31
0.0
  0
LINE
  5
100
330
70
100
AcDbEntity
  8
Camada 1
 62
    18
420
        0
370
    15
100
AcDbLine
 10
81.25813583005246
 20
-68.69649597515593
 30
0.0
 11
75.41249505391324
 21
-68.70408954964364
 31
0.0
  0
LWPOLYLINE
  5
101
330
70
100
AcDbEntity
  8
Camada 1
 62
    18
420
        0
370
    15
100
AcDbPolyline
 90
        4
 70
     0
 43
0.0
 10
75.15088953587294
 20
-68.70444063483238
 10
74.81879914196437
 20
-68.70467951753747
 10
74.81879914196437
 20
-68.32420451745234
 10
75.15088953587294
 20
-68.32373037147629
  0
LINE
  5
102
330
70
100
AcDbEntity
  8
Camada 1
 62
    18
420
        0
370
    15
100
AcDbLine
 10
75.67432497691697
 20
-68.32306439544908
 30
0.0
 11
81.5197196314803
 21
-68.31547444039549
 31
0.0
  0
LWPOLYLINE
  5
103
330
70
100
AcDbEntity
  8
Camada 1
 62
    18
420
        0
370
    15
100
AcDbPolyline
 90
        3
 70
     0
 43
0.0
 10
81.78171604849245
 20
-68.31528622977974
 10
82.11379920353147
 20
-68.31481208380241
 10
82.11379920353147
 20
-68.69528708388881
  0
LWPOLYLINE
  5
104
330
70
100
AcDbEntity
  8
Camada 1
 62
    18
420
        0
370
    15
100
AcDbPolyline
 90
        4
 70
     0
 43
0.0
 10
81.78171604849245
 20
-63.91516451860214
 10
82.11379920353147
 20
-63.91540340130852
 10
82.11379920353147
 20
-64.29587840139365
 10
81.78171604849245
 20
-64.29563951868854
  0
LINE
  5
105
330
70
100
AcDbEntity
  8
Camada 1
 62
    18
420
        0
370
    15
100
AcDbLine
 10
81.25878008947106
 20
-64.29556712998929
 30
0.0
 11
75.42001623970171
 21
-64.29319640010902
 31
0.0
  0
LWPOLYLINE
  5
106
330
70
100
AcDbEntity
  8
Camada 1
 62
    18
420
        0
370
    15
100
AcDbPolyline
 90
        4
 70
     0
 43
0.0
 10
75.15867132097641
 20
-64.29295751740394
 10
74.82658092706912
 20
-64.29295751740394
 10
74.81875570874457
 20
-63.91248613675293
 10
75.15083886378616
 20
-63.91248613675293
  0
LINE
  5
107
330
70
100
AcDbEntity
  8
Camada 1
 62
    18
420
        0
370
    15
100
AcDbLine
 10
75.67432497691697
 20
-63.91272140002389
 30
0.0
 11
81.5197196314803
 21
-63.91533101260926
 31
0.0
  0
LINE
  5
108
330
70
100
AcDbEntity
  8
Camada 1
 62
    18
420
        0
370
    15
100
AcDbLine
 10
77.86933129162189
 20
-75.08570710886798
 30
0.0
 11
72.99527715097146
 21
-75.08570710886798
 31
0.0
  0
SPLINE
  5
109
330
70
100
AcDbEntity
  8
Camada 1
 62
    18
420
        0
370
    15
100
AcDbSpline
210
0.0
220
0.0
230
1.0
 70
     8
 71
     3
 72
     8
 73
     4
 74
     0
 42
0.0000000001
 43
0.0000000001
 40
0.0
 40
0.0
 40
0.0
 40
0.0
 40
1.0
 40
1.0
 40
1.0
 40
1.0
 10
74.81880638083392
 20
-63.86765219624688
 30
0.0
 10
74.92886615825567
 20
-63.86765219624688
 30
0.0
 10
75.03940370108761
 20
-63.86883937090408
 30
0.0
 10
75.15065065316656
 20
-63.87121372021977
 30
0.0
  0
SPLINE
  5
10A
330
70
100
AcDbEntity
  8
Camada 1
 62
    18
420
        0
370
    15
100
AcDbSpline
210
0.0
220
0.0
230
1.0
 70
     8
 71
     3
 72
    17
 73
    13
 74
     0
 42
0.0000000001
 43
0.0000000001
 40
0.0
 40
0.0
 40
0.0
 40
0.0
 40
1.0
 40
1.0
 40
1.0
 40
2.0
 40
2.0
 40
2.0
 40
3.0
 40
3.0
 40
3.0
 40
4.0
 40
4.0
 40
4.0
 40
4.0
 10
75.66295995122688
 20
-63.89554718126922
 30
0.0
 10
76.8129195790564
 20
-63.98141827503875
 30
0.0
 10
77.94840870602318
 20
-64.3054373290507
 30
0.0
 10
78.76106595363651
 20
-65.38328695471996
 30
0.0
 10
79.53482875346779
 20
-66.40919045024107
 30
0.0
 10
79.69754407028601
 20
-68.79521968236957
 30
0.0
 10
78.62657499042203
 20
-70.05050124729186
 30
0.0
 10
77.73136567087028
 20
-71.09917460797243
 30
0.0
 10
77.92421640293426
 20
-71.05861341040335
 30
0.0
 10
77.85709036268021
 20
-72.65688891697026
 30
0.0
 10
77.85709036268021
 20
-72.65688891697026
 30
0.0
 10
77.85709036268021
 20
-74.24306646227435
 30
0.0
 10
77.85709036268021
 20
-74.24306646227435
 30
0.0
  0
LWPOLYLINE
  5
10B
330
70
100
AcDbEntity
  8
Camada 1
 62
    18
420
        0
370
    15
100
AcDbPolyline
 90
        3
 70
     0
 43
0.0
 10
77.85702521285178
 20
-74.49986356100476
 10
77.85702521285178
 20
-74.83194852576342
 10
77.52493481893937
 20
-74.83194852576342
  0
LINE
  5
10C
330
70
100
AcDbEntity
  8
Camada 1
 62
    18
420
        0
370
    15
100
AcDbLine
 10
77.00102885135597
 20
-74.83194671604507
 30
0.0
 11
73.59502475812796
 21
-74.83194671604507
 31
0.0
  0
LWPOLYLINE
  5
10D
330
70
100
AcDbEntity
  8
Camada 1
 62
    18
420
        0
370
    15
100
AcDbPolyline
 90
        3
 70
     0
 43
0.0
 10
73.33300662450721
 20
-74.83194671604507
 10
73.00091623059478
 20
-74.83194671604507
 10
73.00044570405542
 20
-74.49986356100476
  0
SPLINE
  5
10E
330
70
100
AcDbEntity
  8
Camada 1
 62
    18
420
        0
370
    15
100
AcDbSpline
210
0.0
220
0.0
230
1.0
 70
     8
 71
     3
 72
    14
 73
    10
 74
     0
 42
0.0000000001
 43
0.0000000001
 40
0.0
 40
0.0
 40
0.0
 40
0.0
 40
1.0
 40
1.0
 40
1.0
 40
2.0
 40
2.0
 40
2.0
 40
3.0
 40
3.0
 40
3.0
 40
3.0
 10
72.9994756954934
 20
-74.04635379313809
 30
0.0
 10
72.9994756954934
 20
-74.04635379313809
 30
0.0
 10
72.99543640611033
 20
-71.89563307454685
 30
0.0
 10
72.99543640611033
 20
-71.89563307454685
 30
0.0
 10
72.99543640611033
 20
-70.16950464843152
 30
0.0
 10
73.38042122212046
 20
-70.06228793714903
 30
0.0
 10
73.83584748078547
 20
-69.60685986876824
 30
0.0
 10
73.89989700134508
 20
-69.54304923091116
 30
0.0
 10
74.00568584554692
 20
-69.48825822490538
 30
0.0
 10
74.1359131144136
 20
-69.40404845177039
 30
0.0
  0
SPLINE
  5
10F
330
70
100
AcDbEntity
  8
Camada 1
 62
    18
420
        0
370
    15
100
AcDbSpline
210
0.0
220
0.0
230
1.0
 70
     8
 71
     3
 72
     8
 73
     4
 74
     0
 42
0.0000000001
 43
0.0000000001
 40
0.0
 40
0.0
 40
0.0
 40
0.0
 40
1.0
 40
1.0
 40
1.0
 40
1.0
 10
74.32131504938709
 20
-69.27261229163789
 30
0.0
 10
74.39864065727881
 20
-69.21165376850797
 30
0.0
 10
74.48071496380705
 20
-69.13812132842341
 30
0.0
 10
74.56515638077632
 20
-69.04703462891598
 30
0.0
  0
LWPOLYLINE
  5
110
330
70
100
AcDbEntity
  8
Camada 1
 62
    18
420
        0
370
    15
100
AcDbPolyline
 90
        3
 70
     0
 43
0.0
 10
73.85272128643819
 20
-68.71483203252378
 10
73.85272128643819
 20
-69.04691880699821
 10
74.18480444147721
 20
-69.04691880699821
  0
LWPOLYLINE
  5
111
330
70
100
AcDbEntity
  8
Camada 1
 62
    18
420
        0
370
    15
100
AcDbPolyline
 90
        3
 70
     0
 43
0.0
 10
74.48671598692278
 20
-69.04691518756408
 10
74.81879914196437
 20
-69.04691518756408
 10
74.81879914196437
 20
-68.71483203252378
  0
LINE
  5
112
330
70
100
AcDbEntity
  8
Camada 1
 62
    18
420
        0
370
    15
100
AcDbLine
 10
74.81880638083392
 20
-68.25204746264201
 30
0.0
 11
74.81880638083392
 21
-64.16408753663827
 31
0.0
  0
LWPOLYLINE
  5
113
330
70
100
AcDbEntity
  8
Camada 1
 62
    18
420
        0
370
    15
100
AcDbPolyline
 90
        3
 70
     0
 43
0.0
 10
74.81880638083392
 20
-63.93266810593566
 10
74.81880638083392
 20
-63.60058495089535
 10
74.48671598692278
 20
-63.60058495089535
  0
LWPOLYLINE
  5
114
330
70
100
AcDbEntity
  8
Camada 1
 62
    18
420
        0
370
    15
100
AcDbPolyline
 90
        3
 70
     0
 43
0.0
 10
74.18480444147721
 20
-63.60058495089535
 10
73.85271404756865
 20
-63.60058495089535
 10
73.85271404756865
 20
-63.93267172537107
  0
LINE
  5
115
330
70
100
AcDbEntity
  8
Camada 1
 62
    18
420
        0
370
    15
100
AcDbLine
 10
73.85272128643819
 20
-64.39545267581741
 30
0.0
 11
73.85272128643819
 21
-68.48341622125528
 31
0.0
  0
LINE
  5
116
330
70
100
AcDbEntity
  8
Camada 1
 62
    18
420
        0
370
    15
100
AcDbLine
 10
75.43723751111031
 20
-75.08570710886798
 30
0.0
 11
75.43723751111031
 21
-73.07469838838159
 31
0.0
  0
SPLINE
  5
117
330
70
100
AcDbEntity
  8
Camada 1
 62
    18
420
        0
370
    15
100
AcDbSpline
210
0.0
220
0.0
230
1.0
 70
     8
 71
     3
 72
    74
 73
    70
 74
     0
 42
0.0000000001
 43
0.0000000001
 40
0.0
 40
0.0
 40
0.0
 40
0.0
 40
1.0
 40
1.0
 40
1.0
 40
2.0
 40
2.0
 40
2.0
 40
3.0
 40
3.0
 40
3.0
 40
4.0
 40
4.0
 40
4.0
 40
5.0
 40
5.0
 40
5.0
 40
6.0
 40
6.0
 40
6.0
 40
7.0
 40
7.0
 40
7.0
 40
8.0
 40
8.0
 40
8.0
 40
9.0
 40
9.0
 40
9.0
 40
10.0
 40
10.0
 40
10.0
 40
11.0
 40
11.0
 40
11.0
 40
12.0
 40
12.0
 40
12.0
 40
13.0
 40
13.0
 40
13.0
 40
14.0
 40
14.0
 40
14.0
 40
15.0
 40
15.0
 40
15.0
 40
16.0
 40
16.0
 40
16.0
 40
17.0
 40
17.0
 40
17.0
 40
18.0
 40
18.0
 40
18.0
 40
19.0
 40
19.0
 40
19.0
 40
20.0
 40
20.0
 40
20.0
 40
21.0
 40
21.0
 40
21.0
 40
22.0
 40
22.0
 40
22.0
 40
23.0
 40
23.0
 40
23.0
 40
23.0
 10
37.07001885371834
 20
-59.30034878554586
 30
0.0
 10
37.07001885371834
 20
-59.30034878554586
 30
0.0
 10
37.07357675825838
 20
-59.13905228722295
 30
0.0
 10
37.07357675825838
 20
-59.13905228722295
 30
0.0
 10
37.07357675825838
 20
-59.13905228722295
 30
0.0
 10
37.08425047187276
 20
-58.97632973153519
 30
0.0
 10
37.08425047187276
 20
-58.97632973153519
 30
0.0
 10
37.08425047187276
 20
-58.97632973153519
 30
0.0
 10
37.09871735329814
 20
-58.83804198107556
 30
0.0
 10
37.09871735329814
 20
-58.83804198107556
 30
0.0
 10
37.09871735329814
 20
-58.83804198107556
 30
0.0
 10
37.12338742179724
 20
-58.66630703240732
 30
0.0
 10
37.12338742179724
 20
-58.66630703240732
 30
0.0
 10
37.12338742179724
 20
-58.66630703240732
 30
0.0
 10
37.15588632805374
 20
-58.49291076310454
 30
0.0
 10
37.15588632805374
 20
-58.49291076310454
 30
0.0
 10
37.15588632805374
 20
-58.49291076310454
 30
0.0
 10
37.18292712643312
 20
-58.37027706872815
 30
0.0
 10
37.18292712643312
 20
-58.37027706872815
 30
0.0
 10
37.18292712643312
 20
-58.37027706872815
 30
0.0
 10
37.22917988543193
 20
-58.19047801903027
 30
0.0
 10
37.22917988543193
 20
-58.19047801903027
 30
0.0
 10
37.22917988543193
 20
-58.19047801903027
 30
0.0
 10
37.28350036489771
 20
-58.00925291196882
 30
0.0
 10
37.28350036489771
 20
-58.00925291196882
 30
0.0
 10
37.28350036489771
 20
-58.00925291196882
 30
0.0
 10
37.30982813459402
 20
-57.92883992607769
 30
0.0
 10
37.30982813459402
 20
-57.92883992607769
 30
0.0
 10
37.30982813459402
 20
-57.92883992607769
 30
0.0
 10
37.37695779428413
 20
-57.74263809598472
 30
0.0
 10
37.37695779428413
 20
-57.74263809598472
 30
0.0
 10
37.37695779428413
 20
-57.74263809598472
 30
0.0
 10
37.45286458368503
 20
-57.55501020852817
 30
0.0
 10
37.45286458368503
 20
-57.55501020852817
 30
0.0
 10
37.45286458368503
 20
-57.55501020852817
 30
0.0
 10
37.47255069028051
 20
-57.50875383009266
 30
0.0
 10
37.47255069028051
 20
-57.50875383009266
 30
0.0
 10
37.47255069028051
 20
-57.50875383009266
 30
0.0
 10
37.56007948525045
 20
-57.31780692080373
 30
0.0
 10
37.56007948525045
 20
-57.31780692080373
 30
0.0
 10
37.56007948525045
 20
-57.31780692080373
 30
0.0
 10
37.65638179049384
 20
-57.12662112880841
 30
0.0
 10
37.65638179049384
 20
-57.12662112880841
 30
0.0
 10
37.65638179049384
 20
-57.12662112880841
 30
0.0
 10
37.76146484488472
 20
-56.93495757140162
 30
0.0
 10
37.76146484488472
 20
-56.93495757140162
 30
0.0
 10
37.76146484488472
 20
-56.93495757140162
 30
0.0
 10
37.87626970150372
 20
-56.74234934147943
 30
0.0
 10
37.87626970150372
 20
-56.74234934147943
 30
0.0
 10
37.87626970150372
 20
-56.74234934147943
 30
0.0
 10
37.88836947248167
 20
-56.72313738085872
 30
0.0
 10
37.88836947248167
 20
-56.72313738085872
 30
0.0
 10
37.88836947248167
 20
-56.72313738085872
 30
0.0
 10
38.01432218869175
 20
-56.52957723954771
 30
0.0
 10
38.01432218869175
 20
-56.52957723954771
 30
0.0
 10
38.01432218869175
 20
-56.52957723954771
 30
0.0
 10
38.14905565404609
 20
-56.33744315560028
 30
0.0
 10
38.14905565404609
 20
-56.33744315560028
 30
0.0
 10
38.14905565404609
 20
-56.33744315560028
 30
0.0
 10
38.29256262967774
 20
-56.14720565555708
 30
0.0
 10
38.29256262967774
 20
-56.14720565555708
 30
0.0
 10
38.29256262967774
 20
-56.14720565555708
 30
0.0
 10
38.38862967165145
 20
-56.02718157376734
 30
0.0
 10
38.38862967165145
 20
-56.02718157376734
 30
0.0
 10
38.47544543793672
 20
-55.94890405448552
 30
0.0
 10
38.50533473161074
 20
-55.82532206815701
 30
0.0
 10
38.46334928639579
 20
-55.71621058268736
 30
0.0
 10
38.42136384117827
 20
-55.6070954777823
 30
0.0
 10
38.31675855220015
 20
-55.53474659291953
 30
0.0
 10
38.19981460953833
 20
-55.53474659291953
 30
0.0
  0
INSERT
  5
119
330
70
100
AcDbEntity
  8
Camada 1
100
AcDbBlockReference
  2
Block_0
 10
0.0
 20
0.0
 30
0.0
  0
LINE
  5
14E
330
70
100
AcDbEntity
  8
Camada 1
 62
    18
420
        0
370
    15
100
AcDbLine
 10
82.27191302762683
 20
-74.83194852576342
 30
0.0
 11
61.72140009930334
 21
-74.83194852576342
 31
0.0
  0
LINE
  5
14F
330
70
100
AcDbEntity
  8
Camada 1
 62
    18
420
        0
370
    15
100
AcDbLine
 10
82.27191302762683
 20
-74.83194852576342
 30
0.0
 11
82.27191302762683
 21
-55.60557893454627
 31
0.0
  0
SPLINE
  5
150
330
70
100
AcDbEntity
  8
Camada 1
 62
    18
420
        0
370
    15
100
AcDbSpline
210
0.0
220
0.0
230
1.0
 70
     9
 71
     3
 72
    17
 73
    13
 74
     0
 42
0.0000000001
 43
0.0000000001
 40
0.0
 40
0.0
 40
0.0
 40
0.0
 40
1.0
 40
1.0
 40
1.0
 40
2.0
 40
2.0
 40
2.0
 40
3.0
 40
3.0
 40
3.0
 40
4.0
 40
4.0
 40
4.0
 40
4.0
 10
26.82187393255191
 20
-61.41831226845466
 30
0.0
 10
26.82187393255191
 20
-61.548065391344
 30
0.0
 10
26.71631673218306
 20
-61.65361897227488
 30
0.0
 10
26.58656722872912
 20
-61.65361897227488
 30
0.0
 10
26.45657884257267
 20
-61.65361897227488
 30
0.0
 10
26.35126052491147
 20
-61.548065391344
 30
0.0
 10
26.35126052491147
 20
-61.41831226845466
 30
0.0
 10
26.35126052491147
 20
-61.28856276500202
 30
0.0
 10
26.45657884257267
 20
-61.18300918406986
 30
0.0
 10
26.58656722872912
 20
-61.18300918406986
 30
0.0
 10
26.71631673218306
 20
-61.18300918406986
 30
0.0
 10
26.82187393255191
 20
-61.28856276500202
 30
0.0
 10
26.82187393255191
 20
-61.41831226845466
 30
0.0
  0
SPLINE
  5
151
330
70
100
AcDbEntity
  8
Camada 1
 62
    18
420
        0
370
    15
100
AcDbSpline
210
0.0
220
0.0
230
1.0
 70
     9
 71
     3
 72
    17
 73
    13
 74
     0
 42
0.0000000001
 43
0.0000000001
 40
0.0
 40
0.0
 40
0.0
 40
0.0
 40
1.0
 40
1.0
 40
1.0
 40
2.0
 40
2.0
 40
2.0
 40
3.0
 40
3.0
 40
3.0
 40
4.0
 40
4.0
 40
4.0
 40
4.0
 10
26.82187393255191
 20
-61.41831226845466
 30
0.0
 10
26.82187393255191
 20
-61.548065391344
 30
0.0
 10
26.71631673218306
 20
-61.65361897227488
 30
0.0
 10
26.58656722872912
 20
-61.65361897227488
 30
0.0
 10
26.45657884257267
 20
-61.65361897227488
 30
0.0
 10
26.35126052491147
 20
-61.548065391344
 30
0.0
 10
26.35126052491147
 20
-61.41831226845466
 30
0.0
 10
26.35126052491147
 20
-61.28856276500202
 30
0.0
 10
26.45657884257267
 20
-61.18300918406986
 30
0.0
 10
26.58656722872912
 20
-61.18300918406986
 30
0.0
 10
26.71631673218306
 20
-61.18300918406986
 30
0.0
 10
26.82187393255191
 20
-61.28856276500202
 30
0.0
 10
26.82187393255191
 20
-61.41831226845466
 30
0.0
  0
SPLINE
  5
152
330
70
100
AcDbEntity
  8
Camada 1
 62
    18
420
        0
370
    15
100
AcDbSpline
210
0.0
220
0.0
230
1.0
 70
     9
 71
     3
 72
    17
 73
    13
 74
     0
 42
0.0000000001
 43
0.0000000001
 40
0.0
 40
0.0
 40
0.0
 40
0.0
 40
1.0
 40
1.0
 40
1.0
 40
2.0
 40
2.0
 40
2.0
 40
3.0
 40
3.0
 40
3.0
 40
4.0
 40
4.0
 40
4.0
 40
4.0
 10
33.6691515843238
 20
-61.37643628166683
 30
0.0
 10
33.6691515843238
 20
-61.50618940455617
 30
0.0
 10
33.56359438395622
 20
-61.61174298548705
 30
0.0
 10
33.43384488050229
 20
-61.61174298548705
 30
0.0
 10
33.30385649434456
 20
-61.61174298548705
 30
0.0
 10
33.19853817668336
 20
-61.50618940455617
 30
0.0
 10
33.19853817668336
 20
-61.37643628166683
 30
0.0
 10
33.19853817668336
 20
-61.24668677821418
 30
0.0
 10
33.30385649434456
 20
-61.14113319728202
 30
0.0
 10
33.43384488050229
 20
-61.14113319728202
 30
0.0
 10
33.56359438395622
 20
-61.14113319728202
 30
0.0
 10
33.6691515843238
 20
-61.24668677821418
 30
0.0
 10
33.6691515843238
 20
-61.37643628166683
 30
0.0
  0
ENDSEC
  0
SECTION
  2
OBJECTS
  0
DICTIONARY
  5
C
330
0
100
AcDbDictionary
281
     1
  3
ACAD_COLOR
350
63
  3
ACAD_DETAILVIEWSTYLE
350
6A
  3
ACAD_GROUP
350
D
  3
ACAD_LAYOUT
350
62
  3
ACAD_MATERIAL
350
10
  3
ACAD_MLEADERSTYLE
350
66
  3
ACAD_MLINESTYLE
350
5F
  3
ACAD_PLOTSETTINGS
350
61
  3
ACAD_PLOTSTYLENAME
350
E
  3
ACAD_SCALELIST
350
42
  3
ACAD_SECTIONVIEWSTYLE
350
68
  3
ACAD_TABLESTYLE
350
64
  3
ACAD_VISUALSTYLE
350
29
  3
ACDB_RECOMPOSE_DATA
350
15B
  3
AcDbVariableDictionary
350
153
  0
DICTIONARY
  5
63
102
{ACAD_REACTORS
330
C
102
}
330
C
100
AcDbDictionary
281
     1
  0
DICTIONARY
  5
6A
102
{ACAD_REACTORS
330
C
102
}
330
C
100
AcDbDictionary
281
     1
  3
Imperial24
350
6B
  0
DICTIONARY
  5
D
102
{ACAD_REACTORS
330
C
102
}
330
C
100
AcDbDictionary
281
     1
  0
DICTIONARY
  5
62
102
{ACAD_REACTORS
330
C
102
}
330
C
100
AcDbDictionary
281
     1
  3
Layout1
350
6F
  3
Layout2
350
77
  3
Model
350
73
  0
DICTIONARY
  5
10
102
{ACAD_REACTORS
330
C
102
}
330
C
100
AcDbDictionary
281
     1
  3
ByBlock
350
19
  3
ByLayer
350
11
  3
Global
350
21
  0
DICTIONARY
  5
66
102
{ACAD_REACTORS
330
C
102
}
330
C
100
AcDbDictionary
281
     1
  3
Standard
350
67
  0
DICTIONARY
  5
5F
102
{ACAD_REACTORS
330
C
102
}
330
C
100
AcDbDictionary
281
     1
  3
Standard
350
60
  0
DICTIONARY
  5
61
102
{ACAD_REACTORS
330
C
102
}
330
C
100
AcDbDictionary
281
     1
  0
ACDBDICTIONARYWDFLT
  5
E
102
{ACAD_REACTORS
330
C
102
}
330
C
100
AcDbDictionary
281
     1
  3
Normal
350
F
100
AcDbDictionaryWithDefault
340
F
  0
DICTIONARY
  5
42
102
{ACAD_REACTORS
330
C
102
}
330
C
100
AcDbDictionary
281
     1
  3
A0
350
43
  3
A1
350
44
  3
A2
350
45
  3
A3
350
46
  3
A4
350
47
  3
A5
350
48
  3
A6
350
49
  3
A7
350
4A
  3
A8
350
4B
  3
A9
350
4C
  3
B0
350
4D
  3
B1
350
4E
  3
B2
350
4F
  3
B3
350
50
  3
B4
350
51
  3
B5
350
52
  3
B6
350
53
  0
DICTIONARY
  5
68
102
{ACAD_REACTORS
330
C
102
}
330
C
100
AcDbDictionary
281
     1
  3
Imperial24
350
69
  0
DICTIONARY
  5
64
102
{ACAD_REACTORS
330
C
102
}
330
C
100
AcDbDictionary
281
     1
  3
Standard
350
65
  0
DICTIONARY
  5
29
102
{ACAD_REACTORS
330
C
102
}
330
C
100
AcDbDictionary
281
     1
  3
2dWireframe
350
2F
  3
Basic
350
2E
  3
Brighten
350
35
  3
ColorChange
350
39
  3
Conceptual
350
32
  3
Dim
350
34
  3
EdgeColorOff
350
41
  3
Facepattern
350
38
  3
Flat
350
2A
  3
FlatWithEdges
350
2B
  3
Gouraud
350
2C
  3
GouraudWithEdges
350
2D
  3
Hidden
350
31
  3
JitterOff
350
3F
  3
Linepattern
350
37
  3
OverhangOff
350
40
  3
Realistic
350
33
  3
Shaded
350
3E
  3
Shaded with edges
350
3D
  3
Shades of Gray
350
3A
  3
Sketchy
350
3B
  3
Thicken
350
36
  3
Wireframe
350
30
  3
X-Ray
350
3C
  0
XRECORD
  5
15B
102
{ACAD_REACTORS
330
C
102
}
330
C
100
AcDbXrecord
280
     1
 90
        1
330
65
  0
DICTIONARY
  5
153
102
{ACAD_REACTORS
330
C
102
}
330
C
100
AcDbDictionary
281
     1
  3
CANNOSCALE
350
158
  3
CMLEADERSTYLE
350
155
  3
CTABLESTYLE
350
154
  3
CVIEWDETAILSTYLE
350
156
  3
CVIEWSECTIONSTYLE
350
157
  0
ACDBDETAILVIEWSTYLE
  5
6B
102
{ACAD_REACTORS
330
6A
102
}
330
6A
100
AcDbModelDocViewStyle
 70
     0
  3
Imperial24
290
     1
300
Imperial24
 90
        0
100
AcDbDetailViewStyle
 70
     0
 71
     0
 90
        3
 71
     1
340
55
 62
   256
 40
0.24
340
0
 62
   256
 40
0.24
300

 40
0.36
280
     3
 71
     2
340
5D
 90
       25
 62
   256
 71
     3
340
55
 62
   256
 40
0.24
 90
        1
 40
0.75
 90
        1
300
%<\AcVar ViewType \f "%tc1">% %<\AcVar ViewDetailId>%\PSCALE %<\AcVar ViewScale \f "%sn">%
 71
     4
340
5D
 90
       25
 62
   256
340
5D
 90
       25
 62
   256
280
     0
  0
LAYOUT
  5
6F
102
{ACAD_REACTORS
330
62
102
}
330
62
100
AcDbPlotSettings
  1

  2

  4

  6

 40
0.0
 41
0.0
 42
0.0
 43
0.0
 44
0.0
 45
0.0
 46
0.0
 47
0.0
 48
0.0
 49
0.0
140
0.0
141
0.0
142
1.0
143
1.0
 70
   688
 72
     0
 73
     0
 74
     5
  7

 75
    16
147
1.0
 76
     0
 77
     2
 78
   300
148
0.0
149
0.0
100
AcDbLayout
  1
Layout1
 70
     1
 71
     1
 10
0.0
 20
0.0
 11
12.0
 21
9.0
 12
0.0
 22
0.0
 32
0.0
 14
0.0
 24
0.0
 34
0.0
 15
0.0
 25
0.0
 35
0.0
146
0.0
 13
0.0
 23
0.0
 33
0.0
 16
1.0
 26
0.0
 36
0.0
 17
0.0
 27
1.0
 37
0.0
 76
     0
330
6C
  0
LAYOUT
  5
77
102
{ACAD_REACTORS
330
62
102
}
330
62
100
AcDbPlotSettings
  1

  2

  4

  6

 40
0.0
 41
0.0
 42
0.0
 43
0.0
 44
0.0
 45
0.0
 46
0.0
 47
0.0
 48
0.0
 49
0.0
140
0.0
141
0.0
142
1.0
143
1.0
 70
   688
 72
     0
 73
     0
 74
     5
  7

 75
    16
147
1.0
 76
     0
 77
     2
 78
   300
148
0.0
149
0.0
100
AcDbLayout
  1
Layout2
 70
     1
 71
     2
 10
0.0
 20
0.0
 11
12.0
 21
9.0
 12
0.0
 22
0.0
 32
0.0
 14
0.0
 24
0.0
 34
0.0
 15
0.0
 25
0.0
 35
0.0
146
0.0
 13
0.0
 23
0.0
 33
0.0
 16
1.0
 26
0.0
 36
0.0
 17
0.0
 27
1.0
 37
0.0
 76
     0
330
74
  0
LAYOUT
  5
73
102
{ACAD_REACTORS
330
62
102
}
330
62
100
AcDbPlotSettings
  1

  2

  4

  6

 40
0.0
 41
0.0
 42
0.0
 43
0.0
 44
0.0
 45
0.0
 46
0.0
 47
0.0
 48
0.0
 49
0.0
140
0.0
141
0.0
142
1.0
143
1.0
 70
  1712
 72
     0
 73
     0
 74
     0
  7

 75
     0
147
1.0
 76
     0
 77
     2
 78
   300
148
0.0
149
0.0
100
AcDbLayout
  1
Model
 70
     1
 71
     0
 10
0.0
 20
0.0
 11
12.0
 21
9.0
 12
0.0
 22
0.0
 32
0.0
 14
0.0
 24
0.0
 34
0.0
 15
0.0
 25
0.0
 35
0.0
146
0.0
 13
0.0
 23
0.0
 33
0.0
 16
1.0
 26
0.0
 36
0.0
 17
0.0
 27
1.0
 37
0.0
 76
     0
330
70
  0
MATERIAL
  5
19
102
{ACAD_XDICTIONARY
360
1A
102
}
102
{ACAD_REACTORS
330
10
102
}
330
10
100
AcDbMaterial
  1
ByBlock
 72
     0
 43
0.0208333333333333
 43
0.0
 43
0.0
 43
0.0
 43
0.0
 43
0.0208333333333333
 43
0.0
 43
0.0
 43
0.0
 43
0.0
 43
1.0
 43
0.0
 43
0.0
 43
0.0
 43
0.0
 43
1.0
 77
     0
 47
0.0208333333333333
 47
0.0
 47
0.0
 47
0.0
 47
0.0
 47
0.0208333333333333
 47
0.0
 47
0.0
 47
0.0
 47
0.0
 47
1.0
 47
0.0
 47
0.0
 47
0.0
 47
0.0
 47
1.0
171
     0
 49
0.0208333333333333
 49
0.0
 49
0.0
 49
0.0
 49
0.0
 49
0.0208333333333333
 49
0.0
 49
0.0
 49
0.0
 49
0.0
 49
1.0
 49
0.0
 49
0.0
 49
0.0
 49
0.0
 49
1.0
175
     0
142
0.0208333333333333
142
0.0
142
0.0
142
0.0
142
0.0
142
0.0208333333333333
142
0.0
142
0.0
142
0.0
142
0.0
142
1.0
142
0.0
142
0.0
142
0.0
142
0.0
142
1.0
179
     0
144
0.0208333333333333
144
0.0
144
0.0
144
0.0
144
0.0
144
0.0208333333333333
144
0.0
144
0.0
144
0.0
144
0.0
144
1.0
144
0.0
144
0.0
144
0.0
144
0.0
144
1.0
147
0.0208333333333333
147
0.0
147
0.0
147
0.0
147
0.0
147
0.0208333333333333
147
0.0
147
0.0
147
0.0
147
0.0
147
1.0
147
0.0
147
0.0
147
0.0
147
0.0
147
1.0
  0
MATERIAL
  5
11
102
{ACAD_XDICTIONARY
360
12
102
}
102
{ACAD_REACTORS
330
10
102
}
330
10
100
AcDbMaterial
  1
ByLayer
 72
     0
 43
0.0208333333333333
 43
0.0
 43
0.0
 43
0.0
 43
0.0
 43
0.0208333333333333
 43
0.0
 43
0.0
 43
0.0
 43
0.0
 43
1.0
 43
0.0
 43
0.0
 43
0.0
 43
0.0
 43
1.0
 77
     0
 47
0.0208333333333333
 47
0.0
 47
0.0
 47
0.0
 47
0.0
 47
0.0208333333333333
 47
0.0
 47
0.0
 47
0.0
 47
0.0
 47
1.0
 47
0.0
 47
0.0
 47
0.0
 47
0.0
 47
1.0
171
     0
 49
0.0208333333333333
 49
0.0
 49
0.0
 49
0.0
 49
0.0
 49
0.0208333333333333
 49
0.0
 49
0.0
 49
0.0
 49
0.0
 49
1.0
 49
0.0
 49
0.0
 49
0.0
 49
0.0
 49
1.0
175
     0
142
0.0208333333333333
142
0.0
142
0.0
142
0.0
142
0.0
142
0.0208333333333333
142
0.0
142
0.0
142
0.0
142
0.0
142
1.0
142
0.0
142
0.0
142
0.0
142
0.0
142
1.0
179
     0
144
0.0208333333333333
144
0.0
144
0.0
144
0.0
144
0.0
144
0.0208333333333333
144
0.0
144
0.0
144
0.0
144
0.0
144
1.0
144
0.0
144
0.0
144
0.0
144
0.0
144
1.0
147
0.0208333333333333
147
0.0
147
0.0
147
0.0
147
0.0
147
0.0208333333333333
147
0.0
147
0.0
147
0.0
147
0.0
147
1.0
147
0.0
147
0.0
147
0.0
147
0.0
147
1.0
  0
MATERIAL
  5
21
102
{ACAD_XDICTIONARY
360
22
102
}
102
{ACAD_REACTORS
330
10
102
}
330
10
100
AcDbMaterial
  1
Global
 72
     0
 43
0.0208333333333333
 43
0.0
 43
0.0
 43
0.0
 43
0.0
 43
0.0208333333333333
 43
0.0
 43
0.0
 43
0.0
 43
0.0
 43
1.0
 43
0.0
 43
0.0
 43
0.0
 43
0.0
 43
1.0
 77
     0
 47
0.0208333333333333
 47
0.0
 47
0.0
 47
0.0
 47
0.0
 47
0.0208333333333333
 47
0.0
 47
0.0
 47
0.0
 47
0.0
 47
1.0
 47
0.0
 47
0.0
 47
0.0
 47
0.0
 47
1.0
171
     0
 49
0.0208333333333333
 49
0.0
 49
0.0
 49
0.0
 49
0.0
 49
0.0208333333333333
 49
0.0
 49
0.0
 49
0.0
 49
0.0
 49
1.0
 49
0.0
 49
0.0
 49
0.0
 49
0.0
 49
1.0
175
     0
142
0.0208333333333333
142
0.0
142
0.0
142
0.0
142
0.0
142
0.0208333333333333
142
0.0
142
0.0
142
0.0
142
0.0
142
1.0
142
0.0
142
0.0
142
0.0
142
0.0
142
1.0
179
     0
144
0.0208333333333333
144
0.0
144
0.0
144
0.0
144
0.0
144
0.0208333333333333
144
0.0
144
0.0
144
0.0
144
0.0
144
1.0
144
0.0
144
0.0
144
0.0
144
0.0
144
1.0
147
0.0208333333333333
147
0.0
147
0.0
147
0.0
147
0.0
147
0.0208333333333333
147
0.0
147
0.0
147
0.0
147
0.0
147
1.0
147
0.0
147
0.0
147
0.0
147
0.0
147
1.0
  0
MLEADERSTYLE
  5
67
102
{ACAD_REACTORS
330
66
102
}
330
66
100
AcDbMLeaderStyle
179
     2
170
     2
171
     1
172
     0
 90
        2
 40
0.0
 41
0.0
173
     1
 91
-1056964608
340
5B
 92
       -2
290
     1
 42
0.09
291
     1
 43
0.36
  3
Standard
 44
0.18
300

342
55
174
     1
178
     6
175
     1
176
     0
 93
-1056964608
 45
0.18
292
     0
297
     0
 46
0.18
 94
-1056964608
 47
1.0
 49
1.0
140
1.0
293
     1
141
0.0
294
     1
177
     0
142
1.0
295
     1
296
     0
143
0.125
271
     0
272
     9
273
     9
298
     1
  0
MLINESTYLE
  5
60
102
{ACAD_REACTORS
330
5F
102
}
330
5F
100
AcDbMlineStyle
  2
STANDARD
 70
     0
  3

 62
   256
 51
90.0
 52
90.0
 71
     2
 49
0.5
 62
   256
  6
BYLAYER
 49
-0.5
 62
   256
  6
BYLAYER
  0
ACDBPLACEHOLDER
  5
F
102
{ACAD_REACTORS
330
E
102
}
330
E
  0
SCALE
  5
43
102
{ACAD_REACTORS
330
42
102
}
330
42
100
AcDbScale
 70
     0
300
1:1
140
1.0
141
1.0
290
     1
  0
SCALE
  5
44
102
{ACAD_REACTORS
330
42
102
}
330
42
100
AcDbScale
 70
     0
300
1/128" = 1'-0"
140
0.0078125
141
12.0
290
     0
  0
SCALE
  5
45
102
{ACAD_REACTORS
330
42
102
}
330
42
100
AcDbScale
 70
     0
300
1/64" = 1'-0"
140
0.015625
141
12.0
290
     0
  0
SCALE
  5
46
102
{ACAD_REACTORS
330
42
102
}
330
42
100
AcDbScale
 70
     0
300
1/32" = 1'-0"
140
0.03125
141
12.0
290
     0
  0
SCALE
  5
47
102
{ACAD_REACTORS
330
42
102
}
330
42
100
AcDbScale
 70
     0
300
1/16" = 1'-0"
140
0.0625
141
12.0
290
     0
  0
SCALE
  5
48
102
{ACAD_REACTORS
330
42
102
}
330
42
100
AcDbScale
 70
     0
300
3/32" = 1'-0"
140
0.09375
141
12.0
290
     0
  0
SCALE
  5
49
102
{ACAD_REACTORS
330
42
102
}
330
42
100
AcDbScale
 70
     0
300
1/8" = 1'-0"
140
0.125
141
12.0
290
     0
  0
SCALE
  5
4A
102
{ACAD_REACTORS
330
42
102
}
330
42
100
AcDbScale
 70
     0
300
3/16" = 1'-0"
140
0.1875
141
12.0
290
     0
  0
SCALE
  5
4B
102
{ACAD_REACTORS
330
42
102
}
330
42
100
AcDbScale
 70
     0
300
1/4" = 1'-0"
140
0.25
141
12.0
290
     0
  0
SCALE
  5
4C
102
{ACAD_REACTORS
330
42
102
}
330
42
100
AcDbScale
 70
     0
300
3/8" = 1'-0"
140
0.375
141
12.0
290
     0
  0
SCALE
  5
4D
102
{ACAD_REACTORS
330
42
102
}
330
42
100
AcDbScale
 70
     0
300
1/2" = 1'-0"
140
0.5
141
12.0
290
     0
  0
SCALE
  5
4E
102
{ACAD_REACTORS
330
42
102
}
330
42
100
AcDbScale
 70
     0
300
3/4" = 1'-0"
140
0.75
141
12.0
290
     0
  0
SCALE
  5
4F
102
{ACAD_REACTORS
330
42
102
}
330
42
100
AcDbScale
 70
     0
300
1" = 1'-0"
140
1.0
141
12.0
290
     0
  0
SCALE
  5
50
102
{ACAD_REACTORS
330
42
102
}
330
42
100
AcDbScale
 70
     0
300
1-1/2" = 1'-0"
140
1.5
141
12.0
290
     0
  0
SCALE
  5
51
102
{ACAD_REACTORS
330
42
102
}
330
42
100
AcDbScale
 70
     0
300
3" = 1'-0"
140
3.0
141
12.0
290
     0
  0
SCALE
  5
52
102
{ACAD_REACTORS
330
42
102
}
330
42
100
AcDbScale
 70
     0
300
6" = 1'-0"
140
6.0
141
12.0
290
     0
  0
SCALE
  5
53
102
{ACAD_REACTORS
330
42
102
}
330
42
100
AcDbScale
 70
     0
300
1'-0" = 1'-0"
140
12.0
141
12.0
290
     0
  0
ACDBSECTIONVIEWSTYLE
  5
69
102
{ACAD_REACTORS
330
68
102
}
330
68
100
AcDbModelDocViewStyle
 70
     0
  3
Imperial24
290
     1
300
Imperial24
 90
        0
100
AcDbSectionViewStyle
 70
     0
 71
     0
 90
       78
 71
     1
340
55
 62
   256
 40
0.24
340
0
340
0
 62
   256
 40
0.24
300
I, O, Q, S, X, Z
 40
0.48
 90
        3
 40
0.18
 90
        1
 71
     2
340
5D
 90
       25
 62
   256
340
5D
 90
       50
 62
   256
 40
0.24
 40
0.0
 40
0.24
 71
     3
340
55
 62
   256
 40
0.24
 90
        1
 40
0.75
 90
        1
300
%<\AcVar ViewType \f "%tc1">% %<\AcVar ViewSectionStartId>%-%<\AcVar ViewSectionEndId>%\PSCALE %<\AcVar ViewScale \f "%sn">%
 71
     4
 62
   256
 62
   257
300
ANSI31
 40
1.0
 90
        0
290
     0
290
     0
 90
        6
 40
0.0
 40
1.570796326794896
 40
0.2617993877991494
 40
1.308996938995747
 40
-0.2617993877991494
 40
1.832595714594046
  0
TABLESTYLE
  5
65
102
{ACAD_XDICTIONARY
360
159
102
}
102
{ACAD_REACTORS
330
64
102
}
330
64
100
AcDbTableStyle
280
     0
  3
Standard
 70
     0
 71
     0
 40
0.06
 41
0.06
280
     0
281
     0
  7
Standard
140
0.18
170
     2
 62
     0
 63
     7
283
     0
 90
      512
 91
        0
  1

274
    -2
284
     1
 64
     0
275
    -2
285
     1
 65
     0
276
    -2
286
     1
 66
     0
277
    -2
287
     1
 67
     0
278
    -2
288
     1
 68
     0
279
    -2
289
     1
 69
     0
  7
Standard
140
0.25
170
     5
 62
     0
 63
     7
283
     0
 90
      512
 91
        0
  1

274
    -2
284
     1
 64
     0
275
    -2
285
     1
 65
     0
276
    -2
286
     1
 66
     0
277
    -2
287
     1
 67
     0
278
    -2
288
     1
 68
     0
279
    -2
289
     1
 69
     0
  7
Standard
140
0.18
170
     5
 62
     0
 63
     7
283
     0
 90
      512
 91
        0
  1

274
    -2
284
     1
 64
     0
275
    -2
285
     1
 65
     0
276
    -2
286
     1
 66
     0
277
    -2
287
     1
 67
     0
278
    -2
288
     1
 68
     0
279
    -2
289
     1
 69
     0
  0
VISUALSTYLE
  5
2F
102
{ACAD_REACTORS
330
29
102
}
330
29
100
AcDbVisualStyle
  2
2dWireframe
 70
     4
177
     3
291
     0
 70
    58
 90
        0
176
     1
 90
        2
176
     1
 90
        0
176
     1
 90
        0
176
     1
 40
0.6
176
     1
 40
30.0
176
     1
 62
     7
420
 16777215
176
     1
 90
        1
176
     1
 90
        4
176
     1
 62
     7
176
     1
 62
   257
176
     1
 90
        1
176
     1
 90
        1
176
     1
 40
1.0
176
     1
 90
        0
176
     1
 62
   257
176
     1
 40
1.0
176
     1
 90
        1
176
     1
 90
        6
176
     1
 90
        2
176
     1
 62
     7
176
     1
 90
        5
176
     1
 90
        0
176
     1
 90
        0
176
     1
290
     0
176
     1
 90
        1
176
     1
 40
0.0
176
     1
 90
        0
176
     1
290
     1
176
     1
290
     1
176
     1
290
     0
176
     1
290
     0
176
     1
290
     0
176
     1
290
     0
176
     1
290
     0
176
     1
290
     0
176
     1
290
     0
176
     1
 90
       50
176
     1
 40
0.0
176
     1
 40
1.0
176
     1
 90
        0
176
     1
 62
    18
420
        0
176
     1
 90
       50
176
     1
 90
        3
176
     1
 62
     5
420
      255
176
     1
290
     0
176
     1
 90
       50
176
     1
 90
       50
176
     1
 90
       50
176
     1
290
     0
176
     1
 90
       50
176
     1
 62
   256
176
     0
 40
1.0
176
     0
 90
        2
176
     1
  1
strokes_ogs.tif
176
     1
290
     0
176
     1
 40
1.0
176
     1
 40
1.0
176
     1
  0
VISUALSTYLE
  5
2E
102
{ACAD_REACTORS
330
29
102
}
330
29
100
AcDbVisualStyle
  2
Basic
 70
     7
177
     3
291
     1
 70
    58
 90
        1
176
     1
 90
        0
176
     1
 90
        1
176
     1
 90
        0
176
     1
 40
0.6
176
     1
 40
30.0
176
     1
 62
     7
420
 16777215
176
     1
 90
        0
176
     1
 90
        4
176
     1
 62
     7
176
     1
 62
   257
176
     1
 90
        1
176
     1
 90
        1
176
     1
 40
1.0
176
     1
 90
        8
176
     1
 62
     7
176
     1
 40
1.0
176
     1
 90
        1
176
     1
 90
        6
176
     1
 90
        2
176
     1
 62
     7
176
     1
 90
        5
176
     1
 90
        0
176
     1
 90
        0
176
     1
290
     0
176
     1
 90
        1
176
     1
 40
0.0
176
     1
 90
        0
176
     1
290
     0
176
     1
290
     1
176
     1
290
     1
176
     1
290
     0
176
     1
290
     0
176
     1
290
     0
176
     1
290
     0
176
     1
290
     0
176
     1
290
     0
176
     1
 90
       50
176
     1
 40
0.0
176
     1
 40
1.0
176
     1
 90
        0
176
     1
 62
    18
420
        0
176
     1
 90
       50
176
     1
 90
        3
176
     1
 62
     5
420
      255
176
     1
290
     0
176
     1
 90
       50
176
     1
 90
       50
176
     1
 90
       50
176
     1
290
     0
176
     1
 90
       50
176
     1
 62
   256
176
     0
 40
1.0
176
     0
 90
        2
176
     1
  1
strokes_ogs.tif
176
     1
290
     0
176
     1
 40
1.0
176
     1
 40
1.0
176
     1
  0
VISUALSTYLE
  5
35
102
{ACAD_REACTORS
330
29
102
}
330
29
100
AcDbVisualStyle
  2
Brighten
 70
    12
177
     3
291
     1
 70
    58
 90
        2
176
     1
 90
        2
176
     1
 90
        0
176
     1
 90
        0
176
     1
 40
0.6
176
     1
 40
30.0
176
     1
 62
     7
420
 16777215
176
     1
 90
        1
176
     1
 90
        4
176
     1
 62
     7
176
     1
 62
   257
176
     1
 90
        1
176
     1
 90
        1
176
     1
 40
1.0
176
     1
 90
        8
176
     1
 62
     7
176
     1
 40
1.0
176
     1
 90
        1
176
     1
 90
        6
176
     1
 90
        2
176
     1
 62
     7
176
     1
 90
        5
176
     1
 90
        0
176
     1
 90
        0
176
     1
290
     0
176
     1
 90
        1
176
     1
 40
50.0
176
     1
 90
        0
176
     1
290
     0
176
     1
290
     1
176
     1
290
     1
176
     1
290
     0
176
     1
290
     0
176
     1
290
     0
176
     1
290
     0
176
     1
290
     0
176
     1
290
     0
176
     1
 90
       50
176
     1
 40
0.0
176
     1
 40
1.0
176
     1
 90
        0
176
     1
 62
    18
420
        0
176
     1
 90
       50
176
     1
 90
        3
176
     1
 62
     5
420
      255
176
     1
290
     0
176
     1
 90
       50
176
     1
 90
       50
176
     1
 90
       50
176
     1
290
     0
176
     1
 90
       50
176
     1
 62
   256
176
     0
 40
1.0
176
     0
 90
        2
176
     1
  1
strokes_ogs.tif
176
     1
290
     0
176
     1
 40
1.0
176
     1
 40
1.0
176
     1
  0
VISUALSTYLE
  5
39
102
{ACAD_REACTORS
330
29
102
}
330
29
100
AcDbVisualStyle
  2
ColorChange
 70
    16
177
     3
291
     1
 70
    58
 90
        2
176
     1
 90
        2
176
     1
 90
        3
176
     1
 90
        0
176
     1
 40
0.6
176
     1
 40
30.0
176
     1
 62
     8
420
  8421504
176
     1
 90
        1
176
     1
 90
        4
176
     1
 62
     7
176
     1
 62
   257
176
     1
 90
        1
176
     1
 90
        1
176
     1
 40
1.0
176
     1
 90
        8
176
     1
 62
     8
420
  8421504
176
     1
 40
1.0
176
     1
 90
        1
176
     1
 90
        6
176
     1
 90
        2
176
     1
 62
     7
176
     1
 90
        5
176
     1
 90
        0
176
     1
 90
        0
176
     1
290
     0
176
     1
 90
        1
176
     1
 40
0.0
176
     1
 90
        0
176
     1
290
     0
176
     1
290
     1
176
     1
290
     1
176
     1
290
     0
176
     1
290
     0
176
     1
290
     0
176
     1
290
     0
176
     1
290
     0
176
     1
290
     0
176
     1
 90
       50
176
     1
 40
0.0
176
     1
 40
1.0
176
     1
 90
        0
176
     1
 62
    18
420
        0
176
     1
 90
       50
176
     1
 90
        3
176
     1
 62
     5
420
      255
176
     1
290
     0
176
     1
 90
       50
176
     1
 90
       50
176
     1
 90
       50
176
     1
290
     0
176
     1
 90
       50
176
     1
 62
   256
176
     0
 40
1.0
176
     0
 90
        2
176
     1
  1
strokes_ogs.tif
176
     1
290
     0
176
     1
 40
1.0
176
     1
 40
1.0
176
     1
  0
VISUALSTYLE
  5
32
102
{ACAD_REACTORS
330
29
102
}
330
29
100
AcDbVisualStyle
  2
Conceptual
 70
     9
177
     3
291
     0
 70
    58
 90
        3
176
     1
 90
        2
176
     1
 90
        0
176
     1
 90
        0
176
     1
 40
0.6
176
     1
 40
30.0
176
     1
 62
     7
420
 16777215
176
     1
 90
        2
176
     1
 90
        2
176
     1
 62
     7
176
     1
 62
   257
176
     1
 90
        1
176
     1
 90
        1
176
     1
 40
179.0
176
     1
 90
        8
176
     1
 62
     7
176
     1
 40
1.0
176
     1
 90
        1
176
     1
 90
        6
176
     1
 90
        2
176
     1
 62
     7
176
     1
 90
        3
176
     1
 90
        0
176
     1
 90
        0
176
     1
290
     0
176
     1
 90
        1
176
     1
 40
0.0
176
     1
 90
        0
176
     1
290
     0
176
     1
290
     1
176
     1
290
     1
176
     1
290
     0
176
     1
290
     0
176
     1
290
     0
176
     1
290
     0
176
     1
290
     0
176
     1
290
     0
176
     1
 90
       50
176
     1
 40
0.0
176
     1
 40
1.0
176
     1
 90
        0
176
     1
 62
    18
420
        0
176
     1
 90
       50
176
     1
 90
        3
176
     1
 62
     5
420
      255
176
     1
290
     0
176
     1
 90
       50
176
     1
 90
       50
176
     1
 90
       50
176
     1
290
     0
176
     1
 90
       50
176
     1
 62
   256
176
     0
 40
1.0
176
     0
 90
        2
176
     1
  1
strokes_ogs.tif
176
     1
290
     0
176
     1
 40
1.0
176
     1
 40
1.0
176
     1
  0
VISUALSTYLE
  5
34
102
{ACAD_REACTORS
330
29
102
}
330
29
100
AcDbVisualStyle
  2
Dim
 70
    11
177
     3
291
     1
 70
    58
 90
        2
176
     1
 90
        2
176
     1
 90
        0
176
     1
 90
        0
176
     1
 40
0.6
176
     1
 40
30.0
176
     1
 62
     7
420
 16777215
176
     1
 90
        1
176
     1
 90
        4
176
     1
 62
     7
176
     1
 62
   257
176
     1
 90
        1
176
     1
 90
        1
176
     1
 40
1.0
176
     1
 90
        8
176
     1
 62
     7
176
     1
 40
1.0
176
     1
 90
        1
176
     1
 90
        6
176
     1
 90
        2
176
     1
 62
     7
176
     1
 90
        5
176
     1
 90
        0
176
     1
 90
        0
176
     1
290
     0
176
     1
 90
        1
176
     1
 40
-50.0
176
     1
 90
        0
176
     1
290
     0
176
     1
290
     1
176
     1
290
     1
176
     1
290
     0
176
     1
290
     0
176
     1
290
     0
176
     1
290
     0
176
     1
290
     0
176
     1
290
     0
176
     1
 90
       50
176
     1
 40
0.0
176
     1
 40
1.0
176
     1
 90
        0
176
     1
 62
    18
420
        0
176
     1
 90
       50
176
     1
 90
        3
176
     1
 62
     5
420
      255
176
     1
290
     0
176
     1
 90
       50
176
     1
 90
       50
176
     1
 90
       50
176
     1
290
     0
176
     1
 90
       50
176
     1
 62
   256
176
     0
 40
1.0
176
     0
 90
        2
176
     1
  1
strokes_ogs.tif
176
     1
290
     0
176
     1
 40
1.0
176
     1
 40
1.0
176
     1
  0
VISUALSTYLE
  5
41
102
{ACAD_REACTORS
330
29
102
}
330
29
100
AcDbVisualStyle
  2
EdgeColorOff
 70
    22
177
     3
291
     1
 70
    58
 90
        2
176
     0
 90
        2
176
     0
 90
        0
176
     0
 90
        0
176
     0
 40
0.6
176
     0
 40
30.0
176
     0
 62
     7
420
 16777215
176
     0
 90
        1
176
     0
 90
        4
176
     0
 62
     7
176
     0
 62
   257
176
     0
 90
        1
176
     0
 90
        1
176
     0
 40
1.0
176
     0
 90
        8
176
     2
 62
     7
176
     0
 40
1.0
176
     0
 90
        1
176
     0
 90
        6
176
     0
 90
        2
176
     0
 62
     7
176
     0
 90
        5
176
     0
 90
        0
176
     0
 90
        0
176
     0
290
     0
176
     0
 90
        1
176
     0
 40
0.0
176
     0
 90
        0
176
     0
290
     0
176
     0
290
     1
176
     0
290
     1
176
     0
290
     0
176
     0
290
     0
176
     0
290
     0
176
     0
290
     0
176
     0
290
     0
176
     0
290
     0
176
     0
 90
       50
176
     0
 40
0.0
176
     0
 40
1.0
176
     0
 90
        0
176
     0
 62
    18
420
        0
176
     0
 90
       50
176
     0
 90
        3
176
     0
 62
     5
420
      255
176
     0
290
     0
176
     0
 90
       50
176
     0
 90
       50
176
     0
 90
       50
176
     0
290
     0
176
     0
 90
       50
176
     0
 62
   256
176
     0
 40
1.0
176
     0
 90
        2
176
     0
  1
strokes_ogs.tif
176
     0
290
     0
176
     0
 40
1.0
176
     0
 40
1.0
176
     0
  0
VISUALSTYLE
  5
38
102
{ACAD_REACTORS
330
29
102
}
330
29
100
AcDbVisualStyle
  2
Facepattern
 70
    15
177
     3
291
     1
 70
    58
 90
        2
176
     1
 90
        2
176
     1
 90
        0
176
     1
 90
        0
176
     1
 40
0.6
176
     1
 40
30.0
176
     1
 62
     7
420
 16777215
176
     1
 90
        1
176
     1
 90
        4
176
     1
 62
     7
176
     1
 62
   257
176
     1
 90
        1
176
     1
 90
        1
176
     1
 40
1.0
176
     1
 90
        8
176
     1
 62
     7
176
     1
 40
1.0
176
     1
 90
        1
176
     1
 90
        6
176
     1
 90
        2
176
     1
 62
     7
176
     1
 90
        5
176
     1
 90
        0
176
     1
 90
        0
176
     1
290
     0
176
     1
 90
        1
176
     1
 40
0.0
176
     1
 90
        0
176
     1
290
     0
176
     1
290
     1
176
     1
290
     1
176
     1
290
     0
176
     1
290
     0
176
     1
290
     0
176
     1
290
     0
176
     1
290
     0
176
     1
290
     0
176
     1
 90
       50
176
     1
 40
0.0
176
     1
 40
1.0
176
     1
 90
        0
176
     1
 62
    18
420
        0
176
     1
 90
       50
176
     1
 90
        3
176
     1
 62
     5
420
      255
176
     1
290
     0
176
     1
 90
       50
176
     1
 90
       50
176
     1
 90
       50
176
     1
290
     0
176
     1
 90
       50
176
     1
 62
   256
176
     0
 40
1.0
176
     0
 90
        2
176
     1
  1
strokes_ogs.tif
176
     1
290
     0
176
     1
 40
1.0
176
     1
 40
1.0
176
     1
  0
VISUALSTYLE
  5
2A
102
{ACAD_REACTORS
330
29
102
}
330
29
100
AcDbVisualStyle
  2
Flat
 70
     0
177
     3
291
     1
 70
    58
 90
        2
176
     1
 90
        1
176
     1
 90
        1
176
     1
 90
        2
176
     1
 40
0.6
176
     1
 40
30.0
176
     1
 62
     7
420
 16777215
176
     1
 90
        0
176
     1
 90
        0
176
     1
 62
     7
176
     1
 62
   257
176
     1
 90
        1
176
     1
 90
        1
176
     1
 40
1.0
176
     1
 90
        8
176
     1
 62
     7
176
     1
 40
1.0
176
     1
 90
        1
176
     1
 90
        6
176
     1
 90
        2
176
     1
 62
     7
176
     1
 90
        5
176
     1
 90
        0
176
     1
 90
        0
176
     1
290
     0
176
     1
 90
       13
176
     1
 40
0.0
176
     1
 90
        0
176
     1
290
     0
176
     1
290
     1
176
     1
290
     1
176
     1
290
     0
176
     1
290
     0
176
     1
290
     0
176
     1
290
     0
176
     1
290
     0
176
     1
290
     0
176
     1
 90
       50
176
     1
 40
0.0
176
     1
 40
1.0
176
     1
 90
        0
176
     1
 62
    18
420
        0
176
     1
 90
       50
176
     1
 90
        3
176
     1
 62
     5
420
      255
176
     1
290
     0
176
     1
 90
       50
176
     1
 90
       50
176
     1
 90
       50
176
     1
290
     0
176
     1
 90
       50
176
     1
 62
   256
176
     0
 40
1.0
176
     0
 90
        2
176
     1
  1
strokes_ogs.tif
176
     1
290
     0
176
     1
 40
1.0
176
     1
 40
1.0
176
     1
  0
VISUALSTYLE
  5
2B
102
{ACAD_REACTORS
330
29
102
}
330
29
100
AcDbVisualStyle
  2
FlatWithEdges
 70
     1
177
     3
291
     1
 70
    58
 90
        2
176
     1
 90
        1
176
     1
 90
        1
176
     1
 90
        2
176
     1
 40
0.6
176
     1
 40
30.0
176
     1
 62
     7
420
 16777215
176
     1
 90
        1
176
     1
 90
        0
176
     1
 62
     7
176
     1
 62
   257
176
     1
 90
        1
176
     1
 90
        1
176
     1
 40
1.0
176
     1
 90
        0
176
     1
 62
   257
176
     1
 40
1.0
176
     1
 90
        1
176
     1
 90
        6
176
     1
 90
        2
176
     1
 62
     7
176
     1
 90
        5
176
     1
 90
        0
176
     1
 90
        0
176
     1
290
     0
176
     1
 90
       13
176
     1
 40
0.0
176
     1
 90
        0
176
     1
290
     0
176
     1
290
     1
176
     1
290
     1
176
     1
290
     0
176
     1
290
     0
176
     1
290
     0
176
     1
290
     0
176
     1
290
     0
176
     1
290
     0
176
     1
 90
       50
176
     1
 40
0.0
176
     1
 40
1.0
176
     1
 90
        0
176
     1
 62
    18
420
        0
176
     1
 90
       50
176
     1
 90
        3
176
     1
 62
     5
420
      255
176
     1
290
     0
176
     1
 90
       50
176
     1
 90
       50
176
     1
 90
       50
176
     1
290
     0
176
     1
 90
       50
176
     1
 62
   256
176
     0
 40
1.0
176
     0
 90
        2
176
     1
  1
strokes_ogs.tif
176
     1
290
     0
176
     1
 40
1.0
176
     1
 40
1.0
176
     1
  0
VISUALSTYLE
  5
2C
102
{ACAD_REACTORS
330
29
102
}
330
29
100
AcDbVisualStyle
  2
Gouraud
 70
     2
177
     3
291
     1
 70
    58
 90
        2
176
     1
 90
        2
176
     1
 90
        1
176
     1
 90
        2
176
     1
 40
0.6
176
     1
 40
30.0
176
     1
 62
     7
420
 16777215
176
     1
 90
        0
176
     1
 90
        0
176
     1
 62
     7
176
     1
 62
   257
176
     1
 90
        1
176
     1
 90
        1
176
     1
 40
1.0
176
     1
 90
        0
176
     1
 62
     7
176
     1
 40
1.0
176
     1
 90
        1
176
     1
 90
        6
176
     1
 90
        2
176
     1
 62
     7
176
     1
 90
        5
176
     1
 90
        0
176
     1
 90
        0
176
     1
290
     0
176
     1
 90
       13
176
     1
 40
0.0
176
     1
 90
        0
176
     1
290
     0
176
     1
290
     1
176
     1
290
     1
176
     1
290
     0
176
     1
290
     0
176
     1
290
     0
176
     1
290
     0
176
     1
290
     0
176
     1
290
     0
176
     1
 90
       50
176
     1
 40
0.0
176
     1
 40
1.0
176
     1
 90
        0
176
     1
 62
    18
420
        0
176
     1
 90
       50
176
     1
 90
        3
176
     1
 62
     5
420
      255
176
     1
290
     0
176
     1
 90
       50
176
     1
 90
       50
176
     1
 90
       50
176
     1
290
     0
176
     1
 90
       50
176
     1
 62
   256
176
     0
 40
1.0
176
     0
 90
        2
176
     1
  1
strokes_ogs.tif
176
     1
290
     0
176
     1
 40
1.0
176
     1
 40
1.0
176
     1
  0
VISUALSTYLE
  5
2D
102
{ACAD_REACTORS
330
29
102
}
330
29
100
AcDbVisualStyle
  2
GouraudWithEdges
 70
     3
177
     3
291
     1
 70
    58
 90
        2
176
     1
 90
        2
176
     1
 90
        1
176
     1
 90
        2
176
     1
 40
0.6
176
     1
 40
30.0
176
     1
 62
     7
420
 16777215
176
     1
 90
        1
176
     1
 90
        0
176
     1
 62
     7
176
     1
 62
   257
176
     1
 90
        1
176
     1
 90
        1
176
     1
 40
1.0
176
     1
 90
        0
176
     1
 62
   257
176
     1
 40
1.0
176
     1
 90
        1
176
     1
 90
        6
176
     1
 90
        2
176
     1
 62
     7
176
     1
 90
        5
176
     1
 90
        0
176
     1
 90
        0
176
     1
290
     0
176
     1
 90
       13
176
     1
 40
0.0
176
     1
 90
        0
176
     1
290
     0
176
     1
290
     1
176
     1
290
     1
176
     1
290
     0
176
     1
290
     0
176
     1
290
     0
176
     1
290
     0
176
     1
290
     0
176
     1
290
     0
176
     1
 90
       50
176
     1
 40
0.0
176
     1
 40
1.0
176
     1
 90
        0
176
     1
 62
    18
420
        0
176
     1
 90
       50
176
     1
 90
        3
176
     1
 62
     5
420
      255
176
     1
290
     0
176
     1
 90
       50
176
     1
 90
       50
176
     1
 90
       50
176
     1
290
     0
176
     1
 90
       50
176
     1
 62
   256
176
     0
 40
1.0
176
     0
 90
        2
176
     1
  1
strokes_ogs.tif
176
     1
290
     0
176
     1
 40
1.0
176
     1
 40
1.0
176
     1
  0
VISUALSTYLE
  5
31
102
{ACAD_REACTORS
330
29
102
}
330
29
100
AcDbVisualStyle
  2
Hidden
 70
     6
177
     3
291
     0
 70
    58
 90
        1
176
     1
 90
        2
176
     1
 90
        2
176
     1
 90
        0
176
     1
 40
0.6
176
     1
 40
30.0
176
     1
 62
     7
420
 16777215
176
     1
 90
        2
176
     1
 90
        2
176
     1
 62
     7
176
     1
 62
   257
176
     1
 90
        2
176
     1
 90
        1
176
     1
 40
40.0
176
     1
 90
        0
176
     1
 62
   257
176
     1
 40
1.0
176
     1
 90
        1
176
     1
 90
        6
176
     1
 90
        2
176
     1
 62
     7
176
     1
 90
        3
176
     1
 90
        0
176
     1
 90
        0
176
     1
290
     0
176
     1
 90
        1
176
     1
 40
0.0
176
     1
 90
        0
176
     1
290
     0
176
     1
290
     1
176
     1
290
     1
176
     1
290
     0
176
     1
290
     0
176
     1
290
     0
176
     1
290
     0
176
     1
290
     0
176
     1
290
     0
176
     1
 90
       50
176
     1
 40
0.0
176
     1
 40
1.0
176
     1
 90
        0
176
     1
 62
    18
420
        0
176
     1
 90
       50
176
     1
 90
        3
176
     1
 62
     5
420
      255
176
     1
290
     0
176
     1
 90
       50
176
     1
 90
       50
176
     1
 90
       50
176
     1
290
     0
176
     1
 90
       50
176
     1
 62
   256
176
     0
 40
1.0
176
     0
 90
        2
176
     1
  1
strokes_ogs.tif
176
     1
290
     0
176
     1
 40
1.0
176
     1
 40
1.0
176
     1
  0
VISUALSTYLE
  5
3F
102
{ACAD_REACTORS
330
29
102
}
330
29
100
AcDbVisualStyle
  2
JitterOff
 70
    20
177
     3
291
     1
 70
    58
 90
        2
176
     0
 90
        2
176
     0
 90
        0
176
     0
 90
        0
176
     0
 40
0.6
176
     0
 40
30.0
176
     0
 62
     7
420
 16777215
176
     0
 90
        1
176
     0
 90
        4
176
     0
 62
     7
176
     0
 62
   257
176
     0
 90
        1
176
     0
 90
        1
176
     0
 40
1.0
176
     0
 90
       10
176
     2
 62
     7
176
     0
 40
1.0
176
     0
 90
        1
176
     0
 90
        6
176
     0
 90
        2
176
     0
 62
     7
176
     0
 90
        5
176
     0
 90
        0
176
     0
 90
        0
176
     0
290
     0
176
     0
 90
        1
176
     0
 40
0.0
176
     0
 90
        0
176
     0
290
     0
176
     0
290
     1
176
     0
290
     1
176
     0
290
     0
176
     0
290
     0
176
     0
290
     0
176
     0
290
     0
176
     0
290
     0
176
     0
290
     0
176
     0
 90
       50
176
     0
 40
0.0
176
     0
 40
1.0
176
     0
 90
        0
176
     0
 62
    18
420
        0
176
     0
 90
       50
176
     0
 90
        3
176
     0
 62
     5
420
      255
176
     0
290
     0
176
     0
 90
       50
176
     0
 90
       50
176
     0
 90
       50
176
     0
290
     0
176
     0
 90
       50
176
     0
 62
   256
176
     0
 40
1.0
176
     0
 90
        2
176
     0
  1
strokes_ogs.tif
176
     0
290
     0
176
     0
 40
1.0
176
     0
 40
1.0
176
     0
  0
VISUALSTYLE
  5
37
102
{ACAD_REACTORS
330
29
102
}
330
29
100
AcDbVisualStyle
  2
Linepattern
 70
    14
177
     3
291
     1
 70
    58
 90
        2
176
     1
 90
        2
176
     1
 90
        0
176
     1
 90
        0
176
     1
 40
0.6
176
     1
 40
30.0
176
     1
 62
     7
420
 16777215
176
     1
 90
        1
176
     1
 90
        4
176
     1
 62
     7
176
     1
 62
   257
176
     1
 90
        7
176
     1
 90
        7
176
     1
 40
1.0
176
     1
 90
        8
176
     1
 62
     7
176
     1
 40
1.0
176
     1
 90
        1
176
     1
 90
        6
176
     1
 90
        2
176
     1
 62
     7
176
     1
 90
        5
176
     1
 90
        0
176
     1
 90
        0
176
     1
290
     0
176
     1
 90
        1
176
     1
 40
0.0
176
     1
 90
        0
176
     1
290
     0
176
     1
290
     1
176
     1
290
     1
176
     1
290
     0
176
     1
290
     0
176
     1
290
     0
176
     1
290
     0
176
     1
290
     0
176
     1
290
     0
176
     1
 90
       50
176
     1
 40
0.0
176
     1
 40
1.0
176
     1
 90
        0
176
     1
 62
    18
420
        0
176
     1
 90
       50
176
     1
 90
        3
176
     1
 62
     5
420
      255
176
     1
290
     0
176
     1
 90
       50
176
     1
 90
       50
176
     1
 90
       50
176
     1
290
     0
176
     1
 90
       50
176
     1
 62
   256
176
     0
 40
1.0
176
     0
 90
        2
176
     1
  1
strokes_ogs.tif
176
     1
290
     0
176
     1
 40
1.0
176
     1
 40
1.0
176
     1
  0
VISUALSTYLE
  5
40
102
{ACAD_REACTORS
330
29
102
}
330
29
100
AcDbVisualStyle
  2
OverhangOff
 70
    21
177
     3
291
     1
 70
    58
 90
        2
176
     0
 90
        2
176
     0
 90
        0
176
     0
 90
        0
176
     0
 40
0.6
176
     0
 40
30.0
176
     0
 62
     7
420
 16777215
176
     0
 90
        1
176
     0
 90
        4
176
     0
 62
     7
176
     0
 62
   257
176
     0
 90
        1
176
     0
 90
        1
176
     0
 40
1.0
176
     0
 90
        9
176
     2
 62
     7
176
     0
 40
1.0
176
     0
 90
        1
176
     0
 90
        6
176
     0
 90
        2
176
     0
 62
     7
176
     0
 90
        5
176
     0
 90
        0
176
     0
 90
        0
176
     0
290
     0
176
     0
 90
        1
176
     0
 40
0.0
176
     0
 90
        0
176
     0
290
     0
176
     0
290
     1
176
     0
290
     1
176
     0
290
     0
176
     0
290
     0
176
     0
290
     0
176
     0
290
     0
176
     0
290
     0
176
     0
290
     0
176
     0
 90
       50
176
     0
 40
0.0
176
     0
 40
1.0
176
     0
 90
        0
176
     0
 62
    18
420
        0
176
     0
 90
       50
176
     0
 90
        3
176
     0
 62
     5
420
      255
176
     0
290
     0
176
     0
 90
       50
176
     0
 90
       50
176
     0
 90
       50
176
     0
290
     0
176
     0
 90
       50
176
     0
 62
   256
176
     0
 40
1.0
176
     0
 90
        2
176
     0
  1
strokes_ogs.tif
176
     0
290
     0
176
     0
 40
1.0
176
     0
 40
1.0
176
     0
  0
VISUALSTYLE
  5
33
102
{ACAD_REACTORS
330
29
102
}
330
29
100
AcDbVisualStyle
  2
Realistic
 70
     8
177
     3
291
     0
 70
    58
 90
        2
176
     1
 90
        3
176
     1
 90
        0
176
     1
 90
        2
176
     1
 40
0.6
176
     1
 40
30.0
176
     1
 62
     7
420
 16777215
176
     1
 90
        0
176
     1
 90
        0
176
     1
 62
     7
176
     1
 62
   257
176
     1
 90
        1
176
     1
 90
        1
176
     1
 40
1.0
176
     1
 90
        8
176
     1
 62
   257
176
     1
 40
1.0
176
     1
 90
        1
176
     1
 90
        6
176
     1
 90
        2
176
     1
 62
     7
176
     1
 90
        3
176
     1
 90
        0
176
     1
 90
        0
176
     1
290
     0
176
     1
 90
       13
176
     1
 40
0.0
176
     1
 90
        0
176
     1
290
     0
176
     1
290
     1
176
     1
290
     1
176
     1
290
     0
176
     1
290
     0
176
     1
290
     0
176
     1
290
     0
176
     1
290
     0
176
     1
290
     0
176
     1
 90
       50
176
     1
 40
0.0
176
     1
 40
1.0
176
     1
 90
        0
176
     1
 62
    18
420
        0
176
     1
 90
       50
176
     1
 90
        3
176
     1
 62
     5
420
      255
176
     1
290
     0
176
     1
 90
       50
176
     1
 90
       50
176
     1
 90
       50
176
     1
290
     0
176
     1
 90
       50
176
     1
 62
   256
176
     0
 40
1.0
176
     0
 90
        2
176
     1
  1
strokes_ogs.tif
176
     1
290
     0
176
     1
 40
1.0
176
     1
 40
1.0
176
     1
  0
VISUALSTYLE
  5
3E
102
{ACAD_REACTORS
330
29
102
}
330
29
100
AcDbVisualStyle
  2
Shaded
 70
    27
177
     3
291
     0
 70
    58
 90
        2
176
     1
 90
        2
176
     1
 90
        1
176
     1
 90
        2
176
     1
 40
0.6
176
     1
 40
30.0
176
     1
 62
     7
420
 16777215
176
     1
 90
        0
176
     1
 90
        4
176
     1
 62
     7
176
     1
 62
   257
176
     1
 90
        1
176
     1
 90
        1
176
     1
 40
1.0
176
     1
 90
        8
176
     1
 62
   257
176
     1
 40
1.0
176
     1
 90
        1
176
     1
 90
        6
176
     1
 90
        2
176
     1
 62
     8
420
  7895160
176
     1
 90
        3
176
     1
 90
        0
176
     1
 90
        0
176
     1
290
     0
176
     1
 90
        5
176
     1
 40
0.0
176
     1
 90
        0
176
     1
290
     0
176
     1
290
     1
176
     1
290
     1
176
     1
290
     0
176
     1
290
     0
176
     1
290
     0
176
     1
290
     0
176
     1
290
     0
176
     1
290
     0
176
     1
 90
       50
176
     1
 40
0.0
176
     1
 40
1.0
176
     1
 90
        0
176
     1
 62
    18
420
        0
176
     1
 90
       50
176
     1
 90
        3
176
     1
 62
     5
420
      255
176
     1
290
     0
176
     1
 90
       50
176
     1
 90
       50
176
     1
 90
       50
176
     1
290
     0
176
     1
 90
       50
176
     1
 62
   256
176
     0
 40
1.0
176
     0
 90
        2
176
     1
  1
strokes_ogs.tif
176
     1
290
     0
176
     1
 40
1.0
176
     1
 40
1.0
176
     1
  0
VISUALSTYLE
  5
3D
102
{ACAD_REACTORS
330
29
102
}
330
29
100
AcDbVisualStyle
  2
Shaded with edges
 70
    26
177
     3
291
     0
 70
    58
 90
        2
176
     1
 90
        2
176
     1
 90
        1
176
     1
 90
        2
176
     1
 40
0.6
176
     1
 40
30.0
176
     1
 62
     7
420
 16777215
176
     1
 90
        1
176
     1
 90
        2
176
     1
 62
     7
176
     1
 62
   257
176
     1
 90
        2
176
     1
 90
        1
176
     1
 40
1.0
176
     1
 90
        8
176
     1
 62
   257
176
     1
 40
1.0
176
     1
 90
        1
176
     1
 90
        6
176
     1
 90
        2
176
     1
 62
     7
176
     1
 90
        3
176
     1
 90
        0
176
     1
 90
        0
176
     1
290
     0
176
     1
 90
        5
176
     1
 40
0.0
176
     1
 90
        0
176
     1
290
     0
176
     1
290
     1
176
     1
290
     1
176
     1
290
     0
176
     1
290
     0
176
     1
290
     0
176
     1
290
     0
176
     1
290
     0
176
     1
290
     0
176
     1
 90
       50
176
     1
 40
0.0
176
     1
 40
1.0
176
     1
 90
        0
176
     1
 62
    18
420
        0
176
     1
 90
       50
176
     1
 90
        3
176
     1
 62
     5
420
      255
176
     1
290
     0
176
     1
 90
       50
176
     1
 90
       50
176
     1
 90
       50
176
     1
290
     0
176
     1
 90
       50
176
     1
 62
   256
176
     0
 40
1.0
176
     0
 90
        2
176
     1
  1
strokes_ogs.tif
176
     1
290
     0
176
     1
 40
1.0
176
     1
 40
1.0
176
     1
  0
VISUALSTYLE
  5
3A
102
{ACAD_REACTORS
330
29
102
}
330
29
100
AcDbVisualStyle
  2
Shades of Gray
 70
    23
177
     3
291
     0
 70
    58
 90
        2
176
     1
 90
        2
176
     1
 90
        3
176
     1
 90
        0
176
     1
 40
0.6
176
     1
 40
30.0
176
     1
 62
     7
420
 16777215
176
     1
 90
        2
176
     1
 90
        2
176
     1
 62
     7
176
     1
 62
     7
176
     1
 90
        1
176
     1
 90
        1
176
     1
 40
40.0
176
     1
 90
        8
176
     1
 62
     7
176
     1
 40
1.0
176
     1
 90
        1
176
     1
 90
        6
176
     1
 90
        2
176
     1
 62
     7
176
     1
 90
        3
176
     1
 90
        0
176
     1
 90
        0
176
     1
290
     0
176
     1
 90
        1
176
     1
 40
0.0
176
     1
 90
        0
176
     1
290
     0
176
     1
290
     1
176
     1
290
     1
176
     1
290
     0
176
     1
290
     0
176
     1
290
     0
176
     1
290
     0
176
     1
290
     0
176
     1
290
     0
176
     1
 90
       50
176
     1
 40
0.0
176
     1
 40
1.0
176
     1
 90
        0
176
     1
 62
    18
420
        0
176
     1
 90
       50
176
     1
 90
        3
176
     1
 62
     5
420
      255
176
     1
290
     0
176
     1
 90
       50
176
     1
 90
       50
176
     1
 90
       50
176
     1
290
     0
176
     1
 90
       50
176
     1
 62
   256
176
     0
 40
1.0
176
     0
 90
        2
176
     1
  1
strokes_ogs.tif
176
     1
290
     0
176
     1
 40
1.0
176
     1
 40
1.0
176
     1
  0
VISUALSTYLE
  5
3B
102
{ACAD_REACTORS
330
29
102
}
330
29
100
AcDbVisualStyle
  2
Sketchy
 70
    24
177
     3
291
     0
 70
    58
 90
        1
176
     1
 90
        2
176
     1
 90
        2
176
     1
 90
        0
176
     1
 40
0.6
176
     1
 40
30.0
176
     1
 62
     7
420
 16777215
176
     1
 90
        2
176
     1
 90
        2
176
     1
 62
     7
176
     1
 62
     7
176
     1
 90
        1
176
     1
 90
        1
176
     1
 40
40.0
176
     1
 90
       11
176
     1
 62
     7
176
     1
 40
1.0
176
     1
 90
        1
176
     1
 90
        6
176
     1
 90
        2
176
     1
 62
     7
176
     1
 90
        6
176
     1
 90
        0
176
     1
 90
        0
176
     1
290
     0
176
     1
 90
        1
176
     1
 40
0.0
176
     1
 90
        0
176
     1
290
     0
176
     1
290
     1
176
     1
290
     1
176
     1
290
     0
176
     1
290
     0
176
     1
290
     0
176
     1
290
     0
176
     1
290
     0
176
     1
290
     0
176
     1
 90
       50
176
     1
 40
0.0
176
     1
 40
1.0
176
     1
 90
        0
176
     1
 62
    18
420
        0
176
     1
 90
       50
176
     1
 90
        3
176
     1
 62
     5
420
      255
176
     1
290
     0
176
     1
 90
       50
176
     1
 90
       50
176
     1
 90
       50
176
     1
290
     0
176
     1
 90
       50
176
     1
 62
   256
176
     0
 40
1.0
176
     0
 90
        2
176
     1
  1
strokes_ogs.tif
176
     1
290
     0
176
     1
 40
1.0
176
     1
 40
1.0
176
     1
  0
VISUALSTYLE
  5
36
102
{ACAD_REACTORS
330
29
102
}
330
29
100
AcDbVisualStyle
  2
Thicken
 70
    13
177
     3
291
     1
 70
    58
 90
        2
176
     1
 90
        2
176
     1
 90
        0
176
     1
 90
        0
176
     1
 40
0.6
176
     1
 40
30.0
176
     1
 62
     7
420
 16777215
176
     1
 90
        1
176
     1
 90
        4
176
     1
 62
     7
176
     1
 62
   257
176
     1
 90
        1
176
     1
 90
        1
176
     1
 40
1.0
176
     1
 90
       12
176
     1
 62
     7
176
     1
 40
1.0
176
     1
 90
        1
176
     1
 90
        6
176
     1
 90
        2
176
     1
 62
     7
176
     1
 90
        5
176
     1
 90
        0
176
     1
 90
        0
176
     1
290
     0
176
     1
 90
        1
176
     1
 40
0.0
176
     1
 90
        0
176
     1
290
     0
176
     1
290
     1
176
     1
290
     1
176
     1
290
     0
176
     1
290
     0
176
     1
290
     0
176
     1
290
     0
176
     1
290
     0
176
     1
290
     0
176
     1
 90
       50
176
     1
 40
0.0
176
     1
 40
1.0
176
     1
 90
        0
176
     1
 62
    18
420
        0
176
     1
 90
       50
176
     1
 90
        3
176
     1
 62
     5
420
      255
176
     1
290
     0
176
     1
 90
       50
176
     1
 90
       50
176
     1
 90
       50
176
     1
290
     0
176
     1
 90
       50
176
     1
 62
   256
176
     0
 40
1.0
176
     0
 90
        2
176
     1
  1
strokes_ogs.tif
176
     1
290
     0
176
     1
 40
1.0
176
     1
 40
1.0
176
     1
  0
VISUALSTYLE
  5
30
102
{ACAD_REACTORS
330
29
102
}
330
29
100
AcDbVisualStyle
  2
Wireframe
 70
     5
177
     3
291
     0
 70
    58
 90
        0
176
     1
 90
        2
176
     1
 90
        0
176
     1
 90
        0
176
     1
 40
0.6
176
     1
 40
30.0
176
     1
 62
     7
420
 16777215
176
     1
 90
        1
176
     1
 90
        4
176
     1
 62
     7
176
     1
 62
   257
176
     1
 90
        1
176
     1
 90
        1
176
     1
 40
1.0
176
     1
 90
        0
176
     1
 62
   257
176
     1
 40
1.0
176
     1
 90
        1
176
     1
 90
        6
176
     1
 90
        2
176
     1
 62
     7
176
     1
 90
        3
176
     1
 90
        0
176
     1
 90
        0
176
     1
290
     0
176
     1
 90
        1
176
     1
 40
0.0
176
     1
 90
        0
176
     1
290
     0
176
     1
290
     1
176
     1
290
     1
176
     1
290
     0
176
     1
290
     0
176
     1
290
     0
176
     1
290
     0
176
     1
290
     0
176
     1
290
     0
176
     1
 90
       50
176
     1
 40
0.0
176
     1
 40
1.0
176
     1
 90
        0
176
     1
 62
    18
420
        0
176
     1
 90
       50
176
     1
 90
        3
176
     1
 62
     5
420
      255
176
     1
290
     0
176
     1
 90
       50
176
     1
 90
       50
176
     1
 90
       50
176
     1
290
     0
176
     1
 90
       50
176
     1
 62
   256
176
     0
 40
1.0
176
     0
 90
        2
176
     1
  1
strokes_ogs.tif
176
     1
290
     0
176
     1
 40
1.0
176
     1
 40
1.0
176
     1
  0
VISUALSTYLE
  5
3C
102
{ACAD_REACTORS
330
29
102
}
330
29
100
AcDbVisualStyle
  2
X-Ray
 70
    25
177
     3
291
     0
 70
    58
 90
        2
176
     1
 90
        2
176
     1
 90
        1
176
     1
 90
        1
176
     1
 40
0.5
176
     1
 40
30.0
176
     1
 62
     7
420
 16777215
176
     1
 90
        1
176
     1
 90
        0
176
     1
 62
     7
176
     1
 62
   257
176
     1
 90
        1
176
     1
 90
        1
176
     1
 40
1.0
176
     1
 90
        8
176
     1
 62
     7
176
     1
 40
1.0
176
     1
 90
        1
176
     1
 90
        6
176
     1
 90
        2
176
     1
 62
     7
176
     1
 90
        3
176
     1
 90
        0
176
     1
 90
        0
176
     1
290
     0
176
     1
 90
       13
176
     1
 40
0.0
176
     1
 90
        0
176
     1
290
     0
176
     1
290
     1
176
     1
290
     1
176
     1
290
     0
176
     1
290
     0
176
     1
290
     0
176
     1
290
     0
176
     1
290
     0
176
     1
290
     0
176
     1
 90
       50
176
     1
 40
0.0
176
     1
 40
1.0
176
     1
 90
        0
176
     1
 62
    18
420
        0
176
     1
 90
       50
176
     1
 90
        3
176
     1
 62
     5
420
      255
176
     1
290
     0
176
     1
 90
       50
176
     1
 90
       50
176
     1
 90
       50
176
     1
290
     0
176
     1
 90
       50
176
     1
 62
   256
176
     0
 40
1.0
176
     0
 90
        2
176
     1
  1
strokes_ogs.tif
176
     1
290
     0
176
     1
 40
1.0
176
     1
 40
1.0
176
     1
  0
DICTIONARYVAR
  5
158
102
{ACAD_REACTORS
330
153
102
}
330
153
100
DictionaryVariables
280
     0
  1
1:1
  0
DICTIONARYVAR
  5
155
102
{ACAD_REACTORS
330
153
102
}
330
153
100
DictionaryVariables
280
     0
  1
STANDARD
  0
DICTIONARYVAR
  5
154
102
{ACAD_REACTORS
330
153
102
}
330
153
100
DictionaryVariables
280
     0
  1
STANDARD
  0
DICTIONARYVAR
  5
156
102
{ACAD_REACTORS
330
153
102
}
330
153
100
DictionaryVariables
280
     0
  1
Imperial24
  0
DICTIONARYVAR
  5
157
102
{ACAD_REACTORS
330
153
102
}
330
153
100
DictionaryVariables
280
     0
  1
Imperial24
  0
DICTIONARY
  5
1A
330
19
100
AcDbDictionary
280
     1
281
     1
  3
BUMPTILE
360
1C
  3
DIFFUSETILE
360
1B
  3
OPACITYTILE
360
1F
  3
REFLECTIONTILE
360
1E
  3
REFRACTIONTILE
360
20
  3
SPECULARTILE
360
1D
  0
DICTIONARY
  5
12
330
11
100
AcDbDictionary
280
     1
281
     1
  3
BUMPTILE
360
14
  3
DIFFUSETILE
360
13
  3
OPACITYTILE
360
17
  3
REFLECTIONTILE
360
16
  3
REFRACTIONTILE
360
18
  3
SPECULARTILE
360
15
  0
DICTIONARY
  5
22
330
21
100
AcDbDictionary
280
     1
281
     1
  3
BUMPTILE
360
24
  3
DIFFUSETILE
360
23
  3
OPACITYTILE
360
27
  3
REFLECTIONTILE
360
26
  3
REFRACTIONTILE
360
28
  3
SPECULARTILE
360
25
  0
DICTIONARY
  5
159
330
65
100
AcDbDictionary
280
     1
281
     1
  3
ACAD_ROUNDTRIP_2008_TABLESTYLE_CELLSTYLEMAP
360
15A
  0
XRECORD
  5
1C
102
{ACAD_REACTORS
330
1A
102
}
330
1A
100
AcDbXrecord
280
     1
270
     1
271
     1
  0
XRECORD
  5
1B
102
{ACAD_REACTORS
330
1A
102
}
330
1A
100
AcDbXrecord
280
     1
270
     1
271
     1
  0
XRECORD
  5
1F
102
{ACAD_REACTORS
330
1A
102
}
330
1A
100
AcDbXrecord
280
     1
270
     1
271
     1
  0
XRECORD
  5
1E
102
{ACAD_REACTORS
330
1A
102
}
330
1A
100
AcDbXrecord
280
     1
270
     1
271
     1
  0
XRECORD
  5
20
102
{ACAD_REACTORS
330
1A
102
}
330
1A
100
AcDbXrecord
280
     1
270
     1
271
     1
  0
XRECORD
  5
1D
102
{ACAD_REACTORS
330
1A
102
}
330
1A
100
AcDbXrecord
280
     1
270
     1
271
     1
  0
XRECORD
  5
14
102
{ACAD_REACTORS
330
12
102
}
330
12
100
AcDbXrecord
280
     1
270
     1
271
     1
  0
XRECORD
  5
13
102
{ACAD_REACTORS
330
12
102
}
330
12
100
AcDbXrecord
280
     1
270
     1
271
     1
  0
XRECORD
  5
17
102
{ACAD_REACTORS
330
12
102
}
330
12
100
AcDbXrecord
280
     1
270
     1
271
     1
  0
XRECORD
  5
16
102
{ACAD_REACTORS
330
12
102
}
330
12
100
AcDbXrecord
280
     1
270
     1
271
     1
  0
XRECORD
  5
18
102
{ACAD_REACTORS
330
12
102
}
330
12
100
AcDbXrecord
280
     1
270
     1
271
     1
  0
XRECORD
  5
15
102
{ACAD_REACTORS
330
12
102
}
330
12
100
AcDbXrecord
280
     1
270
     1
271
     1
  0
XRECORD
  5
24
102
{ACAD_REACTORS
330
22
102
}
330
22
100
AcDbXrecord
280
     1
270
     1
271
     1
  0
XRECORD
  5
23
102
{ACAD_REACTORS
330
22
102
}
330
22
100
AcDbXrecord
280
     1
270
     1
271
     1
  0
XRECORD
  5
27
102
{ACAD_REACTORS
330
22
102
}
330
22
100
AcDbXrecord
280
     1
270
     1
271
     1
  0
XRECORD
  5
26
102
{ACAD_REACTORS
330
22
102
}
330
22
100
AcDbXrecord
280
     1
270
     1
271
     1
  0
XRECORD
  5
28
102
{ACAD_REACTORS
330
22
102
}
330
22
100
AcDbXrecord
280
     1
270
     1
271
     1
  0
XRECORD
  5
25
102
{ACAD_REACTORS
330
22
102
}
330
22
100
AcDbXrecord
280
     1
270
     1
271
     1
  0
CELLSTYLEMAP
  5
15A
102
{ACAD_REACTORS
330
159
102
}
330
159
100
AcDbCellStyleMap
 90
        3
300
CELLSTYLE
  1
TABLEFORMAT_BEGIN
 90
        5
170
     1
 91
        0
 92
    32768
 62
   257
 93
        1
300
CONTENTFORMAT
  1
CONTENTFORMAT_BEGIN
 90
        0
 91
        0
 92
      512
 93
        0
300

 40
0.0
140
1.0
 94
        5
 62
     0
340
55
144
0.25
309
CONTENTFORMAT_END
171
     0
 94
        0
309
TABLEFORMAT_END
  1
CELLSTYLE_BEGIN
 90
        1
 91
        1
300
_TITLE
309
CELLSTYLE_END
300
CELLSTYLE
  1
TABLEFORMAT_BEGIN
 90
        5
170
     1
 91
        0
 92
        0
 62
   257
 93
        1
300
CONTENTFORMAT
  1
CONTENTFORMAT_BEGIN
 90
        0
 91
        0
 92
      512
 93
        0
300

 40
0.0
140
1.0
 94
        5
 62
     0
340
55
144
0.18
309
CONTENTFORMAT_END
171
     0
 94
        0
309
TABLEFORMAT_END
  1
CELLSTYLE_BEGIN
 90
        2
 91
        1
300
_HEADER
309
CELLSTYLE_END
300
CELLSTYLE
  1
TABLEFORMAT_BEGIN
 90
        5
170
     1
 91
        0
 92
        0
 62
   257
 93
        1
300
CONTENTFORMAT
  1
CONTENTFORMAT_BEGIN
 90
        0
 91
        0
 92
      512
 93
        0
300

 40
0.0
140
1.0
 94
        2
 62
     0
340
55
144
0.18
309
CONTENTFORMAT_END
171
     0
 94
        0
309
TABLEFORMAT_END
  1
CELLSTYLE_BEGIN
 90
        3
 91
        2
300
_DATA
309
CELLSTYLE_END
  0
ENDSEC
  0
EOF
