  0
SECTION
  2
HEADER
  9
$ACADVER
  1
AC1032
  9
$ACADMAINTVER
 90
      228
  9
$DWGCODEPAGE
  3
ANSI_1252
  9
$REQUIREDVERSIONS
160
                 0
  9
$INSBASE
 10
0.0
 20
0.0
 30
0.0
  9
$EXTMIN
 10
1.000000000000000E+20
 20
1.000000000000000E+20
 30
1.000000000000000E+20
  9
$EXTMAX
 10
-1.000000000000000E+20
 20
-1.000000000000000E+20
 30
-1.000000000000000E+20
  9
$LIMMIN
 10
0.0
 20
0.0
  9
$LIMMAX
 10
12.0
 20
9.0
  9
$ORTHOMODE
 70
     0
  9
$REGENMODE
 70
     1
  9
$FILLMODE
 70
     1
  9
$QTEXTMODE
 70
     0
  9
$MIRRTEXT
 70
     0
  9
$LTSCALE
 40
1.0
  9
$ATTMODE
 70
     1
  9
$TEXTSIZE
 40
0.2
  9
$TRACEWID
 40
0.05
  9
$TEXTSTYLE
  7
Standard
  9
$CLAYER
  8
0
  9
$CELTYPE
  6
ByLayer
  9
$CECOLOR
 62
   256
  9
$CELTSCALE
 40
1.0
  9
$DISPSILH
 70
     0
  9
$DIMSCALE
 40
1.0
  9
$DIMASZ
 40
0.18
  9
$DIMEXO
 40
0.0625
  9
$DIMDLI
 40
0.38
  9
$DIMRND
 40
0.0
  9
$DIMDLE
 40
0.0
  9
$DIMEXE
 40
0.18
  9
$DIMTP
 40
0.0
  9
$DIMTM
 40
0.0
  9
$DIMTXT
 40
0.18
  9
$DIMCEN
 40
0.09
  9
$DIMTSZ
 40
0.0
  9
$DIMTOL
 70
     0
  9
$DIMLIM
 70
     0
  9
$DIMTIH
 70
     1
  9
$DIMTOH
 70
     1
  9
$DIMSE1
 70
     0
  9
$DIMSE2
 70
     0
  9
$DIMTAD
 70
     0
  9
$DIMZIN
 70
     0
  9
$DIMBLK
  1

  9
$DIMASO
 70
     1
  9
$DIMSHO
 70
     1
  9
$DIMPOST
  1

  9
$DIMAPOST
  1

  9
$DIMALT
 70
     0
  9
$DIMALTD
 70
     2
  9
$DIMALTF
 40
25.4
  9
$DIMLFAC
 40
1.0
  9
$DIMTOFL
 70
     0
  9
$DIMTVP
 40
0.0
  9
$DIMTIX
 70
     0
  9
$DIMSOXD
 70
     0
  9
$DIMSAH
 70
     0
  9
$DIMBLK1
  1

  9
$DIMBLK2
  1

  9
$DIMSTYLE
  2
Standard
  9
$DIMCLRD
 70
     0
  9
$DIMCLRE
 70
     0
  9
$DIMCLRT
 70
     0
  9
$DIMTFAC
 40
1.0
  9
$DIMGAP
 40
0.09
  9
$DIMJUST
 70
     0
  9
$DIMSD1
 70
     0
  9
$DIMSD2
 70
     0
  9
$DIMTOLJ
 70
     1
  9
$DIMTZIN
 70
     0
  9
$DIMALTZ
 70
     0
  9
$DIMALTTZ
 70
     0
  9
$DIMUPT
 70
     0
  9
$DIMDEC
 70
     4
  9
$DIMTDEC
 70
     4
  9
$DIMALTU
 70
     2
  9
$DIMALTTD
 70
     2
  9
$DIMTXSTY
  7
Standard
  9
$DIMAUNIT
 70
     0
  9
$DIMADEC
 70
     0
  9
$DIMALTRND
 40
0.0
  9
$DIMAZIN
 70
     0
  9
$DIMDSEP
 70
    46
  9
$DIMATFIT
 70
     3
  9
$DIMFRAC
 70
     0
  9
$DIMLDRBLK
  1

  9
$DIMLUNIT
 70
     2
  9
$DIMLWD
 70
    -2
  9
$DIMLWE
 70
    -2
  9
$DIMTMOVE
 70
     0
  9
$DIMFXL
 40
1.0
  9
$DIMFXLON
 70
     0
  9
$DIMJOGANG
 40
0.7853981633974483
  9
$DIMTFILL
 70
     0
  9
$DIMTFILLCLR
 70
     0
  9
$DIMARCSYM
 70
     0
  9
$DIMLTYPE
  6

  9
$DIMLTEX1
  6

  9
$DIMLTEX2
  6

  9
$DIMTXTDIRECTION
 70
     0
  9
$LUNITS
 70
     2
  9
$LUPREC
 70
     4
  9
$SKETCHINC
 40
0.1
  9
$FILLETRAD
 40
0.0
  9
$AUNITS
 70
     0
  9
$AUPREC
 70
     0
  9
$MENU
  1
.
  9
$ELEVATION
 40
0.0
  9
$PELEVATION
 40
0.0
  9
$THICKNESS
 40
0.0
  9
$LIMCHECK
 70
     0
  9
$CHAMFERA
 40
0.0
  9
$CHAMFERB
 40
0.0
  9
$CHAMFERC
 40
0.0
  9
$CHAMFERD
 40
0.0
  9
$SKPOLY
 70
     0
  9
$TDCREATE
 40
2460313.724675926
  9
$TDUCREATE
 40
2460313.724675926
  9
$TDUPDATE
 40
2460313.724675926
  9
$TDUUPDATE
 40
2460313.724675926
  9
$TDINDWG
 40
0.0000000000
  9
$TDUSRTIMER
 40
0.0000000000
  9
$USRTIMER
 70
     1
  9
$ANGBASE
 50
0.0
  9
$ANGDIR
 70
     0
  9
$PDMODE
 70
     0
  9
$PDSIZE
 40
0.0
  9
$PLINEWID
 40
0.0
  9
$SPLFRAME
 70
     0
  9
$SPLINETYPE
 70
     6
  9
$SPLINESEGS
 70
     8
  9
$HANDSEED
  5
1DA
  9
$SURFTAB1
 70
     6
  9
$SURFTAB2
 70
     6
  9
$SURFTYPE
 70
     6
  9
$SURFU
 70
     6
  9
$SURFV
 70
     6
  9
$UCSBASE
  2

  9
$UCSNAME
  2

  9
$UCSORG
 10
0.0
 20
0.0
 30
0.0
  9
$UCSXDIR
 10
1.0
 20
0.0
 30
0.0
  9
$UCSYDIR
 10
0.0
 20
1.0
 30
0.0
  9
$UCSORTHOREF
  2

  9
$UCSORTHOVIEW
 70
     0
  9
$UCSORGTOP
 10
0.0
 20
0.0
 30
0.0
  9
$UCSORGBOTTOM
 10
0.0
 20
0.0
 30
0.0
  9
$UCSORGLEFT
 10
0.0
 20
0.0
 30
0.0
  9
$UCSORGRIGHT
 10
0.0
 20
0.0
 30
0.0
  9
$UCSORGFRONT
 10
0.0
 20
0.0
 30
0.0
  9
$UCSORGBACK
 10
0.0
 20
0.0
 30
0.0
  9
$PUCSBASE
  2

  9
$PUCSNAME
  2

  9
$PUCSORG
 10
0.0
 20
0.0
 30
0.0
  9
$PUCSXDIR
 10
1.0
 20
0.0
 30
0.0
  9
$PUCSYDIR
 10
0.0
 20
1.0
 30
0.0
  9
$PUCSORTHOREF
  2

  9
$PUCSORTHOVIEW
 70
     0
  9
$PUCSORGTOP
 10
0.0
 20
0.0
 30
0.0
  9
$PUCSORGBOTTOM
 10
0.0
 20
0.0
 30
0.0
  9
$PUCSORGLEFT
 10
0.0
 20
0.0
 30
0.0
  9
$PUCSORGRIGHT
 10
0.0
 20
0.0
 30
0.0
  9
$PUCSORGFRONT
 10
0.0
 20
0.0
 30
0.0
  9
$PUCSORGBACK
 10
0.0
 20
0.0
 30
0.0
  9
$USERI1
 70
     0
  9
$USERI2
 70
     0
  9
$USERI3
 70
     0
  9
$USERI4
 70
     0
  9
$USERI5
 70
     0
  9
$USERR1
 40
0.0
  9
$USERR2
 40
0.0
  9
$USERR3
 40
0.0
  9
$USERR4
 40
0.0
  9
$USERR5
 40
0.0
  9
$WORLDVIEW
 70
     1
  9
$SHADEDGE
 70
     3
  9
$SHADEDIF
 70
    70
  9
$TILEMODE
 70
     1
  9
$MAXACTVP
 70
    64
  9
$PINSBASE
 10
0.0
 20
0.0
 30
0.0
  9
$PLIMCHECK
 70
     0
  9
$PEXTMIN
 10
1.000000000000000E+20
 20
1.000000000000000E+20
 30
1.000000000000000E+20
  9
$PEXTMAX
 10
-1.000000000000000E+20
 20
-1.000000000000000E+20
 30
-1.000000000000000E+20
  9
$PLIMMIN
 10
0.0
 20
0.0
  9
$PLIMMAX
 10
12.0
 20
9.0
  9
$UNITMODE
 70
     0
  9
$VISRETAIN
 70
     1
  9
$PLINEGEN
 70
     0
  9
$PSLTSCALE
 70
     1
  9
$TREEDEPTH
 70
  3020
  9
$CMLSTYLE
  2
Standard
  9
$CMLJUST
 70
     0
  9
$CMLSCALE
 40
1.0
  9
$PROXYGRAPHICS
 70
     1
  9
$MEASUREMENT
 70
     0
  9
$CELWEIGHT
370
    -1
  9
$ENDCAPS
280
     0
  9
$JOINSTYLE
280
     0
  9
$LWDISPLAY
290
     1
  9
$INSUNITS
 70
     4
  9
$HYPERLINKBASE
  1

  9
$STYLESHEET
  1

  9
$XEDIT
290
     1
  9
$CEPSNTYPE
380
     0
  9
$PSTYLEMODE
290
     1
  9
$FINGERPRINTGUID
  2
{EC3D9A34-4386-794F-884F-5C1CD3ED57AD}
  9
$VERSIONGUID
  2
{E043CBE1-198C-4049-8C6E-9C5F70352581}
  9
$EXTNAMES
290
     1
  9
$PSVPSCALE
 40
0.0
  9
$OLESTARTUP
290
     0
  9
$SORTENTS
280
   127
  9
$INDEXCTL
280
     0
  9
$HIDETEXT
280
     1
  9
$XCLIPFRAME
280
     2
  9
$HALOGAP
280
     0
  9
$OBSCOLOR
 70
   257
  9
$OBSLTYPE
280
     0
  9
$INTERSECTIONDISPLAY
280
     0
  9
$INTERSECTIONCOLOR
 70
   257
  9
$DIMASSOC
280
     2
  9
$PROJECTNAME
  1

  9
$CAMERADISPLAY
290
     0
  9
$LENSLENGTH
 40
50.0
  9
$CAMERAHEIGHT
 40
0.0
  9
$STEPSPERSEC
 40
2.0
  9
$STEPSIZE
 40
6.0
  9
$3DDWFPREC
 40
2.0
  9
$PSOLWIDTH
 40
0.25
  9
$PSOLHEIGHT
 40
4.0
  9
$LOFTANG1
 40
1.570796326794896
  9
$LOFTANG2
 40
1.570796326794896
  9
$LOFTMAG1
 40
0.0
  9
$LOFTMAG2
 40
0.0
  9
$LOFTPARAM
 70
     7
  9
$LOFTNORMALS
280
     1
  9
$LATITUDE
 40
37.795
  9
$LONGITUDE
 40
-122.394
  9
$NORTHDIRECTION
 40
0.0
  9
$TIMEZONE
 70
 -8000
  9
$LIGHTGLYPHDISPLAY
280
     1
  9
$TILEMODELIGHTSYNCH
280
     1
  9
$CMATERIAL
347
11
  9
$SOLIDHIST
280
     0
  9
$SHOWHIST
280
     1
  9
$DWFFRAME
280
     2
  9
$DGNFRAME
280
     0
  9
$REALWORLDSCALE
290
     1
  9
$INTERFERECOLOR
 62
     1
  9
$INTERFEREOBJVS
345
33
  9
$INTERFEREVPVS
346
30
  9
$CSHADOW
280
     0
  9
$SHADOWPLANELOCATION
 40
0.0
  0
ENDSEC
  0
SECTION
  2
CLASSES
  0
CLASS
  1
ACDBDICTIONARYWDFLT
  2
AcDbDictionaryWithDefault
  3
ObjectDBX Classes
 90
        0
 91
        1
280
     0
281
     0
  0
CLASS
  1
MATERIAL
  2
AcDbMaterial
  3
ObjectDBX Classes
 90
     1153
 91
        3
280
     0
281
     0
  0
CLASS
  1
VISUALSTYLE
  2
AcDbVisualStyle
  3
ObjectDBX Classes
 90
     4095
 91
       24
280
     0
281
     0
  0
CLASS
  1
SCALE
  2
AcDbScale
  3
ObjectDBX Classes
 90
     1153
 91
       17
280
     0
281
     0
  0
CLASS
  1
TABLESTYLE
  2
AcDbTableStyle
  3
ObjectDBX Classes
 90
     4095
 91
        1
280
     0
281
     0
  0
CLASS
  1
MLEADERSTYLE
  2
AcDbMLeaderStyle
  3
ACDB_MLEADERSTYLE_CLASS
 90
     4095
 91
        1
280
     0
281
     0
  0
CLASS
  1
ACDBSECTIONVIEWSTYLE
  2
AcDbSectionViewStyle
  3
ObjectDBX Classes
 90
     1025
 91
        1
280
     0
281
     0
  0
CLASS
  1
ACDBDETAILVIEWSTYLE
  2
AcDbDetailViewStyle
  3
ObjectDBX Classes
 90
     1025
 91
        1
280
     0
281
     0
  0
CLASS
  1
DICTIONARYVAR
  2
AcDbDictionaryVar
  3
ObjectDBX Classes
 90
        0
 91
        5
280
     0
281
     0
  0
CLASS
  1
CELLSTYLEMAP
  2
AcDbCellStyleMap
  3
ObjectDBX Classes
 90
     1152
 91
        1
280
     0
281
     0
  0
ENDSEC
  0
SECTION
  2
TABLES
  0
TABLE
  2
VPORT
  5
8
330
0
100
AcDbSymbolTable
 70
     1
  0
VPORT
  5
57
330
8
100
AcDbSymbolTableRecord
100
AcDbViewportTableRecord
  2
*Active
 70
     0
 10
0.0
 20
0.0
 11
1.0
 21
1.0
 12
0.0
 22
0.0
 13
0.0
 23
0.0
 14
1.0
 24
1.0
 15
0.0
 25
0.0
 16
0.0
 26
0.0
 36
1.0
 17
49.99999998749986
 27
-49.99999998749986
 37
0.0
 40
101.9999999744997
 41
1.0
 42
50.0
 43
0.0
 44
0.0
 50
0.0
 51
0.0
 71
     0
 72
   100
 73
     1
 74
     1
 75
     0
 76
     0
 77
     0
 78
     0
281
     0
 65
     1
110
0.0
120
0.0
130
0.0
111
1.0
121
0.0
131
0.0
112
0.0
122
1.0
132
0.0
 79
     0
146
0.0
 60
     3
 61
     5
292
     1
282
     1
141
0.0
142
0.0
 63
   250
421
  3355443
  0
ENDTAB
  0
TABLE
  2
LTYPE
  5
5
330
0
100
AcDbSymbolTable
 70
     1
  0
LTYPE
  5
5B
330
5
100
AcDbSymbolTableRecord
100
AcDbLinetypeTableRecord
  2
ByBlock
 70
     0
  3

 72
    65
 73
     0
 40
0.0
  0
LTYPE
  5
5C
330
5
100
AcDbSymbolTableRecord
100
AcDbLinetypeTableRecord
  2
ByLayer
 70
     0
  3

 72
    65
 73
     0
 40
0.0
  0
LTYPE
  5
5D
330
5
100
AcDbSymbolTableRecord
100
AcDbLinetypeTableRecord
  2
Continuous
 70
     0
  3
Solid line
 72
    65
 73
     0
 40
0.0
  0
ENDTAB
  0
TABLE
  2
LAYER
  5
2
330
0
100
AcDbSymbolTable
 70
     2
  0
LAYER
  5
54
330
2
100
AcDbSymbolTableRecord
100
AcDbLayerTableRecord
  2
0
 70
     0
 62
     7
  6
Continuous
370
    -3
390
F
347
21
348
0
  0
LAYER
  5
78
330
2
100
AcDbSymbolTableRecord
100
AcDbLayerTableRecord
  2
Camada 1
 70
     0
 62
     7
  6
Continuous
370
     0
390
F
347
21
348
0
  0
ENDTAB
  0
TABLE
  2
STYLE
  5
3
330
0
100
AcDbSymbolTable
 70
     2
  0
STYLE
  5
55
330
3
100
AcDbSymbolTableRecord
100
AcDbTextStyleTableRecord
  2
Standard
 70
     0
 40
0.0
 41
1.0
 50
0.0
 71
     0
 42
0.2
  3
txt
  4

  0
STYLE
  5
5A
330
3
100
AcDbSymbolTableRecord
100
AcDbTextStyleTableRecord
  2
Annotative
 70
     0
 40
0.0
 41
1.0
 50
0.0
 71
     0
 42
0.2
  3
txt
  4

1001
AcadAnnotative
1000
AnnotativeData
1002
{
1070
     1
1070
     1
1002
}
  0
ENDTAB
  0
TABLE
  2
VIEW
  5
6
330
0
100
AcDbSymbolTable
 70
     0
  0
ENDTAB
  0
TABLE
  2
UCS
  5
7
330
0
100
AcDbSymbolTable
 70
     0
  0
ENDTAB
  0
TABLE
  2
APPID
  5
9
330
0
100
AcDbSymbolTable
 70
     2
  0
APPID
  5
56
330
9
100
AcDbSymbolTableRecord
100
AcDbRegAppTableRecord
  2
ACAD
 70
     0
  0
APPID
  5
5E
330
9
100
AcDbSymbolTableRecord
100
AcDbRegAppTableRecord
  2
AcadAnnotative
 70
     0
  0
ENDTAB
  0
TABLE
  2
DIMSTYLE
  5
A
330
0
100
AcDbSymbolTable
 70
     2
100
AcDbDimStyleTable
 71
     0
  0
DIMSTYLE
105
58
330
A
100
AcDbSymbolTableRecord
100
AcDbDimStyleTableRecord
  2
Standard
 70
     0
340
55
  0
DIMSTYLE
105
59
330
A
100
AcDbSymbolTableRecord
100
AcDbDimStyleTableRecord
  2
Annotative
 70
     0
340
55
1001
AcadAnnotative
1000
AnnotativeData
1002
{
1070
     1
1070
     1
1002
}
  0
ENDTAB
  0
TABLE
  2
BLOCK_RECORD
  5
1
330
0
100
AcDbSymbolTable
 70
     9
  0
BLOCK_RECORD
  5
70
330
1
100
AcDbSymbolTableRecord
100
AcDbBlockTableRecord
  2
*Model_Space
340
73
 70
     0
280
     1
281
     0
  0
BLOCK_RECORD
  5
6C
330
1
100
AcDbSymbolTableRecord
100
AcDbBlockTableRecord
  2
*Paper_Space
340
6F
 70
     0
280
     1
281
     0
  0
BLOCK_RECORD
  5
74
330
1
100
AcDbSymbolTableRecord
100
AcDbBlockTableRecord
  2
*Paper_Space0
340
77
 70
     0
280
     1
281
     0
  0
BLOCK_RECORD
  5
EC
330
1
100
AcDbSymbolTableRecord
100
AcDbBlockTableRecord
  2
Block_0
340
0
102
{BLKREFS
331
ED
102
}
 70
     0
280
     1
281
     0
  0
BLOCK_RECORD
  5
F4
330
1
100
AcDbSymbolTableRecord
100
AcDbBlockTableRecord
  2
Block_1
340
0
102
{BLKREFS
331
F5
102
}
 70
     0
280
     1
281
     0
  0
BLOCK_RECORD
  5
104
330
1
100
AcDbSymbolTableRecord
100
AcDbBlockTableRecord
  2
Block_2
340
0
102
{BLKREFS
331
105
102
}
 70
     0
280
     1
281
     0
  0
BLOCK_RECORD
  5
10B
330
1
100
AcDbSymbolTableRecord
100
AcDbBlockTableRecord
  2
Block_3
340
0
102
{BLKREFS
331
10C
102
}
 70
     0
280
     1
281
     0
  0
BLOCK_RECORD
  5
157
330
1
100
AcDbSymbolTableRecord
100
AcDbBlockTableRecord
  2
Block_4
340
0
102
{BLKREFS
331
158
102
}
 70
     0
280
     1
281
     0
  0
BLOCK_RECORD
  5
195
330
1
100
AcDbSymbolTableRecord
100
AcDbBlockTableRecord
  2
Block_5
340
0
102
{BLKREFS
331
196
102
}
 70
     0
280
     1
281
     0
  0
BLOCK_RECORD
  5
19B
330
1
100
AcDbSymbolTableRecord
100
AcDbBlockTableRecord
  2
Block_6
340
0
102
{BLKREFS
331
19C
102
}
 70
     0
280
     1
281
     0
  0
BLOCK_RECORD
  5
1AF
330
1
100
AcDbSymbolTableRecord
100
AcDbBlockTableRecord
  2
Block_7
340
0
102
{BLKREFS
331
1B0
102
}
 70
     0
280
     1
281
     0
  0
ENDTAB
  0
ENDSEC
  0
SECTION
  2
BLOCKS
  0
BLOCK
  5
71
330
70
100
AcDbEntity
  8
0
100
AcDbBlockBegin
  2
*Model_Space
 70
     0
 10
0.0
 20
0.0
 30
0.0
  3
*Model_Space
  1

  0
ENDBLK
  5
72
330
70
100
AcDbEntity
  8
0
100
AcDbBlockEnd
  0
BLOCK
  5
6D
330
6C
100
AcDbEntity
 67
     1
  8
0
100
AcDbBlockBegin
  2
*Paper_Space
 70
     0
 10
0.0
 20
0.0
 30
0.0
  3
*Paper_Space
  1

  0
ENDBLK
  5
6E
330
6C
100
AcDbEntity
 67
     1
  8
0
100
AcDbBlockEnd
  0
BLOCK
  5
75
330
74
100
AcDbEntity
 67
     1
  8
0
100
AcDbBlockBegin
  2
*Paper_Space0
 70
     0
 10
0.0
 20
0.0
 30
0.0
  3
*Paper_Space0
  1

  0
ENDBLK
  5
76
330
74
100
AcDbEntity
 67
     1
  8
0
100
AcDbBlockEnd
  0
BLOCK
  5
EE
330
EC
100
AcDbEntity
  8
0
100
AcDbBlockBegin
  2
Block_0
 70
     0
 10
0.0
 20
0.0
 30
0.0
  3
Block_0
  1

  0
SPLINE
  5
F0
330
EC
100
AcDbEntity
  8
Camada 1
 62
    18
420
        0
370
    15
100
AcDbSpline
210
0.0
220
0.0
230
1.0
 70
     8
 71
     3
 72
     8
 73
     4
 74
     0
 42
0.0000000001
 43
0.0000000001
 40
0.0
 40
0.0
 40
0.0
 40
0.0
 40
1.0
 40
1.0
 40
1.0
 40
1.0
 10
72.72037790357527
 20
-74.52658630286078
 30
0.0
 10
72.86285640606401
 20
-74.54311726205381
 30
0.0
 10
73.00603117330083
 20
-74.55475660616085
 30
0.0
 10
73.14944039703249
 20
-74.56127520723909
 30
0.0
  0
SPLINE
  5
F1
330
EC
100
AcDbEntity
  8
Camada 1
 62
    18
420
        0
370
    15
100
AcDbSpline
210
0.0
220
0.0
230
1.0
 70
     8
 71
     3
 72
     8
 73
     4
 74
     0
 42
0.0000000001
 43
0.0000000001
 40
0.0
 40
0.0
 40
0.0
 40
0.0
 40
1.0
 40
1.0
 40
1.0
 40
1.0
 10
72.41914393394381
 20
-74.48041968726463
 30
0.0
 10
72.51901529673827
 20
-74.49857940863435
 30
0.0
 10
72.61935557252498
 20
-74.51417787039876
 30
0.0
 10
72.72039211306104
 20
-74.52674971193443
 30
0.0
  0
ENDBLK
  5
EF
330
EC
100
AcDbEntity
  8
0
100
AcDbBlockEnd
  0
BLOCK
  5
F6
330
F4
100
AcDbEntity
  8
0
100
AcDbBlockBegin
  2
Block_1
 70
     0
 10
0.0
 20
0.0
 30
0.0
  3
Block_1
  1

  0
SPLINE
  5
F8
330
F4
100
AcDbEntity
  8
Camada 1
 62
    18
420
        0
370
    15
100
AcDbSpline
210
0.0
220
0.0
230
1.0
 70
     8
 71
     3
 72
     8
 73
     4
 74
     0
 42
0.0000000001
 43
0.0000000001
 40
0.0
 40
0.0
 40
0.0
 40
0.0
 40
1.0
 40
1.0
 40
1.0
 40
1.0
 10
72.77575936996092
 20
-74.122477440618
 30
0.0
 10
72.89984369458382
 20
-74.13691250082649
 30
0.0
 10
73.0246242839522
 20
-74.14715576306725
 30
0.0
 10
73.14964643455962
 20
-74.1527436429013
 30
0.0
  0
SPLINE
  5
F9
330
F4
100
AcDbEntity
  8
Camada 1
 62
    18
420
        0
370
    15
100
AcDbSpline
210
0.0
220
0.0
230
1.0
 70
     8
 71
     3
 72
     8
 73
     4
 74
     0
 42
0.0000000001
 43
0.0000000001
 40
0.0
 40
0.0
 40
0.0
 40
0.0
 40
1.0
 40
1.0
 40
1.0
 40
1.0
 10
72.5133883408196
 20
-74.082248613415
 30
0.0
 10
72.60045695795369
 20
-74.0980797554898
 30
0.0
 10
72.68799448808133
 20
-74.1115840944554
 30
0.0
 10
72.77575936996092
 20
-74.12252539762865
 30
0.0
  0
SPLINE
  5
FA
330
F4
100
AcDbEntity
  8
Camada 1
 62
    18
420
        0
370
    15
100
AcDbSpline
210
0.0
220
0.0
230
1.0
 70
     8
 71
     3
 72
     8
 73
     4
 74
     0
 42
0.0000000001
 43
0.0000000001
 40
0.0
 40
0.0
 40
0.0
 40
0.0
 40
1.0
 40
1.0
 40
1.0
 40
1.0
 10
83.06618999431929
 20
-59.91998919529161
 30
0.0
 10
83.06618999431929
 20
-59.99402416263937
 30
0.0
 10
83.0077534887372
 20
-60.05501837545792
 30
0.0
 10
82.93394942551413
 20
-60.05827945218277
 30
0.0
  0
ENDBLK
  5
F7
330
F4
100
AcDbEntity
  8
0
100
AcDbBlockEnd
  0
BLOCK
  5
106
330
104
100
AcDbEntity
  8
0
100
AcDbBlockBegin
  2
Block_2
 70
     0
 10
0.0
 20
0.0
 30
0.0
  3
Block_2
  1

  0
SPLINE
  5
108
330
104
100
AcDbEntity
  8
Camada 1
 62
    18
420
        0
370
    15
100
AcDbSpline
210
0.0
220
0.0
230
1.0
 70
     8
 71
     3
 72
     8
 73
     4
 74
     0
 42
0.0000000001
 43
0.0000000001
 40
0.0
 40
0.0
 40
0.0
 40
0.0
 40
1.0
 40
1.0
 40
1.0
 40
1.0
 10
77.28297947890394
 20
-69.45732779082653
 30
0.0
 10
77.30975014796626
 20
-69.28295610006223
 30
0.0
 10
77.42312762591075
 20
-69.21264757006269
 30
0.0
 10
77.59633413893475
 20
-69.21264757006269
 30
0.0
  0
SPLINE
  5
109
330
104
100
AcDbEntity
  8
Camada 1
 62
    18
420
        0
370
    15
100
AcDbSpline
210
0.0
220
0.0
230
1.0
 70
     8
 71
     3
 72
     8
 73
     4
 74
     0
 42
0.0000000001
 43
0.0000000001
 40
0.0
 40
0.0
 40
0.0
 40
0.0
 40
1.0
 40
1.0
 40
1.0
 40
1.0
 10
76.88293985782433
 20
-69.3648808837557
 30
0.0
 10
76.94486479188705
 20
-68.95956243913338
 30
0.0
 10
77.20886991176225
 20
-68.79590114741635
 30
0.0
 10
77.61162354440779
 20
-68.79590114741635
 30
0.0
  0
ENDBLK
  5
107
330
104
100
AcDbEntity
  8
0
100
AcDbBlockEnd
  0
BLOCK
  5
10D
330
10B
100
AcDbEntity
  8
0
100
AcDbBlockBegin
  2
Block_3
 70
     0
 10
0.0
 20
0.0
 30
0.0
  3
Block_3
  1

  0
SPLINE
  5
10F
330
10B
100
AcDbEntity
  8
Camada 1
 62
    18
420
        0
370
    15
100
AcDbSpline
210
0.0
220
0.0
230
1.0
 70
     8
 71
     3
 72
     8
 73
     4
 74
     0
 42
0.0000000001
 43
0.0000000001
 40
0.0
 40
0.0
 40
0.0
 40
0.0
 40
1.0
 40
1.0
 40
1.0
 40
1.0
 10
76.84282648268432
 20
-72.11022436369098
 30
0.0
 10
76.55018214651808
 20
-73.53594188600581
 30
0.0
 10
75.27998210503293
 20
-74.56751494718199
 30
0.0
 10
73.34860763849348
 20
-74.56751494718199
 30
0.0
  0
SPLINE
  5
110
330
10B
100
AcDbEntity
  8
Camada 1
 62
    18
420
        0
370
    15
100
AcDbSpline
210
0.0
220
0.0
230
1.0
 70
     8
 71
     3
 72
     8
 73
     4
 74
     0
 42
0.0000000001
 43
0.0000000001
 40
0.0
 40
0.0
 40
0.0
 40
0.0
 40
1.0
 40
1.0
 40
1.0
 40
1.0
 10
76.42747614190554
 20
-72.11022436369098
 30
0.0
 10
76.16975161424232
 20
-73.29498632640319
 30
0.0
 10
75.05041367118526
 20
-74.15265128125142
 30
0.0
 10
73.34858632426737
 20
-74.15265128125142
 30
0.0
  0
ENDBLK
  5
10E
330
10B
100
AcDbEntity
  8
0
100
AcDbBlockEnd
  0
BLOCK
  5
159
330
157
100
AcDbEntity
  8
0
100
AcDbBlockBegin
  2
Block_4
 70
     0
 10
0.0
 20
0.0
 30
0.0
  3
Block_4
  1

  0
SPLINE
  5
15B
330
157
100
AcDbEntity
  8
Camada 1
 62
    18
420
        0
370
    15
100
AcDbSpline
210
0.0
220
0.0
230
1.0
 70
     8
 71
     3
 72
     8
 73
     4
 74
     0
 42
0.0000000001
 43
0.0000000001
 40
0.0
 40
0.0
 40
0.0
 40
0.0
 40
1.0
 40
1.0
 40
1.0
 40
1.0
 10
27.78007221840351
 20
-72.29526219569821
 30
0.0
 10
27.82802922906428
 20
-72.50502260795908
 30
0.0
 10
28.01450740074153
 20
-72.6537888074001
 30
0.0
 10
28.22962478871111
 20
-72.6537888074001
 30
0.0
  0
SPLINE
  5
15C
330
157
100
AcDbEntity
  8
Camada 1
 62
    18
420
        0
370
    15
100
AcDbSpline
210
0.0
220
0.0
230
1.0
 70
     8
 71
     3
 72
     8
 73
     4
 74
     0
 42
0.0000000001
 43
0.0000000001
 40
0.0
 40
0.0
 40
0.0
 40
0.0
 40
1.0
 40
1.0
 40
1.0
 40
1.0
 10
28.66928400533868
 20
-71.98900162087486
 30
0.0
 10
28.66555756799206
 20
-72.00110810178715
 30
0.0
 10
28.66253094776335
 20
-72.01298367857605
 30
0.0
 10
28.65996968815737
 20
-72.02555552011045
 30
0.0
  0
SPLINE
  5
15D
330
157
100
AcDbEntity
  8
Camada 1
 62
    18
420
        0
370
    15
100
AcDbSpline
210
0.0
220
0.0
230
1.0
 70
     8
 71
     3
 72
     8
 73
     4
 74
     0
 42
0.0000000001
 43
0.0000000001
 40
0.0
 40
0.0
 40
0.0
 40
0.0
 40
1.0
 40
1.0
 40
1.0
 40
1.0
 10
28.66006560217869
 20
-72.02539211103808
 30
0.0
 10
28.65773524669739
 20
-72.03749859195166
 30
0.0
 10
28.65587380420965
 20
-72.05007043348733
 30
0.0
 10
28.65447772234368
 20
-72.06241137089704
 30
0.0
  0
SPLINE
  5
15E
330
157
100
AcDbEntity
  8
Camada 1
 62
    18
420
        0
370
    15
100
AcDbSpline
210
0.0
220
0.0
230
1.0
 70
     8
 71
     3
 72
     8
 73
     4
 74
     0
 42
0.0000000001
 43
0.0000000001
 40
0.0
 40
0.0
 40
0.0
 40
0.0
 40
1.0
 40
1.0
 40
1.0
 40
1.0
 10
28.67677950848638
 20
-71.96914386608909
 30
0.0
 10
28.67375288825831
 20
-71.97589692366476
 30
0.0
 10
28.67119162865105
 20
-71.98264998124042
 30
0.0
 10
28.66863036904539
 20
-71.98963394294075
 30
0.0
  0
SPLINE
  5
15F
330
157
100
AcDbEntity
  8
Camada 1
 62
    18
420
        0
370
    15
100
AcDbSpline
210
0.0
220
0.0
230
1.0
 70
     8
 71
     3
 72
     8
 73
     4
 74
     0
 42
0.0000000001
 43
0.0000000001
 40
0.0
 40
0.0
 40
0.0
 40
0.0
 40
1.0
 40
1.0
 40
1.0
 40
1.0
 10
30.06154707225358
 20
-71.81197630885406
 30
0.0
 10
30.02941942748189
 20
-71.66367902240529
 30
0.0
 10
29.88437966538716
 20
-71.56869216995521
 30
0.0
 10
29.73561346594517
 20
-71.59872746811384
 30
0.0
  0
SPLINE
  5
160
330
157
100
AcDbEntity
  8
Camada 1
 62
    18
420
        0
370
    15
100
AcDbSpline
210
0.0
220
0.0
230
1.0
 70
     8
 71
     3
 72
     8
 73
     4
 74
     0
 42
0.0000000001
 43
0.0000000001
 40
0.0
 40
0.0
 40
0.0
 40
0.0
 40
1.0
 40
1.0
 40
1.0
 40
1.0
 10
28.51726028154297
 20
-72.65378525502865
 30
0.0
 10
28.56568265282616
 20
-72.65378525502865
 30
0.0
 10
28.60572498054271
 20
-72.61653864341645
 30
0.0
 10
28.60921696139321
 20
-72.56834717625827
 30
0.0
  0
SPLINE
  5
161
330
157
100
AcDbEntity
  8
Camada 1
 62
    18
420
        0
370
    15
100
AcDbSpline
210
0.0
220
0.0
230
1.0
 70
     8
 71
     3
 72
     8
 73
     4
 74
     0
 42
0.0000000001
 43
0.0000000001
 40
0.0
 40
0.0
 40
0.0
 40
0.0
 40
1.0
 40
1.0
 40
1.0
 40
1.0
 10
34.37362122388779
 20
-72.72400142337961
 30
0.0
 10
34.37431748863521
 20
-72.71864800004168
 30
0.0
 10
34.37501730575377
 20
-72.71306012020635
 30
0.0
 10
34.37548266637554
 20
-72.70770669686843
 30
0.0
  0
SPLINE
  5
162
330
157
100
AcDbEntity
  8
Camada 1
 62
    18
420
        0
370
    15
100
AcDbSpline
210
0.0
220
0.0
230
1.0
 70
     8
 71
     3
 72
     8
 73
     4
 74
     0
 42
0.0000000001
 43
0.0000000001
 40
0.0
 40
0.0
 40
0.0
 40
0.0
 40
1.0
 40
1.0
 40
1.0
 40
1.0
 10
30.11269411221639
 20
-72.70821823831546
 30
0.0
 10
30.11339037696382
 20
-72.71334075752742
 30
0.0
 10
30.11409019408236
 20
-72.71869773323678
 30
0.0
 10
30.11455555470446
 20
-72.72405115657598
 30
0.0
  0
SPLINE
  5
163
330
157
100
AcDbEntity
  8
Camada 1
 62
    18
420
        0
370
    15
100
AcDbSpline
210
0.0
220
0.0
230
1.0
 70
     9
 71
     3
 72
    17
 73
    13
 74
     0
 42
0.0000000001
 43
0.0000000001
 40
0.0
 40
0.0
 40
0.0
 40
0.0
 40
1.0
 40
1.0
 40
1.0
 40
2.0
 40
2.0
 40
2.0
 40
3.0
 40
3.0
 40
3.0
 40
4.0
 40
4.0
 40
4.0
 40
4.0
 10
34.53337135495684
 20
-67.34857825054205
 30
0.0
 10
34.53337135495684
 20
-66.08443144951559
 30
0.0
 10
33.50854779898489
 20
-65.05937698941766
 30
0.0
 10
32.24416654146166
 20
-65.05937698941766
 30
0.0
 10
30.97978528393844
 20
-65.05937698941766
 30
0.0
 10
29.9549652803376
 20
-66.08443144951559
 30
0.0
 10
29.9549652803376
 20
-67.34857825054205
 30
0.0
 10
29.9549652803376
 20
-68.61272860393992
 30
0.0
 10
30.97978528393844
 20
-69.63778306403786
 30
0.0
 10
32.24416654146166
 20
-69.63778306403786
 30
0.0
 10
33.50854779898489
 20
-69.63778306403786
 30
0.0
 10
34.53337135495684
 20
-68.61272860393992
 30
0.0
 10
34.53337135495684
 20
-67.34857825054205
 30
0.0
  0
SPLINE
  5
164
330
157
100
AcDbEntity
  8
Camada 1
 62
    18
420
        0
370
    15
100
AcDbSpline
210
0.0
220
0.0
230
1.0
 70
     9
 71
     3
 72
    17
 73
    13
 74
     0
 42
0.0000000001
 43
0.0000000001
 40
0.0
 40
0.0
 40
0.0
 40
0.0
 40
1.0
 40
1.0
 40
1.0
 40
2.0
 40
2.0
 40
2.0
 40
3.0
 40
3.0
 40
3.0
 40
4.0
 40
4.0
 40
4.0
 40
4.0
 10
34.09511177256637
 20
-67.34857825054205
 30
0.0
 10
34.09511177256637
 20
-66.32631950654815
 30
0.0
 10
33.26631160957894
 20
-65.49752289593247
 30
0.0
 10
32.24405286558472
 20
-65.49752289593247
 30
0.0
 10
31.22179056921906
 20
-65.49752289593247
 30
0.0
 10
30.39322841509952
 20
-66.32631950654815
 30
0.0
 10
30.39322841509952
 20
-67.34857825054205
 30
0.0
 10
30.39322841509952
 20
-68.37084054690738
 30
0.0
 10
31.22179056921906
 20
-69.19963715752434
 30
0.0
 10
32.24405286558472
 20
-69.19963715752434
 30
0.0
 10
33.26631160957894
 20
-69.19963715752434
 30
0.0
 10
34.09511177256637
 20
-68.37084054690738
 30
0.0
 10
34.09511177256637
 20
-67.34857825054205
 30
0.0
  0
SPLINE
  5
165
330
157
100
AcDbEntity
  8
Camada 1
 62
    18
420
        0
370
    15
100
AcDbSpline
210
0.0
220
0.0
230
1.0
 70
     8
 71
     3
 72
     8
 73
     4
 74
     0
 42
0.0000000001
 43
0.0000000001
 40
0.0
 40
0.0
 40
0.0
 40
0.0
 40
1.0
 40
1.0
 40
1.0
 40
1.0
 10
24.92039567268168
 20
-61.12174762465508
 30
0.0
 10
24.71389278477487
 20
-60.4531238772758
 30
0.0
 10
24.40076547649827
 20
-59.82198119800613
 30
0.0
 10
23.99312022876577
 20
-59.25323236579274
 30
0.0
  0
SPLINE
  5
166
330
157
100
AcDbEntity
  8
Camada 1
 62
    18
420
        0
370
    15
100
AcDbSpline
210
0.0
220
0.0
230
1.0
 70
     8
 71
     3
 72
     8
 73
     4
 74
     0
 42
0.0000000001
 43
0.0000000001
 40
0.0
 40
0.0
 40
0.0
 40
0.0
 40
1.0
 40
1.0
 40
1.0
 40
1.0
 10
25.12743141626228
 20
-62.01731460359582
 30
0.0
 10
25.07970530972651
 20
-61.71443233374472
 30
0.0
 10
25.01055840509585
 20
-61.41504204474444
 30
0.0
 10
24.92046316773337
 20
-61.12193590032628
 30
0.0
  0
SPLINE
  5
167
330
157
100
AcDbEntity
  8
Camada 1
 62
    18
420
        0
370
    15
100
AcDbSpline
210
0.0
220
0.0
230
1.0
 70
     8
 71
     3
 72
     8
 73
     4
 74
     0
 42
0.0000000001
 43
0.0000000001
 40
0.0
 40
0.0
 40
0.0
 40
0.0
 40
1.0
 40
1.0
 40
1.0
 40
1.0
 10
25.14426610319012
 20
-62.1311361279363
 30
0.0
 10
25.13914358397721
 20
-62.09318969920459
 30
0.0
 10
25.13332124764574
 20
-62.05524327047159
 30
0.0
 10
25.12726800718895
 20
-62.01729328936972
 30
0.0
  0
SPLINE
  5
168
330
157
100
AcDbEntity
  8
Camada 1
 62
    18
420
        0
370
    15
100
AcDbSpline
210
0.0
220
0.0
230
1.0
 70
     8
 71
     3
 72
     8
 73
     4
 74
     0
 42
0.0000000001
 43
0.0000000001
 40
0.0
 40
0.0
 40
0.0
 40
0.0
 40
1.0
 40
1.0
 40
1.0
 40
1.0
 10
25.58364468249566
 20
-62.68552272354939
 30
0.0
 10
25.56385442276287
 20
-62.59868856291271
 30
0.0
 10
25.50355647469175
 20
-62.52674949454947
 30
0.0
 10
25.42160682439977
 20
-62.49229504666857
 30
0.0
  0
SPLINE
  5
169
330
157
100
AcDbEntity
  8
Camada 1
 62
    18
420
        0
370
    15
100
AcDbSpline
210
0.0
220
0.0
230
1.0
 70
     8
 71
     3
 72
     8
 73
     4
 74
     0
 42
0.0000000001
 43
0.0000000001
 40
0.0
 40
0.0
 40
0.0
 40
0.0
 40
1.0
 40
1.0
 40
1.0
 40
1.0
 10
25.14426610319012
 20
-62.1311361279363
 30
0.0
 10
25.16661407015809
 20
-62.2920088082909
 30
0.0
 10
25.27207686515867
 20
-62.42913388744174
 30
0.0
 10
25.42153932934744
 20
-62.4922239992448
 30
0.0
  0
SPLINE
  5
16A
330
157
100
AcDbEntity
  8
Camada 1
 62
    18
420
        0
370
    15
100
AcDbSpline
210
0.0
220
0.0
230
1.0
 70
     8
 71
     3
 72
     8
 73
     4
 74
     0
 42
0.0000000001
 43
0.0000000001
 40
0.0
 40
0.0
 40
0.0
 40
0.0
 40
1.0
 40
1.0
 40
1.0
 40
1.0
 10
24.21792138051776
 20
-58.81489818360801
 30
0.0
 10
24.0651978396035
 20
-58.81489818360801
 30
0.0
 10
23.94110996261077
 20
-58.9387551564751
 30
0.0
 10
23.94110996261077
 20
-59.09170960151501
 30
0.0
  0
SPLINE
  5
16B
330
157
100
AcDbEntity
  8
Camada 1
 62
    18
420
        0
370
    15
100
AcDbSpline
210
0.0
220
0.0
230
1.0
 70
     8
 71
     3
 72
     8
 73
     4
 74
     0
 42
0.0000000001
 43
0.0000000001
 40
0.0
 40
0.0
 40
0.0
 40
0.0
 40
1.0
 40
1.0
 40
1.0
 40
1.0
 10
27.17009101413441
 20
-65.32132883876311
 30
0.0
 10
27.17009101413441
 20
-65.40700492640105
 30
0.0
 10
27.20408010139385
 20
-65.48895102432192
 30
0.0
 10
27.26460895359095
 20
-65.54948342888981
 30
0.0
  0
SPLINE
  5
16C
330
157
100
AcDbEntity
  8
Camada 1
 62
    18
420
        0
370
    15
100
AcDbSpline
210
0.0
220
0.0
230
1.0
 70
     8
 71
     3
 72
     8
 73
     4
 74
     0
 42
0.0000000001
 43
0.0000000001
 40
0.0
 40
0.0
 40
0.0
 40
0.0
 40
1.0
 40
1.0
 40
1.0
 40
1.0
 10
27.26460895359095
 20
-65.54948342888981
 30
0.0
 10
27.32513780578707
 20
-65.61001228108626
 30
0.0
 10
27.4073219125755
 20
-65.64400136834635
 30
0.0
 10
27.4929944478433
 20
-65.64400136834635
 30
0.0
  0
SPLINE
  5
16D
330
157
100
AcDbEntity
  8
Camada 1
 62
    18
420
        0
370
    15
100
AcDbSpline
210
0.0
220
0.0
230
1.0
 70
     8
 71
     3
 72
     8
 73
     4
 74
     0
 42
0.0000000001
 43
0.0000000001
 40
0.0
 40
0.0
 40
0.0
 40
0.0
 40
1.0
 40
1.0
 40
1.0
 40
1.0
 10
27.44701610791834
 20
-61.12174762465508
 30
0.0
 10
27.29405811050764
 20
-61.12174762465508
 30
0.0
 10
27.17020469001135
 20
-61.24560459752217
 30
0.0
 10
27.16997378588571
 20
-61.39855904256208
 30
0.0
  0
SPLINE
  5
16E
330
157
100
AcDbEntity
  8
Camada 1
 62
    18
420
        0
370
    15
100
AcDbSpline
210
0.0
220
0.0
230
1.0
 70
     8
 71
     3
 72
     8
 73
     4
 74
     0
 42
0.0000000001
 43
0.0000000001
 40
0.0
 40
0.0
 40
0.0
 40
0.0
 40
1.0
 40
1.0
 40
1.0
 40
1.0
 10
30.10187003729152
 20
-61.23368283990963
 30
0.0
 10
30.16007208637877
 20
-62.34720555137681
 30
0.0
 10
31.06173493423042
 20
-63.2307122302302
 30
0.0
 10
32.17642282343891
 20
-63.26586649522933
 30
0.0
  0
SPLINE
  5
16F
330
157
100
AcDbEntity
  8
Camada 1
 62
    18
420
        0
370
    15
100
AcDbSpline
210
0.0
220
0.0
230
1.0
 70
     8
 71
     3
 72
     8
 73
     4
 74
     0
 42
0.0000000001
 43
0.0000000001
 40
0.0
 40
0.0
 40
0.0
 40
0.0
 40
1.0
 40
1.0
 40
1.0
 40
1.0
 10
32.17642282343891
 20
-63.26586649522933
 30
0.0
 10
33.29087625615061
 20
-63.30125521672586
 30
0.0
 10
34.24678736398805
 20
-62.47664685170779
 30
0.0
 10
34.37506348657902
 20
-61.36894647657078
 30
0.0
  0
SPLINE
  5
170
330
157
100
AcDbEntity
  8
Camada 1
 62
    18
420
        0
370
    15
100
AcDbSpline
210
0.0
220
0.0
230
1.0
 70
     9
 71
     3
 72
    17
 73
    13
 74
     0
 42
0.0000000001
 43
0.0000000001
 40
0.0
 40
0.0
 40
0.0
 40
0.0
 40
1.0
 40
1.0
 40
1.0
 40
2.0
 40
2.0
 40
2.0
 40
3.0
 40
3.0
 40
3.0
 40
4.0
 40
4.0
 40
4.0
 40
4.0
 10
33.97423879147355
 20
-61.12174762465508
 30
0.0
 10
33.97423879147355
 20
-60.1663054298099
 30
0.0
 10
33.19968333610077
 20
-59.39151907031245
 30
0.0
 10
32.24400668475946
 20
-59.39151907031245
 30
0.0
 10
31.28879539404058
 20
-59.39151907031245
 30
0.0
 10
30.51423993866748
 20
-60.1663054298099
 30
0.0
 10
30.51423993866748
 20
-61.12174762465508
 30
0.0
 10
30.51423993866748
 20
-62.07719337187042
 30
0.0
 10
31.28879539404058
 20
-62.85197973136916
 30
0.0
 10
32.24400668475946
 20
-62.85197973136916
 30
0.0
 10
33.19968333610077
 20
-62.85197973136916
 30
0.0
 10
33.97423879147355
 20
-62.07719337187042
 30
0.0
 10
33.97423879147355
 20
-61.12174762465508
 30
0.0
  0
SPLINE
  5
171
330
157
100
AcDbEntity
  8
Camada 1
 62
    18
420
        0
370
    15
100
AcDbSpline
210
0.0
220
0.0
230
1.0
 70
     9
 71
     3
 72
    17
 73
    13
 74
     0
 42
0.0000000001
 43
0.0000000001
 40
0.0
 40
0.0
 40
0.0
 40
0.0
 40
1.0
 40
1.0
 40
1.0
 40
2.0
 40
2.0
 40
2.0
 40
3.0
 40
3.0
 40
3.0
 40
4.0
 40
4.0
 40
4.0
 40
4.0
 10
33.58188650158458
 20
-61.12174762465508
 30
0.0
 10
33.58188650158458
 20
-60.38304980377111
 30
0.0
 10
32.98310237121258
 20
-59.78403476927441
 30
0.0
 10
32.24417009383279
 20
-59.78403476927441
 30
0.0
 10
31.50523426408188
 20
-59.78403476927441
 30
0.0
 10
30.90645368608099
 20
-60.38304980377111
 30
0.0
 10
30.90645368608099
 20
-61.12174762465508
 30
0.0
 10
30.90645368608099
 20
-61.86044899790922
 30
0.0
 10
31.50523426408188
 20
-62.45946403240719
 30
0.0
 10
32.24417009383279
 20
-62.45946403240719
 30
0.0
 10
32.98310237121258
 20
-62.45946403240719
 30
0.0
 10
33.58188650158458
 20
-61.86044899790922
 30
0.0
 10
33.58188650158458
 20
-61.12174762465508
 30
0.0
  0
SPLINE
  5
172
330
157
100
AcDbEntity
  8
Camada 1
 62
    18
420
        0
370
    15
100
AcDbSpline
210
0.0
220
0.0
230
1.0
 70
     8
 71
     3
 72
     8
 73
     4
 74
     0
 42
0.0000000001
 43
0.0000000001
 40
0.0
 40
0.0
 40
0.0
 40
0.0
 40
1.0
 40
1.0
 40
1.0
 40
1.0
 10
36.25857330410788
 20
-72.65378525502865
 30
0.0
 10
36.47368713970666
 20
-72.65378525502865
 30
0.0
 10
36.66039976788069
 20
-72.50502260795908
 30
0.0
 10
36.70812587441613
 20
-72.29526219569821
 30
0.0
  0
SPLINE
  5
173
330
157
100
AcDbEntity
  8
Camada 1
 62
    18
420
        0
370
    15
100
AcDbSpline
210
0.0
220
0.0
230
1.0
 70
     8
 71
     3
 72
     8
 73
     4
 74
     0
 42
0.0000000001
 43
0.0000000001
 40
0.0
 40
0.0
 40
0.0
 40
0.0
 40
1.0
 40
1.0
 40
1.0
 40
1.0
 10
35.82894953600757
 20
-72.02639032733332
 30
0.0
 10
35.82661918052691
 20
-72.01405294229505
 30
0.0
 10
35.82336165617287
 20
-72.00171555725551
 30
0.0
 10
35.81963521882593
 20
-71.98960907634194
 30
0.0
  0
SPLINE
  5
174
330
157
100
AcDbEntity
  8
Camada 1
 62
    18
420
        0
370
    15
100
AcDbSpline
210
0.0
220
0.0
230
1.0
 70
     8
 71
     3
 72
     8
 73
     4
 74
     0
 42
0.0000000001
 43
0.0000000001
 40
0.0
 40
0.0
 40
0.0
 40
0.0
 40
1.0
 40
1.0
 40
1.0
 40
1.0
 10
35.83374523707352
 20
-72.06250018017548
 30
0.0
 10
35.83258005933319
 20
-72.05016279513721
 30
0.0
 10
35.83071861684544
 20
-72.03782541009767
 30
0.0
 10
35.82815735723914
 20
-72.02548447268795
 30
0.0
  0
SPLINE
  5
175
330
157
100
AcDbEntity
  8
Camada 1
 62
    18
420
        0
370
    15
100
AcDbSpline
210
0.0
220
0.0
230
1.0
 70
     8
 71
     3
 72
     8
 73
     4
 74
     0
 42
0.0000000001
 43
0.0000000001
 40
0.0
 40
0.0
 40
0.0
 40
0.0
 40
1.0
 40
1.0
 40
1.0
 40
1.0
 10
35.81966008542412
 20
-71.98965525716686
 30
0.0
 10
35.81709882581782
 20
-71.98267129546652
 30
0.0
 10
35.81453756621121
 20
-71.97568733376617
 30
0.0
 10
35.81127648948636
 20
-71.96893782856196
 30
0.0
  0
SPLINE
  5
176
330
157
100
AcDbEntity
  8
Camada 1
 62
    18
420
        0
370
    15
100
AcDbSpline
210
0.0
220
0.0
230
1.0
 70
     8
 71
     3
 72
     8
 73
     4
 74
     0
 42
0.0000000001
 43
0.0000000001
 40
0.0
 40
0.0
 40
0.0
 40
0.0
 40
1.0
 40
1.0
 40
1.0
 40
1.0
 10
34.75270185512253
 20
-71.59874522996976
 30
0.0
 10
34.61301551636605
 20
-71.57057847904114
 30
0.0
 10
34.47449435534956
 20
-71.65298993758411
 30
0.0
 10
34.43282148927027
 20
-71.78918429549074
 30
0.0
  0
SPLINE
  5
177
330
157
100
AcDbEntity
  8
Camada 1
 62
    18
420
        0
370
    15
100
AcDbSpline
210
0.0
220
0.0
230
1.0
 70
     8
 71
     3
 72
     8
 73
     4
 74
     0
 42
0.0000000001
 43
0.0000000001
 40
0.0
 40
0.0
 40
0.0
 40
0.0
 40
1.0
 40
1.0
 40
1.0
 40
1.0
 10
35.87907349307663
 20
-72.56825126223695
 30
0.0
 10
35.8825654739268
 20
-72.61644272939513
 30
0.0
 10
35.92260780164367
 20
-72.65369289337879
 30
0.0
 10
35.97103017292622
 20
-72.6539273498749
 30
0.0
  0
SPLINE
  5
178
330
157
100
AcDbEntity
  8
Camada 1
 62
    18
420
        0
370
    15
100
AcDbSpline
210
0.0
220
0.0
230
1.0
 70
     8
 71
     3
 72
     8
 73
     4
 74
     0
 42
0.0000000001
 43
0.0000000001
 40
0.0
 40
0.0
 40
0.0
 40
0.0
 40
1.0
 40
1.0
 40
1.0
 40
1.0
 10
36.99541323487428
 20
-65.64400136834635
 30
0.0
 10
37.08108577014176
 20
-65.64400136834635
 30
0.0
 10
37.16326632455938
 20
-65.61001228108626
 30
0.0
 10
37.22379517675615
 20
-65.54948342888981
 30
0.0
  0
SPLINE
  5
179
330
157
100
AcDbEntity
  8
Camada 1
 62
    18
420
        0
370
    15
100
AcDbSpline
210
0.0
220
0.0
230
1.0
 70
     8
 71
     3
 72
     8
 73
     4
 74
     0
 42
0.0000000001
 43
0.0000000001
 40
0.0
 40
0.0
 40
0.0
 40
0.0
 40
1.0
 40
1.0
 40
1.0
 40
1.0
 10
37.22379517675615
 20
-65.54948342888981
 30
0.0
 10
37.28432758132341
 20
-65.48918548081805
 30
0.0
 10
37.31831666858349
 20
-65.40700492640105
 30
0.0
 10
37.31831666858349
 20
-65.32133239113327
 30
0.0
  0
SPLINE
  5
17A
330
157
100
AcDbEntity
  8
Camada 1
 62
    18
420
        0
370
    15
100
AcDbSpline
210
0.0
220
0.0
230
1.0
 70
     8
 71
     3
 72
     8
 73
     4
 74
     0
 42
0.0000000001
 43
0.0000000001
 40
0.0
 40
0.0
 40
0.0
 40
0.0
 40
1.0
 40
1.0
 40
1.0
 40
1.0
 10
35.92589019259526
 20
-66.32396428446866
 30
0.0
 10
35.92589019259526
 20
-66.33607076538223
 30
0.0
 10
35.92751717858656
 20
-66.34817724629582
 30
0.0
 10
35.93054379881496
 20
-66.35981836658729
 30
0.0
  0
SPLINE
  5
17B
330
157
100
AcDbEntity
  8
Camada 1
 62
    18
420
        0
370
    15
100
AcDbSpline
210
0.0
220
0.0
230
1.0
 70
     8
 71
     3
 72
     8
 73
     4
 74
     0
 42
0.0000000001
 43
0.0000000001
 40
0.0
 40
0.0
 40
0.0
 40
0.0
 40
1.0
 40
1.0
 40
1.0
 40
1.0
 10
39.06675467749288
 20
-62.49224531347218
 30
0.0
 10
39.21621714168228
 20
-62.42915520166912
 30
0.0
 10
39.32167638431143
 20
-62.29203367488974
 30
0.0
 10
39.34402790365052
 20
-62.13116099453385
 30
0.0
  0
SPLINE
  5
17C
330
157
100
AcDbEntity
  8
Camada 1
 62
    18
420
        0
370
    15
100
AcDbSpline
210
0.0
220
0.0
230
1.0
 70
     8
 71
     3
 72
     8
 73
     4
 74
     0
 42
0.0000000001
 43
0.0000000001
 40
0.0
 40
0.0
 40
0.0
 40
0.0
 40
1.0
 40
1.0
 40
1.0
 40
1.0
 10
39.34407408447545
 20
-62.1311361279363
 30
0.0
 10
39.34430498860142
 20
-62.12974004607
 30
0.0
 10
39.34453944509755
 20
-62.12811306007903
 30
0.0
 10
39.34477034922288
 20
-62.12648252171661
 30
0.0
  0
SPLINE
  5
17D
330
157
100
AcDbEntity
  8
Camada 1
 62
    18
420
        0
370
    15
100
AcDbSpline
210
0.0
220
0.0
230
1.0
 70
     8
 71
     3
 72
     8
 73
     4
 74
     0
 42
0.0000000001
 43
0.0000000001
 40
0.0
 40
0.0
 40
0.0
 40
0.0
 40
1.0
 40
1.0
 40
1.0
 40
1.0
 10
37.31822430693329
 20
-61.39848799513831
 30
0.0
 10
37.31798985043717
 20
-61.2455335500984
 30
0.0
 10
37.19413642994056
 20
-61.12168012960276
 30
0.0
 10
37.04118198490097
 20
-61.12168012960276
 30
0.0
  0
SPLINE
  5
17E
330
157
100
AcDbEntity
  8
Camada 1
 62
    18
420
        0
370
    15
100
AcDbSpline
210
0.0
220
0.0
230
1.0
 70
     8
 71
     3
 72
     8
 73
     4
 74
     0
 42
0.0000000001
 43
0.0000000001
 40
0.0
 40
0.0
 40
0.0
 40
0.0
 40
1.0
 40
1.0
 40
1.0
 40
1.0
 10
40.54718049185842
 20
-59.09163855409124
 30
0.0
 10
40.54718049185842
 20
-58.93891856554875
 30
0.0
 10
40.42309261486568
 20
-58.81483068855569
 30
0.0
 10
40.27036907395174
 20
-58.81483068855569
 30
0.0
  0
SPLINE
  5
17F
330
157
100
AcDbEntity
  8
Camada 1
 62
    18
420
        0
370
    15
100
AcDbSpline
210
0.0
220
0.0
230
1.0
 70
     8
 71
     3
 72
     8
 73
     4
 74
     0
 42
0.0000000001
 43
0.0000000001
 40
0.0
 40
0.0
 40
0.0
 40
0.0
 40
1.0
 40
1.0
 40
1.0
 40
1.0
 10
39.06675467749288
 20
-62.49224531347218
 30
0.0
 10
38.98480502720089
 20
-62.5269342178505
 30
0.0
 10
38.92450707912977
 20
-62.59887328621246
 30
0.0
 10
38.90471681939698
 20
-62.68547654272445
 30
0.0
  0
SPLINE
  5
180
330
157
100
AcDbEntity
  8
Camada 1
 62
    18
420
        0
370
    15
100
AcDbSpline
210
0.0
220
0.0
230
1.0
 70
     8
 71
     3
 72
     8
 73
     4
 74
     0
 42
0.0000000001
 43
0.0000000001
 40
0.0
 40
0.0
 40
0.0
 40
0.0
 40
1.0
 40
1.0
 40
1.0
 40
1.0
 10
40.49519509230257
 20
-59.25313645177141
 30
0.0
 10
40.08754629219799
 20
-59.82211974048094
 30
0.0
 10
39.77441898392139
 20
-60.45303151562592
 30
0.0
 10
39.56791964838571
 20
-61.12165526300521
 30
0.0
  0
SPLINE
  5
181
330
157
100
AcDbEntity
  8
Camada 1
 62
    18
420
        0
370
    15
100
AcDbSpline
210
0.0
220
0.0
230
1.0
 70
     8
 71
     3
 72
     8
 73
     4
 74
     0
 42
0.0000000001
 43
0.0000000001
 40
0.0
 40
0.0
 40
0.0
 40
0.0
 40
1.0
 40
1.0
 40
1.0
 40
1.0
 10
39.56794451498421
 20
-61.12174762465508
 30
0.0
 10
39.48040698485754
 20
-61.40647372550661
 30
0.0
 10
39.41265971446334
 20
-61.69655324969607
 30
0.0
 10
39.36516806442435
 20
-61.99082101948439
 30
0.0
  0
SPLINE
  5
182
330
157
100
AcDbEntity
  8
Camada 1
 62
    18
420
        0
370
    15
100
AcDbSpline
210
0.0
220
0.0
230
1.0
 70
     8
 71
     3
 72
     8
 73
     4
 74
     0
 42
0.0000000001
 43
0.0000000001
 40
0.0
 40
0.0
 40
0.0
 40
0.0
 40
1.0
 40
1.0
 40
1.0
 40
1.0
 10
39.36512188359909
 20
-61.99070379123568
 30
0.0
 10
39.36372224936263
 20
-61.99815666592957
 30
0.0
 10
39.36279152811812
 20
-62.00583689237799
 30
0.0
 10
39.36162635037779
 20
-62.01328621470042
 30
0.0
  0
SPLINE
  5
183
330
157
100
AcDbEntity
  8
Camada 1
 62
    18
420
        0
370
    15
100
AcDbSpline
210
0.0
220
0.0
230
1.0
 70
     8
 71
     3
 72
     8
 73
     4
 74
     0
 42
0.0000000001
 43
0.0000000001
 40
0.0
 40
0.0
 40
0.0
 40
0.0
 40
1.0
 40
1.0
 40
1.0
 40
1.0
 10
39.36148780790265
 20
-62.0133359478968
 30
0.0
 10
39.35543456744587
 20
-62.05105147250255
 30
0.0
 10
39.34984668761086
 20
-62.08876699710958
 30
0.0
 10
39.34472416839794
 20
-62.12648252171661
 30
0.0
  0
ENDBLK
  5
15A
330
157
100
AcDbEntity
  8
0
100
AcDbBlockEnd
  0
BLOCK
  5
197
330
195
100
AcDbEntity
  8
0
100
AcDbBlockBegin
  2
Block_5
 70
     0
 10
0.0
 20
0.0
 30
0.0
  3
Block_5
  1

  0
SPLINE
  5
199
330
195
100
AcDbEntity
  8
Camada 1
 62
    18
420
        0
370
    15
100
AcDbSpline
210
0.0
220
0.0
230
1.0
 70
     8
 71
     3
 72
    14
 73
    10
 74
     0
 42
0.0000000001
 43
0.0000000001
 40
0.0
 40
0.0
 40
0.0
 40
0.0
 40
1.0
 40
1.0
 40
1.0
 40
2.0
 40
2.0
 40
2.0
 40
3.0
 40
3.0
 40
3.0
 40
3.0
 10
32.24505463425173
 20
-64.57348010977049
 30
0.0
 10
31.30194627207497
 20
-64.57976780672534
 30
0.0
 10
31.07123397471245
 20
-64.60677293228378
 30
0.0
 10
30.67173431404982
 20
-64.35860073066912
 30
0.0
 10
30.51039982544328
 20
-64.25849135900711
 30
0.0
 10
30.32647936100152
 20
-64.03755873944831
 30
0.0
 10
29.95491909951235
 20
-64.03755873944831
 30
0.0
 10
29.55588479947181
 20
-64.03755873944831
 30
0.0
 10
29.64994093067737
 20
-64.62516355777949
 30
0.0
 10
29.64994093067737
 20
-64.62516355777949
 30
0.0
  0
SPLINE
  5
19A
330
195
100
AcDbEntity
  8
Camada 1
 62
    18
420
        0
370
    15
100
AcDbSpline
210
0.0
220
0.0
230
1.0
 70
     8
 71
     3
 72
    14
 73
    10
 74
     0
 42
0.0000000001
 43
0.0000000001
 40
0.0
 40
0.0
 40
0.0
 40
0.0
 40
1.0
 40
1.0
 40
1.0
 40
2.0
 40
2.0
 40
2.0
 40
3.0
 40
3.0
 40
3.0
 40
3.0
 10
32.24412391300785
 20
-64.57348010977049
 30
0.0
 10
33.18722872281316
 20
-64.57976780672534
 30
0.0
 10
33.41794102017568
 20
-64.60677293228378
 30
0.0
 10
33.81744068083863
 20
-64.35860073066912
 30
0.0
 10
33.97877516944485
 20
-64.25849135900711
 30
0.0
 10
34.16269563388694
 20
-64.03755873944831
 30
0.0
 10
34.53425589537578
 20
-64.03755873944831
 30
0.0
 10
34.93329019541631
 20
-64.03755873944831
 30
0.0
 10
34.83923406421076
 20
-64.62516355777949
 30
0.0
 10
34.83923406421076
 20
-64.62516355777949
 30
0.0
  0
ENDBLK
  5
198
330
195
100
AcDbEntity
  8
0
100
AcDbBlockEnd
  0
BLOCK
  5
19D
330
19B
100
AcDbEntity
  8
0
100
AcDbBlockBegin
  2
Block_6
 70
     0
 10
0.0
 20
0.0
 30
0.0
  3
Block_6
  1

  0
LWPOLYLINE
  5
19F
330
19B
100
AcDbEntity
  8
Camada 1
 62
    18
420
        0
370
    15
100
AcDbPolyline
 90
       34
 70
     0
 43
0.0
 10
58.95306944150892
 20
-36.60752613385693
 10
58.96017254952848
 20
-36.95558926569111
 10
58.98669178292162
 20
-37.36001118795304
 10
59.03238868537429
 20
-37.76253629856212
 10
59.09750171320183
 20
-38.16269491082316
 10
59.18156117971287
 20
-38.55906351275331
 10
59.28479108933003
 20
-38.95117241765705
 10
59.40649775093547
 20
-39.33759811355056
 10
59.5466739385758
 20
-39.71786368779003
 10
59.70484273961264
 20
-40.09079492363777
 10
59.88077292366996
 20
-40.45590768250133
 10
60.07421880847772
 20
-40.81202413466793
 10
60.28424102064424
 20
-41.15867098046755
 10
60.51083956017079
 20
-41.49466316423912
 10
60.75306782771739
 20
-41.81928531701706
 10
61.01068014101527
 20
-42.13207497805477
 10
61.28321403931368
 20
-42.43207470909015
 10
61.56948446695472
 20
-42.71857636710466
 10
61.86948419798882
 20
-42.99111026540435
 10
62.18203540270511
 20
-43.24896464799684
 10
62.50666116845752
 20
-43.49142775889169
 10
62.8424148959099
 20
-43.71826114176584
 10
63.18881967241235
 20
-43.92852181025411
 10
63.5449361245783
 20
-44.12220976435841
 10
63.90981765306649
 20
-44.29813633544095
 10
64.28274166296593
 20
-44.45677843614649
 10
64.66277600683451
 20
-44.59718946713635
 10
65.04919808975484
 20
-44.71913097208779
 10
65.44130699465696
 20
-44.82260295100148
 10
65.83767920956255
 20
-44.90689726086045
 10
66.23759936549864
 20
-44.97224874501037
 10
66.64035931945725
 20
-45.01818410378351
 10
67.04454278539678
 20
-45.04470333717955
 10
67.39734975285141
 20
-45.05227974486749
  0
LWPOLYLINE
  5
1A0
330
19B
100
AcDbEntity
  8
Camada 1
 62
    18
420
        0
370
    15
100
AcDbPolyline
 90
       34
 70
     0
 43
0.0
 10
67.39746536803814
 20
-28.16286646018502
 10
67.04465840058351
 20
-28.1702044115509
 10
66.64023647831966
 20
-28.196962101269
 10
66.23771498068537
 20
-28.24289746004214
 10
65.83755636842369
 20
-28.30824894419271
 10
65.44118415352196
 20
-28.39253964107657
 10
65.04931370493771
 20
-28.49577677664265
 10
64.66289162201867
 20
-28.61795673791617
 10
64.28261882183091
 20
-28.75836776890603
 10
63.90969481193275
 20
-28.91677141328982
 10
63.54481328344071
 20
-29.09293644069475
 10
63.18893528759652
 20
-29.28638593847601
 10
62.84253051109406
 20
-29.49688145031253
 10
62.5065383273225
 20
-29.72347998983908
 10
62.18215101789184
 20
-29.96594310073392
 10
61.8693613568551
 20
-30.22379748332706
 10
61.56960008214145
 20
-30.49633138162675
 10
61.28309119817995
 20
-30.783071495963
 10
61.01079575619944
 20
-31.08307122699839
 10
60.75318344290412
 20
-31.39562243171403
 10
60.51071671903321
 20
-31.72048304081404
 10
60.28411817950923
 20
-32.05647522458561
 10
60.07409596734014
 20
-32.40288361406348
 10
59.88088131290583
 20
-32.75900006622944
 10
59.70495835479937
 20
-33.124112825093
 10
59.54678955376253
 20
-33.49727890428834
 10
59.40661336611963
 20
-33.87730963518085
 10
59.2846754741433
 20
-34.26397378739643
 10
59.18166956895003
 20
-34.65584423597745
 10
59.09761732838855
 20
-35.05245129423
 10
59.03250430056231
 20
-35.45237145016865
 10
58.98656894178788
 20
-35.85513501709949
 10
58.96028093876563
 20
-36.25955332638727
 10
58.95317783074607
 20
-36.60762007119591
  0
LINE
  5
1A1
330
19B
100
AcDbEntity
  8
Camada 1
 62
    18
420
        0
370
    15
100
AcDbLine
 10
85.22680844084916
 20
-28.16286646018502
 30
0.0
 11
67.39751594967874
 21
-28.16286646018502
 31
0.0
  0
LINE
  5
1A2
330
19B
100
AcDbEntity
  8
Camada 1
 62
    18
420
        0
370
    15
100
AcDbLine
 10
67.58971174528247
 20
-30.37993217967625
 30
0.0
 11
70.68418834082142
 21
-30.3846651763717
 31
0.0
  0
LINE
  5
1A3
330
19B
100
AcDbEntity
  8
Camada 1
 62
    18
420
        0
370
    15
100
AcDbLine
 10
71.34705356053385
 20
-34.61234763504423
 30
0.0
 11
71.42921260241791
 21
-34.61092412306074
 31
0.0
  0
LINE
  5
1A4
330
19B
100
AcDbEntity
  8
Camada 1
 62
    18
420
        0
370
    15
100
AcDbLine
 10
71.42924150621363
 20
-34.61111922368763
 30
0.0
 11
71.50382052743592
 21
-34.61040746769589
 31
0.0
  0
LINE
  5
1A5
330
19B
100
AcDbEntity
  8
Camada 1
 62
    18
420
        0
370
    15
100
AcDbLine
 10
71.50389278692649
 20
-34.61033520820466
 30
0.0
 11
71.57255375579096
 21
-34.61009675188292
 31
0.0
  0
LINE
  5
1A6
330
19B
100
AcDbEntity
  8
Camada 1
 62
    18
420
        0
370
    15
100
AcDbLine
 10
71.34636709536433
 20
-34.61005339618741
 30
0.0
 11
72.97327509553416
 21
-34.61005339618741
 31
0.0
  0
LWPOLYLINE
  5
1A7
330
19B
100
AcDbEntity
  8
Camada 1
 62
    18
420
        0
370
    15
100
AcDbPolyline
 90
       20
 70
     0
 43
0.0
 10
70.06664427420833
 20
-35.07224678193748
 10
70.11423437533713
 20
-35.03294123151327
 10
70.18005554618162
 20
-34.9832158624086
 10
70.24730022901088
 20
-34.93728050363547
 10
70.31431368146797
 20
-34.89584329821081
 10
70.38226650731418
 20
-34.85795764679529
 10
70.45164284514389
 20
-34.82291540637196
 10
70.52101918297103
 20
-34.79095142028842
 10
70.59016429042983
 20
-34.76230053189227
 10
70.65954062825955
 20
-34.73672789783527
 10
70.73009479580012
 20
-34.71352176212631
 10
70.80113310193507
 20
-34.69245089439257
 10
70.8719257257974
 20
-34.67398136835449
 10
70.94201743259235
 20
-34.65835525330859
 10
71.01115531410158
 20
-34.64509563661074
 10
71.08006196523479
 20
-34.63420251826093
 10
71.14872293409925
 20
-34.62544105491156
 10
71.21596761692851
 20
-34.61881124656296
 10
71.28108787070562
 20
-34.61454793656111
 10
71.34690904155012
 20
-34.61241989453545
  0
LINE
  5
1A8
330
19B
100
AcDbEntity
  8
Camada 1
 62
    18
420
        0
370
    15
100
AcDbLine
 10
72.97325341768544
 20
-38.60502777532314
 30
0.0
 11
71.3463381915686
 21
-38.60502777532314
 31
0.0
  0
LINE
  5
1A9
330
19B
100
AcDbEntity
  8
Camada 1
 62
    18
420
        0
370
    15
100
AcDbLine
 10
71.53898922196713
 20
-38.60493022500937
 30
0.0
 11
71.46724277281652
 21
-38.60445331236524
 31
0.0
  0
LWPOLYLINE
  5
1AA
330
19B
100
AcDbEntity
  8
Camada 1
 62
    18
420
        0
370
    15
100
AcDbPolyline
 90
        3
 70
     0
 43
0.0
 10
71.46728612851138
 20
-38.60440995667069
 10
71.38962162700038
 20
-38.60345974435624
 10
71.34723420926288
 20
-38.60275160133928
  0
LWPOLYLINE
  5
1AB
330
19B
100
AcDbEntity
  8
Camada 1
 62
    18
420
        0
370
    15
100
AcDbPolyline
 90
       20
 70
     0
 43
0.0
 10
71.34705356053385
 20
-38.60272992349185
 10
71.28098670741931
 20
-38.60035981216967
 10
71.21587367958922
 20
-38.59609650216814
 10
71.14886745308298
 20
-38.5897051501416
 10
71.08019925827024
 20
-38.58094368679223
 10
71.01106137676229
 20
-38.57005418141657
 10
70.94191626930733
 20
-38.55679456471872
 10
70.87183178845939
 20
-38.54092999335043
 10
70.80127039496794
 20
-38.52269531066026
 10
70.73000085846212
 20
-38.50162444292621
 10
70.6594394649694
 20
-38.47818346387061
 10
70.59006312713968
 20
-38.45261082981328
 10
70.52092524563173
 20
-38.42395994141745
 10
70.45178736412762
 20
-38.39223079868119
 10
70.38241102629793
 20
-38.35718855825787
 10
70.31445097449957
 20
-38.31930290684267
 10
70.24720629167159
 20
-38.2778657014177
 10
70.17996160884361
 20
-38.23193034264456
 10
70.11414043799783
 20
-38.18220858651404
 10
70.06678156723992
 20
-38.14290303608982
  0
LINE
  5
1AC
330
19B
100
AcDbEntity
  8
Camada 1
 62
    18
420
        0
370
    15
100
AcDbLine
 10
73.07554395391346
 20
-34.71125281409171
 30
0.0
 11
73.07530549759171
 21
-34.71077590144757
 31
0.0
  0
LINE
  5
1AD
330
19B
100
AcDbEntity
  8
Camada 1
 62
    18
420
        0
370
    15
100
AcDbLine
 10
73.65634406907855
 20
-35.29299591562329
 30
0.0
 11
73.65634406907855
 21
-37.92196241475128
 31
0.0
  0
LINE
  5
1AE
330
19B
100
AcDbEntity
  8
Camada 1
 62
    18
420
        0
370
    15
100
AcDbLine
 10
70.68418834082142
 20
-42.83050631950302
 30
0.0
 11
67.58971174528247
 21
-42.83523931619912
 31
0.0
  0
INSERT
  5
1B0
330
19B
100
AcDbEntity
  8
Camada 1
100
AcDbBlockReference
  2
Block_7
 10
0.0
 20
0.0
 30
0.0
  0
LINE
  5
1C7
330
19B
100
AcDbEntity
  8
Camada 1
 62
    18
420
        0
370
    15
100
AcDbLine
 10
80.30095838787234
 20
-32.57287045494076
 30
0.0
 11
80.29621816522924
 21
-32.57287045494076
 31
0.0
  0
LINE
  5
1C8
330
19B
100
AcDbEntity
  8
Camada 1
 62
    18
420
        0
370
    15
100
AcDbLine
 10
80.30095838787234
 20
-40.07924063094065
 30
0.0
 11
80.29621816522924
 21
-40.07924063094065
 31
0.0
  0
LWPOLYLINE
  5
1C9
330
19B
100
AcDbEntity
  8
Camada 1
 62
    18
420
        0
370
    15
100
AcDbPolyline
 90
       46
 70
     0
 43
0.0
 10
77.08906011857753
 20
-36.60752613385693
 10
77.08431989593444
 20
-36.8454874784285
 10
77.07011367989661
 20
-37.08392573564421
 10
77.0464342445183
 20
-37.32212553653784
 10
77.04099310480396
 20
-37.36711429597196
 10
77.00641693810169
 20
-37.6036557415345
 10
76.9623820039581
 20
-37.83830760139315
 10
76.90910508084236
 20
-38.07106264959927
 10
76.84659339471048
 20
-38.30215934247366
 10
76.77508540187905
 20
-38.53065108067891
 10
76.69434264603019
 20
-38.75677632053547
 10
76.67942828697667
 20
-38.79560857129033
 10
76.58850416876781
 20
-39.01770534449361
 10
76.48882220018887
 20
-39.23601933331493
 10
76.38013669895951
 20
-39.45101299850025
 10
76.26293180367927
 20
-39.66198542298058
 10
76.13743874471772
 20
-39.86892938080795
 10
76.00365752207487
 20
-40.0711403419389
 10
75.98542645235918
 20
-40.09742473198669
 10
75.84288737934366
 20
-40.29347557146425
 10
75.69252982934336
 20
-40.48408527122813
 10
75.53483071500171
 20
-40.66877330566003
 10
75.36979726227092
 20
-40.84754328773475
 10
75.35251279189137
 20
-40.86530105778173
 10
75.18013777481925
 20
-41.03696793183817
 10
75.00089810604933
 20
-41.20176654122265
 10
74.81454810331027
 20
-41.36040864192884
 10
74.62133344887596
 20
-41.51242093428546
 10
74.42196951171421
 20
-41.65733011862412
 10
74.21644183991947
 20
-41.7948977386221
 10
74.00547302841296
 20
-41.92512740725326
 10
73.9926830984116
 20
-41.93270381494121
 10
73.77674283388853
 20
-42.05393717687569
 10
73.55630080304027
 20
-42.16687876215571
 10
73.33230360521065
 20
-42.27106249706114
 10
73.10523537899019
 20
-42.3664847686172
 10
72.8743735294589
 20
-42.45291073347565
 10
72.63948682625489
 20
-42.53104853465472
 10
72.40057526936792
 20
-42.60065971583138
 10
72.15858545814436
 20
-42.66127459031172
 10
71.91352461852993
 20
-42.71289315809443
 10
71.66656335428467
 20
-42.75527696285844
 10
71.42978345240071
 20
-42.78677126224773
 10
71.18092176353233
 20
-42.81092038432029
 10
70.93206730061094
 20
-42.82536505667988
 10
70.6841594370257
 20
-42.83057496602011
  0
LWPOLYLINE
  5
1CA
330
19B
100
AcDbEntity
  8
Camada 1
 62
    18
420
        0
370
    15
100
AcDbPolyline
 90
       46
 70
     0
 43
0.0
 10
67.58971174528247
 20
-42.83512370101303
 10
67.34156542537933
 20
-42.83086039101151
 10
67.09294219283269
 20
-42.81688901832191
 10
66.84384927358571
 20
-42.79368649558774
 10
66.60115131934519
 20
-42.76171889652941
 10
66.35395159878076
 20
-42.7198083914354
 10
66.10888353321549
 20
-42.66890157964378
 10
65.86642403529544
 20
-42.60876000483345
 10
65.62727402208799
 20
-42.53985696667373
 10
65.39191763218621
 20
-42.46195762181705
 10
65.16081732633832
 20
-42.37600495662795
 10
64.93327218747049
 20
-42.28105598474125
 10
64.70904375926997
 20
-42.17734554950582
 10
64.48836327209997
 20
-42.06487726389516
 10
64.27194609492956
 20
-41.94412081460512
 10
64.25395348153819
 20
-41.93346253960227
 10
64.04274621370736
 20
-41.8039446269632
 10
63.83698008559344
 20
-41.66637700696488
 10
63.63737769210609
 20
-41.52170266597447
 10
63.44393180729833
 20
-41.36992882993928
 10
63.25734334824137
 20
-41.21152157258102
 10
63.0778652231497
 20
-41.04696141951829
 10
62.90502051938108
 20
-40.8757678451312
 10
62.73903324135944
 20
-40.69770961904822
 10
62.720563715322
 20
-40.6771084380097
 10
62.56239491428388
 20
-40.49242040357747
 10
62.41204459023443
 20
-40.30181431678807
 10
62.26926706089717
 20
-40.1059983206581
 10
62.24913556655064
 20
-40.07734743226196
 10
62.1151231135369
 20
-39.87513647113067
 10
61.9893915982536
 20
-39.66842735665155
 10
61.8719482466516
 20
-39.45722008882329
 10
61.76303151505136
 20
-39.24222281066415
 10
61.6633423205177
 20
-39.0239124348173
 10
61.5719485156162
 20
-38.80181204863955
 10
61.55608033127314
 20
-38.76013999986729
 10
61.47533757542427
 20
-38.53425321633217
 10
61.4033598959002
 20
-38.30552302180549
 10
61.34084820976703
 20
-38.07442632893046
 10
61.28757128665514
 20
-37.84167128072434
 10
61.2435363525077
 20
-37.60702303384016
 10
61.20872895543069
 20
-37.37024313195554
 10
61.20280367712586
 20
-37.3224109615286
 10
61.17913146769584
 20
-37.0842111606356
 10
61.16492525165671
 20
-36.84553806007293
 10
61.16042348533665
 20
-36.60757310252658
  0
LWPOLYLINE
  5
1CB
330
19B
100
AcDbEntity
  8
Camada 1
 62
    18
420
        0
370
    15
100
AcDbPolyline
 90
       46
 70
     0
 43
0.0
 10
61.16030787014864
 20
-36.60752613385693
 10
61.16504086684472
 20
-36.36932271998883
 10
61.17924708288256
 20
-36.1308880757479
 10
61.20292651825959
 20
-35.8924498185322
 10
61.20860611429567
 20
-35.84485610442798
 10
61.24365196769572
 20
-35.60807620254335
 10
61.28745567146841
 20
-35.37342795565918
 10
61.34096382495504
 20
-35.14067290745337
 10
61.40347551108693
 20
-34.90957621457802
 10
61.4752219602401
 20
-34.68084602005102
 10
61.55596471608897
 20
-34.45472078019446
 10
61.57182567448119
 20
-34.41328357476918
 10
61.66322670533483
 20
-34.19118680156589
 10
61.76314713023809
 20
-33.97287281274522
 10
61.87206386183833
 20
-33.75787914756022
 10
61.98950721344033
 20
-33.54643342341022
 10
62.11523872872362
 20
-33.33972430893044
 10
62.24925840768822
 20
-33.13775180412155
 10
62.2691442197583
 20
-33.10886607237716
 10
62.4119217490994
 20
-32.91304646327306
 10
62.56251775542146
 20
-32.72267521983156
 10
62.72044810013398
 20
-32.53798718539903
 10
62.73891762617143
 20
-32.5171511610129
 10
62.90513613456525
 20
-32.33933139125167
 10
63.07774960796168
 20
-32.16790297351762
 10
63.25722773305336
 20
-32.0033392074801
 10
63.44404742248634
 20
-31.84493195012152
 10
63.63749330729411
 20
-31.69315811408729
 10
63.83710292672845
 20
-31.54848377309591
 10
64.04262337257363
 20
-31.41115460942063
 10
64.25383064040061
 20
-31.28139824045884
 10
64.27206893606714
 20
-31.27074357843078
 10
64.4884861132337
 20
-31.1499835161666
 10
64.70915937445287
 20
-31.0375152305553
 10
64.93339502860807
 20
-30.93380479531987
 10
65.16094016747205
 20
-30.83909427975555
 10
65.39179479105247
 20
-30.75290315824471
 10
65.62715840690382
 20
-30.67524226970978
 10
65.86630842010871
 20
-30.60610077522767
 10
66.10876791802876
 20
-30.54595920041733
 10
66.35383598359403
 20
-30.49505238862636
 10
66.60103570416104
 20
-30.45314188353171
 10
66.84373365840284
 20
-30.42117428447338
 10
67.09258812132421
 20
-30.39820660508681
 10
67.34168104056734
 20
-30.384238845372
 10
67.58958890414873
 20
-30.37997553537112
  0
LWPOLYLINE
  5
1CC
330
19B
100
AcDbEntity
  8
Camada 1
 62
    18
420
        0
370
    15
100
AcDbPolyline
 90
       46
 70
     0
 43
0.0
 10
70.68418834082142
 20
-30.38454956118562
 10
70.93209620440666
 20
-30.38975585755105
 10
71.18095066732805
 20
-30.40420052991065
 10
71.42980513024942
 20
-30.42835326495831
 10
71.66705471882989
 20
-30.46007879471947
 10
71.91401598307129
 20
-30.50246259948347
 10
72.15885281826182
 20
-30.55408116726683
 10
72.40107385986013
 20
-30.61469604174652
 10
72.63998541674711
 20
-30.68407599255101
 10
72.87487211995112
 20
-30.76221018075529
 10
73.1054955131568
 20
-30.84887460193613
 10
73.33257096532813
 20
-30.9440584171698
 10
73.55679939353248
 20
-31.04847699542283
 10
73.77676451173726
 20
-31.16118735032938
 10
73.99271200220731
 20
-31.2826555556118
 10
74.00573316258342
 20
-31.29023095802335
 10
74.21647074371904
 20
-31.42022317560947
 10
74.42222964588211
 20
-31.55779079560714
 10
74.62160080899727
 20
-31.70269997994484
 10
74.81480823748073
 20
-31.85495072862384
 10
75.00115824021979
 20
-32.01335798598243
 10
75.18039790898972
 20
-32.17839143871515
 10
75.35277292606183
 20
-32.3498198564492
 10
75.37005739643753
 20
-32.36781608281794
 10
75.53485961879873
 20
-32.54658606489265
 10
75.69278996351382
 20
-32.73127409932456
 10
75.84290905719239
 20
-32.92188018611429
 10
75.98544813020788
 20
-33.1176997952184
 10
76.00367919992358
 20
-33.1442190286141
 10
76.13746042256258
 20
-33.34619153342364
 10
76.26295348152414
 20
-33.55290064790276
 10
76.38016560275524
 20
-33.76434275907894
 10
76.48884387803374
 20
-33.97934003723776
 10
76.58852584661653
 20
-34.19765041308494
 10
76.67968842114714
 20
-34.41975079926268
 10
76.6943715498259
 20
-34.45834459369483
 10
76.77511430567733
 20
-34.68446983355203
 10
76.84685352887966
 20
-34.91320002807935
 10
76.90912675869109
 20
-35.14406187760709
 10
76.96216522548121
 20
-35.37657846949019
 10
77.00620738557566
 20
-35.61146405825675
 10
77.04101478265267
 20
-35.84800661825962
 10
77.046463148314
 20
-35.89299537769342
 10
77.07013535774532
 20
-36.13096033523913
 10
77.08434879973016
 20
-36.36963343580244
 10
77.08908179642626
 20
-36.60759839334815
  0
LWPOLYLINE
  5
1CD
330
19B
100
AcDbEntity
  8
Camada 1
 62
    18
420
        0
370
    15
100
AcDbPolyline
 90
       11
 70
     0
 43
0.0
 10
69.49536073407472
 20
-35.95640669449597
 10
69.51619314548991
 20
-35.89508006402454
 10
69.53892598152696
 20
-35.83398827689974
 10
69.56355201624397
 20
-35.77361185874244
 10
69.59007124963967
 20
-35.71417842694938
 10
69.61824522539105
 20
-35.65545675114741
 10
69.64855085614414
 20
-35.59768167468543
 10
69.68027999888072
 20
-35.54085681053631
 10
69.713902340296
 20
-35.48497493275271
 10
69.74942510633953
 20
-35.43051656695195
 10
69.78635693246356
 20
-35.3772396438375
  0
LWPOLYLINE
  5
1CE
330
19B
100
AcDbEntity
  8
Camada 1
 62
    18
420
        0
370
    15
100
AcDbPolyline
 90
       11
 70
     0
 43
0.0
 10
69.49536073407472
 20
-37.258649186193
 10
69.51619314548991
 20
-37.31997220368965
 10
69.53892598152696
 20
-37.38106399081348
 10
69.56355201624397
 20
-37.44144040897142
 10
69.59007124963967
 20
-37.50087384076481
 10
69.61824522539105
 20
-37.55959551656677
 10
69.64855085614414
 20
-37.61737059302875
 10
69.68027999888072
 20
-37.67419545717756
 10
69.713902340296
 20
-37.73007733496179
 10
69.74942510633953
 20
-37.78453570076255
 10
69.78635693246356
 20
-37.83781262387604
  0
LWPOLYLINE
  5
1CF
330
19B
100
AcDbEntity
  8
Camada 1
 62
    18
420
        0
370
    15
100
AcDbPolyline
 90
       12
 70
     0
 43
0.0
 10
69.78636415841442
 20
-35.37726493465971
 10
69.79654552077184
 20
-35.36352840531773
 10
69.82116432954185
 20
-35.33014452022548
 10
69.84721387624235
 20
-35.2977036214978
 10
69.86260514794193
 20
-35.27899925211212
 10
69.88959406803157
 20
-35.24727010937553
 10
69.91729835708645
 20
-35.21649117895373
 10
69.94594924548517
 20
-35.18618193522649
 10
69.97507704652737
 20
-35.15658444749035
 10
70.00490576463312
 20
-35.12793355909419
 10
70.03544985170669
 20
-35.0997559703674
 10
70.06670930775062
 20
-35.07229013763235
  0
LWPOLYLINE
  5
1D0
330
19B
100
AcDbEntity
  8
Camada 1
 62
    18
420
        0
370
    15
100
AcDbPolyline
 90
       11
 70
     0
 43
0.0
 10
69.78636415841442
 20
-37.83778733305414
 10
69.81098296718186
 20
-37.87117121814639
 10
69.83632437086669
 20
-37.90408541654406
 10
69.86260514794193
 20
-37.9360494026276
 10
69.88959406803157
 20
-37.96777854536355
 10
69.91753681341204
 20
-37.99855747578599
 10
69.94594924548517
 20
-38.02886671951323
 10
69.97530827689828
 20
-38.05846420724872
 10
70.00490576463312
 20
-38.08711509564488
 10
70.03568830803229
 20
-38.11529268437168
 10
70.06670930775062
 20
-38.14275851710738
  0
ENDBLK
  5
19E
330
19B
100
AcDbEntity
  8
0
100
AcDbBlockEnd
  0
BLOCK
  5
1B1
330
1AF
100
AcDbEntity
  8
0
100
AcDbBlockBegin
  2
Block_7
 70
     0
 10
0.0
 20
0.0
 30
0.0
  3
Block_7
  1

  0
LINE
  5
1B3
330
1AF
100
AcDbEntity
  8
Camada 1
 62
    18
420
        0
370
    15
100
AcDbLine
 10
67.39740033449585
 20
-45.05218942050363
 30
0.0
 11
85.22668559971544
 21
-45.05218942050363
 31
0.0
  0
LINE
  5
1B4
330
1AF
100
AcDbEntity
  8
Camada 1
 62
    18
420
        0
370
    15
100
AcDbLine
 10
85.22680844084916
 20
-28.16286646018502
 30
0.0
 11
85.22680844084916
 21
-45.05213883885919
 31
0.0
  0
SPLINE
  5
1B5
330
1AF
100
AcDbEntity
  8
Camada 1
 62
    18
420
        0
370
    15
100
AcDbSpline
210
0.0
220
0.0
230
1.0
 70
     8
 71
     3
 72
     8
 73
     4
 74
     0
 42
0.0000000001
 43
0.0000000001
 40
0.0
 40
0.0
 40
0.0
 40
0.0
 40
1.0
 40
1.0
 40
1.0
 40
1.0
 10
69.49536073407472
 20
-35.95640669449597
 30
0.0
 10
69.427877594925
 20
-36.16690220633216
 30
0.0
 10
69.39377834086494
 20
-36.38663248118803
 30
0.0
 10
69.39330142822145
 20
-36.60755142467947
 30
0.0
  0
SPLINE
  5
1B6
330
1AF
100
AcDbEntity
  8
Camada 1
 62
    18
420
        0
370
    15
100
AcDbSpline
210
0.0
220
0.0
230
1.0
 70
     8
 71
     3
 72
     8
 73
     4
 74
     0
 42
0.0000000001
 43
0.0000000001
 40
0.0
 40
0.0
 40
0.0
 40
0.0
 40
1.0
 40
1.0
 40
1.0
 40
1.0
 10
69.39343149530731
 20
-36.60752613385693
 30
0.0
 10
69.39343149530731
 20
-36.8284414643739
 30
0.0
 10
69.42776197973826
 20
-37.04817173922914
 30
0.0
 10
69.49548357521358
 20
-37.25867086404011
 30
0.0
  0
SPLINE
  5
1B7
330
1AF
100
AcDbEntity
  8
Camada 1
 62
    18
420
        0
370
    15
100
AcDbSpline
210
0.0
220
0.0
230
1.0
 70
     8
 71
     3
 72
     8
 73
     4
 74
     0
 42
0.0000000001
 43
0.0000000001
 40
0.0
 40
0.0
 40
0.0
 40
0.0
 40
1.0
 40
1.0
 40
1.0
 40
1.0
 10
73.65622122794483
 20
-35.28046973276461
 30
0.0
 10
73.64911089397826
 20
-34.90825025290798
 30
0.0
 10
73.34556322190852
 20
-34.61038217687431
 30
0.0
 10
72.97334735502731
 20
-34.60990887720432
 30
0.0
  0
SPLINE
  5
1B8
330
1AF
100
AcDbEntity
  8
Camada 1
 62
    18
420
        0
370
    15
100
AcDbSpline
210
0.0
220
0.0
230
1.0
 70
     8
 71
     3
 72
     8
 73
     4
 74
     0
 42
0.0000000001
 43
0.0000000001
 40
0.0
 40
0.0
 40
0.0
 40
0.0
 40
1.0
 40
1.0
 40
1.0
 40
1.0
 10
72.97323173984058
 20
-38.60502777532314
 30
0.0
 10
73.34544760672179
 20
-38.60478931900106
 30
0.0
 10
73.64923373511199
 20
-38.30668278664438
 30
0.0
 10
73.65633684313156
 20
-37.93446691976285
 30
0.0
  0
SPLINE
  5
1B9
330
1AF
100
AcDbEntity
  8
Camada 1
 62
    18
420
        0
370
    15
100
AcDbSpline
210
0.0
220
0.0
230
1.0
 70
     8
 71
     3
 72
     8
 73
     4
 74
     0
 42
0.0000000001
 43
0.0000000001
 40
0.0
 40
0.0
 40
0.0
 40
0.0
 40
1.0
 40
1.0
 40
1.0
 40
1.0
 10
73.65634406907855
 20
-35.29294894695428
 30
0.0
 10
73.65634406907855
 20
-35.28892048030036
 30
0.0
 10
73.65634406907855
 20
-35.28466078327426
 30
0.0
 10
73.65610561275682
 20
-35.28063592959513
 30
0.0
  0
SPLINE
  5
1BA
330
1AF
100
AcDbEntity
  8
Camada 1
 62
    18
420
        0
370
    15
100
AcDbSpline
210
0.0
220
0.0
230
1.0
 70
     8
 71
     3
 72
     8
 73
     4
 74
     0
 42
0.0000000001
 43
0.0000000001
 40
0.0
 40
0.0
 40
0.0
 40
0.0
 40
1.0
 40
1.0
 40
1.0
 40
1.0
 10
73.65622122794483
 20
-37.93458253494958
 30
0.0
 10
73.65622122794483
 20
-37.93055406829534
 30
0.0
 10
73.65645245831828
 20
-37.92629437126924
 30
0.0
 10
73.65645245831828
 20
-37.92203106126836
 30
0.0
  0
SPLINE
  5
1BB
330
1AF
100
AcDbEntity
  8
Camada 1
 62
    18
420
        0
370
    15
100
AcDbSpline
210
0.0
220
0.0
230
1.0
 70
     8
 71
     3
 72
     8
 73
     4
 74
     0
 42
0.0000000001
 43
0.0000000001
 40
0.0
 40
0.0
 40
0.0
 40
0.0
 40
1.0
 40
1.0
 40
1.0
 40
1.0
 10
80.30095838787234
 20
-33.13583692759543
 30
0.0
 10
80.44989242588917
 20
-33.13583692759543
 30
0.0
 10
80.5730153735311
 20
-33.01981347500085
 30
0.0
 10
80.5820116802268
 20
-32.87111428033162
 30
0.0
  0
SPLINE
  5
1BC
330
1AF
100
AcDbEntity
  8
Camada 1
 62
    18
420
        0
370
    15
100
AcDbSpline
210
0.0
220
0.0
230
1.0
 70
     8
 71
     3
 72
     8
 73
     4
 74
     0
 42
0.0000000001
 43
0.0000000001
 40
0.0
 40
0.0
 40
0.0
 40
0.0
 40
1.0
 40
1.0
 40
1.0
 40
1.0
 10
80.5820116802268
 20
-32.87111428033162
 30
0.0
 10
80.59077675655158
 20
-32.72265354198414
 30
0.0
 10
80.482329711644
 20
-32.5926623296741
 30
0.0
 10
80.3345807292889
 20
-32.57490455962808
 30
0.0
  0
SPLINE
  5
1BD
330
1AF
100
AcDbEntity
  8
Camada 1
 62
    18
420
        0
370
    15
100
AcDbSpline
210
0.0
220
0.0
230
1.0
 70
     8
 71
     3
 72
     8
 73
     4
 74
     0
 42
0.0000000001
 43
0.0000000001
 40
0.0
 40
0.0
 40
0.0
 40
0.0
 40
1.0
 40
1.0
 40
1.0
 40
1.0
 10
80.30095838787234
 20
-40.64221071656946
 30
0.0
 10
80.44989242588917
 20
-40.64221071656946
 30
0.0
 10
80.5730153735311
 20
-40.52618726397519
 30
0.0
 10
80.5820116802268
 20
-40.37748806930532
 30
0.0
  0
SPLINE
  5
1BE
330
1AF
100
AcDbEntity
  8
Camada 1
 62
    18
420
        0
370
    15
100
AcDbSpline
210
0.0
220
0.0
230
1.0
 70
     8
 71
     3
 72
     8
 73
     4
 74
     0
 42
0.0000000001
 43
0.0000000001
 40
0.0
 40
0.0
 40
0.0
 40
0.0
 40
1.0
 40
1.0
 40
1.0
 40
1.0
 10
80.5820116802268
 20
-40.37748806930532
 30
0.0
 10
80.59077675655158
 20
-40.22902733095753
 30
0.0
 10
80.482329711644
 20
-40.09903611864845
 30
0.0
 10
80.3345807292889
 20
-40.08127834860179
 30
0.0
  0
SPLINE
  5
1BF
330
1AF
100
AcDbEntity
  8
Camada 1
 62
    18
420
        0
370
    15
100
AcDbSpline
210
0.0
220
0.0
230
1.0
 70
     8
 71
     3
 72
     8
 73
     4
 74
     0
 42
0.0000000001
 43
0.0000000001
 40
0.0
 40
0.0
 40
0.0
 40
0.0
 40
1.0
 40
1.0
 40
1.0
 40
1.0
 10
80.29610255004252
 20
-32.57289213278883
 30
0.0
 10
80.14811511136569
 20
-32.57525863113624
 30
0.0
 10
80.02759350542197
 20
-32.69222868307017
 30
0.0
 10
80.01977502843717
 20
-32.8397428220783
 30
0.0
  0
SPLINE
  5
1C0
330
1AF
100
AcDbEntity
  8
Camada 1
 62
    18
420
        0
370
    15
100
AcDbSpline
210
0.0
220
0.0
230
1.0
 70
     8
 71
     3
 72
     8
 73
     4
 74
     0
 42
0.0000000001
 43
0.0000000001
 40
0.0
 40
0.0
 40
0.0
 40
0.0
 40
1.0
 40
1.0
 40
1.0
 40
1.0
 10
80.01977502843717
 20
-32.8397428220783
 30
0.0
 10
80.01220223372239
 20
-32.98773026075707
 30
0.0
 10
80.12041082230695
 20
-33.11606311773473
 30
0.0
 10
80.26721320532335
 20
-33.13382088778172
 30
0.0
  0
SPLINE
  5
1C1
330
1AF
100
AcDbEntity
  8
Camada 1
 62
    18
420
        0
370
    15
100
AcDbSpline
210
0.0
220
0.0
230
1.0
 70
     8
 71
     3
 72
     8
 73
     4
 74
     0
 42
0.0000000001
 43
0.0000000001
 40
0.0
 40
0.0
 40
0.0
 40
0.0
 40
1.0
 40
1.0
 40
1.0
 40
1.0
 10
80.29610255004252
 20
-40.07928759961029
 30
0.0
 10
80.14811511136569
 20
-40.0816540979577
 30
0.0
 10
80.02759350542197
 20
-40.19862414989163
 30
0.0
 10
80.01977502843717
 20
-40.34613828889976
 30
0.0
  0
SPLINE
  5
1C2
330
1AF
100
AcDbEntity
  8
Camada 1
 62
    18
420
        0
370
    15
100
AcDbSpline
210
0.0
220
0.0
230
1.0
 70
     8
 71
     3
 72
     8
 73
     4
 74
     0
 42
0.0000000001
 43
0.0000000001
 40
0.0
 40
0.0
 40
0.0
 40
0.0
 40
1.0
 40
1.0
 40
1.0
 40
1.0
 10
80.01977502843717
 20
-40.34613828889976
 30
0.0
 10
80.01220223372239
 20
-40.49412572757789
 30
0.0
 10
80.12041082230695
 20
-40.6224585845562
 30
0.0
 10
80.26721320532335
 20
-40.64021635460254
 30
0.0
  0
SPLINE
  5
1C3
330
1AF
100
AcDbEntity
  8
Camada 1
 62
    18
420
        0
370
    15
100
AcDbSpline
210
0.0
220
0.0
230
1.0
 70
     8
 71
     3
 72
     8
 73
     4
 74
     0
 42
0.0000000001
 43
0.0000000001
 40
0.0
 40
0.0
 40
0.0
 40
0.0
 40
1.0
 40
1.0
 40
1.0
 40
1.0
 10
80.2673577243058
 20
-33.13379920993429
 30
0.0
 10
80.27848568600191
 20
-33.13521910894298
 30
0.0
 10
80.28961364770319
 20
-33.13569240861234
 30
0.0
 10
80.30098006572107
 20
-33.13569240861234
 30
0.0
  0
SPLINE
  5
1C4
330
1AF
100
AcDbEntity
  8
Camada 1
 62
    18
420
        0
370
    15
100
AcDbSpline
210
0.0
220
0.0
230
1.0
 70
     8
 71
     3
 72
     8
 73
     4
 74
     0
 42
0.0000000001
 43
0.0000000001
 40
0.0
 40
0.0
 40
0.0
 40
0.0
 40
1.0
 40
1.0
 40
1.0
 40
1.0
 10
80.2673577243058
 20
-40.64017299890767
 30
0.0
 10
80.27848568600191
 20
-40.64159289791637
 30
0.0
 10
80.28961364770319
 20
-40.64206619758637
 30
0.0
 10
80.30098006572107
 20
-40.64206619758637
 30
0.0
  0
SPLINE
  5
1C5
330
1AF
100
AcDbEntity
  8
Camada 1
 62
    18
420
        0
370
    15
100
AcDbSpline
210
0.0
220
0.0
230
1.0
 70
     8
 71
     3
 72
     8
 73
     4
 74
     0
 42
0.0000000001
 43
0.0000000001
 40
0.0
 40
0.0
 40
0.0
 40
0.0
 40
1.0
 40
1.0
 40
1.0
 40
1.0
 10
80.3345807292889
 20
-32.57490455962808
 30
0.0
 10
80.32344554164064
 20
-32.57348104764492
 30
0.0
 10
80.31231757994451
 20
-32.57300774797492
 30
0.0
 10
80.30095116192534
 20
-32.57300774797492
 30
0.0
  0
SPLINE
  5
1C6
330
1AF
100
AcDbEntity
  8
Camada 1
 62
    18
420
        0
370
    15
100
AcDbSpline
210
0.0
220
0.0
230
1.0
 70
     8
 71
     3
 72
     8
 73
     4
 74
     0
 42
0.0000000001
 43
0.0000000001
 40
0.0
 40
0.0
 40
0.0
 40
0.0
 40
1.0
 40
1.0
 40
1.0
 40
1.0
 10
80.3345807292889
 20
-40.08125305778022
 30
0.0
 10
80.32344554164064
 20
-40.07982954579673
 30
0.0
 10
80.31231757994451
 20
-40.07935624612673
 30
0.0
 10
80.30095116192534
 20
-40.07935624612673
 30
0.0
  0
ENDBLK
  5
1B2
330
1AF
100
AcDbEntity
  8
0
100
AcDbBlockEnd
  0
ENDSEC
  0
SECTION
  2
ENTITIES
  0
LINE
  5
79
330
70
100
AcDbEntity
  8
Camada 1
 62
    18
420
        0
370
    15
100
AcDbLine
 10
66.31689496463973
 20
-72.00355021012448
 30
0.0
 11
69.91005445038211
 21
-72.00355021012448
 31
0.0
  0
LINE
  5
7A
330
70
100
AcDbEntity
  8
Camada 1
 62
    18
420
        0
370
    15
100
AcDbLine
 10
76.74051108853195
 20
-72.01137253141915
 30
0.0
 11
85.14558466235788
 21
-72.01137253141915
 31
0.0
  0
LINE
  5
7B
330
70
100
AcDbEntity
  8
Camada 1
 62
    18
420
        0
370
    15
100
AcDbLine
 10
80.53121082974433
 20
-64.99686043872192
 30
0.0
 11
80.53121082974433
 21
-68.74507382085889
 31
0.0
  0
SPLINE
  5
7C
330
70
100
AcDbEntity
  8
Camada 1
 62
    18
420
        0
370
    15
100
AcDbSpline
210
0.0
220
0.0
230
1.0
 70
     9
 71
     3
 72
    17
 73
    13
 74
     0
 42
0.0000000001
 43
0.0000000001
 40
0.0
 40
0.0
 40
0.0
 40
0.0
 40
1.0
 40
1.0
 40
1.0
 40
2.0
 40
2.0
 40
2.0
 40
3.0
 40
3.0
 40
3.0
 40
4.0
 40
4.0
 40
4.0
 40
4.0
 10
29.80713335451094
 20
-63.23792709605522
 30
0.0
 10
29.80713335451094
 20
-63.36527604977312
 30
0.0
 10
29.70376645849487
 20
-63.4684084892937
 30
0.0
 10
29.57665196127374
 20
-63.4684084892937
 30
0.0
 10
29.44907210343051
 20
-63.4684084892937
 30
0.0
 10
29.34570520741476
 20
-63.36527604977312
 30
0.0
 10
29.34570520741476
 20
-63.23792709605522
 30
0.0
 10
29.34570520741476
 20
-63.11058169470877
 30
0.0
 10
29.44907210343051
 20
-63.00744925518947
 30
0.0
 10
29.57665196127374
 20
-63.00744925518947
 30
0.0
 10
29.70376645849487
 20
-63.00744925518947
 30
0.0
 10
29.80713335451094
 20
-63.11058169470877
 30
0.0
 10
29.80713335451094
 20
-63.23792709605522
 30
0.0
  0
SPLINE
  5
7D
330
70
100
AcDbEntity
  8
Camada 1
 62
    18
420
        0
370
    15
100
AcDbSpline
210
0.0
220
0.0
230
1.0
 70
     9
 71
     3
 72
    17
 73
    13
 74
     0
 42
0.0000000001
 43
0.0000000001
 40
0.0
 40
0.0
 40
0.0
 40
0.0
 40
1.0
 40
1.0
 40
1.0
 40
2.0
 40
2.0
 40
2.0
 40
3.0
 40
3.0
 40
3.0
 40
4.0
 40
4.0
 40
4.0
 40
4.0
 10
29.80713335451094
 20
-63.23792709605522
 30
0.0
 10
29.80713335451094
 20
-63.36527604977312
 30
0.0
 10
29.70376645849487
 20
-63.4684084892937
 30
0.0
 10
29.57665196127374
 20
-63.4684084892937
 30
0.0
 10
29.44907210343051
 20
-63.4684084892937
 30
0.0
 10
29.34570520741476
 20
-63.36527604977312
 30
0.0
 10
29.34570520741476
 20
-63.23792709605522
 30
0.0
 10
29.34570520741476
 20
-63.11058169470877
 30
0.0
 10
29.44907210343051
 20
-63.00744925518947
 30
0.0
 10
29.57665196127374
 20
-63.00744925518947
 30
0.0
 10
29.70376645849487
 20
-63.00744925518947
 30
0.0
 10
29.80713335451094
 20
-63.11058169470877
 30
0.0
 10
29.80713335451094
 20
-63.23792709605522
 30
0.0
  0
SPLINE
  5
7E
330
70
100
AcDbEntity
  8
Camada 1
 62
    18
420
        0
370
    15
100
AcDbSpline
210
0.0
220
0.0
230
1.0
 70
     9
 71
     3
 72
    17
 73
    13
 74
     0
 42
0.0000000001
 43
0.0000000001
 40
0.0
 40
0.0
 40
0.0
 40
0.0
 40
1.0
 40
1.0
 40
1.0
 40
2.0
 40
2.0
 40
2.0
 40
3.0
 40
3.0
 40
3.0
 40
4.0
 40
4.0
 40
4.0
 40
4.0
 10
35.01957018615215
 20
-63.23792709605522
 30
0.0
 10
35.01957018615215
 20
-63.36527604977312
 30
0.0
 10
34.91620329013672
 20
-63.4684084892937
 30
0.0
 10
34.78908879291527
 20
-63.4684084892937
 30
0.0
 10
34.66150893507204
 20
-63.4684084892937
 30
0.0
 10
34.55814203905597
 20
-63.36527604977312
 30
0.0
 10
34.55814203905597
 20
-63.23792709605522
 30
0.0
 10
34.55814203905597
 20
-63.11058169470877
 30
0.0
 10
34.66150893507204
 20
-63.00744925518947
 30
0.0
 10
34.78908879291527
 20
-63.00744925518947
 30
0.0
 10
34.91620329013672
 20
-63.00744925518947
 30
0.0
 10
35.01957018615215
 20
-63.11058169470877
 30
0.0
 10
35.01957018615215
 20
-63.23792709605522
 30
0.0
  0
SPLINE
  5
7F
330
70
100
AcDbEntity
  8
Camada 1
 62
    18
420
        0
370
    15
100
AcDbSpline
210
0.0
220
0.0
230
1.0
 70
     9
 71
     3
 72
    17
 73
    13
 74
     0
 42
0.0000000001
 43
0.0000000001
 40
0.0
 40
0.0
 40
0.0
 40
0.0
 40
1.0
 40
1.0
 40
1.0
 40
2.0
 40
2.0
 40
2.0
 40
3.0
 40
3.0
 40
3.0
 40
4.0
 40
4.0
 40
4.0
 40
4.0
 10
35.01957018615215
 20
-63.23792709605522
 30
0.0
 10
35.01957018615215
 20
-63.36527604977312
 30
0.0
 10
34.91620329013672
 20
-63.4684084892937
 30
0.0
 10
34.78908879291527
 20
-63.4684084892937
 30
0.0
 10
34.66150893507204
 20
-63.4684084892937
 30
0.0
 10
34.55814203905597
 20
-63.36527604977312
 30
0.0
 10
34.55814203905597
 20
-63.23792709605522
 30
0.0
 10
34.55814203905597
 20
-63.11058169470877
 30
0.0
 10
34.66150893507204
 20
-63.00744925518947
 30
0.0
 10
34.78908879291527
 20
-63.00744925518947
 30
0.0
 10
34.91620329013672
 20
-63.00744925518947
 30
0.0
 10
35.01957018615215
 20
-63.11058169470877
 30
0.0
 10
35.01957018615215
 20
-63.23792709605522
 30
0.0
  0
LINE
  5
80
330
70
100
AcDbEntity
  8
Camada 1
 62
    18
420
        0
370
    15
100
AcDbLine
 10
32.24475268270295
 20
-70.1005078266066
 30
0.0
 11
32.24475268270295
 21
-64.59669130293097
 31
0.0
  0
LINE
  5
81
330
70
100
AcDbEntity
  8
Camada 1
 62
    18
420
        0
370
    15
100
AcDbLine
 10
29.49268101179148
 20
-67.3484148414684
 30
0.0
 11
34.99649753546777
 21
-67.3484148414684
 31
0.0
  0
LINE
  5
82
330
70
100
AcDbEntity
  8
Camada 1
 62
    18
420
        0
370
    15
100
AcDbLine
 10
32.24468163527982
 20
-62.63537389988278
 30
0.0
 11
32.24468163527982
 21
-59.60840198674845
 31
0.0
  0
LINE
  5
83
330
70
100
AcDbEntity
  8
Camada 1
 62
    18
420
        0
370
    15
100
AcDbLine
 10
30.73100917922687
 20
-61.12170144383014
 30
0.0
 11
33.75821199648652
 21
-61.12170144383014
 31
0.0
  0
LWPOLYLINE
  5
84
330
70
100
AcDbEntity
  8
Camada 1
 62
   250
420
  1907995
370
    18
100
AcDbPolyline
 90
       14
 70
     0
 43
0.0
 10
59.34633991267816
 20
-58.93183676680521
 10
59.33353006227491
 20
-58.9572149063727
 10
59.32351948034585
 20
-58.98375467131034
 10
59.31676997514164
 20
-59.01099425336493
 10
59.31304709016486
 20
-59.03893010016759
 10
59.31281263366873
 20
-59.06686594697024
 10
59.31560479740131
 20
-59.09480534614562
 10
59.32165803785746
 20
-59.12204137583006
 10
59.33073789854232
 20
-59.14858469313786
 10
59.3428443794559
 20
-59.17395928033389
 10
59.35750856760593
 20
-59.19793778566493
 10
59.37473756773147
 20
-59.22005484850757
 10
59.39429692333892
 20
-59.24031046886181
 10
59.41594507318803
 20
-59.2587010943575
  0
LWPOLYLINE
  5
85
330
70
100
AcDbEntity
  8
Camada 1
 62
   250
420
  1907995
370
    18
100
AcDbPolyline
 90
        8
 70
     0
 43
0.0
 10
59.50392309733892
 20
-58.80914497167846
 10
59.47598014579337
 20
-58.81915910597896
 10
59.44944393322846
 20
-58.83219630813545
 10
59.42453470665324
 20
-58.84756031340371
 10
59.40148692256769
 20
-58.86548557827731
 10
59.38052793272248
 20
-58.88574119863156
 10
59.36214085959824
 20
-58.90785826147547
 10
59.34631149370788
 20
-58.93183676680521
  0
LINE
  5
86
330
70
100
AcDbEntity
  8
Camada 1
 62
    18
420
        0
370
    15
100
AcDbLine
 10
65.74092771422858
 20
-72.41757551646073
 30
0.0
 11
65.77630933098351
 21
-72.43620059845383
 31
0.0
  0
LINE
  5
87
330
70
100
AcDbEntity
  8
Camada 1
 62
    18
420
        0
370
    15
100
AcDbLine
 10
65.70752121583931
 20
-72.39608722331384
 30
0.0
 11
65.74104139010585
 21
-72.41750802140841
 31
0.0
  0
LWPOLYLINE
  5
88
330
70
100
AcDbEntity
  8
Camada 1
 62
    18
420
        0
370
    15
100
AcDbPolyline
 90
        4
 70
     0
 43
0.0
 10
65.62033181808634
 20
-72.31553720725798
 10
65.64710248714867
 20
-72.34487268829838
 10
65.67620351169165
 20
-72.37164690973216
 10
65.70763489171657
 20
-72.396090775684
  0
LWPOLYLINE
  5
89
330
70
100
AcDbEntity
  8
Camada 1
 62
    18
420
        0
370
    15
100
AcDbPolyline
 90
        5
 70
     0
 43
0.0
 10
65.5413910261668
 20
-72.17999648564592
 10
65.55675147906362
 20
-72.21608502426069
 10
65.57514565693077
 20
-72.25100483276498
 10
65.59633199852921
 20
-72.28406319878087
 10
65.62031050385894
 20
-72.31549102643434
  0
LINE
  5
8A
330
70
100
AcDbEntity
  8
Camada 1
 62
    18
420
        0
370
    15
100
AcDbLine
 10
61.92585160211667
 20
-62.43441078796514
 30
0.0
 11
65.5383359869691
 21
-72.17138198558316
 31
0.0
  0
LWPOLYLINE
  5
8B
330
70
100
AcDbEntity
  8
Camada 1
 62
    18
420
        0
370
    15
100
AcDbPolyline
 90
        5
 70
     0
 43
0.0
 10
61.47234169033616
 20
-61.99023650759301
 10
61.47699529655586
 20
-62.00304280562481
 10
61.48211781576909
 20
-62.01584555128646
 10
61.48770214323298
 20
-62.02841739282085
 10
61.49329357543847
 20
-62.04075833023185
  0
LINE
  5
8C
330
70
100
AcDbEntity
  8
Camada 1
 62
    18
420
        0
370
    15
100
AcDbLine
 10
72.40706587199923
 20
-74.47883710591288
 30
0.0
 11
72.4189378964154
 21
-74.48093300489738
 31
0.0
  0
LWPOLYLINE
  5
8D
330
70
100
AcDbEntity
  8
Camada 1
 62
    18
420
        0
370
    15
100
AcDbPolyline
 90
        5
 70
     0
 43
0.0
 10
65.81295559187025
 20
-72.45158947031836
 10
65.85112937235649
 20
-72.46393040772807
 10
65.89001362707529
 20
-72.47301026841423
 10
65.92958704179797
 20
-72.47859814824827
 10
65.96986382601162
 20
-72.48069049486135
  0
LINE
  5
8E
330
70
100
AcDbEntity
  8
Camada 1
 62
    18
420
        0
370
    15
100
AcDbLine
 10
65.77619565510625
 20
-72.43613310340023
 30
0.0
 11
65.81297690609765
 21
-72.45150066103994
 31
0.0
  0
LINE
  5
8F
330
70
100
AcDbEntity
  8
Camada 1
 62
    18
420
        0
370
    15
100
AcDbLine
 10
61.90424608072107
 20
-62.39157629651632
 30
0.0
 11
61.91751063463336
 21
-62.41532389772138
 31
0.0
  0
LWPOLYLINE
  5
90
330
70
100
AcDbEntity
  8
Camada 1
 62
    18
420
        0
370
    15
100
AcDbPolyline
 90
       10
 70
     0
 43
0.0
 10
61.49343567028473
 20
-62.04080451105678
 10
61.51251900815704
 20
-62.07619323255332
 10
61.53487052749581
 20
-62.10971695919131
 10
61.56024866706329
 20
-62.14137924334091
 10
61.58772270561658
 20
-62.1707147243813
 10
61.61798180315699
 20
-62.19725448931766
 10
61.65057836092223
 20
-62.22099853815127
 10
61.68480190467844
 20
-62.24218487974972
 10
61.72065243442692
 20
-62.2601101446246
 10
61.75813705490798
 20
-62.27477788514351
  0
LINE
  5
91
330
70
100
AcDbEntity
  8
Camada 1
 62
    18
420
        0
370
    15
100
AcDbLine
 10
61.91737564452871
 20
-62.41543757359864
 30
0.0
 11
61.92808249120584
 21
-62.44058125666871
 31
0.0
  0
LINE
  5
92
330
70
100
AcDbEntity
  8
Camada 1
 62
    18
420
        0
370
    15
100
AcDbLine
 10
66.38296906821802
 20
-72.08494213814353
 30
0.0
 11
66.372255116798
 21
-72.3943465614456
 31
0.0
  0
LWPOLYLINE
  5
93
330
70
100
AcDbEntity
  8
Camada 1
 62
    18
420
        0
370
    15
100
AcDbPolyline
 90
       12
 70
     0
 43
0.0
 10
66.37218406937552
 20
-72.39438918989908
 10
66.37078443513778
 20
-72.40719548793089
 10
66.36752335841292
 20
-72.41976732946657
 10
66.3626352956971
 20
-72.43187381037888
 10
66.35612024698902
 20
-72.44304957004954
 10
66.34819845930287
 20
-72.45306015197859
 10
66.3388912468635
 20
-72.46213646029329
 10
66.32841175194089
 20
-72.46982023911186
 10
66.31677418402086
 20
-72.47564257544333
 10
66.30490215960342
 20
-72.48006527753833
 10
66.29232676569628
 20
-72.48262653714495
 10
66.27998582828658
 20
-72.48332280189173
  0
LWPOLYLINE
  5
94
330
70
100
AcDbEntity
  8
Camada 1
 62
    18
420
        0
370
    15
100
AcDbPolyline
 90
        3
 70
     0
 43
0.0
 10
61.8713795427491
 20
-62.34829775867279
 10
61.88883589462915
 20
-62.36901873965042
 10
61.90420345226758
 20
-62.39160116311516
  0
LINE
  5
95
330
70
100
AcDbEntity
  8
Camada 1
 62
    18
420
        0
370
    15
100
AcDbLine
 10
61.85186992033674
 20
-62.32925349688381
 30
0.0
 11
61.8714221712026
 21
-62.34834393949902
 31
0.0
  0
LWPOLYLINE
  5
96
330
70
100
AcDbEntity
  8
Camada 1
 62
    18
420
        0
370
    15
100
AcDbPolyline
 90
       16
 70
     0
 43
0.0
 10
66.67365249550437
 20
-71.73714723971632
 10
66.6426829237314
 20
-71.74529637915828
 10
66.61242382618969
 20
-71.75623768233153
 10
66.5830883451493
 20
-71.76974379748156
 10
66.55515249834666
 20
-71.78580761986805
 10
66.52860918103757
 20
-71.80419824536375
 10
66.50369995446363
 20
-71.82491922634008
 10
66.48041771388065
 20
-71.84773255392951
 10
66.45946582877835
 20
-71.87264178050473
 10
66.44084429915797
 20
-71.89918509781254
 10
66.42431156377793
 20
-71.92735184874115
 10
66.41057809687338
 20
-71.95715269040237
 10
66.39940233720399
 20
-71.98788425330777
 10
66.39125319776333
 20
-72.01954653745865
 10
66.38566176555655
 20
-72.05213954285245
 10
66.38310405832138
 20
-72.08496345237091
  0
LINE
  5
97
330
70
100
AcDbEntity
  8
Camada 1
 62
    18
420
        0
370
    15
100
AcDbLine
 10
69.33611205153171
 20
-71.16050503878579
 30
0.0
 11
66.66673247648491
 21
-71.73856818818016
 31
0.0
  0
LWPOLYLINE
  5
98
330
70
100
AcDbEntity
  8
Camada 1
 62
    18
420
        0
370
    15
100
AcDbPolyline
 90
        9
 70
     0
 43
0.0
 10
77.19834778838616
 20
-58.89384060487713
 10
77.21534233201555
 20
-58.87684606124643
 10
77.23419831813335
 20
-58.86171651247559
 10
77.25445393848758
 20
-58.84844485382297
 10
77.27610208833796
 20
-58.83750355064844
 10
77.29891541592738
 20
-58.82888905058567
 10
77.3226665695039
 20
-58.82260135363339
 10
77.34687242658944
 20
-58.81887846865661
 10
77.37155430140886
 20
-58.81771329091629
  0
LINE
  5
99
330
70
100
AcDbEntity
  8
Camada 1
 62
    18
420
        0
370
    15
100
AcDbLine
 10
77.59624177728487
 20
-69.21273993171256
 30
0.0
 11
77.71683056868423
 21
-69.21273993171256
 31
0.0
  0
LWPOLYLINE
  5
9A
330
70
100
AcDbEntity
  8
Camada 1
 62
    18
420
        0
370
    15
100
AcDbPolyline
 90
       45
 70
     0
 43
0.0
 10
77.71683767342711
 20
-69.21273993171256
 10
77.73615546779556
 20
-69.21343974883079
 10
77.75594927989915
 20
-69.21507028719322
 10
77.77550153076372
 20
-69.21809690742193
 10
77.79435751688279
 20
-69.22228515301952
 10
77.81251723825253
 20
-69.2271767681068
 10
77.82951178188193
 20
-69.23299555206681
 10
77.84557560426842
 20
-69.23951415314634
 10
77.86047424891329
 20
-69.24649811484669
 10
77.87444217231527
 20
-69.25394743716913
 10
77.88747937447175
 20
-69.26163121598898
 10
77.89982031188275
 20
-69.26954589893352
 10
77.91099607155214
 20
-69.27769503837419
 10
77.92147556647472
 20
-69.28584417781613
 10
77.93125169190638
 20
-69.29422422138277
 10
77.94033155259125
 20
-69.30260426494941
 10
77.94870804378772
 20
-69.31075340439007
 10
77.95639537497773
 20
-69.31913344795671
 10
77.96361379317549
 20
-69.32751704389478
 10
77.97036329837969
 20
-69.33566618333674
 10
77.97665099533325
 20
-69.34381177040596
 10
77.98223532279585
 20
-69.3517264533505
 10
77.98735784200911
 20
-69.35941023216907
 10
77.99224590472492
 20
-69.36732491511489
 10
77.99689951094461
 20
-69.37477778980877
 10
78.00085685241753
 20
-69.38222711213121
 10
78.00458684213591
 20
-69.38944197795753
 10
78.00830972711141
 20
-69.396660396154
 10
78.01133634734013
 20
-69.40340990135822
 10
78.01436296756884
 20
-69.41016295893388
 10
78.01692067480273
 20
-69.4166815600134
 10
78.01925103028466
 20
-69.42273480046956
 10
78.02134692926791
 20
-69.42878804092569
 10
78.0234428282537
 20
-69.43437592076103
 10
78.02530427074081
 20
-69.43996380059636
 10
78.02670390497855
 20
-69.44485186331218
 10
78.02809643447339
 20
-69.44973992602801
 10
78.02926161221373
 20
-69.45439708461915
 10
78.03042678995405
 20
-69.45835442609205
 10
78.03112305470083
 20
-69.46231176756369
 10
78.03205377594503
 20
-69.46557284428853
 10
78.03275714543598
 20
-69.46859946451723
 10
78.03321895368663
 20
-69.47092626762773
 10
78.03368786667888
 20
-69.47302216661097
 10
78.03392232317502
 20
-69.47464915260323
  0
LWPOLYLINE
  5
9B
330
70
100
AcDbEntity
  8
Camada 1
 62
    18
420
        0
370
    15
100
AcDbPolyline
 90
       13
 70
     0
 43
0.0
 10
59.41604453958079
 20
-59.25860518033618
 10
59.64605346745428
 20
-59.44019884166841
 10
59.86675518288839
 20
-59.63156507606213
 10
60.07791522938441
 20
-59.83248008413426
 10
60.27859578096041
 20
-60.04247140052108
 10
60.46903129410992
 20
-60.26108076934082
 10
60.64829815233295
 20
-60.48760126873367
 10
60.81614768964629
 20
-60.72204000344378
 10
60.97236676378121
 20
-60.96346269985422
 10
61.1162377957648
 20
-61.21163490146889
 10
61.2477749950803
 20
-61.46586034353971
 10
61.36650944873544
 20
-61.72567366544585
 10
61.47219959548991
 20
-61.99014414594313
  0
LINE
  5
9C
330
70
100
AcDbEntity
  8
Camada 1
 62
    18
420
        0
370
    15
100
AcDbLine
 10
69.57783669949062
 20
-67.80411109086272
 30
0.0
 11
69.59994665759037
 21
-67.96125733387167
 31
0.0
  0
LINE
  5
9D
330
70
100
AcDbEntity
  8
Camada 1
 62
    18
420
        0
370
    15
100
AcDbLine
 10
69.16760887792507
 20
-67.86811060968259
 30
0.0
 11
69.18460342155448
 21
-67.96123601964428
 31
0.0
  0
LINE
  5
9E
330
70
100
AcDbEntity
  8
Camada 1
 62
    18
420
        0
370
    15
100
AcDbLine
 10
70.12537787587817
 20
-71.3938958240017
 30
0.0
 11
69.59992534336426
 21
-67.96114010562296
 31
0.0
  0
SPLINE
  5
9F
330
70
100
AcDbEntity
  8
Camada 1
 62
    18
420
        0
370
    15
100
AcDbSpline
210
0.0
220
0.0
230
1.0
 70
     8
 71
     3
 72
    14
 73
    10
 74
     0
 42
0.0000000001
 43
0.0000000001
 40
0.0
 40
0.0
 40
0.0
 40
0.0
 40
1.0
 40
1.0
 40
1.0
 40
2.0
 40
2.0
 40
2.0
 40
3.0
 40
3.0
 40
3.0
 40
3.0
 10
69.18474551640073
 20
-67.9611862864479
 30
0.0
 10
69.18474551640073
 20
-67.9611862864479
 30
0.0
 10
69.52673939272386
 20
-70.20708769550265
 30
0.0
 10
69.52673939272386
 20
-70.20708769550265
 30
0.0
 10
69.5679468981817
 20
-70.47738051233011
 30
0.0
 10
69.39170666018739
 20
-70.73323649276334
 30
0.0
 10
69.12444756832897
 20
-70.79097318122849
 30
0.0
 10
69.12444756832897
 20
-70.79097318122849
 30
0.0
 10
66.66692430452755
 20
-71.32340257070243
 30
0.0
 10
66.66692430452755
 20
-71.32340257070243
 30
0.0
  0
LINE
  5
A0
330
70
100
AcDbEntity
  8
Camada 1
 62
    18
420
        0
370
    15
100
AcDbLine
 10
67.28819139197153
 20
-64.33270557426259
 30
0.0
 11
67.30402075786059
 21
-64.34458115105019
 31
0.0
  0
LWPOLYLINE
  5
A1
330
70
100
AcDbEntity
  8
Camada 1
 62
    18
420
        0
370
    15
100
AcDbPolyline
 90
        3
 70
     0
 43
0.0
 10
77.17024853250986
 20
-58.93248685072834
 10
77.18328573466763
 20
-58.91246568686895
 10
77.19841173106702
 20
-58.89384415724857
  0
LINE
  5
A2
330
70
100
AcDbEntity
  8
Camada 1
 62
    18
420
        0
370
    15
100
AcDbLine
 10
75.92453853780404
 20
-64.32779619731809
 30
0.0
 11
75.9771491546845
 21
-64.29357620593332
 31
0.0
  0
LINE
  5
A3
330
70
100
AcDbEntity
  8
Camada 1
 62
    18
420
        0
370
    15
100
AcDbLine
 10
75.97719888788089
 20
-64.29359396778926
 30
0.0
 11
76.03213986024328
 21
-64.2584432551603
 31
0.0
  0
LINE
  5
A4
330
70
100
AcDbEntity
  8
Camada 1
 62
    18
420
        0
370
    15
100
AcDbLine
 10
76.03216827921227
 20
-64.25846456938768
 30
0.0
 11
76.08827442931499
 21
-64.22307940026259
 31
0.0
  0
LINE
  5
A5
330
70
100
AcDbEntity
  8
Camada 1
 62
    18
420
        0
370
    15
100
AcDbLine
 10
76.08838810519097
 20
-64.22310071448869
 30
0.0
 11
76.14635569778208
 21
-64.1872501847415
 31
0.0
  0
LINE
  5
A6
330
70
100
AcDbEntity
  8
Camada 1
 62
    18
420
        0
370
    15
100
AcDbLine
 10
76.1463130693273
 20
-64.18720045154512
 30
0.0
 11
76.20614210440553
 21
-64.15065010467969
 31
0.0
  0
LINE
  5
A7
330
70
100
AcDbEntity
  8
Camada 1
 62
    18
420
        0
370
    15
100
AcDbLine
 10
76.20619183760192
 20
-64.15072115210219
 30
0.0
 11
76.26788231516852
 21
-64.11370544461466
 31
0.0
  0
LWPOLYLINE
  5
A8
330
70
100
AcDbEntity
  8
Camada 1
 62
    18
420
        0
370
    15
100
AcDbPolyline
 90
        8
 70
     0
 43
0.0
 10
76.25938504335318
 20
-64.11438039513406
 10
76.35227244444729
 20
-64.05990478339505
 10
76.44655947977786
 20
-64.00635989289894
 10
76.54061205861229
 20
-63.95374572364704
 10
76.63653318467672
 20
-63.90136245851981
 10
76.73594273922052
 20
-63.84804847214968
 10
76.83767554450337
 20
-63.79450358165357
 10
76.94244207475654
 20
-63.74049333053665
  0
LWPOLYLINE
  5
A9
330
70
100
AcDbEntity
  8
Camada 1
 62
    18
420
        0
370
    15
100
AcDbPolyline
 90
        6
 70
     0
 43
0.0
 10
78.31841041515898
 20
-63.06809341261404
 10
78.45808964917482
 20
-62.99895006035354
 10
78.59987188691551
 20
-62.92724544848772
 10
78.74421183189136
 20
-62.85204885577107
 10
78.89018586760108
 20
-62.77266046508539
 10
79.03382954783015
 20
-62.6909452712905
  0
LWPOLYLINE
  5
AA
330
70
100
AcDbEntity
  8
Camada 1
 62
    18
420
        0
370
    15
100
AcDbPolyline
 90
        3
 70
     0
 43
0.0
 10
78.49984421978901
 20
-63.4928966130499
 10
78.63160877085903
 20
-63.42771060226231
 10
78.76221524893033
 20
-63.36229368734876
  0
LINE
  5
AB
330
70
100
AcDbEntity
  8
Camada 1
 62
    18
420
        0
370
    15
100
AcDbLine
 10
77.16303011431209
 20
-63.62881033363418
 30
0.0
 11
77.41189502830339
 21
-63.50588763438146
 31
0.0
  0
LINE
  5
AC
330
70
100
AcDbEntity
  8
Camada 1
 62
    18
420
        0
370
    15
100
AcDbLine
 10
77.47648424073567
 20
-63.98828898080765
 30
0.0
 11
77.69345596645138
 21
-63.88189901693495
 31
0.0
  0
LINE
  5
AD
330
70
100
AcDbEntity
  8
Camada 1
 62
    18
420
        0
370
    15
100
AcDbLine
 10
77.3982823420177
 20
-63.51259451113218
 30
0.0
 11
77.6471472560077
 21
-63.39176771086396
 31
0.0
  0
LINE
  5
AE
330
70
100
AcDbEntity
  8
Camada 1
 62
    18
420
        0
370
    15
100
AcDbLine
 10
78.04260431829011
 20
-63.20193254844119
 30
0.0
 11
78.31848146258275
 21
-63.06806854601521
 31
0.0
  0
LINE
  5
AF
330
70
100
AcDbEntity
  8
Camada 1
 62
    18
420
        0
370
    15
100
AcDbLine
 10
78.23332402113343
 20
-63.62206082842997
 30
0.0
 11
78.49988684824379
 21
-63.49285398459641
 31
0.0
  0
LINE
  5
B0
330
70
100
AcDbEntity
  8
Camada 1
 62
    18
420
        0
370
    15
100
AcDbLine
 10
77.64904422220798
 20
-63.9035009859591
 30
0.0
 11
78.23338796381431
 21
-63.62203596183242
 31
0.0
  0
LINE
  5
B1
330
70
100
AcDbEntity
  8
Camada 1
 62
    18
420
        0
370
    15
100
AcDbLine
 10
77.64722540817307
 20
-63.39183520591629
 30
0.0
 11
78.04276062262215
 21
-63.20186505338887
 31
0.0
  0
LWPOLYLINE
  5
B2
330
70
100
AcDbEntity
  8
Camada 1
 62
    18
420
        0
370
    15
100
AcDbPolyline
 90
        9
 70
     0
 43
0.0
 10
78.76079430046778
 20
-63.36289759044696
 10
78.77498957562171
 20
-63.35614808524274
 10
78.78919195552107
 20
-63.35079466190354
 10
78.80293252716724
 20
-63.34636840743836
 10
78.81619708107954
 20
-63.34311088308496
 10
78.82853801848924
 20
-63.34078407997449
 10
78.84041004290669
 20
-63.33938444573803
 10
78.85135134607995
 20
-63.33822282036786
 10
78.86159638450513
 20
-63.33798836387173
  0
LWPOLYLINE
  5
B3
330
70
100
AcDbEntity
  8
Camada 1
 62
    18
420
        0
370
    15
100
AcDbPolyline
 90
        5
 70
     0
 43
0.0
 10
61.75825783552685
 20
-62.27477433277335
 10
61.78339441385531
 20
-62.28478846707257
 10
61.80760737568246
 20
-62.29735675623808
 10
61.8306551597693
 20
-62.3122589532544
 10
61.85184150136774
 20
-62.32925349688381
  0
LINE
  5
B4
330
70
100
AcDbEntity
  8
Camada 1
 62
    18
420
        0
370
    15
100
AcDbLine
 10
72.72032817037888
 20
-74.52702857306977
 30
0.0
 11
72.72032817037888
 21
-74.52656321244766
 31
0.0
  0
LINE
  5
B5
330
70
100
AcDbEntity
  8
Camada 1
 62
    18
420
        0
370
    15
100
AcDbLine
 10
77.1593072293366
 20
-58.95367319232679
 30
0.0
 11
77.17024853250986
 21
-58.93249040309851
 31
0.0
  0
LWPOLYLINE
  5
B6
330
70
100
AcDbEntity
  8
Camada 1
 62
    18
420
        0
370
    15
100
AcDbPolyline
 90
       16
 70
     0
 43
0.0
 10
75.18290290597106
 20
-64.88588081131041
 10
75.22480667617568
 20
-64.84956492093984
 10
75.26694490287643
 20
-64.81371083882121
 10
75.30954493782783
 20
-64.77832566969611
 10
75.351917621026
 20
-64.74340230882167
 10
75.39429030422289
 20
-64.70941322156159
 10
75.43782106041849
 20
-64.67518967780536
 10
75.48368927683762
 20
-64.63957005218286
 10
75.53117737450614
 20
-64.60348506593954
 10
75.57983775465658
 20
-64.56716917557024
 10
75.63012512079801
 20
-64.5303843722074
 10
75.68157766468103
 20
-64.49359956884459
 10
75.73395382506537
 20
-64.45658386135706
 10
75.78797118092518
 20
-64.41933369737213
 10
75.84291215328757
 20
-64.38208708575864
 10
75.89901830339029
 20
-64.34437156115162
  0
LINE
  5
B7
330
70
100
AcDbEntity
  8
Camada 1
 62
    18
420
        0
370
    15
100
AcDbLine
 10
75.89913908400916
 20
-64.34451010362771
 30
0.0
 11
75.92451011883504
 21
-64.32775001649315
 31
0.0
  0
LWPOLYLINE
  5
B8
330
70
100
AcDbEntity
  8
Camada 1
 62
    18
420
        0
370
    15
100
AcDbPolyline
 90
        6
 70
     0
 43
0.0
 10
76.54707026938111
 20
-64.48454457475726
 10
76.75007407169485
 20
-64.36814047658406
 10
76.94633547354728
 20
-64.26081623909573
 10
77.13117955449131
 20
-64.16327167941048
 10
77.30532389349981
 20
-64.07387270679574
 10
77.47643450753928
 20
-63.98820017152793
  0
LINE
  5
B9
330
70
100
AcDbEntity
  8
Camada 1
 62
    18
420
        0
370
    15
100
AcDbLine
 10
73.76922259333302
 20
-67.80411109086272
 30
0.0
 11
73.7706151228266
 21
-67.77361398445345
 31
0.0
  0
LINE
  5
BA
330
70
100
AcDbEntity
  8
Camada 1
 62
    18
420
        0
370
    15
100
AcDbLine
 10
73.77052986591832
 20
-67.77496388549479
 30
0.0
 11
73.77215685191058
 21
-67.74423587495957
 31
0.0
  0
LINE
  5
BB
330
70
100
AcDbEntity
  8
Camada 1
 62
    18
420
        0
370
    15
100
AcDbLine
 10
72.72032817037888
 20
-74.52702857306977
 30
0.0
 11
72.72032817037888
 21
-74.52656321244766
 31
0.0
  0
LINE
  5
BC
330
70
100
AcDbEntity
  8
Camada 1
 62
    18
420
        0
370
    15
100
AcDbLine
 10
77.15066786267501
 20
-58.97567302692071
 30
0.0
 11
77.15927881036761
 21
-58.95379042057421
 31
0.0
  0
LWPOLYLINE
  5
BD
330
70
100
AcDbEntity
  8
Camada 1
 62
    18
420
        0
370
    15
100
AcDbPolyline
 90
        4
 70
     0
 43
0.0
 10
75.01638195547169
 20
-65.03878907552539
 10
75.07644544704603
 20
-64.98221756480056
 10
75.13162087590456
 20
-64.93146483803577
 10
75.18190824204598
 20
-64.8867653517284
  0
LWPOLYLINE
  5
BE
330
70
100
AcDbEntity
  8
Camada 1
 62
    18
420
        0
370
    15
100
AcDbPolyline
 90
        7
 70
     0
 43
0.0
 10
73.76922259333302
 20
-67.80411109086272
 10
73.77852980577113
 20
-67.64836448209151
 10
73.7943591716602
 20
-67.4940139551866
 10
73.81647623450412
 20
-67.34082505365056
 10
73.84464653780291
 20
-67.18926669047568
 10
73.87840827330848
 20
-67.03956976979045
 10
73.91751987978051
 20
-66.89173784396378
  0
LWPOLYLINE
  5
BF
330
70
100
AcDbEntity
  8
Camada 1
 62
    18
420
        0
370
    15
100
AcDbPolyline
 90
        6
 70
     0
 43
0.0
 10
73.91766197462676
 20
-66.89185151984104
 10
73.96212345206784
 20
-66.7461154929976
 10
74.01148009696507
 20
-66.60224090864385
 10
74.06549034808199
 20
-66.46069312739929
 10
74.12369239716923
 20
-66.32170660576136
 10
74.18608624422552
 20
-66.18504688723263
  0
LWPOLYLINE
  5
C0
330
70
100
AcDbEntity
  8
Camada 1
 62
    18
420
        0
370
    15
100
AcDbPolyline
 90
       13
 70
     0
 43
0.0
 10
74.18453030565702
 20
-66.18858504890837
 10
74.24948185994849
 20
-66.05798212320724
 10
74.31676376972058
 20
-65.93435960683756
 10
74.38543820898754
 20
-65.81702478741888
 10
74.45551228249094
 20
-65.70713929032521
 10
74.5260552689879
 20
-65.60423775492932
 10
74.59729452023163
 20
-65.50715855586744
 10
74.66876822797278
 20
-65.4158981407656
 10
74.74000747921651
 20
-65.33068741374845
 10
74.81055046571346
 20
-65.25036830181857
 10
74.88155526046107
 20
-65.17424098785773
 10
74.95116752571511
 20
-65.10277083248931
 10
75.0163535365014
 20
-65.0387464470706
  0
LWPOLYLINE
  5
C1
330
70
100
AcDbEntity
  8
Camada 1
 62
    18
420
        0
370
    15
100
AcDbPolyline
 90
        7
 70
     0
 43
0.0
 10
74.18453030565702
 20
-67.80411109086272
 10
74.1917416191119
 20
-67.67676568951627
 10
74.20361364352934
 20
-67.550351009414
 10
74.22084264365487
 20
-67.42510150705207
 10
74.24226344175072
 20
-67.30101363005902
 10
74.26833784606627
 20
-67.1787907479258
 10
74.29836959185344
 20
-67.05772949116017
  0
LWPOLYLINE
  5
C2
330
70
100
AcDbEntity
  8
Camada 1
 62
    18
420
        0
370
    15
100
AcDbPolyline
 90
        6
 70
     0
 43
0.0
 10
74.29846905824621
 20
-67.05786803363626
 10
74.33268549725953
 20
-66.93867177173048
 10
74.37063903073414
 20
-66.82087159169099
 10
74.41184653619069
 20
-66.70516375826456
 10
74.45654247012662
 20
-66.59155537619411
 10
74.50449948078868
 20
-66.47980843661205
  0
LINE
  5
C3
330
70
100
AcDbEntity
  8
Camada 1
 62
    18
420
        0
370
    15
100
AcDbLine
 10
76.68342448398994
 20
-64.99991192554819
 30
0.0
 11
76.67131800307635
 21
-64.99944656492738
 31
0.0
  0
LWPOLYLINE
  5
C4
330
70
100
AcDbEntity
  8
Camada 1
 62
    18
420
        0
370
    15
100
AcDbPolyline
 90
       38
 70
     0
 43
0.0
 10
76.67115459400271
 20
-64.99946787915348
 10
76.64763789692234
 20
-64.99714107604299
 10
76.62435565633938
 20
-64.99271837394927
 10
76.6020041370006
 20
-64.98643067699571
 10
76.58059044364765
 20
-64.97851599405246
 10
76.55986591029986
 20
-64.9689707727455
 10
76.540313659434
 20
-64.95756410894886
 10
76.52191948156815
 20
-64.9452267239106
 10
76.50492493793746
 20
-64.93125524813719
 10
76.48909557204838
 20
-64.9163566034923
 10
76.47465873565415
 20
-64.90029278110582
 10
76.46162153349639
 20
-64.88353269397254
 10
76.45021842207248
 20
-64.86583833322491
 10
76.43997338364728
 20
-64.84791306835131
 10
76.43158978770919
 20
-64.82905352986207
 10
76.42437136951144
 20
-64.81019754374429
 10
76.41902149854498
 20
-64.79110710113037
 10
76.41459524407853
 20
-64.77155129789434
 10
76.41203753684334
 20
-64.75246085527913
 10
76.41063790260689
 20
-64.73313595616909
 10
76.41063790260689
 20
-64.71427997005131
 10
76.41203753684334
 20
-64.6956548880582
 10
76.41436078758239
 20
-64.6772642625625
 10
76.41785632080464
 20
-64.65956990181488
 10
76.42274438352046
 20
-64.64234090168806
 10
76.42832871098436
 20
-64.62558081455478
 10
76.43485086443405
 20
-64.60951699216957
 10
76.44230373912794
 20
-64.59414943453116
 10
76.45091468682053
 20
-64.5794852463824
 10
76.45976009100927
 20
-64.56551377060899
 10
76.46953621644091
 20
-64.55224566432653
 10
76.48001571136352
 20
-64.53990472691683
 10
76.49072255803936
 20
-64.52826715899551
 10
76.50189831771003
 20
-64.51755675994822
 10
76.51354299037167
 20
-64.50777708214513
 10
76.52471164529945
 20
-64.49916613445252
 10
76.53588740496883
 20
-64.49148235563267
 10
76.54706316463822
 20
-64.48449839393233
  0
LWPOLYLINE
  5
C5
330
70
100
AcDbEntity
  8
Camada 1
 62
    18
420
        0
370
    15
100
AcDbPolyline
 90
        4
 70
     0
 43
0.0
 10
69.16760887792507
 20
-67.86811060968259
 10
69.13920411812888
 20
-67.68535887535293
 10
69.1024157623946
 20
-67.51191435346136
 10
69.05306622223898
 20
-67.32613599890298
  0
LWPOLYLINE
  5
C6
330
70
100
AcDbEntity
  8
Camada 1
 62
    18
420
        0
370
    15
100
AcDbPolyline
 90
        4
 70
     0
 43
0.0
 10
69.45428523054343
 20
-67.21950447379126
 10
69.50643403917324
 20
-67.41553141914628
 10
69.5476344398869
 20
-67.61062409088694
 10
69.57790064217149
 20
-67.80408622426517
  0
LWPOLYLINE
  5
C7
330
70
100
AcDbEntity
  8
Camada 1
 62
    18
420
        0
370
    15
100
AcDbPolyline
 90
       16
 70
     0
 43
0.0
 10
69.0592331385724
 20
-67.34703815080891
 10
68.99893519050191
 20
-67.16032907500633
 10
68.9314188242324
 20
-66.98199649039766
 10
68.85272669829477
 20
-66.80296764104477
 10
68.76379663867358
 20
-66.6232389745711
 10
68.66345636288558
 20
-66.44281404335064
 10
68.55240924042174
 20
-66.26168929501194
 10
68.43064816653789
 20
-66.08079545079793
 10
68.29794578948207
 20
-65.89990515895538
 10
68.15407475749975
 20
-65.71947667536348
 10
67.99413279838806
 20
-65.53369832080509
 10
67.82860651181248
 20
-65.35606555331593
 10
67.65120820082073
 20
-65.18005977181903
 10
67.46821845762221
 20
-65.01197222563684
 10
67.2675379060475
 20
-64.84202323696753
 10
67.04893208959791
 20
-64.67207424829823
  0
LWPOLYLINE
  5
C8
330
70
100
AcDbEntity
  8
Camada 1
 62
    18
420
        0
370
    15
100
AcDbPolyline
 90
       16
 70
     0
 43
0.0
 10
67.30409180528437
 20
-64.34451010362771
 10
67.52921267044076
 20
-64.51981606800638
 10
67.74269596767711
 20
-64.70047545572298
 10
67.94384543224537
 20
-64.88579200203071
 10
68.13241950290778
 20
-65.07320089495151
 10
68.30865263615919
 20
-65.26247478273216
 10
68.47395157098026
 20
-65.4543099301194
 10
68.62806764138904
 20
-65.64777206349764
 10
68.77031168738167
 20
-65.84170310986813
 10
68.90184888669587
 20
-66.03702668573477
 10
69.02221032634199
 20
-66.23351899171187
 10
69.13116865456419
 20
-66.43000774531883
 10
69.22894411837413
 20
-66.62719631604272
 10
69.31555092725756
 20
-66.82508470388613
 10
69.39074751997421
 20
-67.02250417873727
 10
69.45430654477082
 20
-67.21946184533648
  0
LWPOLYLINE
  5
C9
330
70
100
AcDbEntity
  8
Camada 1
 62
    18
420
        0
370
    15
100
AcDbPolyline
 90
        3
 70
     0
 43
0.0
 10
62.14236151958174
 20
-62.02720603425559
 10
62.57445063326768
 20
-62.12801522303585
 10
63.02819500154432
 20
-62.24907292743002
  0
LWPOLYLINE
  5
CA
330
70
100
AcDbEntity
  8
Camada 1
 62
    18
420
        0
370
    15
100
AcDbPolyline
 90
       11
 70
     0
 43
0.0
 10
67.04688592380978
 20
-64.67058225241061
 10
66.66228490779236
 20
-64.39587028585958
 10
66.26557741086134
 20
-64.13512624270925
 10
65.85979005324547
 20
-63.88928084420506
 10
65.45842895009477
 20
-63.66648322978772
 10
65.04869135574761
 20
-63.45881871651139
 10
64.62800535348685
 20
-63.26419140539154
 10
64.20941525020933
 20
-63.08842008039206
 10
63.78221419924051
 20
-62.9268511352881
 10
63.346864008831
 20
-62.77901565708999
 10
62.90778382870183
 20
-62.64631683240562
  0
LWPOLYLINE
  5
CB
330
70
100
AcDbEntity
  8
Camada 1
 62
    18
420
        0
370
    15
100
AcDbPolyline
 90
       11
 70
     0
 43
0.0
 10
63.02810974463605
 20
-62.24907292743002
 10
63.48068183043077
 20
-62.38619800657957
 10
63.92953813599159
 20
-62.53868709099865
 10
64.37001084561432
 20
-62.70584391593538
 10
64.80233441579639
 20
-62.88743402489745
 10
65.23652653320846
 20
-63.08857993709426
 10
65.66000469920179
 20
-63.30369732506319
 10
66.07509926925833
 20
-63.53440962242636
 10
66.49392382903069
 20
-63.78816970387635
 10
66.90343407162335
 20
-64.05799360771027
 10
67.28826243939529
 20
-64.33270912663274
  0
LWPOLYLINE
  5
CC
330
70
100
AcDbEntity
  8
Camada 1
 62
    18
420
        0
370
    15
100
AcDbPolyline
 90
        9
 70
     0
 43
0.0
 10
78.08921142791081
 20
-69.58723445177962
 10
78.10666777979086
 20
-69.60492881252725
 10
78.12622713539832
 20
-69.62052727429163
 10
78.14694456400451
 20
-69.63379893294554
 10
78.16882717034973
 20
-69.64474023611879
 10
78.19210941093398
 20
-69.65335473618155
 10
78.21562610801307
 20
-69.65940797663899
 10
78.23983196509861
 20
-69.66266550099239
 10
78.26404492692578
 20
-69.66383067873272
  0
LINE
  5
CD
330
70
100
AcDbEntity
  8
Camada 1
 62
    18
420
        0
370
    15
100
AcDbLine
 10
77.14435885149534
 20
-58.99839754523171
 30
0.0
 11
77.15063944370601
 21
-58.97581867413842
 31
0.0
  0
LINE
  5
CE
330
70
100
AcDbEntity
  8
Camada 1
 62
    18
420
        0
370
    15
100
AcDbLine
 10
78.86155375605165
 20
-63.33805585892406
 30
0.0
 11
85.14574096668864
 21
-63.26123228021644
 31
0.0
  0
LWPOLYLINE
  5
CF
330
70
100
AcDbEntity
  8
Camada 1
 62
    18
420
        0
370
    15
100
AcDbPolyline
 90
        3
 70
     0
 43
0.0
 10
78.06004646068695
 20
-69.54665571601751
 10
78.07354547109539
 20
-69.56784205761596
 10
78.08914748522993
 20
-69.58716695672729
  0
LINE
  5
D0
330
70
100
AcDbEntity
  8
Camada 1
 62
    18
420
        0
370
    15
100
AcDbLine
 10
78.04887070101756
 20
-69.52411947337772
 30
0.0
 11
78.06003935594405
 21
-69.54670189684245
 31
0.0
  0
LWPOLYLINE
  5
D1
330
70
100
AcDbEntity
  8
Camada 1
 62
    18
420
        0
370
    15
100
AcDbPolyline
 90
        7
 70
     0
 43
0.0
 10
82.2837873510543
 20
-61.55388454851554
 10
82.30566995740081
 20
-61.55318828376876
 10
82.3273181072499
 20
-61.55365364438957
 10
82.34873890534576
 20
-61.55504972625586
 10
82.37015259869872
 20
-61.55738008173652
 10
82.39157339679328
 20
-61.56087206258733
 10
82.41275973839302
 20
-61.56529476468105
  0
LWPOLYLINE
  5
D2
330
70
100
AcDbEntity
  8
Camada 1
 62
    18
420
        0
370
    15
100
AcDbPolyline
 90
        3
 70
     0
 43
0.0
 10
78.03412836070345
 20
-69.47583564456966
 10
78.04017449641799
 20
-69.50051396702019
 10
78.04902700534832
 20
-69.52426156822397
  0
LINE
  5
D3
330
70
100
AcDbEntity
  8
Camada 1
 62
    18
420
        0
370
    15
100
AcDbLine
 10
78.03406441802256
 20
-69.47544133137133
 30
0.0
 11
78.03406441802256
 21
-69.47567578786875
 31
0.0
  0
LINE
  5
D4
330
70
100
AcDbEntity
  8
Camada 1
 62
    18
420
        0
370
    15
100
AcDbLine
 10
76.84282648268432
 20
-72.11022436369098
 30
0.0
 11
77.28306473581092
 21
-69.45737752402293
 31
0.0
  0
LINE
  5
D5
330
70
100
AcDbEntity
  8
Camada 1
 62
    18
420
        0
370
    15
100
AcDbLine
 10
76.42747614190554
 20
-72.11022436369098
 30
0.0
 11
76.88284749617444
 21
-69.36471747468335
 31
0.0
  0
LWPOLYLINE
  5
D6
330
70
100
AcDbEntity
  8
Camada 1
 62
    18
420
        0
370
    15
100
AcDbPolyline
 90
       15
 70
     0
 43
0.0
 10
77.64920763128033
 20
-60.05543755525508
 10
77.61405336628121
 20
-60.05893308847605
 10
77.57912645303531
 20
-60.06568259368027
 10
77.54513736577523
 20
-60.07592763210546
 10
77.51207899975934
 20
-60.0891957383892
 10
77.48064761973572
 20
-60.10595937789263
 10
77.45061587394726
 20
-60.12551518112864
 10
77.42291448364072
 20
-60.14786314809725
 10
77.39707453582259
 20
-60.17300683116861
 10
77.37402675173704
 20
-60.20047731734916
 10
77.35377113138152
 20
-60.23004370251424
 10
77.33630767475857
 20
-60.26170598666512
 10
77.32187794310594
 20
-60.29476790505118
 10
77.31116399168723
 20
-60.32922235293336
 10
77.3034837652401
 20
-60.36460752205845
  0
LWPOLYLINE
  5
D7
330
70
100
AcDbEntity
  8
Camada 1
 62
    18
420
        0
370
    15
100
AcDbPolyline
 90
       65
 70
     0
 43
0.0
 10
79.25681899029142
 20
-62.55230688202595
 10
79.28358965935375
 20
-62.53368535240429
 10
79.31012587191995
 20
-62.51482581391634
 10
79.33597292447969
 20
-62.49596982779855
 10
79.36157841580298
 20
-62.47711028930931
 10
79.38672209887305
 20
-62.45825430319151
 10
79.41116951719762
 20
-62.43916386057631
 10
79.43538247902349
 20
-62.42007341796239
 10
79.45912652785839
 20
-62.4012174318446
 10
79.4819398554478
 20
-62.38189253273455
 10
79.50475318303851
 20
-62.36280209011934
 10
79.52664289412663
 20
-62.34371164750542
 10
79.54805658747959
 20
-62.32439030076553
 10
79.56900847258189
 20
-62.30529985815161
 10
79.58949854943355
 20
-62.28597495904028
 10
79.60905080029814
 20
-62.26665361230168
 10
79.62837569940948
 20
-62.24756316968775
 10
79.64676987727533
 20
-62.22823827057641
 10
79.66492959864504
 20
-62.20868246733911
 10
79.68215859877315
 20
-62.18959202472519
 10
79.69891868590514
 20
-62.17027067798531
 10
79.71521696478776
 20
-62.15094577887525
 10
79.73057741768457
 20
-62.13185533626005
 10
79.74548316707235
 20
-62.11276844601758
 10
79.75967844222755
 20
-62.09367800340365
 10
79.77295010088146
 20
-62.07458756078845
 10
79.7857528465431
 20
-62.05596247879662
 10
79.79785932745667
 20
-62.0373373968048
 10
79.80926954362219
 20
-62.01894677130911
 10
79.81997639029931
 20
-62.0007870499381
 10
79.82998697222837
 20
-61.98285823269305
 10
79.83930128940937
 20
-61.96563278493769
 10
79.84791223710196
 20
-61.94863824130829
 10
79.85559956829198
 20
-61.93233996242566
 10
79.86258352999361
 20
-61.91674150066256
 10
79.86887122694589
 20
-61.90254267313462
 10
79.87422109791364
 20
-61.889271014482
 10
79.87910916063075
 20
-61.87669917294504
 10
79.88353541509464
 20
-61.86482714852887
 10
79.88749275656755
 20
-61.85365138885949
 10
79.89098828978852
 20
-61.84271008568624
 10
79.89424226177177
 20
-61.83246504725977
 10
79.89704153024596
 20
-61.8224544653307
 10
79.89983369397726
 20
-61.81314370051988
 10
79.90239140121243
 20
-61.80382938333888
 10
79.90472175669308
 20
-61.79474952265402
 10
79.90658319918146
 20
-61.78613857496142
 10
79.90844464166986
 20
-61.77775497902334
 10
79.91030608415697
 20
-61.7693749354567
 10
79.91194017489084
 20
-61.76146025251217
 10
79.91333270438568
 20
-61.7537764736936
 10
79.91473233862342
 20
-61.74609269487374
 10
79.91612486811828
 20
-61.73887782904743
 10
79.91706269410407
 20
-61.73165941084967
 10
79.91822076710279
 20
-61.72490990564675
 10
79.91892413659119
 20
-61.71815684807109
 10
79.91985485783537
 20
-61.71163824699284
 10
79.92055112258345
 20
-61.70535410240944
 10
79.92124738733022
 20
-61.69953176607798
 10
79.92171630032377
 20
-61.69440924686603
 10
79.92217810857441
 20
-61.68975564064633
 10
79.92241256507054
 20
-61.68579829917471
 10
79.92264702156797
 20
-61.68277167894599
 10
79.92311593456022
 20
-61.67811452035485
 10
82.2837873510543
 20
-61.5540266433618
  0
LINE
  5
D8
330
70
100
AcDbEntity
  8
Camada 1
 62
    18
420
        0
370
    15
100
AcDbLine
 10
61.47690293490597
 20
-58.96114738124678
 30
0.0
 11
61.48272171886599
 21
-58.98256817934264
 31
0.0
  0
LINE
  5
D9
330
70
100
AcDbEntity
  8
Camada 1
 62
    18
420
        0
370
    15
100
AcDbLine
 10
61.46861880536066
 20
-58.94033403862056
 30
0.0
 11
61.47699529655586
 21
-58.96105501959691
 31
0.0
  0
LWPOLYLINE
  5
DA
330
70
100
AcDbEntity
  8
Camada 1
 62
    18
420
        0
370
    15
100
AcDbPolyline
 90
        3
 70
     0
 43
0.0
 10
61.44538629797408
 20
-58.90126861297217
 10
61.45818904363572
 20
-58.9203590555861
 10
61.46866143381416
 20
-58.94038377181694
  0
LINE
  5
DB
330
70
100
AcDbEntity
  8
Camada 1
 62
    18
420
        0
370
    15
100
AcDbLine
 10
61.43064395765867
 20
-58.88350675717223
 30
0.0
 11
61.44554260230484
 21
-58.90120111792114
 31
0.0
  0
LWPOLYLINE
  5
DC
330
70
100
AcDbEntity
  8
Camada 1
 62
    18
420
        0
370
    15
100
AcDbPolyline
 90
        3
 70
     0
 43
0.0
 10
61.35382037895105
 20
-58.82935441120777
 10
61.37523407230402
 20
-58.83983390613036
 10
61.39548969265955
 20
-58.85263665179201
  0
LINE
  5
DD
330
70
100
AcDbEntity
  8
Camada 1
 62
    18
420
        0
370
    15
100
AcDbLine
 10
61.33114204146629
 20
-58.82085713939371
 30
0.0
 11
61.35372091255828
 21
-58.82924073533178
 31
0.0
  0
LINE
  5
DE
330
70
100
AcDbEntity
  8
Camada 1
 62
    18
420
        0
370
    15
100
AcDbLine
 10
61.48279276628977
 20
-58.98251844614625
 30
0.0
 11
62.14233310061274
 21
-62.0271847200282
 31
0.0
  0
LWPOLYLINE
  5
DF
330
70
100
AcDbEntity
  8
Camada 1
 62
    18
420
        0
370
    15
100
AcDbPolyline
 90
        3
 70
     0
 43
0.0
 10
61.39544706420605
 20
-58.85265796601811
 10
61.41406859382644
 20
-58.86732570653831
 10
61.43059422446229
 20
-58.88362398542093
  0
LWPOLYLINE
  5
E0
330
70
100
AcDbEntity
  8
Camada 1
 62
    18
420
        0
370
    15
100
AcDbPolyline
 90
        4
 70
     0
 43
0.0
 10
61.25878734567733
 20
-58.80914497167846
 10
61.28346211575514
 20
-58.81054460591491
 10
61.30767507758228
 20
-58.81450194738782
 10
61.33118466991977
 20
-58.82078609196994
  0
LWPOLYLINE
  5
E1
330
70
100
AcDbEntity
  8
Camada 1
 62
    18
420
        0
370
    15
100
AcDbPolyline
 90
        5
 70
     0
 43
0.0
 10
82.41262474828836
 20
-61.56529121230961
 10
82.44009168209748
 20
-61.57250963050737
 10
82.46640054290915
 20
-61.5813550346961
 10
82.49177868247663
 20
-61.59160007312129
 10
82.51621899605831
 20
-61.60277583279196
  0
LWPOLYLINE
  5
E2
330
70
100
AcDbEntity
  8
Camada 1
 62
    18
420
        0
370
    15
100
AcDbPolyline
 90
       29
 70
     0
 43
0.0
 10
77.71683767342711
 20
-68.79598995669606
 10
77.76711793482693
 20
-68.79762049505848
 10
77.81810867045802
 20
-68.80227765364961
 10
77.8690923013475
 20
-68.80996143246946
 10
77.91821448974989
 20
-68.82066827914531
 10
77.96477186617292
 20
-68.83347457717839
 10
78.00877864010494
 20
-68.84860767831941
 10
78.05021349731603
 20
-68.86536776545267
 10
78.08909775203355
 20
-68.88329303032627
 10
78.12541009003267
 20
-68.90261792943633
 10
78.15939917729147
 20
-68.92240818916976
 10
78.19083055731638
 20
-68.94312561777595
 10
78.22016603835677
 20
-68.96431195937438
 10
78.24740562041137
 20
-68.98549830097282
 10
78.27254930348273
 20
-69.00715000319336
 10
78.29605889582021
 20
-69.02879815304373
 10
78.3177141504122
 20
-69.05044985526427
 10
78.33773531427032
 20
-69.07187065335886
 10
78.3565913003881
 20
-69.09328789908326
 10
78.37382030051492
 20
-69.11470514480767
 10
78.38988412290013
 20
-69.13566058228143
 10
78.40478276754629
 20
-69.15637801088633
 10
78.41828177795344
 20
-69.17663363124185
 10
78.43109162835668
 20
-69.19642033860256
 10
78.44249473978059
 20
-69.21597614183986
 10
78.4532086912006
 20
-69.23530104094992
 10
80.53125345819784
 20
-69.21691041545422
 10
80.53125345819784
 20
-69.63200498550948
 10
78.26393125104852
 20
-69.66390172615648
  0
LWPOLYLINE
  5
E3
330
70
100
AcDbEntity
  8
Camada 1
 62
   250
420
  1907995
370
    18
100
AcDbPolyline
 90
        4
 70
     0
 43
0.0
 10
59.59176613138517
 20
-58.79564240889859
 10
59.56219619384865
 20
-58.79704204313632
 10
59.53262625631213
 20
-58.80146474523005
 10
59.50399414476269
 20
-58.8091485240499
  0
LINE
  5
E4
330
70
100
AcDbEntity
  8
Camada 1
 62
    18
420
        0
370
    15
100
AcDbLine
 10
82.51613373915132
 20
-61.60291437526677
 30
0.0
 11
82.53918152323688
 21
-61.61525531267647
 31
0.0
  0
LWPOLYLINE
  5
E5
330
70
100
AcDbEntity
  8
Camada 1
 62
    18
420
        0
370
    15
100
AcDbPolyline
 90
        6
 70
     0
 43
0.0
 10
82.53906074261802
 20
-61.61534767432763
 10
82.56070889246711
 20
-61.62861933298153
 10
82.58119896931876
 20
-61.64282171287835
 10
82.59982049893915
 20
-61.65748945339855
 10
82.61704949906725
 20
-61.6721536415473
 10
82.6326444084589
 20
-61.68705583856491
  0
LWPOLYLINE
  5
E6
330
70
100
AcDbEntity
  8
Camada 1
 62
    18
420
        0
370
    15
100
AcDbPolyline
 90
       18
 70
     0
 43
0.0
 10
82.93383574963815
 20
-60.05823327135782
 10
79.74878687225068
 20
-60.17719862913764
 10
79.7320196803758
 20
-60.15555047928727
 10
79.7138599590048
 20
-60.13506040243689
 10
79.69430770814021
 20
-60.11573905569701
 10
79.67312136654178
 20
-60.0982791514455
 10
79.65076984720173
 20
-60.08221532905902
 10
79.65007358245495
 20
-60.08174996843692
 10
79.62423363463553
 20
-60.06615150667381
 10
79.59745586083158
 20
-60.05264894389394
 10
79.5699889270212
 20
-60.04147318422456
 10
79.54158416722499
 20
-60.03262778003582
 10
79.51271759917815
 20
-60.02587472246016
 10
79.48338211813903
 20
-60.02145202036643
 10
79.45381218060251
 20
-60.01959057787805
 10
79.42378043481534
 20
-60.01982148200402
 10
79.42284971357115
 20
-60.01982148200402
 10
77.64722540817307
 20
-60.05776791073572
  0
LWPOLYLINE
  5
E7
330
70
100
AcDbEntity
  8
Camada 1
 62
    18
420
        0
370
    15
100
AcDbPolyline
 90
        6
 70
     0
 43
0.0
 10
82.63260888474702
 20
-61.68688887711982
 10
82.64331573142415
 20
-61.6980646367892
 10
82.6533263133532
 20
-61.70877503583777
 10
82.66264063053419
 20
-61.71971633900974
 10
82.67125157822681
 20
-61.73042673805831
 10
82.67893180467522
 20
-61.74043731998736
  0
LWPOLYLINE
  5
E8
330
70
100
AcDbEntity
  8
Camada 1
 62
    18
420
        0
370
    15
100
AcDbPolyline
 90
        5
 70
     0
 43
0.0
 10
82.67076135100715
 20
-61.72937523619395
 10
83.06886137743301
 20
-62.2988274378983
 10
83.06932318568366
 20
-62.2988274378983
 10
83.06932318568366
 20
-62.45364332542532
 10
84.45360407460169
 20
-62.45364332542532
  0
LWPOLYLINE
  5
E9
330
70
100
AcDbEntity
  8
Camada 1
 62
   250
420
  1907995
370
    18
100
AcDbPolyline
 90
        4
 70
     0
 43
0.0
 10
85.14560597658528
 20
-72.64805690969793
 10
85.14560597658528
 20
-62.84613415778974
 10
84.45369643625157
 20
-62.84613415778974
 10
84.45369643625157
 20
-62.45385291532389
  0
LWPOLYLINE
  5
EA
330
70
100
AcDbEntity
  8
Camada 1
 62
    18
420
        0
370
    15
100
AcDbPolyline
 90
       22
 70
     0
 43
0.0
 10
69.72879115956732
 20
-71.78433693820783
 10
69.75765772761417
 20
-71.96127344094891
 10
69.79723114233685
 20
-72.13727567007437
 10
69.84798742147311
 20
-72.31211627383095
 10
69.91014681203198
 20
-72.48485742623284
 10
69.9832475057641
 20
-72.65480996727359
 10
70.06682769441754
 20
-72.82126697509209
 10
70.16157653800005
 20
-72.98353218494281
 10
70.26680487650385
 20
-73.1409128844479
 10
70.38205090167963
 20
-73.29293660824361
 10
70.50730040404156
 20
-73.43820727446365
 10
70.64186422358577
 20
-73.57719379610159
 10
70.78573525556809
 20
-73.70873099541708
 10
70.93822433998589
 20
-73.83235173560231
 10
71.09886256384566
 20
-73.9475906560352
 10
71.26718101415125
 20
-74.05375149196894
 10
71.44272498739877
 20
-74.15059978690611
 10
71.62454244811408
 20
-74.23743749991423
 10
71.81265471052457
 20
-74.3140319506829
 10
72.00635130039893
 20
-74.38014868271467
 10
72.20470149649428
 20
-74.43509143126151
 10
72.40701613880284
 20
-74.47886019632469
  0
LINE
  5
EB
330
70
100
AcDbEntity
  8
Camada 1
 62
    18
420
        0
370
    15
100
AcDbLine
 10
69.67750202475793
 20
-71.3938958240017
 30
0.0
 11
69.72871300740194
 21
-71.78431562398043
 31
0.0
  0
INSERT
  5
ED
330
70
100
AcDbEntity
  8
Camada 1
100
AcDbBlockReference
  2
Block_0
 10
0.0
 20
0.0
 30
0.0
  0
LWPOLYLINE
  5
F2
330
70
100
AcDbEntity
  8
Camada 1
 62
    18
420
        0
370
    15
100
AcDbPolyline
 90
       22
 70
     0
 43
0.0
 10
70.1700596003296
 20
-71.73398207701279
 10
70.19519617865807
 20
-71.88810169979302
 10
70.22988863540911
 20
-72.04129060132906
 10
70.27412276109437
 20
-72.19377968574687
 10
70.32789855571516
 20
-72.34394196705419
 10
70.39145758051049
 20
-72.49223925350296
 10
70.46455827424262
 20
-72.63704811147235
 10
70.54720774165314
 20
-72.77859589271819
 10
70.63846815675628
 20
-72.91548651537161
 10
70.73903578429879
 20
-73.0479544359313
 10
70.84799411252101
 20
-73.17460002015824
 10
70.96556338843453
 20
-73.29566127692387
 10
71.09057843429905
 20
-73.41020393260868
 10
71.22351526785229
 20
-73.51775907422298
 10
71.36342895836297
 20
-73.61809935001097
 10
71.50986480232463
 20
-73.71075762316483
 10
71.6628227997347
 20
-73.79503407656635
 10
71.82136512460994
 20
-73.87069602990509
 10
71.98502996869584
 20
-73.93727989874341
 10
72.15381733199627
 20
-73.99501658720855
 10
72.3265549320267
 20
-74.04274091755891
 10
72.50279517002103
 20
-74.08092180278676
  0
LINE
  5
F3
330
70
100
AcDbEntity
  8
Camada 1
 62
    18
420
        0
370
    15
100
AcDbLine
 10
70.12537787587817
 20
-71.3938958240017
 30
0.0
 11
70.17007380981538
 21
-71.73403181020917
 31
0.0
  0
INSERT
  5
F5
330
70
100
AcDbEntity
  8
Camada 1
100
AcDbBlockReference
  2
Block_1
 10
0.0
 20
0.0
 30
0.0
  0
LWPOLYLINE
  5
FB
330
70
100
AcDbEntity
  8
Camada 1
 62
    18
420
        0
370
    15
100
AcDbPolyline
 90
        4
 70
     0
 43
0.0
 10
77.30341982255922
 20
-60.36276739379744
 10
76.99983418321846
 20
-61.73098446033028
 10
76.54865462691859
 20
-61.68535425277871
 10
77.14440858469171
 20
-58.99828031698301
  0
LINE
  5
FC
330
70
100
AcDbEntity
  8
Camada 1
 62
    18
420
        0
370
    15
100
AcDbLine
 10
79.03387928102654
 20
-62.69103763294037
 30
0.0
 11
79.25690424719968
 21
-62.55228556779857
 31
0.0
  0
LINE
  5
FD
330
70
100
AcDbEntity
  8
Camada 1
 62
    18
420
        0
370
    15
100
AcDbLine
 10
77.16303011431209
 20
-63.62881033363418
 30
0.0
 11
76.94232129413638
 21
-63.74056082558769
 31
0.0
  0
SPLINE
  5
FE
330
70
100
AcDbEntity
  8
Camada 1
 62
    18
420
        0
370
    15
100
AcDbSpline
210
0.0
220
0.0
230
1.0
 70
     8
 71
     3
 72
     8
 73
     4
 74
     0
 42
0.0000000001
 43
0.0000000001
 40
0.0
 40
0.0
 40
0.0
 40
0.0
 40
1.0
 40
1.0
 40
1.0
 40
1.0
 10
69.67750202475793
 20
-71.3938958240017
 30
0.0
 10
69.65375087118143
 20
-71.26375825892395
 30
0.0
 10
69.52919763356627
 20
-71.12709854039522
 30
0.0
 10
69.33620441318158
 20
-71.1606222670332
 30
0.0
  0
LINE
  5
FF
330
70
100
AcDbEntity
  8
Camada 1
 62
    18
420
        0
370
    15
100
AcDbLine
 10
65.96979988333075
 20
-72.48071536146018
 30
0.0
 11
66.27989346663671
 21
-72.48351107756292
 31
0.0
  0
LWPOLYLINE
  5
100
330
70
100
AcDbEntity
  8
Camada 1
 62
    18
420
        0
370
    15
100
AcDbPolyline
 90
        6
 70
     0
 43
0.0
 10
74.18429584916089
 20
-67.80411109086272
 10
74.05322045809604
 20
-71.13233828785716
 10
73.63836034453694
 20
-71.13233828785716
 10
73.63836034453694
 20
-71.13117311011683
 10
73.63836034453694
 20
-71.13233828785716
 10
73.76919417436275
 20
-67.80411109086272
  0
LINE
  5
101
330
70
100
AcDbEntity
  8
Camada 1
 62
   250
420
  1907995
370
    18
100
AcDbLine
 10
84.45361117934458
 20
-62.45375700130257
 30
0.0
 11
84.45361117934458
 21
-59.77832773816979
 31
0.0
  0
LWPOLYLINE
  5
102
330
70
100
AcDbEntity
  8
Camada 1
 62
    18
420
        0
370
    15
100
AcDbPolyline
 90
        3
 70
     0
 43
0.0
 10
84.45361117934458
 20
-59.77834905239718
 10
83.06956474692141
 20
-59.77834905239718
 10
83.06606921370041
 20
-59.91989683364174
  0
LINE
  5
103
330
70
100
AcDbEntity
  8
Camada 1
 62
    18
420
        0
370
    15
100
AcDbLine
 10
83.06965710857255
 20
-62.2988700663518
 30
0.0
 11
83.0661615753503
 21
-59.92003892848799
 31
0.0
  0
INSERT
  5
105
330
70
100
AcDbEntity
  8
Camada 1
100
AcDbBlockReference
  2
Block_2
 10
0.0
 20
0.0
 30
0.0
  0
LINE
  5
10A
330
70
100
AcDbEntity
  8
Camada 1
 62
    18
420
        0
370
    15
100
AcDbLine
 10
77.61158802069591
 20
-68.79598995669606
 30
0.0
 11
77.71681635919972
 21
-68.79598995669606
 31
0.0
  0
INSERT
  5
10C
330
70
100
AcDbEntity
  8
Camada 1
100
AcDbBlockReference
  2
Block_3
 10
0.0
 20
0.0
 30
0.0
  0
LINE
  5
111
330
70
100
AcDbEntity
  8
Camada 1
 62
    18
420
        0
370
    15
100
AcDbLine
 10
73.34865737168986
 20
-74.56765348965681
 30
0.0
 11
73.14936934961
 21
-74.56136934507469
 31
0.0
  0
LINE
  5
112
330
70
100
AcDbEntity
  8
Camada 1
 62
    18
420
        0
370
    15
100
AcDbLine
 10
73.34865737168986
 20
-74.15264950506569
 30
0.0
 11
73.14936934961
 21
-74.14636536048359
 31
0.0
  0
SPLINE
  5
113
330
70
100
AcDbEntity
  8
Camada 1
 62
    18
420
        0
370
    15
100
AcDbSpline
210
0.0
220
0.0
230
1.0
 70
     8
 71
     3
 72
    14
 73
    10
 74
     0
 42
0.0000000001
 43
0.0000000001
 40
0.0
 40
0.0
 40
0.0
 40
0.0
 40
1.0
 40
1.0
 40
1.0
 40
2.0
 40
2.0
 40
2.0
 40
3.0
 40
3.0
 40
3.0
 40
3.0
 10
65.79296284698242
 20
-71.73866054983133
 30
0.0
 10
65.79296284698242
 20
-71.73866054983133
 30
0.0
 10
62.46962016033363
 20
-62.7802021490577
 30
0.0
 10
62.46962016033363
 20
-62.7802021490577
 30
0.0
 10
62.42655121238868
 20
-62.66472877212869
 30
0.0
 10
62.53155219913798
 20
-62.54855913045162
 30
0.0
 10
62.65074846104377
 20
-62.57975605398041
 30
0.0
 10
62.65074846104377
 20
-62.57975605398041
 30
0.0
 10
62.92103417312962
 20
-62.6500610316085
 30
0.0
 10
62.92103417312962
 20
-62.6500610316085
 30
0.0
  0
LWPOLYLINE
  5
114
330
70
100
AcDbEntity
  8
Camada 1
 62
    18
420
        0
370
    15
100
AcDbPolyline
 90
       11
 70
     0
 43
0.0
 10
66.67365249550437
 20
-71.31860686963519
 10
66.60543275974646
 20
-71.33676659100619
 10
66.53885421946402
 20
-71.36051419221125
 10
66.47436447342451
 20
-71.39031503387247
 10
66.4126739958579
 20
-71.42570020299884
 10
66.35400303377839
 20
-71.4662078913359
 10
66.29906206141601
 20
-71.51183809888874
 10
66.24807843052652
 20
-71.56212546503017
 10
66.20174840585672
 20
-71.6168355332666
 10
66.16030644390275
 20
-71.67573739947207
 10
66.12445591415556
 20
-71.73789679003093
  0
SPLINE
  5
115
330
70
100
AcDbEntity
  8
Camada 1
 62
    18
420
        0
370
    15
100
AcDbSpline
210
0.0
220
0.0
230
1.0
 70
     8
 71
     3
 72
     8
 73
     4
 74
     0
 42
0.0000000001
 43
0.0000000001
 40
0.0
 40
0.0
 40
0.0
 40
0.0
 40
1.0
 40
1.0
 40
1.0
 40
1.0
 10
65.79296284698242
 20
-71.73866054983133
 30
0.0
 10
65.84231238713804
 20
-71.87159738338327
 30
0.0
 10
66.00178543325618
 20
-71.93259159620182
 30
0.0
 10
66.12447722838294
 20
-71.73796428508325
 30
0.0
  0
LWPOLYLINE
  5
116
330
70
100
AcDbEntity
  8
Camada 1
 62
    18
420
        0
370
    15
100
AcDbPolyline
 90
       17
 70
     0
 43
0.0
 10
76.68342448398994
 20
-64.99991192554819
 10
80.53104031592781
 20
-65.05369127254171
 10
80.53104031592781
 20
-65.46878939496841
 10
75.23046205106204
 20
-65.45435611094434
 10
75.1420009044344
 20
-65.54189008870054
 10
75.09171353829168
 20
-65.59427335382648
 10
75.03839955192155
 20
-65.6527063070384
 10
74.98392038781109
 20
-65.71533461059082
 10
74.92967568019547
 20
-65.78075152550437
 10
74.87496916433049
 20
-65.8505946948818
 10
74.82025554372262
 20
-65.92509502285167
 10
74.76554902785763
 20
-66.00471431766203
 10
74.7113043202433
 20
-66.08899077106483
 10
74.65752142087962
 20
-66.17862064780425
 10
74.60467634750303
 20
-66.27430731737256
 10
74.55322380362
 20
-66.37580921852944
 10
74.50340535047084
 20
-66.48243719126971
  0
LWPOLYLINE
  5
117
330
70
100
AcDbEntity
  8
Camada 1
 62
   250
420
  1907995
370
    18
100
AcDbPolyline
 90
        4
 70
     0
 43
0.0
 10
85.14560597658528
 20
-58.809169838276
 10
85.14560597658528
 20
-59.38607136230279
 10
84.45369643625157
 20
-59.38607136230279
 10
84.45369643625157
 20
-59.77835260476862
  0
LINE
  5
118
330
70
100
AcDbEntity
  8
Camada 1
 62
    18
420
        0
370
    15
100
AcDbLine
 10
61.29298957520615
 20
-58.81321954139879
 30
0.0
 11
77.37165376780161
 21
-58.81764579586396
 31
0.0
  0
LINE
  5
119
330
70
100
AcDbEntity
  8
Camada 1
 62
    18
420
        0
370
    15
100
AcDbLine
 10
59.59176613138517
 20
-58.79564240889859
 30
0.0
 11
61.25866656505717
 21
-58.81007924529281
 31
0.0
  0
LINE
  5
11A
330
70
100
AcDbEntity
  8
Camada 1
 62
    18
420
        0
370
    15
100
AcDbLine
 10
62.14234020535435
 20
-62.02720603425559
 30
0.0
 11
79.92306620136512
 21
-61.67822819623212
 31
0.0
  0
SPLINE
  5
11B
330
70
100
AcDbEntity
  8
Camada 1
 62
    18
420
        0
370
    15
100
AcDbSpline
210
0.0
220
0.0
230
1.0
 70
    27
 71
     3
 72
    11
 73
     7
 74
     0
 42
0.0000000001
 43
0.0000000001
 40
0.0
 40
0.0
 40
0.0
 40
0.0
 40
1.0
 40
1.0
 40
1.0
 40
2.0
 40
2.0
 40
2.0
 40
2.0
 10
77.37153298718147
 20
-58.81766711009134
 30
0.0
 10
77.37153298718147
 20
-58.81766711009134
 30
0.0
 10
85.14546388173901
 20
-58.80928706652471
 30
0.0
 10
85.14546388173901
 20
-58.80928706652471
 30
0.0
 10
85.14546388173901
 20
-58.80928706652471
 30
0.0
 10
77.37153298718147
 20
-58.81766711009134
 30
0.0
 10
77.37153298718147
 20
-58.81766711009134
 30
0.0
  0
LWPOLYLINE
  5
11C
330
70
100
AcDbEntity
  8
Camada 1
 62
    18
420
        0
370
    15
100
AcDbPolyline
 90
        8
 70
     0
 43
0.0
 10
32.59489569846803
 20
-74.5476804296442
 10
32.64634468997929
 20
-74.53953306638926
 10
32.69686296024668
 20
-74.5304532057044
 10
32.74715032638875
 20
-74.51997726315323
 10
32.79720323603436
 20
-74.50833614286176
 10
32.84702524155465
 20
-74.49553162101439
 10
32.89638188645219
 20
-74.4815636976137
 10
32.94154673338166
 20
-74.46736309390004
  0
LWPOLYLINE
  5
11D
330
70
100
AcDbEntity
  8
Camada 1
 62
    18
420
        0
370
    15
100
AcDbPolyline
 90
        9
 70
     0
 43
0.0
 10
32.27669205180345
 20
-74.57384897179536
 10
32.31696528364501
 20
-74.57268557024075
 10
32.36213013057448
 20
-74.57082412775235
 10
32.4065987127562
 20
-74.56803018783533
 10
32.45013302132325
 20
-74.56453820698452
 10
32.49157143090513
 20
-74.56057908932717
 10
32.53045213325249
 20
-74.55638906754384
 10
32.56700248011887
 20
-74.55150100482675
 10
32.59493832692184
 20
-74.5475418871694
  0
LWPOLYLINE
  5
11E
330
70
100
AcDbEntity
  8
Camada 1
 62
    18
420
        0
370
    15
100
AcDbPolyline
 90
        8
 70
     0
 43
0.0
 10
31.89341962259999
 20
-74.5476804296442
 10
31.8419670787176
 20
-74.53953306638926
 10
31.79144880844957
 20
-74.5304532057044
 10
31.74116144230751
 20
-74.51997726315323
 10
31.6911085326619
 20
-74.50833614286176
 10
31.64128652714194
 20
-74.49553162101439
 10
31.59192988224342
 20
-74.4815636976137
 10
31.54676503531428
 20
-74.46736309390004
  0
LWPOLYLINE
  5
11F
330
70
100
AcDbEntity
  8
Camada 1
 62
    18
420
        0
370
    15
100
AcDbPolyline
 90
        9
 70
     0
 43
0.0
 10
32.21164813586212
 20
-74.57384897179536
 10
32.17137135164911
 20
-74.57268557024075
 10
32.12620650471997
 20
-74.57082412775235
 10
32.08173792253793
 20
-74.56803018783533
 10
32.0382036139712
 20
-74.56453820698452
 10
31.99676520438899
 20
-74.56057908932717
 10
31.95788450204164
 20
-74.55638906754384
 10
31.9213341551759
 20
-74.55150100482675
 10
31.89339830837293
 20
-74.5475418871694
  0
LINE
  5
120
330
70
100
AcDbEntity
  8
Camada 1
 62
    18
420
        0
370
    15
100
AcDbLine
 10
28.51726028154297
 20
-72.65378525502865
 30
0.0
 11
28.2297420169595
 21
-72.65378525502865
 31
0.0
  0
LINE
  5
121
330
70
100
AcDbEntity
  8
Camada 1
 62
    18
420
        0
370
    15
100
AcDbLine
 10
35.9710799061226
 20
-72.65378525502865
 30
0.0
 11
36.25859461833464
 21
-72.65378525502865
 31
0.0
  0
LINE
  5
122
330
70
100
AcDbEntity
  8
Camada 1
 62
    18
420
        0
370
    15
100
AcDbLine
 10
28.60912459974269
 20
-72.50371888774265
 30
0.0
 11
30.10026081315617
 21
-72.49859992090087
 31
0.0
  0
LINE
  5
123
330
70
100
AcDbEntity
  8
Camada 1
 62
    18
420
        0
370
    15
100
AcDbLine
 10
34.39121967061506
 20
-72.50029440194417
 30
0.0
 11
35.87909480730337
 21
-72.5049515605353
 31
0.0
  0
LINE
  5
124
330
70
100
AcDbEntity
  8
Camada 1
 62
    18
420
        0
370
    15
100
AcDbLine
 10
27.78007221840351
 20
-72.29526219569821
 30
0.0
 11
25.58352390187615
 21
-62.68540549530197
 31
0.0
  0
LINE
  5
125
330
70
100
AcDbEntity
  8
Camada 1
 62
    18
420
        0
370
    15
100
AcDbLine
 10
27.17009101413441
 20
-65.32132883876311
 30
0.0
 11
27.17009101413441
 21
-61.39851286173586
 31
0.0
  0
LINE
  5
126
330
70
100
AcDbEntity
  8
Camada 1
 62
    18
420
        0
370
    15
100
AcDbLine
 10
29.27270042770364
 20
-71.69119568941077
 30
0.0
 11
29.50713561004198
 21
-71.6455654818592
 31
0.0
  0
LINE
  5
127
330
70
100
AcDbEntity
  8
Camada 1
 62
    18
420
        0
370
    15
100
AcDbLine
 10
28.94550928200439
 20
-71.75302826182236
 30
0.0
 11
29.27283541780797
 21
-71.6911033277609
 31
0.0
  0
LINE
  5
128
330
70
100
AcDbEntity
  8
Camada 1
 62
    18
420
        0
370
    15
100
AcDbLine
 10
35.21563975996194
 20
-71.69119568941077
 30
0.0
 11
35.54017373203357
 21
-71.75265881522287
 31
0.0
  0
LINE
  5
129
330
70
100
AcDbEntity
  8
Camada 1
 62
    18
420
        0
370
    15
100
AcDbLine
 10
34.98125075844853
 20
-71.64551574866283
 30
0.0
 11
35.2156859407872
 21
-71.69114950858584
 31
0.0
  0
LWPOLYLINE
  5
12A
330
70
100
AcDbEntity
  8
Camada 1
 62
    18
420
        0
370
    15
100
AcDbPolyline
 90
        5
 70
     0
 43
0.0
 10
35.54029096028132
 20
-71.75256290120154
 10
35.54750582610795
 20
-71.75396253543801
 10
35.56170820600573
 20
-71.75722005979141
 10
35.57567612940737
 20
-71.76094649713835
 10
35.58941314868337
 20
-71.76536919923335
  0
LWPOLYLINE
  5
12B
330
70
100
AcDbEntity
  8
Camada 1
 62
    18
420
        0
370
    15
100
AcDbPolyline
 90
       27
 70
     0
 43
0.0
 10
35.58953037693143
 20
-71.76529815180959
 10
35.60279848321486
 20
-71.76995531040072
 10
35.61607014186876
 20
-71.77531228611009
 10
35.62864198340444
 20
-71.78089661357397
 10
35.64121027256867
 20
-71.78694985403012
 10
35.6530858493566
 20
-71.79346845510965
 10
35.66495787377373
 20
-71.80022151268531
 10
35.67613363344344
 20
-71.80743993088178
 10
35.68707493661636
 20
-71.81488925320422
 10
35.6975508791672
 20
-71.82280393614876
 10
35.70756146109658
 20
-71.83095307559071
 10
35.71734113889999
 20
-71.83909866266121
 10
35.72665190371083
 20
-71.84771316272398
 10
35.73573176439601
 20
-71.85632766278676
 10
35.74434626445942
 20
-71.8654075234729
 10
35.75249540390041
 20
-71.87471828828243
 10
35.76017563034817
 20
-71.88403260546472
 10
35.76762850504238
 20
-71.89334337027554
 10
35.77461246674304
 20
-71.90288859158251
 10
35.78113106782224
 20
-71.9126682693856
 10
35.78718430827871
 20
-71.92244439481853
 10
35.79300309223873
 20
-71.93222407262162
 10
35.79835651557698
 20
-71.94200019805454
 10
35.80371349128666
 20
-71.95201077998361
 10
35.80813619338103
 20
-71.96179045778798
 10
35.81255889547507
 20
-71.97180103971703
 10
35.8167506934438
 20
-71.98157716514868
  0
LINE
  5
12C
330
70
100
AcDbEntity
  8
Camada 1
 62
    18
420
        0
370
    15
100
AcDbLine
 10
30.18055861085898
 20
-73.06005928749401
 30
0.0
 11
30.18055861085898
 21
-73.06005928749401
 31
0.0
  0
LWPOLYLINE
  5
12D
330
70
100
AcDbEntity
  8
Camada 1
 62
    18
420
        0
370
    15
100
AcDbPolyline
 90
       28
 70
     0
 43
0.0
 10
30.18055861085898
 20
-73.06013033491779
 10
30.18311631809448
 20
-73.06921019560265
 10
30.20104513533919
 20
-73.12857742243021
 10
30.22129720332264
 20
-73.18910627462665
 10
30.2445794439056
 20
-73.25080030456343
 10
30.27041939172406
 20
-73.31365951224181
 10
30.29905505564558
 20
-73.37721853703714
 10
30.33095179629194
 20
-73.44170473070649
 10
30.36610606129204
 20
-73.50665806118367
 10
30.40358712940197
 20
-73.57091157454134
 10
30.44386391361498
 20
-73.63377078221843
 10
30.48669840506347
 20
-73.6956974924669
 10
30.53209770848907
 20
-73.75692616178158
 10
30.58075453626872
 20
-73.81722410985334
 10
30.6322035277803
 20
-73.87658956049517
 10
30.68691359601705
 20
-73.93479160958114
 10
30.74465028448187
 20
-73.99183025711249
 10
30.80564804967122
 20
-74.04747104659441
 10
30.86990333921461
 20
-74.10148307389704
 10
30.93718524898672
 20
-74.15363188252685
 10
31.00795558723787
 20
-74.20391747248384
 10
31.08199055458499
 20
-74.25187625933033
 10
31.15904858978938
 20
-74.2977391471923
 10
31.23936770171926
 20
-74.34057541482684
 10
31.32317879449899
 20
-74.38108487935091
 10
31.41025096400389
 20
-74.41810058683842
 10
31.50011529724009
 20
-74.45185876997253
 10
31.54690713016118
 20
-74.46745723173693
  0
LINE
  5
12E
330
70
100
AcDbEntity
  8
Camada 1
 62
    18
420
        0
370
    15
100
AcDbLine
 10
28.94804922738394
 20
-71.75253803460271
 30
0.0
 11
28.94804922738394
 21
-71.75253803460271
 31
0.0
  0
LINE
  5
12F
330
70
100
AcDbEntity
  8
Camada 1
 62
    18
420
        0
370
    15
100
AcDbLine
 10
28.77164913268743
 20
-61.12170144383014
 30
0.0
 11
28.77164913268743
 21
-65.26243052492779
 31
0.0
  0
LINE
  5
130
330
70
100
AcDbEntity
  8
Camada 1
 62
    18
420
        0
370
    15
100
AcDbLine
 10
28.60914946634088
 20
-72.56836849048565
 30
0.0
 11
28.60938037046621
 21
-72.56068826403725
 31
0.0
  0
LWPOLYLINE
  5
131
330
70
100
AcDbEntity
  8
Camada 1
 62
    18
420
        0
370
    15
100
AcDbPolyline
 90
        3
 70
     0
 43
0.0
 10
28.61638919876507
 20
-72.46849357531975
 10
28.61662010289071
 20
-72.46290924785587
 10
28.61825064125346
 20
-72.44288808399776
  0
LINE
  5
132
330
70
100
AcDbEntity
  8
Camada 1
 62
    18
420
        0
370
    15
100
AcDbLine
 10
28.61832168867626
 20
-72.44298044564764
 30
0.0
 11
28.61994867466756
 21
-72.42295928178951
 31
0.0
  0
LINE
  5
133
330
70
100
AcDbEntity
  8
Camada 1
 62
    18
420
        0
370
    15
100
AcDbLine
 10
28.62001972209069
 20
-72.42300546261446
 30
0.0
 11
28.62188116457908
 21
-72.40391857237068
 31
0.0
  0
LINE
  5
134
330
70
100
AcDbEntity
  8
Camada 1
 62
    18
420
        0
370
    15
100
AcDbLine
 10
30.17513414009729
 20
-73.04031876095696
 30
0.0
 11
30.18048756343553
 21
-73.06010902069039
 31
0.0
  0
LWPOLYLINE
  5
135
330
70
100
AcDbEntity
  8
Camada 1
 62
    18
420
        0
370
    15
100
AcDbPolyline
 90
        3
 70
     0
 43
0.0
 10
30.158999270288
 20
-72.9761096522385
 10
30.16691395323317
 20
-73.00823729701149
 10
30.17505954030271
 20
-73.0403649417819
  0
LWPOLYLINE
  5
136
330
70
100
AcDbEntity
  8
Camada 1
 62
    18
420
        0
370
    15
100
AcDbPolyline
 90
        7
 70
     0
 43
0.0
 10
30.10035672717749
 20
-72.57579649858072
 10
30.10221816966556
 20
-72.60257072001448
 10
30.1045449727754
 20
-72.63074102331326
 10
30.10734068887815
 20
-72.65960759136011
 10
30.11036730910687
 20
-72.6894084330226
 10
30.11409019408236
 20
-72.720139995928
 10
30.11618609306689
 20
-72.73690008306129
  0
LINE
  5
137
330
70
100
AcDbEntity
  8
Camada 1
 62
    18
420
        0
370
    15
100
AcDbLine
 10
30.09874750304213
 20
-72.54999917921607
 30
0.0
 11
30.10037448903343
 21
-72.57584267940565
 31
0.0
  0
LINE
  5
138
330
70
100
AcDbEntity
  8
Camada 1
 62
    18
420
        0
370
    15
100
AcDbLine
 10
30.09746864942422
 20
-72.52534572336564
 30
0.0
 11
30.0988647312902
 21
-72.55002404581489
 31
0.0
  0
LINE
  5
139
330
70
100
AcDbEntity
  8
Camada 1
 62
    18
420
        0
370
    15
100
AcDbLine
 10
30.09709565045264
 20
-72.51785022021699
 30
0.0
 11
30.09732655457797
 21
-72.52530309491087
 31
0.0
  0
LINE
  5
13A
330
70
100
AcDbEntity
  8
Camada 1
 62
    18
420
        0
370
    15
100
AcDbLine
 10
28.56244644269919
 20
-65.64400136834635
 30
0.0
 11
28.76382325902164
 21
-65.49291191816627
 31
0.0
  0
LINE
  5
13B
330
70
100
AcDbEntity
  8
Camada 1
 62
    18
420
        0
370
    15
100
AcDbLine
 10
30.79109753739973
 20
-69.16799618760084
 30
0.0
 11
30.78807091717102
 21
-69.16776528347615
 31
0.0
  0
LWPOLYLINE
  5
13C
330
70
100
AcDbEntity
  8
Camada 1
 62
    18
420
        0
370
    15
100
AcDbPolyline
 90
       10
 70
     0
 43
0.0
 10
30.11891076174682
 20
-72.75550029845556
 10
30.12170292547845
 20
-72.7748251975669
 10
30.12449508921039
 20
-72.79438100080291
 10
30.12775616593524
 20
-72.81463662115716
 10
30.13124814678541
 20
-72.83675368400108
 10
30.13543994475477
 20
-72.86073218933082
 10
30.14009355097414
 20
-72.88657213714896
 10
30.14545052668351
 20
-72.91427707982693
 10
30.15173467126562
 20
-72.94407792148813
 10
30.15895308946306
 20
-72.97620556626111
  0
LINE
  5
13D
330
70
100
AcDbEntity
  8
Camada 1
 62
    18
420
        0
370
    15
100
AcDbLine
 10
30.1163743687384
 20
-72.73690008306129
 30
0.0
 11
30.11893207597357
 21
-72.7555251650531
 31
0.0
  0
LWPOLYLINE
  5
13E
330
70
100
AcDbEntity
  8
Camada 1
 62
    18
420
        0
370
    15
100
AcDbPolyline
 90
        4
 70
     0
 43
0.0
 10
28.66867654987033
 20
-71.98965525716686
 10
28.6716996177276
 20
-71.98150967009763
 10
28.67542605507486
 20
-71.97242980941277
 10
28.67938339654681
 20
-71.9631154922305
  0
LINE
  5
13F
330
70
100
AcDbEntity
  8
Camada 1
 62
    18
420
        0
370
    15
100
AcDbLine
 10
28.67945799634106
 20
-71.96309062563166
 30
0.0
 11
28.68388069843575
 21
-71.95377986082212
 31
0.0
  0
LWPOLYLINE
  5
140
330
70
100
AcDbEntity
  8
Camada 1
 62
    18
420
        0
370
    15
100
AcDbPolyline
 90
       30
 70
     0
 43
0.0
 10
28.68383451761017
 20
-71.95380117504822
 10
28.68848812383019
 20
-71.94449041023869
 10
28.6936106430431
 20
-71.93517964542785
 10
28.69873316225569
 20
-71.92586532824558
 10
28.70455194621603
 20
-71.91701992405684
 10
28.7103742825475
 20
-71.90794006337198
 10
28.71665842712961
 20
-71.89909465918325
 10
28.7231770282085
 20
-71.89024570262306
 10
28.73016098990948
 20
-71.8816312025603
 10
28.73714495160982
 20
-71.87302025486897
 10
28.74459427393258
 20
-71.86487111542702
 10
28.75251250924793
 20
-71.85672197598508
 10
28.76065809631843
 20
-71.84857283654441
 10
28.76904169225652
 20
-71.840892610096
 10
28.77765619231928
 20
-71.83320883127743
 10
28.78673250063334
 20
-71.82599041307968
 10
28.79604681781529
 20
-71.81854109075723
 10
28.80582294324758
 20
-71.81179158555302
 10
28.81583352517664
 20
-71.80503852797865
 10
28.82631302009892
 20
-71.79851992689911
 10
28.83678896265008
 20
-71.79246668644296
 10
28.84773026582301
 20
-71.78664790248295
 10
28.85890602549271
 20
-71.78106002264762
 10
28.87054359341339
 20
-71.7761719599305
 10
28.88241917020132
 20
-71.77128034484325
 10
28.89429119461813
 20
-71.76685764274951
 10
28.90686303615412
 20
-71.76266584478049
 10
28.91943487768916
 20
-71.75894295980498
 10
28.93223762335016
 20
-71.75568188307885
 10
28.94550928200439
 20
-71.75288971934882
  0
LINE
  5
141
330
70
100
AcDbEntity
  8
Camada 1
 62
    18
420
        0
370
    15
100
AcDbLine
 10
28.56244644269919
 20
-65.64400136834635
 30
0.0
 11
27.49292340041985
 21
-65.64400136834635
 31
0.0
  0
LINE
  5
142
330
70
100
AcDbEntity
  8
Camada 1
 62
    18
420
        0
370
    15
100
AcDbLine
 10
35.92589019259526
 20
-65.64400136834635
 30
0.0
 11
36.99540968250315
 21
-65.64400136834635
 31
0.0
  0
LINE
  5
143
330
70
100
AcDbEntity
  8
Camada 1
 62
    18
420
        0
370
    15
100
AcDbLine
 10
35.81663346519573
 20
-71.9815061177262
 30
0.0
 11
35.81965653305364
 21
-71.98965525716686
 31
0.0
  0
LINE
  5
144
330
70
100
AcDbEntity
  8
Camada 1
 62
    18
420
        0
370
    15
100
AcDbLine
 10
35.82233857327881
 20
-71.99707971289176
 30
0.0
 11
35.81977731367251
 21
-71.98963039056931
 31
0.0
  0
LWPOLYLINE
  5
145
330
70
100
AcDbEntity
  8
Camada 1
 62
    18
420
        0
370
    15
100
AcDbPolyline
 90
        4
 70
     0
 43
0.0
 10
35.86654783236653
 20
-72.40405356247534
 10
35.86840927485396
 20
-72.42314400508925
 10
35.87003981321638
 20
-72.44293426482269
 10
35.87166679920767
 20
-72.46295542868081
  0
LINE
  5
146
330
70
100
AcDbEntity
  8
Camada 1
 62
    18
420
        0
370
    15
100
AcDbLine
 10
34.39087153824135
 20
-72.52534572336564
 30
0.0
 11
34.39110244236668
 21
-72.51789640104192
 31
0.0
  0
LWPOLYLINE
  5
147
330
70
100
AcDbEntity
  8
Camada 1
 62
    18
420
        0
370
    15
100
AcDbPolyline
 90
        8
 70
     0
 43
0.0
 10
34.37417894615976
 20
-72.72013644355657
 10
34.37767092701025
 20
-72.6894084330226
 10
34.3809284513643
 20
-72.65960759136011
 10
34.38372061509624
 20
-72.63074102331326
 10
34.38605097057689
 20
-72.60257072001448
 10
34.38791241306496
 20
-72.57579649858072
 10
34.38954295142738
 20
-72.54995655076257
 10
34.39093903329303
 20
-72.52527822831332
  0
LINE
  5
148
330
70
100
AcDbEntity
  8
Camada 1
 62
    18
420
        0
370
    15
100
AcDbLine
 10
34.37194450470011
 20
-72.73690008306129
 30
0.0
 11
34.37427130780996
 21
-72.720139995928
 31
0.0
  0
LINE
  5
149
330
70
100
AcDbEntity
  8
Camada 1
 62
    18
420
        0
370
    15
100
AcDbLine
 10
35.72453469049924
 20
-65.49300072744471
 30
0.0
 11
35.92591150682201
 21
-65.64409372999621
 31
0.0
  0
LINE
  5
14A
330
70
100
AcDbEntity
  8
Camada 1
 62
    18
420
        0
370
    15
100
AcDbLine
 10
35.87153180910367
 20
-72.46302292373314
 30
0.0
 11
35.871762713229
 21
-72.46861080356719
 31
0.0
  0
LINE
  5
14B
330
70
100
AcDbEntity
  8
Camada 1
 62
    18
420
        0
370
    15
100
AcDbLine
 10
35.8790983596745
 20
-72.56825126223695
 30
0.0
 11
35.87886390317804
 21
-72.56057103578854
 31
0.0
  0
LINE
  5
14C
330
70
100
AcDbEntity
  8
Camada 1
 62
    18
420
        0
370
    15
100
AcDbLine
 10
35.71669105497847
 20
-61.12170144383014
 30
0.0
 11
35.71669105497847
 21
-65.26243052492779
 31
0.0
  0
LWPOLYLINE
  5
14D
330
70
100
AcDbEntity
  8
Camada 1
 62
    18
420
        0
370
    15
100
AcDbPolyline
 90
       11
 70
     0
 43
0.0
 10
34.32934091737758
 20
-72.9761096522385
 10
34.33655578320357
 20
-72.94421646396422
 10
34.34284348015713
 20
-72.91418471817705
 10
34.34819690349505
 20
-72.88671423199521
 10
34.35285406208587
 20
-72.86063982768094
 10
34.35727676418088
 20
-72.83689222647588
 10
34.36053428853396
 20
-72.81477516363196
 10
34.36379536525912
 20
-72.79451954327772
 10
34.36682198548816
 20
-72.77473283591702
 10
34.36938324509382
 20
-72.75540793680568
 10
34.37194450470011
 20
-72.73678285481385
  0
LWPOLYLINE
  5
14E
330
70
100
AcDbEntity
  8
Camada 1
 62
    18
420
        0
370
    15
100
AcDbPolyline
 90
        3
 70
     0
 43
0.0
 10
34.31318118097009
 20
-73.04031876095696
 10
34.32156122453673
 20
-73.00819466855671
 10
34.32924145098514
 20
-72.97606702378502
  0
LINE
  5
14F
330
70
100
AcDbEntity
  8
Camada 1
 62
    18
420
        0
370
    15
100
AcDbLine
 10
34.30778157680692
 20
-73.06003797326662
 30
0.0
 11
34.31313500014548
 21
-73.04025126590592
 31
0.0
  0
LINE
  5
150
330
70
100
AcDbEntity
  8
Camada 1
 62
    18
420
        0
370
    15
100
AcDbLine
 10
35.54029096028132
 20
-71.75251672037532
 30
0.0
 11
35.54029096028132
 21
-71.75251672037532
 31
0.0
  0
LINE
  5
151
330
70
100
AcDbEntity
  8
Camada 1
 62
    18
420
        0
370
    15
100
AcDbLine
 10
37.31822430693329
 20
-61.39848799513831
 30
0.0
 11
37.31822430693329
 21
-65.32130752453571
 31
0.0
  0
LWPOLYLINE
  5
152
330
70
100
AcDbEntity
  8
Camada 1
 62
    18
420
        0
370
    15
100
AcDbPolyline
 90
        3
 70
     0
 43
0.0
 10
27.44701610791834
 20
-61.12174762465508
 10
30.09707078385445
 20
-61.12174762465508
 10
30.10079366883059
 20
-61.23372902073456
  0
LWPOLYLINE
  5
153
330
70
100
AcDbEntity
  8
Camada 1
 62
    18
420
        0
370
    15
100
AcDbPolyline
 90
        3
 70
     0
 43
0.0
 10
37.04125303232378
 20
-61.12174762465508
 10
34.3925908858822
 20
-61.12174762465508
 10
34.38630674130041
 20
-61.23722100158409
  0
LINE
  5
154
330
70
100
AcDbEntity
  8
Camada 1
 62
    18
420
        0
370
    15
100
AcDbLine
 10
36.70824310266451
 20
-72.29526219569821
 30
0.0
 11
38.9045534103227
 21
-62.68540549530197
 31
0.0
  0
LWPOLYLINE
  5
155
330
70
100
AcDbEntity
  8
Camada 1
 62
    18
420
        0
370
    15
100
AcDbPolyline
 90
       28
 70
     0
 43
0.0
 10
32.94154673338166
 20
-74.46738618431315
 10
32.9881076621771
 20
-74.45178949873448
 10
33.07820289953895
 20
-74.41803131560037
 10
33.16504061254772
 20
-74.38101560811286
 10
33.2488517053268
 20
-74.34073882390049
 10
33.32940172138201
 20
-74.29766987595555
 10
33.40646330895753
 20
-74.25203966840398
 10
33.4804947239332
 20
-74.20384820124579
 10
33.55103771043047
 20
-74.15356083510309
 10
33.61855052432823
 20
-74.10141202647328
 10
33.68257490974597
 20
-74.04740177535636
 10
33.74356912256484
 20
-73.99175920969002
 10
33.80130581102934
 20
-73.93472233834437
 10
33.85601587926577
 20
-73.87652028925713
 10
33.90746487077735
 20
-73.81738574274125
 10
33.95612169855699
 20
-73.75685689054481
 10
34.00175190610823
 20
-73.69562822122886
 10
34.04458994992786
 20
-73.63370151098168
 10
34.08463227764409
 20
-73.57084230330329
 10
34.12234780225112
 20
-73.5065870137599
 10
34.15750206725089
 20
-73.44163368328273
 10
34.18939525552613
 20
-73.37737839373933
 10
34.21803091944766
 20
-73.31359201718949
 10
34.24387441963724
 20
-73.2507328095111
 10
34.26692220372343
 20
-73.18903877957433
 10
34.28740872820332
 20
-73.12850637500644
 10
34.30510308895159
 20
-73.06914270055031
 10
34.30789525268354
 20
-73.06029374399014
  0
LINE
  5
156
330
70
100
AcDbEntity
  8
Camada 1
 62
    18
420
        0
370
    15
100
AcDbLine
 10
24.21792138051776
 20
-58.81489818360801
 30
0.0
 11
40.27051116879833
 21
-58.81489818360801
 31
0.0
  0
INSERT
  5
158
330
70
100
AcDbEntity
  8
Camada 1
100
AcDbBlockReference
  2
Block_4
 10
0.0
 20
0.0
 30
0.0
  0
LWPOLYLINE
  5
184
330
70
100
AcDbEntity
  8
Camada 1
 62
    18
420
        0
370
    15
100
AcDbPolyline
 90
       11
 70
     0
 43
0.0
 10
35.83372392284741
 20
-72.06250018017548
 10
35.83395482697242
 20
-72.0666919781445
 10
35.83442018759419
 20
-72.07088377611355
 10
35.83488554821597
 20
-72.07507202171115
 10
35.83535090883839
 20
-72.07926381968019
 10
35.83558536533484
 20
-72.08322116115311
 10
35.83605072595661
 20
-72.08764386324682
 10
35.83651608657871
 20
-72.09160120471974
 10
35.83698144720081
 20
-72.09579300268749
 10
35.83721590369727
 20
-72.09998480065653
 10
35.83768126431904
 20
-72.10417304625413
  0
LWPOLYLINE
  5
185
330
70
100
AcDbEntity
  8
Camada 1
 62
    18
420
        0
370
    15
100
AcDbPolyline
 90
       11
 70
     0
 43
0.0
 10
35.8377274451443
 20
-72.10421922708035
 10
35.84075051300157
 20
-72.13425452523897
 10
35.84331177260818
 20
-72.16428627102614
 10
35.84633839283626
 20
-72.19431801681331
 10
35.84936501306465
 20
-72.22411885847581
 10
35.85216072916772
 20
-72.25415060426297
 10
35.85495289289966
 20
-72.28394789355275
 10
35.85797951312806
 20
-72.31421409583733
 10
35.8607752292308
 20
-72.34401493749854
 10
35.86380184945952
 20
-72.37404668328571
 10
35.86659401319115
 20
-72.40407842907288
  0
LWPOLYLINE
  5
186
330
70
100
AcDbEntity
  8
Camada 1
 62
    18
420
        0
370
    15
100
AcDbPolyline
 90
       11
 70
     0
 43
0.0
 10
23.99312022876577
 20
-59.25313645177141
 10
23.98357500745849
 20
-59.23893762424476
 10
23.97496050739508
 20
-59.22426988372457
 10
23.96751118507232
 20
-59.20867142196017
 10
23.96052367100085
 20
-59.1928420560711
 10
23.95470488704019
 20
-59.17631287306251
 10
23.95004772844938
 20
-59.15978369005522
 10
23.94609038697711
 20
-59.14278559405437
 10
23.94329822324548
 20
-59.12579105042496
 10
23.94166768488274
 20
-59.1085656026696
 10
23.94120232426065
 20
-59.09180196316488
  0
LWPOLYLINE
  5
187
330
70
100
AcDbEntity
  8
Camada 1
 62
    18
420
        0
370
    15
100
AcDbPolyline
 90
       11
 70
     0
 43
0.0
 10
28.62174262210331
 20
-72.40405356247534
 10
28.62174262210331
 20
-72.40312284123243
 10
28.62197352622863
 20
-72.40265748060905
 10
28.62197352622863
 20
-72.40172675936612
 10
28.62197352622863
 20
-72.40103049461807
 10
28.62197352622863
 20
-72.4000962210037
 10
28.6222079827254
 20
-72.39939995625565
 10
28.6222079827254
 20
-72.39870013913741
 10
28.62243888685137
 20
-72.39776941789322
 10
28.62243888685137
 20
-72.397069600775
 10
28.62243888685137
 20
-72.39637333602693
  0
LWPOLYLINE
  5
188
330
70
100
AcDbEntity
  8
Camada 1
 62
    18
420
        0
370
    15
100
AcDbPolyline
 90
       11
 70
     0
 43
0.0
 10
28.62248862004711
 20
-72.39632360283055
 10
28.62551168790438
 20
-72.3651302316745
 10
28.62853830813278
 20
-72.33416421227167
 10
28.63133402423585
 20
-72.30297084111562
 10
28.63436064446392
 20
-72.27200482171281
 10
28.63738726469295
 20
-72.24080789818531
 10
28.64041388492103
 20
-72.20984543115394
 10
28.64344050514942
 20
-72.17864850762643
 10
28.64646712537782
 20
-72.14768604059378
 10
28.64925928910912
 20
-72.11648911706628
 10
28.65252036583429
 20
-72.0855266500362
  0
LWPOLYLINE
  5
189
330
70
100
AcDbEntity
  8
Camada 1
 62
    18
420
        0
370
    15
100
AcDbPolyline
 90
       11
 70
     0
 43
0.0
 10
28.65238182335915
 20
-72.08557283086114
 10
28.65261272748448
 20
-72.08324602775064
 10
28.65284718398125
 20
-72.08091922464015
 10
28.65307808810658
 20
-72.0785888691595
 10
28.65307808810658
 20
-72.07603116192434
 10
28.65354344872836
 20
-72.07393526293981
 10
28.65377790522545
 20
-72.0713740033332
 10
28.65400880935013
 20
-72.06904364785255
 10
28.6542432658469
 20
-72.06671684474334
 10
28.6542432658469
 20
-72.06439004163286
 10
28.654708626469
 20
-72.06205968615221
  0
LWPOLYLINE
  5
18A
330
70
100
AcDbEntity
  8
Camada 1
 62
    18
420
        0
370
    15
100
AcDbPolyline
 90
       15
 70
     0
 43
0.0
 10
35.71669105497847
 20
-65.2624980199814
 10
35.71669105497847
 20
-65.27996147660307
 10
35.71692195910348
 20
-65.30324016481586
 10
35.71692195910348
 20
-65.32628794890269
 10
35.71738731972557
 20
-65.34933573298824
 10
35.71738731972557
 20
-65.35422734807679
 10
35.71762177622202
 20
-65.37727513216234
 10
35.7180871368438
 20
-65.40055382037514
 10
35.719017858088
 20
-65.423370700336
 10
35.719017858088
 20
-65.42895858017134
 10
35.72018303582832
 20
-65.45200636425817
 10
35.72157911769461
 20
-65.47365806647871
 10
35.72297519956058
 20
-65.48762598987939
 10
35.72297519956058
 20
-65.48809135050149
 10
35.72460573792236
 20
-65.49297941321731
  0
LWPOLYLINE
  5
18B
330
70
100
AcDbEntity
  8
Camada 1
 62
    18
420
        0
370
    15
100
AcDbPolyline
 90
       11
 70
     0
 43
0.0
 10
34.38679696852069
 20
-61.23708245910928
 10
34.38609715140183
 20
-61.25035411776319
 10
34.38493197366182
 20
-61.26339131992096
 10
34.38400125241763
 20
-61.27666297857486
 10
34.38307053117407
 20
-61.28993108485732
 10
34.38190535343311
 20
-61.30320274351122
 10
34.3807437280639
 20
-61.316239945669
 10
34.37957855032358
 20
-61.32950805195146
 10
34.37818246845729
 20
-61.34277971060664
 10
34.37678283422052
 20
-61.35581691276442
 10
34.37515584822889
 20
-61.36885411492219
  0
LWPOLYLINE
  5
18C
330
70
100
AcDbEntity
  8
Camada 1
 62
    18
420
        0
370
    15
100
AcDbPolyline
 90
       12
 70
     0
 43
0.0
 10
35.54029096028132
 20
-71.75251672037532
 10
35.5028063398009
 20
-71.74553275867499
 10
35.42388686210844
 20
-71.73063411403011
 10
35.34496383204517
 20
-71.71573546938522
 10
35.30375632658797
 20
-71.7078207864394
 10
35.22483329652438
 20
-71.69268768529839
 10
35.14614472295725
 20
-71.6775545841561
 10
35.06745614939043
 20
-71.66219057888783
 10
34.98853311932685
 20
-71.64659211712472
 10
34.90984454576003
 20
-71.63099365536034
 10
34.83138687631854
 20
-71.61492983297513
 10
34.75269830275109
 20
-71.59863155409251
  0
LWPOLYLINE
  5
18D
330
70
100
AcDbEntity
  8
Camada 1
 62
    18
420
        0
370
    15
100
AcDbPolyline
 90
       15
 70
     0
 43
0.0
 10
28.77164913268743
 20
-65.26247670575401
 10
28.77164913268743
 20
-65.27994016237696
 10
28.7714146761913
 20
-65.30321885058848
 10
28.7714146761913
 20
-65.32626663467531
 10
28.7709493155692
 20
-65.34931441876214
 10
28.7709493155692
 20
-65.35420603384941
 10
28.77071485907243
 20
-65.37725381793624
 10
28.77024949845065
 20
-65.40053250614775
 10
28.76931877720646
 20
-65.42334938610863
 10
28.76931877720646
 20
-65.42916817006863
 10
28.76815359946613
 20
-65.45198505003078
 10
28.76675751760048
 20
-65.47386765637729
 10
28.76536143573451
 20
-65.48760467565329
 10
28.76536143573451
 20
-65.48807003627411
 10
28.76373089737177
 20
-65.4929580989912
  0
LWPOLYLINE
  5
18E
330
70
100
AcDbEntity
  8
Camada 1
 62
    18
420
        0
370
    15
100
AcDbPolyline
 90
       12
 70
     0
 43
0.0
 10
29.73561346594517
 20
-71.59874522996976
 10
29.69417150399153
 20
-71.60735973003254
 10
29.61571383455003
 20
-71.62342355241903
 10
29.5370252609829
 20
-71.63925647067954
 10
29.49954419287296
 20
-71.64670579300199
 10
29.42085561930582
 20
-71.66230425476509
 10
29.34216704573901
 20
-71.67766826003336
 10
29.26347491980108
 20
-71.69280136117565
 10
29.18455544210861
 20
-71.70793446231666
 10
29.10563241204502
 20
-71.72283310696283
 10
29.02694383847789
 20
-71.73773175160771
 10
28.94802080841462
 20
-71.75263394862532
  0
LWPOLYLINE
  5
18F
330
70
100
AcDbEntity
  8
Camada 1
 62
    18
420
        0
370
    15
100
AcDbPolyline
 90
        9
 70
     0
 43
0.0
 10
29.73561346594517
 20
-71.59874522996976
 10
29.7353790094484
 20
-71.59897968646589
 10
29.73514455295163
 20
-71.59897968646589
 10
29.73491364882598
 20
-71.59921414296203
 10
29.73467919233018
 20
-71.599445047088
 10
29.73421383170808
 20
-71.599445047088
 10
29.73421383170808
 20
-71.59967950358413
 10
29.73398292758243
 20
-71.5999104077101
 10
29.73374847108598
 20
-71.5999104077101
  0
LINE
  5
190
330
70
100
AcDbEntity
  8
Camada 1
 62
    18
420
        0
370
    15
100
AcDbLine
 10
32.21164813586212
 20
-74.57384897179536
 30
0.0
 11
32.27683414665003
 21
-74.57384897179536
 31
0.0
  0
LINE
  5
191
330
70
100
AcDbEntity
  8
Camada 1
 62
    18
420
        0
370
    15
100
AcDbLine
 10
28.60952246531246
 20
-72.56066339743842
 30
0.0
 11
28.56249262352444
 21
-65.64393387329402
 31
0.0
  0
LINE
  5
192
330
70
100
AcDbEntity
  8
Camada 1
 62
    18
420
        0
370
    15
100
AcDbLine
 10
35.92589019259526
 20
-65.64400136834635
 30
0.0
 11
35.8788603508066
 21
-72.56073444486219
 31
0.0
  0
LINE
  5
193
330
70
100
AcDbEntity
  8
Camada 1
 62
    18
420
        0
370
    15
100
AcDbLine
 10
30.09709565045264
 20
-72.51785022021699
 30
0.0
 11
29.64986988325425
 21
-64.62518842437704
 31
0.0
  0
LINE
  5
194
330
70
100
AcDbEntity
  8
Camada 1
 62
    18
420
        0
370
    15
100
AcDbLine
 10
34.83846675204052
 20
-64.62528078602692
 30
0.0
 11
34.39124098484181
 21
-72.5179461342383
 31
0.0
  0
INSERT
  5
196
330
70
100
AcDbEntity
  8
Camada 1
100
AcDbBlockReference
  2
Block_5
 10
0.0
 20
0.0
 30
0.0
  0
INSERT
  5
19C
330
70
100
AcDbEntity
  8
Camada 1
100
AcDbBlockReference
  2
Block_6
 10
0.0
 20
0.0
 30
0.0
  0
ENDSEC
  0
SECTION
  2
OBJECTS
  0
DICTIONARY
  5
C
330
0
100
AcDbDictionary
281
     1
  3
ACAD_COLOR
350
63
  3
ACAD_DETAILVIEWSTYLE
350
6A
  3
ACAD_GROUP
350
D
  3
ACAD_LAYOUT
350
62
  3
ACAD_MATERIAL
350
10
  3
ACAD_MLEADERSTYLE
350
66
  3
ACAD_MLINESTYLE
350
5F
  3
ACAD_PLOTSETTINGS
350
61
  3
ACAD_PLOTSTYLENAME
350
E
  3
ACAD_SCALELIST
350
42
  3
ACAD_SECTIONVIEWSTYLE
350
68
  3
ACAD_TABLESTYLE
350
64
  3
ACAD_VISUALSTYLE
350
29
  3
ACDB_RECOMPOSE_DATA
350
1D9
  3
AcDbVariableDictionary
350
1D1
  0
DICTIONARY
  5
63
102
{ACAD_REACTORS
330
C
102
}
330
C
100
AcDbDictionary
281
     1
  0
DICTIONARY
  5
6A
102
{ACAD_REACTORS
330
C
102
}
330
C
100
AcDbDictionary
281
     1
  3
Imperial24
350
6B
  0
DICTIONARY
  5
D
102
{ACAD_REACTORS
330
C
102
}
330
C
100
AcDbDictionary
281
     1
  0
DICTIONARY
  5
62
102
{ACAD_REACTORS
330
C
102
}
330
C
100
AcDbDictionary
281
     1
  3
Layout1
350
6F
  3
Layout2
350
77
  3
Model
350
73
  0
DICTIONARY
  5
10
102
{ACAD_REACTORS
330
C
102
}
330
C
100
AcDbDictionary
281
     1
  3
ByBlock
350
19
  3
ByLayer
350
11
  3
Global
350
21
  0
DICTIONARY
  5
66
102
{ACAD_REACTORS
330
C
102
}
330
C
100
AcDbDictionary
281
     1
  3
Standard
350
67
  0
DICTIONARY
  5
5F
102
{ACAD_REACTORS
330
C
102
}
330
C
100
AcDbDictionary
281
     1
  3
Standard
350
60
  0
DICTIONARY
  5
61
102
{ACAD_REACTORS
330
C
102
}
330
C
100
AcDbDictionary
281
     1
  0
ACDBDICTIONARYWDFLT
  5
E
102
{ACAD_REACTORS
330
C
102
}
330
C
100
AcDbDictionary
281
     1
  3
Normal
350
F
100
AcDbDictionaryWithDefault
340
F
  0
DICTIONARY
  5
42
102
{ACAD_REACTORS
330
C
102
}
330
C
100
AcDbDictionary
281
     1
  3
A0
350
43
  3
A1
350
44
  3
A2
350
45
  3
A3
350
46
  3
A4
350
47
  3
A5
350
48
  3
A6
350
49
  3
A7
350
4A
  3
A8
350
4B
  3
A9
350
4C
  3
B0
350
4D
  3
B1
350
4E
  3
B2
350
4F
  3
B3
350
50
  3
B4
350
51
  3
B5
350
52
  3
B6
350
53
  0
DICTIONARY
  5
68
102
{ACAD_REACTORS
330
C
102
}
330
C
100
AcDbDictionary
281
     1
  3
Imperial24
350
69
  0
DICTIONARY
  5
64
102
{ACAD_REACTORS
330
C
102
}
330
C
100
AcDbDictionary
281
     1
  3
Standard
350
65
  0
DICTIONARY
  5
29
102
{ACAD_REACTORS
330
C
102
}
330
C
100
AcDbDictionary
281
     1
  3
2dWireframe
350
2F
  3
Basic
350
2E
  3
Brighten
350
35
  3
ColorChange
350
39
  3
Conceptual
350
32
  3
Dim
350
34
  3
EdgeColorOff
350
41
  3
Facepattern
350
38
  3
Flat
350
2A
  3
FlatWithEdges
350
2B
  3
Gouraud
350
2C
  3
GouraudWithEdges
350
2D
  3
Hidden
350
31
  3
JitterOff
350
3F
  3
Linepattern
350
37
  3
OverhangOff
350
40
  3
Realistic
350
33
  3
Shaded
350
3E
  3
Shaded with edges
350
3D
  3
Shades of Gray
350
3A
  3
Sketchy
350
3B
  3
Thicken
350
36
  3
Wireframe
350
30
  3
X-Ray
350
3C
  0
XRECORD
  5
1D9
102
{ACAD_REACTORS
330
C
102
}
330
C
100
AcDbXrecord
280
     1
 90
        1
330
65
  0
DICTIONARY
  5
1D1
102
{ACAD_REACTORS
330
C
102
}
330
C
100
AcDbDictionary
281
     1
  3
CANNOSCALE
350
1D6
  3
CMLEADERSTYLE
350
1D3
  3
CTABLESTYLE
350
1D2
  3
CVIEWDETAILSTYLE
350
1D4
  3
CVIEWSECTIONSTYLE
350
1D5
  0
ACDBDETAILVIEWSTYLE
  5
6B
102
{ACAD_REACTORS
330
6A
102
}
330
6A
100
AcDbModelDocViewStyle
 70
     0
  3
Imperial24
290
     1
300
Imperial24
 90
        0
100
AcDbDetailViewStyle
 70
     0
 71
     0
 90
        3
 71
     1
340
55
 62
   256
 40
0.24
340
0
 62
   256
 40
0.24
300

 40
0.36
280
     3
 71
     2
340
5D
 90
       25
 62
   256
 71
     3
340
55
 62
   256
 40
0.24
 90
        1
 40
0.75
 90
        1
300
%<\AcVar ViewType \f "%tc1">% %<\AcVar ViewDetailId>%\PSCALE %<\AcVar ViewScale \f "%sn">%
 71
     4
340
5D
 90
       25
 62
   256
340
5D
 90
       25
 62
   256
280
     0
  0
LAYOUT
  5
6F
102
{ACAD_REACTORS
330
62
102
}
330
62
100
AcDbPlotSettings
  1

  2

  4

  6

 40
0.0
 41
0.0
 42
0.0
 43
0.0
 44
0.0
 45
0.0
 46
0.0
 47
0.0
 48
0.0
 49
0.0
140
0.0
141
0.0
142
1.0
143
1.0
 70
   688
 72
     0
 73
     0
 74
     5
  7

 75
    16
147
1.0
 76
     0
 77
     2
 78
   300
148
0.0
149
0.0
100
AcDbLayout
  1
Layout1
 70
     1
 71
     1
 10
0.0
 20
0.0
 11
12.0
 21
9.0
 12
0.0
 22
0.0
 32
0.0
 14
0.0
 24
0.0
 34
0.0
 15
0.0
 25
0.0
 35
0.0
146
0.0
 13
0.0
 23
0.0
 33
0.0
 16
1.0
 26
0.0
 36
0.0
 17
0.0
 27
1.0
 37
0.0
 76
     0
330
6C
  0
LAYOUT
  5
77
102
{ACAD_REACTORS
330
62
102
}
330
62
100
AcDbPlotSettings
  1

  2

  4

  6

 40
0.0
 41
0.0
 42
0.0
 43
0.0
 44
0.0
 45
0.0
 46
0.0
 47
0.0
 48
0.0
 49
0.0
140
0.0
141
0.0
142
1.0
143
1.0
 70
   688
 72
     0
 73
     0
 74
     5
  7

 75
    16
147
1.0
 76
     0
 77
     2
 78
   300
148
0.0
149
0.0
100
AcDbLayout
  1
Layout2
 70
     1
 71
     2
 10
0.0
 20
0.0
 11
12.0
 21
9.0
 12
0.0
 22
0.0
 32
0.0
 14
0.0
 24
0.0
 34
0.0
 15
0.0
 25
0.0
 35
0.0
146
0.0
 13
0.0
 23
0.0
 33
0.0
 16
1.0
 26
0.0
 36
0.0
 17
0.0
 27
1.0
 37
0.0
 76
     0
330
74
  0
LAYOUT
  5
73
102
{ACAD_REACTORS
330
62
102
}
330
62
100
AcDbPlotSettings
  1

  2

  4

  6

 40
0.0
 41
0.0
 42
0.0
 43
0.0
 44
0.0
 45
0.0
 46
0.0
 47
0.0
 48
0.0
 49
0.0
140
0.0
141
0.0
142
1.0
143
1.0
 70
  1712
 72
     0
 73
     0
 74
     0
  7

 75
     0
147
1.0
 76
     0
 77
     2
 78
   300
148
0.0
149
0.0
100
AcDbLayout
  1
Model
 70
     1
 71
     0
 10
0.0
 20
0.0
 11
12.0
 21
9.0
 12
0.0
 22
0.0
 32
0.0
 14
0.0
 24
0.0
 34
0.0
 15
0.0
 25
0.0
 35
0.0
146
0.0
 13
0.0
 23
0.0
 33
0.0
 16
1.0
 26
0.0
 36
0.0
 17
0.0
 27
1.0
 37
0.0
 76
     0
330
70
  0
MATERIAL
  5
19
102
{ACAD_XDICTIONARY
360
1A
102
}
102
{ACAD_REACTORS
330
10
102
}
330
10
100
AcDbMaterial
  1
ByBlock
 72
     0
 43
0.0208333333333333
 43
0.0
 43
0.0
 43
0.0
 43
0.0
 43
0.0208333333333333
 43
0.0
 43
0.0
 43
0.0
 43
0.0
 43
1.0
 43
0.0
 43
0.0
 43
0.0
 43
0.0
 43
1.0
 77
     0
 47
0.0208333333333333
 47
0.0
 47
0.0
 47
0.0
 47
0.0
 47
0.0208333333333333
 47
0.0
 47
0.0
 47
0.0
 47
0.0
 47
1.0
 47
0.0
 47
0.0
 47
0.0
 47
0.0
 47
1.0
171
     0
 49
0.0208333333333333
 49
0.0
 49
0.0
 49
0.0
 49
0.0
 49
0.0208333333333333
 49
0.0
 49
0.0
 49
0.0
 49
0.0
 49
1.0
 49
0.0
 49
0.0
 49
0.0
 49
0.0
 49
1.0
175
     0
142
0.0208333333333333
142
0.0
142
0.0
142
0.0
142
0.0
142
0.0208333333333333
142
0.0
142
0.0
142
0.0
142
0.0
142
1.0
142
0.0
142
0.0
142
0.0
142
0.0
142
1.0
179
     0
144
0.0208333333333333
144
0.0
144
0.0
144
0.0
144
0.0
144
0.0208333333333333
144
0.0
144
0.0
144
0.0
144
0.0
144
1.0
144
0.0
144
0.0
144
0.0
144
0.0
144
1.0
147
0.0208333333333333
147
0.0
147
0.0
147
0.0
147
0.0
147
0.0208333333333333
147
0.0
147
0.0
147
0.0
147
0.0
147
1.0
147
0.0
147
0.0
147
0.0
147
0.0
147
1.0
  0
MATERIAL
  5
11
102
{ACAD_XDICTIONARY
360
12
102
}
102
{ACAD_REACTORS
330
10
102
}
330
10
100
AcDbMaterial
  1
ByLayer
 72
     0
 43
0.0208333333333333
 43
0.0
 43
0.0
 43
0.0
 43
0.0
 43
0.0208333333333333
 43
0.0
 43
0.0
 43
0.0
 43
0.0
 43
1.0
 43
0.0
 43
0.0
 43
0.0
 43
0.0
 43
1.0
 77
     0
 47
0.0208333333333333
 47
0.0
 47
0.0
 47
0.0
 47
0.0
 47
0.0208333333333333
 47
0.0
 47
0.0
 47
0.0
 47
0.0
 47
1.0
 47
0.0
 47
0.0
 47
0.0
 47
0.0
 47
1.0
171
     0
 49
0.0208333333333333
 49
0.0
 49
0.0
 49
0.0
 49
0.0
 49
0.0208333333333333
 49
0.0
 49
0.0
 49
0.0
 49
0.0
 49
1.0
 49
0.0
 49
0.0
 49
0.0
 49
0.0
 49
1.0
175
     0
142
0.0208333333333333
142
0.0
142
0.0
142
0.0
142
0.0
142
0.0208333333333333
142
0.0
142
0.0
142
0.0
142
0.0
142
1.0
142
0.0
142
0.0
142
0.0
142
0.0
142
1.0
179
     0
144
0.0208333333333333
144
0.0
144
0.0
144
0.0
144
0.0
144
0.0208333333333333
144
0.0
144
0.0
144
0.0
144
0.0
144
1.0
144
0.0
144
0.0
144
0.0
144
0.0
144
1.0
147
0.0208333333333333
147
0.0
147
0.0
147
0.0
147
0.0
147
0.0208333333333333
147
0.0
147
0.0
147
0.0
147
0.0
147
1.0
147
0.0
147
0.0
147
0.0
147
0.0
147
1.0
  0
MATERIAL
  5
21
102
{ACAD_XDICTIONARY
360
22
102
}
102
{ACAD_REACTORS
330
10
102
}
330
10
100
AcDbMaterial
  1
Global
 72
     0
 43
0.0208333333333333
 43
0.0
 43
0.0
 43
0.0
 43
0.0
 43
0.0208333333333333
 43
0.0
 43
0.0
 43
0.0
 43
0.0
 43
1.0
 43
0.0
 43
0.0
 43
0.0
 43
0.0
 43
1.0
 77
     0
 47
0.0208333333333333
 47
0.0
 47
0.0
 47
0.0
 47
0.0
 47
0.0208333333333333
 47
0.0
 47
0.0
 47
0.0
 47
0.0
 47
1.0
 47
0.0
 47
0.0
 47
0.0
 47
0.0
 47
1.0
171
     0
 49
0.0208333333333333
 49
0.0
 49
0.0
 49
0.0
 49
0.0
 49
0.0208333333333333
 49
0.0
 49
0.0
 49
0.0
 49
0.0
 49
1.0
 49
0.0
 49
0.0
 49
0.0
 49
0.0
 49
1.0
175
     0
142
0.0208333333333333
142
0.0
142
0.0
142
0.0
142
0.0
142
0.0208333333333333
142
0.0
142
0.0
142
0.0
142
0.0
142
1.0
142
0.0
142
0.0
142
0.0
142
0.0
142
1.0
179
     0
144
0.0208333333333333
144
0.0
144
0.0
144
0.0
144
0.0
144
0.0208333333333333
144
0.0
144
0.0
144
0.0
144
0.0
144
1.0
144
0.0
144
0.0
144
0.0
144
0.0
144
1.0
147
0.0208333333333333
147
0.0
147
0.0
147
0.0
147
0.0
147
0.0208333333333333
147
0.0
147
0.0
147
0.0
147
0.0
147
1.0
147
0.0
147
0.0
147
0.0
147
0.0
147
1.0
  0
MLEADERSTYLE
  5
67
102
{ACAD_REACTORS
330
66
102
}
330
66
100
AcDbMLeaderStyle
179
     2
170
     2
171
     1
172
     0
 90
        2
 40
0.0
 41
0.0
173
     1
 91
-1056964608
340
5B
 92
       -2
290
     1
 42
0.09
291
     1
 43
0.36
  3
Standard
 44
0.18
300

342
55
174
     1
178
     6
175
     1
176
     0
 93
-1056964608
 45
0.18
292
     0
297
     0
 46
0.18
 94
-1056964608
 47
1.0
 49
1.0
140
1.0
293
     1
141
0.0
294
     1
177
     0
142
1.0
295
     1
296
     0
143
0.125
271
     0
272
     9
273
     9
298
     1
  0
MLINESTYLE
  5
60
102
{ACAD_REACTORS
330
5F
102
}
330
5F
100
AcDbMlineStyle
  2
STANDARD
 70
     0
  3

 62
   256
 51
90.0
 52
90.0
 71
     2
 49
0.5
 62
   256
  6
BYLAYER
 49
-0.5
 62
   256
  6
BYLAYER
  0
ACDBPLACEHOLDER
  5
F
102
{ACAD_REACTORS
330
E
102
}
330
E
  0
SCALE
  5
43
102
{ACAD_REACTORS
330
42
102
}
330
42
100
AcDbScale
 70
     0
300
1:1
140
1.0
141
1.0
290
     1
  0
SCALE
  5
44
102
{ACAD_REACTORS
330
42
102
}
330
42
100
AcDbScale
 70
     0
300
1/128" = 1'-0"
140
0.0078125
141
12.0
290
     0
  0
SCALE
  5
45
102
{ACAD_REACTORS
330
42
102
}
330
42
100
AcDbScale
 70
     0
300
1/64" = 1'-0"
140
0.015625
141
12.0
290
     0
  0
SCALE
  5
46
102
{ACAD_REACTORS
330
42
102
}
330
42
100
AcDbScale
 70
     0
300
1/32" = 1'-0"
140
0.03125
141
12.0
290
     0
  0
SCALE
  5
47
102
{ACAD_REACTORS
330
42
102
}
330
42
100
AcDbScale
 70
     0
300
1/16" = 1'-0"
140
0.0625
141
12.0
290
     0
  0
SCALE
  5
48
102
{ACAD_REACTORS
330
42
102
}
330
42
100
AcDbScale
 70
     0
300
3/32" = 1'-0"
140
0.09375
141
12.0
290
     0
  0
SCALE
  5
49
102
{ACAD_REACTORS
330
42
102
}
330
42
100
AcDbScale
 70
     0
300
1/8" = 1'-0"
140
0.125
141
12.0
290
     0
  0
SCALE
  5
4A
102
{ACAD_REACTORS
330
42
102
}
330
42
100
AcDbScale
 70
     0
300
3/16" = 1'-0"
140
0.1875
141
12.0
290
     0
  0
SCALE
  5
4B
102
{ACAD_REACTORS
330
42
102
}
330
42
100
AcDbScale
 70
     0
300
1/4" = 1'-0"
140
0.25
141
12.0
290
     0
  0
SCALE
  5
4C
102
{ACAD_REACTORS
330
42
102
}
330
42
100
AcDbScale
 70
     0
300
3/8" = 1'-0"
140
0.375
141
12.0
290
     0
  0
SCALE
  5
4D
102
{ACAD_REACTORS
330
42
102
}
330
42
100
AcDbScale
 70
     0
300
1/2" = 1'-0"
140
0.5
141
12.0
290
     0
  0
SCALE
  5
4E
102
{ACAD_REACTORS
330
42
102
}
330
42
100
AcDbScale
 70
     0
300
3/4" = 1'-0"
140
0.75
141
12.0
290
     0
  0
SCALE
  5
4F
102
{ACAD_REACTORS
330
42
102
}
330
42
100
AcDbScale
 70
     0
300
1" = 1'-0"
140
1.0
141
12.0
290
     0
  0
SCALE
  5
50
102
{ACAD_REACTORS
330
42
102
}
330
42
100
AcDbScale
 70
     0
300
1-1/2" = 1'-0"
140
1.5
141
12.0
290
     0
  0
SCALE
  5
51
102
{ACAD_REACTORS
330
42
102
}
330
42
100
AcDbScale
 70
     0
300
3" = 1'-0"
140
3.0
141
12.0
290
     0
  0
SCALE
  5
52
102
{ACAD_REACTORS
330
42
102
}
330
42
100
AcDbScale
 70
     0
300
6" = 1'-0"
140
6.0
141
12.0
290
     0
  0
SCALE
  5
53
102
{ACAD_REACTORS
330
42
102
}
330
42
100
AcDbScale
 70
     0
300
1'-0" = 1'-0"
140
12.0
141
12.0
290
     0
  0
ACDBSECTIONVIEWSTYLE
  5
69
102
{ACAD_REACTORS
330
68
102
}
330
68
100
AcDbModelDocViewStyle
 70
     0
  3
Imperial24
290
     1
300
Imperial24
 90
        0
100
AcDbSectionViewStyle
 70
     0
 71
     0
 90
       78
 71
     1
340
55
 62
   256
 40
0.24
340
0
340
0
 62
   256
 40
0.24
300
I, O, Q, S, X, Z
 40
0.48
 90
        3
 40
0.18
 90
        1
 71
     2
340
5D
 90
       25
 62
   256
340
5D
 90
       50
 62
   256
 40
0.24
 40
0.0
 40
0.24
 71
     3
340
55
 62
   256
 40
0.24
 90
        1
 40
0.75
 90
        1
300
%<\AcVar ViewType \f "%tc1">% %<\AcVar ViewSectionStartId>%-%<\AcVar ViewSectionEndId>%\PSCALE %<\AcVar ViewScale \f "%sn">%
 71
     4
 62
   256
 62
   257
300
ANSI31
 40
1.0
 90
        0
290
     0
290
     0
 90
        6
 40
0.0
 40
1.570796326794896
 40
0.2617993877991494
 40
1.308996938995747
 40
-0.2617993877991494
 40
1.832595714594046
  0
TABLESTYLE
  5
65
102
{ACAD_XDICTIONARY
360
1D7
102
}
102
{ACAD_REACTORS
330
64
102
}
330
64
100
AcDbTableStyle
280
     0
  3
Standard
 70
     0
 71
     0
 40
0.06
 41
0.06
280
     0
281
     0
  7
Standard
140
0.18
170
     2
 62
     0
 63
     7
283
     0
 90
      512
 91
        0
  1

274
    -2
284
     1
 64
     0
275
    -2
285
     1
 65
     0
276
    -2
286
     1
 66
     0
277
    -2
287
     1
 67
     0
278
    -2
288
     1
 68
     0
279
    -2
289
     1
 69
     0
  7
Standard
140
0.25
170
     5
 62
     0
 63
     7
283
     0
 90
      512
 91
        0
  1

274
    -2
284
     1
 64
     0
275
    -2
285
     1
 65
     0
276
    -2
286
     1
 66
     0
277
    -2
287
     1
 67
     0
278
    -2
288
     1
 68
     0
279
    -2
289
     1
 69
     0
  7
Standard
140
0.18
170
     5
 62
     0
 63
     7
283
     0
 90
      512
 91
        0
  1

274
    -2
284
     1
 64
     0
275
    -2
285
     1
 65
     0
276
    -2
286
     1
 66
     0
277
    -2
287
     1
 67
     0
278
    -2
288
     1
 68
     0
279
    -2
289
     1
 69
     0
  0
VISUALSTYLE
  5
2F
102
{ACAD_REACTORS
330
29
102
}
330
29
100
AcDbVisualStyle
  2
2dWireframe
 70
     4
177
     3
291
     0
 70
    58
 90
        0
176
     1
 90
        2
176
     1
 90
        0
176
     1
 90
        0
176
     1
 40
0.6
176
     1
 40
30.0
176
     1
 62
     7
420
 16777215
176
     1
 90
        1
176
     1
 90
        4
176
     1
 62
     7
176
     1
 62
   257
176
     1
 90
        1
176
     1
 90
        1
176
     1
 40
1.0
176
     1
 90
        0
176
     1
 62
   257
176
     1
 40
1.0
176
     1
 90
        1
176
     1
 90
        6
176
     1
 90
        2
176
     1
 62
     7
176
     1
 90
        5
176
     1
 90
        0
176
     1
 90
        0
176
     1
290
     0
176
     1
 90
        1
176
     1
 40
0.0
176
     1
 90
        0
176
     1
290
     1
176
     1
290
     1
176
     1
290
     0
176
     1
290
     0
176
     1
290
     0
176
     1
290
     0
176
     1
290
     0
176
     1
290
     0
176
     1
290
     0
176
     1
 90
       50
176
     1
 40
0.0
176
     1
 40
1.0
176
     1
 90
        0
176
     1
 62
    18
420
        0
176
     1
 90
       50
176
     1
 90
        3
176
     1
 62
     5
420
      255
176
     1
290
     0
176
     1
 90
       50
176
     1
 90
       50
176
     1
 90
       50
176
     1
290
     0
176
     1
 90
       50
176
     1
 62
   256
176
     0
 40
1.0
176
     0
 90
        2
176
     1
  1
strokes_ogs.tif
176
     1
290
     0
176
     1
 40
1.0
176
     1
 40
1.0
176
     1
  0
VISUALSTYLE
  5
2E
102
{ACAD_REACTORS
330
29
102
}
330
29
100
AcDbVisualStyle
  2
Basic
 70
     7
177
     3
291
     1
 70
    58
 90
        1
176
     1
 90
        0
176
     1
 90
        1
176
     1
 90
        0
176
     1
 40
0.6
176
     1
 40
30.0
176
     1
 62
     7
420
 16777215
176
     1
 90
        0
176
     1
 90
        4
176
     1
 62
     7
176
     1
 62
   257
176
     1
 90
        1
176
     1
 90
        1
176
     1
 40
1.0
176
     1
 90
        8
176
     1
 62
     7
176
     1
 40
1.0
176
     1
 90
        1
176
     1
 90
        6
176
     1
 90
        2
176
     1
 62
     7
176
     1
 90
        5
176
     1
 90
        0
176
     1
 90
        0
176
     1
290
     0
176
     1
 90
        1
176
     1
 40
0.0
176
     1
 90
        0
176
     1
290
     0
176
     1
290
     1
176
     1
290
     1
176
     1
290
     0
176
     1
290
     0
176
     1
290
     0
176
     1
290
     0
176
     1
290
     0
176
     1
290
     0
176
     1
 90
       50
176
     1
 40
0.0
176
     1
 40
1.0
176
     1
 90
        0
176
     1
 62
    18
420
        0
176
     1
 90
       50
176
     1
 90
        3
176
     1
 62
     5
420
      255
176
     1
290
     0
176
     1
 90
       50
176
     1
 90
       50
176
     1
 90
       50
176
     1
290
     0
176
     1
 90
       50
176
     1
 62
   256
176
     0
 40
1.0
176
     0
 90
        2
176
     1
  1
strokes_ogs.tif
176
     1
290
     0
176
     1
 40
1.0
176
     1
 40
1.0
176
     1
  0
VISUALSTYLE
  5
35
102
{ACAD_REACTORS
330
29
102
}
330
29
100
AcDbVisualStyle
  2
Brighten
 70
    12
177
     3
291
     1
 70
    58
 90
        2
176
     1
 90
        2
176
     1
 90
        0
176
     1
 90
        0
176
     1
 40
0.6
176
     1
 40
30.0
176
     1
 62
     7
420
 16777215
176
     1
 90
        1
176
     1
 90
        4
176
     1
 62
     7
176
     1
 62
   257
176
     1
 90
        1
176
     1
 90
        1
176
     1
 40
1.0
176
     1
 90
        8
176
     1
 62
     7
176
     1
 40
1.0
176
     1
 90
        1
176
     1
 90
        6
176
     1
 90
        2
176
     1
 62
     7
176
     1
 90
        5
176
     1
 90
        0
176
     1
 90
        0
176
     1
290
     0
176
     1
 90
        1
176
     1
 40
50.0
176
     1
 90
        0
176
     1
290
     0
176
     1
290
     1
176
     1
290
     1
176
     1
290
     0
176
     1
290
     0
176
     1
290
     0
176
     1
290
     0
176
     1
290
     0
176
     1
290
     0
176
     1
 90
       50
176
     1
 40
0.0
176
     1
 40
1.0
176
     1
 90
        0
176
     1
 62
    18
420
        0
176
     1
 90
       50
176
     1
 90
        3
176
     1
 62
     5
420
      255
176
     1
290
     0
176
     1
 90
       50
176
     1
 90
       50
176
     1
 90
       50
176
     1
290
     0
176
     1
 90
       50
176
     1
 62
   256
176
     0
 40
1.0
176
     0
 90
        2
176
     1
  1
strokes_ogs.tif
176
     1
290
     0
176
     1
 40
1.0
176
     1
 40
1.0
176
     1
  0
VISUALSTYLE
  5
39
102
{ACAD_REACTORS
330
29
102
}
330
29
100
AcDbVisualStyle
  2
ColorChange
 70
    16
177
     3
291
     1
 70
    58
 90
        2
176
     1
 90
        2
176
     1
 90
        3
176
     1
 90
        0
176
     1
 40
0.6
176
     1
 40
30.0
176
     1
 62
     8
420
  8421504
176
     1
 90
        1
176
     1
 90
        4
176
     1
 62
     7
176
     1
 62
   257
176
     1
 90
        1
176
     1
 90
        1
176
     1
 40
1.0
176
     1
 90
        8
176
     1
 62
     8
420
  8421504
176
     1
 40
1.0
176
     1
 90
        1
176
     1
 90
        6
176
     1
 90
        2
176
     1
 62
     7
176
     1
 90
        5
176
     1
 90
        0
176
     1
 90
        0
176
     1
290
     0
176
     1
 90
        1
176
     1
 40
0.0
176
     1
 90
        0
176
     1
290
     0
176
     1
290
     1
176
     1
290
     1
176
     1
290
     0
176
     1
290
     0
176
     1
290
     0
176
     1
290
     0
176
     1
290
     0
176
     1
290
     0
176
     1
 90
       50
176
     1
 40
0.0
176
     1
 40
1.0
176
     1
 90
        0
176
     1
 62
    18
420
        0
176
     1
 90
       50
176
     1
 90
        3
176
     1
 62
     5
420
      255
176
     1
290
     0
176
     1
 90
       50
176
     1
 90
       50
176
     1
 90
       50
176
     1
290
     0
176
     1
 90
       50
176
     1
 62
   256
176
     0
 40
1.0
176
     0
 90
        2
176
     1
  1
strokes_ogs.tif
176
     1
290
     0
176
     1
 40
1.0
176
     1
 40
1.0
176
     1
  0
VISUALSTYLE
  5
32
102
{ACAD_REACTORS
330
29
102
}
330
29
100
AcDbVisualStyle
  2
Conceptual
 70
     9
177
     3
291
     0
 70
    58
 90
        3
176
     1
 90
        2
176
     1
 90
        0
176
     1
 90
        0
176
     1
 40
0.6
176
     1
 40
30.0
176
     1
 62
     7
420
 16777215
176
     1
 90
        2
176
     1
 90
        2
176
     1
 62
     7
176
     1
 62
   257
176
     1
 90
        1
176
     1
 90
        1
176
     1
 40
179.0
176
     1
 90
        8
176
     1
 62
     7
176
     1
 40
1.0
176
     1
 90
        1
176
     1
 90
        6
176
     1
 90
        2
176
     1
 62
     7
176
     1
 90
        3
176
     1
 90
        0
176
     1
 90
        0
176
     1
290
     0
176
     1
 90
        1
176
     1
 40
0.0
176
     1
 90
        0
176
     1
290
     0
176
     1
290
     1
176
     1
290
     1
176
     1
290
     0
176
     1
290
     0
176
     1
290
     0
176
     1
290
     0
176
     1
290
     0
176
     1
290
     0
176
     1
 90
       50
176
     1
 40
0.0
176
     1
 40
1.0
176
     1
 90
        0
176
     1
 62
    18
420
        0
176
     1
 90
       50
176
     1
 90
        3
176
     1
 62
     5
420
      255
176
     1
290
     0
176
     1
 90
       50
176
     1
 90
       50
176
     1
 90
       50
176
     1
290
     0
176
     1
 90
       50
176
     1
 62
   256
176
     0
 40
1.0
176
     0
 90
        2
176
     1
  1
strokes_ogs.tif
176
     1
290
     0
176
     1
 40
1.0
176
     1
 40
1.0
176
     1
  0
VISUALSTYLE
  5
34
102
{ACAD_REACTORS
330
29
102
}
330
29
100
AcDbVisualStyle
  2
Dim
 70
    11
177
     3
291
     1
 70
    58
 90
        2
176
     1
 90
        2
176
     1
 90
        0
176
     1
 90
        0
176
     1
 40
0.6
176
     1
 40
30.0
176
     1
 62
     7
420
 16777215
176
     1
 90
        1
176
     1
 90
        4
176
     1
 62
     7
176
     1
 62
   257
176
     1
 90
        1
176
     1
 90
        1
176
     1
 40
1.0
176
     1
 90
        8
176
     1
 62
     7
176
     1
 40
1.0
176
     1
 90
        1
176
     1
 90
        6
176
     1
 90
        2
176
     1
 62
     7
176
     1
 90
        5
176
     1
 90
        0
176
     1
 90
        0
176
     1
290
     0
176
     1
 90
        1
176
     1
 40
-50.0
176
     1
 90
        0
176
     1
290
     0
176
     1
290
     1
176
     1
290
     1
176
     1
290
     0
176
     1
290
     0
176
     1
290
     0
176
     1
290
     0
176
     1
290
     0
176
     1
290
     0
176
     1
 90
       50
176
     1
 40
0.0
176
     1
 40
1.0
176
     1
 90
        0
176
     1
 62
    18
420
        0
176
     1
 90
       50
176
     1
 90
        3
176
     1
 62
     5
420
      255
176
     1
290
     0
176
     1
 90
       50
176
     1
 90
       50
176
     1
 90
       50
176
     1
290
     0
176
     1
 90
       50
176
     1
 62
   256
176
     0
 40
1.0
176
     0
 90
        2
176
     1
  1
strokes_ogs.tif
176
     1
290
     0
176
     1
 40
1.0
176
     1
 40
1.0
176
     1
  0
VISUALSTYLE
  5
41
102
{ACAD_REACTORS
330
29
102
}
330
29
100
AcDbVisualStyle
  2
EdgeColorOff
 70
    22
177
     3
291
     1
 70
    58
 90
        2
176
     0
 90
        2
176
     0
 90
        0
176
     0
 90
        0
176
     0
 40
0.6
176
     0
 40
30.0
176
     0
 62
     7
420
 16777215
176
     0
 90
        1
176
     0
 90
        4
176
     0
 62
     7
176
     0
 62
   257
176
     0
 90
        1
176
     0
 90
        1
176
     0
 40
1.0
176
     0
 90
        8
176
     2
 62
     7
176
     0
 40
1.0
176
     0
 90
        1
176
     0
 90
        6
176
     0
 90
        2
176
     0
 62
     7
176
     0
 90
        5
176
     0
 90
        0
176
     0
 90
        0
176
     0
290
     0
176
     0
 90
        1
176
     0
 40
0.0
176
     0
 90
        0
176
     0
290
     0
176
     0
290
     1
176
     0
290
     1
176
     0
290
     0
176
     0
290
     0
176
     0
290
     0
176
     0
290
     0
176
     0
290
     0
176
     0
290
     0
176
     0
 90
       50
176
     0
 40
0.0
176
     0
 40
1.0
176
     0
 90
        0
176
     0
 62
    18
420
        0
176
     0
 90
       50
176
     0
 90
        3
176
     0
 62
     5
420
      255
176
     0
290
     0
176
     0
 90
       50
176
     0
 90
       50
176
     0
 90
       50
176
     0
290
     0
176
     0
 90
       50
176
     0
 62
   256
176
     0
 40
1.0
176
     0
 90
        2
176
     0
  1
strokes_ogs.tif
176
     0
290
     0
176
     0
 40
1.0
176
     0
 40
1.0
176
     0
  0
VISUALSTYLE
  5
38
102
{ACAD_REACTORS
330
29
102
}
330
29
100
AcDbVisualStyle
  2
Facepattern
 70
    15
177
     3
291
     1
 70
    58
 90
        2
176
     1
 90
        2
176
     1
 90
        0
176
     1
 90
        0
176
     1
 40
0.6
176
     1
 40
30.0
176
     1
 62
     7
420
 16777215
176
     1
 90
        1
176
     1
 90
        4
176
     1
 62
     7
176
     1
 62
   257
176
     1
 90
        1
176
     1
 90
        1
176
     1
 40
1.0
176
     1
 90
        8
176
     1
 62
     7
176
     1
 40
1.0
176
     1
 90
        1
176
     1
 90
        6
176
     1
 90
        2
176
     1
 62
     7
176
     1
 90
        5
176
     1
 90
        0
176
     1
 90
        0
176
     1
290
     0
176
     1
 90
        1
176
     1
 40
0.0
176
     1
 90
        0
176
     1
290
     0
176
     1
290
     1
176
     1
290
     1
176
     1
290
     0
176
     1
290
     0
176
     1
290
     0
176
     1
290
     0
176
     1
290
     0
176
     1
290
     0
176
     1
 90
       50
176
     1
 40
0.0
176
     1
 40
1.0
176
     1
 90
        0
176
     1
 62
    18
420
        0
176
     1
 90
       50
176
     1
 90
        3
176
     1
 62
     5
420
      255
176
     1
290
     0
176
     1
 90
       50
176
     1
 90
       50
176
     1
 90
       50
176
     1
290
     0
176
     1
 90
       50
176
     1
 62
   256
176
     0
 40
1.0
176
     0
 90
        2
176
     1
  1
strokes_ogs.tif
176
     1
290
     0
176
     1
 40
1.0
176
     1
 40
1.0
176
     1
  0
VISUALSTYLE
  5
2A
102
{ACAD_REACTORS
330
29
102
}
330
29
100
AcDbVisualStyle
  2
Flat
 70
     0
177
     3
291
     1
 70
    58
 90
        2
176
     1
 90
        1
176
     1
 90
        1
176
     1
 90
        2
176
     1
 40
0.6
176
     1
 40
30.0
176
     1
 62
     7
420
 16777215
176
     1
 90
        0
176
     1
 90
        0
176
     1
 62
     7
176
     1
 62
   257
176
     1
 90
        1
176
     1
 90
        1
176
     1
 40
1.0
176
     1
 90
        8
176
     1
 62
     7
176
     1
 40
1.0
176
     1
 90
        1
176
     1
 90
        6
176
     1
 90
        2
176
     1
 62
     7
176
     1
 90
        5
176
     1
 90
        0
176
     1
 90
        0
176
     1
290
     0
176
     1
 90
       13
176
     1
 40
0.0
176
     1
 90
        0
176
     1
290
     0
176
     1
290
     1
176
     1
290
     1
176
     1
290
     0
176
     1
290
     0
176
     1
290
     0
176
     1
290
     0
176
     1
290
     0
176
     1
290
     0
176
     1
 90
       50
176
     1
 40
0.0
176
     1
 40
1.0
176
     1
 90
        0
176
     1
 62
    18
420
        0
176
     1
 90
       50
176
     1
 90
        3
176
     1
 62
     5
420
      255
176
     1
290
     0
176
     1
 90
       50
176
     1
 90
       50
176
     1
 90
       50
176
     1
290
     0
176
     1
 90
       50
176
     1
 62
   256
176
     0
 40
1.0
176
     0
 90
        2
176
     1
  1
strokes_ogs.tif
176
     1
290
     0
176
     1
 40
1.0
176
     1
 40
1.0
176
     1
  0
VISUALSTYLE
  5
2B
102
{ACAD_REACTORS
330
29
102
}
330
29
100
AcDbVisualStyle
  2
FlatWithEdges
 70
     1
177
     3
291
     1
 70
    58
 90
        2
176
     1
 90
        1
176
     1
 90
        1
176
     1
 90
        2
176
     1
 40
0.6
176
     1
 40
30.0
176
     1
 62
     7
420
 16777215
176
     1
 90
        1
176
     1
 90
        0
176
     1
 62
     7
176
     1
 62
   257
176
     1
 90
        1
176
     1
 90
        1
176
     1
 40
1.0
176
     1
 90
        0
176
     1
 62
   257
176
     1
 40
1.0
176
     1
 90
        1
176
     1
 90
        6
176
     1
 90
        2
176
     1
 62
     7
176
     1
 90
        5
176
     1
 90
        0
176
     1
 90
        0
176
     1
290
     0
176
     1
 90
       13
176
     1
 40
0.0
176
     1
 90
        0
176
     1
290
     0
176
     1
290
     1
176
     1
290
     1
176
     1
290
     0
176
     1
290
     0
176
     1
290
     0
176
     1
290
     0
176
     1
290
     0
176
     1
290
     0
176
     1
 90
       50
176
     1
 40
0.0
176
     1
 40
1.0
176
     1
 90
        0
176
     1
 62
    18
420
        0
176
     1
 90
       50
176
     1
 90
        3
176
     1
 62
     5
420
      255
176
     1
290
     0
176
     1
 90
       50
176
     1
 90
       50
176
     1
 90
       50
176
     1
290
     0
176
     1
 90
       50
176
     1
 62
   256
176
     0
 40
1.0
176
     0
 90
        2
176
     1
  1
strokes_ogs.tif
176
     1
290
     0
176
     1
 40
1.0
176
     1
 40
1.0
176
     1
  0
VISUALSTYLE
  5
2C
102
{ACAD_REACTORS
330
29
102
}
330
29
100
AcDbVisualStyle
  2
Gouraud
 70
     2
177
     3
291
     1
 70
    58
 90
        2
176
     1
 90
        2
176
     1
 90
        1
176
     1
 90
        2
176
     1
 40
0.6
176
     1
 40
30.0
176
     1
 62
     7
420
 16777215
176
     1
 90
        0
176
     1
 90
        0
176
     1
 62
     7
176
     1
 62
   257
176
     1
 90
        1
176
     1
 90
        1
176
     1
 40
1.0
176
     1
 90
        0
176
     1
 62
     7
176
     1
 40
1.0
176
     1
 90
        1
176
     1
 90
        6
176
     1
 90
        2
176
     1
 62
     7
176
     1
 90
        5
176
     1
 90
        0
176
     1
 90
        0
176
     1
290
     0
176
     1
 90
       13
176
     1
 40
0.0
176
     1
 90
        0
176
     1
290
     0
176
     1
290
     1
176
     1
290
     1
176
     1
290
     0
176
     1
290
     0
176
     1
290
     0
176
     1
290
     0
176
     1
290
     0
176
     1
290
     0
176
     1
 90
       50
176
     1
 40
0.0
176
     1
 40
1.0
176
     1
 90
        0
176
     1
 62
    18
420
        0
176
     1
 90
       50
176
     1
 90
        3
176
     1
 62
     5
420
      255
176
     1
290
     0
176
     1
 90
       50
176
     1
 90
       50
176
     1
 90
       50
176
     1
290
     0
176
     1
 90
       50
176
     1
 62
   256
176
     0
 40
1.0
176
     0
 90
        2
176
     1
  1
strokes_ogs.tif
176
     1
290
     0
176
     1
 40
1.0
176
     1
 40
1.0
176
     1
  0
VISUALSTYLE
  5
2D
102
{ACAD_REACTORS
330
29
102
}
330
29
100
AcDbVisualStyle
  2
GouraudWithEdges
 70
     3
177
     3
291
     1
 70
    58
 90
        2
176
     1
 90
        2
176
     1
 90
        1
176
     1
 90
        2
176
     1
 40
0.6
176
     1
 40
30.0
176
     1
 62
     7
420
 16777215
176
     1
 90
        1
176
     1
 90
        0
176
     1
 62
     7
176
     1
 62
   257
176
     1
 90
        1
176
     1
 90
        1
176
     1
 40
1.0
176
     1
 90
        0
176
     1
 62
   257
176
     1
 40
1.0
176
     1
 90
        1
176
     1
 90
        6
176
     1
 90
        2
176
     1
 62
     7
176
     1
 90
        5
176
     1
 90
        0
176
     1
 90
        0
176
     1
290
     0
176
     1
 90
       13
176
     1
 40
0.0
176
     1
 90
        0
176
     1
290
     0
176
     1
290
     1
176
     1
290
     1
176
     1
290
     0
176
     1
290
     0
176
     1
290
     0
176
     1
290
     0
176
     1
290
     0
176
     1
290
     0
176
     1
 90
       50
176
     1
 40
0.0
176
     1
 40
1.0
176
     1
 90
        0
176
     1
 62
    18
420
        0
176
     1
 90
       50
176
     1
 90
        3
176
     1
 62
     5
420
      255
176
     1
290
     0
176
     1
 90
       50
176
     1
 90
       50
176
     1
 90
       50
176
     1
290
     0
176
     1
 90
       50
176
     1
 62
   256
176
     0
 40
1.0
176
     0
 90
        2
176
     1
  1
strokes_ogs.tif
176
     1
290
     0
176
     1
 40
1.0
176
     1
 40
1.0
176
     1
  0
VISUALSTYLE
  5
31
102
{ACAD_REACTORS
330
29
102
}
330
29
100
AcDbVisualStyle
  2
Hidden
 70
     6
177
     3
291
     0
 70
    58
 90
        1
176
     1
 90
        2
176
     1
 90
        2
176
     1
 90
        0
176
     1
 40
0.6
176
     1
 40
30.0
176
     1
 62
     7
420
 16777215
176
     1
 90
        2
176
     1
 90
        2
176
     1
 62
     7
176
     1
 62
   257
176
     1
 90
        2
176
     1
 90
        1
176
     1
 40
40.0
176
     1
 90
        0
176
     1
 62
   257
176
     1
 40
1.0
176
     1
 90
        1
176
     1
 90
        6
176
     1
 90
        2
176
     1
 62
     7
176
     1
 90
        3
176
     1
 90
        0
176
     1
 90
        0
176
     1
290
     0
176
     1
 90
        1
176
     1
 40
0.0
176
     1
 90
        0
176
     1
290
     0
176
     1
290
     1
176
     1
290
     1
176
     1
290
     0
176
     1
290
     0
176
     1
290
     0
176
     1
290
     0
176
     1
290
     0
176
     1
290
     0
176
     1
 90
       50
176
     1
 40
0.0
176
     1
 40
1.0
176
     1
 90
        0
176
     1
 62
    18
420
        0
176
     1
 90
       50
176
     1
 90
        3
176
     1
 62
     5
420
      255
176
     1
290
     0
176
     1
 90
       50
176
     1
 90
       50
176
     1
 90
       50
176
     1
290
     0
176
     1
 90
       50
176
     1
 62
   256
176
     0
 40
1.0
176
     0
 90
        2
176
     1
  1
strokes_ogs.tif
176
     1
290
     0
176
     1
 40
1.0
176
     1
 40
1.0
176
     1
  0
VISUALSTYLE
  5
3F
102
{ACAD_REACTORS
330
29
102
}
330
29
100
AcDbVisualStyle
  2
JitterOff
 70
    20
177
     3
291
     1
 70
    58
 90
        2
176
     0
 90
        2
176
     0
 90
        0
176
     0
 90
        0
176
     0
 40
0.6
176
     0
 40
30.0
176
     0
 62
     7
420
 16777215
176
     0
 90
        1
176
     0
 90
        4
176
     0
 62
     7
176
     0
 62
   257
176
     0
 90
        1
176
     0
 90
        1
176
     0
 40
1.0
176
     0
 90
       10
176
     2
 62
     7
176
     0
 40
1.0
176
     0
 90
        1
176
     0
 90
        6
176
     0
 90
        2
176
     0
 62
     7
176
     0
 90
        5
176
     0
 90
        0
176
     0
 90
        0
176
     0
290
     0
176
     0
 90
        1
176
     0
 40
0.0
176
     0
 90
        0
176
     0
290
     0
176
     0
290
     1
176
     0
290
     1
176
     0
290
     0
176
     0
290
     0
176
     0
290
     0
176
     0
290
     0
176
     0
290
     0
176
     0
290
     0
176
     0
 90
       50
176
     0
 40
0.0
176
     0
 40
1.0
176
     0
 90
        0
176
     0
 62
    18
420
        0
176
     0
 90
       50
176
     0
 90
        3
176
     0
 62
     5
420
      255
176
     0
290
     0
176
     0
 90
       50
176
     0
 90
       50
176
     0
 90
       50
176
     0
290
     0
176
     0
 90
       50
176
     0
 62
   256
176
     0
 40
1.0
176
     0
 90
        2
176
     0
  1
strokes_ogs.tif
176
     0
290
     0
176
     0
 40
1.0
176
     0
 40
1.0
176
     0
  0
VISUALSTYLE
  5
37
102
{ACAD_REACTORS
330
29
102
}
330
29
100
AcDbVisualStyle
  2
Linepattern
 70
    14
177
     3
291
     1
 70
    58
 90
        2
176
     1
 90
        2
176
     1
 90
        0
176
     1
 90
        0
176
     1
 40
0.6
176
     1
 40
30.0
176
     1
 62
     7
420
 16777215
176
     1
 90
        1
176
     1
 90
        4
176
     1
 62
     7
176
     1
 62
   257
176
     1
 90
        7
176
     1
 90
        7
176
     1
 40
1.0
176
     1
 90
        8
176
     1
 62
     7
176
     1
 40
1.0
176
     1
 90
        1
176
     1
 90
        6
176
     1
 90
        2
176
     1
 62
     7
176
     1
 90
        5
176
     1
 90
        0
176
     1
 90
        0
176
     1
290
     0
176
     1
 90
        1
176
     1
 40
0.0
176
     1
 90
        0
176
     1
290
     0
176
     1
290
     1
176
     1
290
     1
176
     1
290
     0
176
     1
290
     0
176
     1
290
     0
176
     1
290
     0
176
     1
290
     0
176
     1
290
     0
176
     1
 90
       50
176
     1
 40
0.0
176
     1
 40
1.0
176
     1
 90
        0
176
     1
 62
    18
420
        0
176
     1
 90
       50
176
     1
 90
        3
176
     1
 62
     5
420
      255
176
     1
290
     0
176
     1
 90
       50
176
     1
 90
       50
176
     1
 90
       50
176
     1
290
     0
176
     1
 90
       50
176
     1
 62
   256
176
     0
 40
1.0
176
     0
 90
        2
176
     1
  1
strokes_ogs.tif
176
     1
290
     0
176
     1
 40
1.0
176
     1
 40
1.0
176
     1
  0
VISUALSTYLE
  5
40
102
{ACAD_REACTORS
330
29
102
}
330
29
100
AcDbVisualStyle
  2
OverhangOff
 70
    21
177
     3
291
     1
 70
    58
 90
        2
176
     0
 90
        2
176
     0
 90
        0
176
     0
 90
        0
176
     0
 40
0.6
176
     0
 40
30.0
176
     0
 62
     7
420
 16777215
176
     0
 90
        1
176
     0
 90
        4
176
     0
 62
     7
176
     0
 62
   257
176
     0
 90
        1
176
     0
 90
        1
176
     0
 40
1.0
176
     0
 90
        9
176
     2
 62
     7
176
     0
 40
1.0
176
     0
 90
        1
176
     0
 90
        6
176
     0
 90
        2
176
     0
 62
     7
176
     0
 90
        5
176
     0
 90
        0
176
     0
 90
        0
176
     0
290
     0
176
     0
 90
        1
176
     0
 40
0.0
176
     0
 90
        0
176
     0
290
     0
176
     0
290
     1
176
     0
290
     1
176
     0
290
     0
176
     0
290
     0
176
     0
290
     0
176
     0
290
     0
176
     0
290
     0
176
     0
290
     0
176
     0
 90
       50
176
     0
 40
0.0
176
     0
 40
1.0
176
     0
 90
        0
176
     0
 62
    18
420
        0
176
     0
 90
       50
176
     0
 90
        3
176
     0
 62
     5
420
      255
176
     0
290
     0
176
     0
 90
       50
176
     0
 90
       50
176
     0
 90
       50
176
     0
290
     0
176
     0
 90
       50
176
     0
 62
   256
176
     0
 40
1.0
176
     0
 90
        2
176
     0
  1
strokes_ogs.tif
176
     0
290
     0
176
     0
 40
1.0
176
     0
 40
1.0
176
     0
  0
VISUALSTYLE
  5
33
102
{ACAD_REACTORS
330
29
102
}
330
29
100
AcDbVisualStyle
  2
Realistic
 70
     8
177
     3
291
     0
 70
    58
 90
        2
176
     1
 90
        3
176
     1
 90
        0
176
     1
 90
        2
176
     1
 40
0.6
176
     1
 40
30.0
176
     1
 62
     7
420
 16777215
176
     1
 90
        0
176
     1
 90
        0
176
     1
 62
     7
176
     1
 62
   257
176
     1
 90
        1
176
     1
 90
        1
176
     1
 40
1.0
176
     1
 90
        8
176
     1
 62
   257
176
     1
 40
1.0
176
     1
 90
        1
176
     1
 90
        6
176
     1
 90
        2
176
     1
 62
     7
176
     1
 90
        3
176
     1
 90
        0
176
     1
 90
        0
176
     1
290
     0
176
     1
 90
       13
176
     1
 40
0.0
176
     1
 90
        0
176
     1
290
     0
176
     1
290
     1
176
     1
290
     1
176
     1
290
     0
176
     1
290
     0
176
     1
290
     0
176
     1
290
     0
176
     1
290
     0
176
     1
290
     0
176
     1
 90
       50
176
     1
 40
0.0
176
     1
 40
1.0
176
     1
 90
        0
176
     1
 62
    18
420
        0
176
     1
 90
       50
176
     1
 90
        3
176
     1
 62
     5
420
      255
176
     1
290
     0
176
     1
 90
       50
176
     1
 90
       50
176
     1
 90
       50
176
     1
290
     0
176
     1
 90
       50
176
     1
 62
   256
176
     0
 40
1.0
176
     0
 90
        2
176
     1
  1
strokes_ogs.tif
176
     1
290
     0
176
     1
 40
1.0
176
     1
 40
1.0
176
     1
  0
VISUALSTYLE
  5
3E
102
{ACAD_REACTORS
330
29
102
}
330
29
100
AcDbVisualStyle
  2
Shaded
 70
    27
177
     3
291
     0
 70
    58
 90
        2
176
     1
 90
        2
176
     1
 90
        1
176
     1
 90
        2
176
     1
 40
0.6
176
     1
 40
30.0
176
     1
 62
     7
420
 16777215
176
     1
 90
        0
176
     1
 90
        4
176
     1
 62
     7
176
     1
 62
   257
176
     1
 90
        1
176
     1
 90
        1
176
     1
 40
1.0
176
     1
 90
        8
176
     1
 62
   257
176
     1
 40
1.0
176
     1
 90
        1
176
     1
 90
        6
176
     1
 90
        2
176
     1
 62
     8
420
  7895160
176
     1
 90
        3
176
     1
 90
        0
176
     1
 90
        0
176
     1
290
     0
176
     1
 90
        5
176
     1
 40
0.0
176
     1
 90
        0
176
     1
290
     0
176
     1
290
     1
176
     1
290
     1
176
     1
290
     0
176
     1
290
     0
176
     1
290
     0
176
     1
290
     0
176
     1
290
     0
176
     1
290
     0
176
     1
 90
       50
176
     1
 40
0.0
176
     1
 40
1.0
176
     1
 90
        0
176
     1
 62
    18
420
        0
176
     1
 90
       50
176
     1
 90
        3
176
     1
 62
     5
420
      255
176
     1
290
     0
176
     1
 90
       50
176
     1
 90
       50
176
     1
 90
       50
176
     1
290
     0
176
     1
 90
       50
176
     1
 62
   256
176
     0
 40
1.0
176
     0
 90
        2
176
     1
  1
strokes_ogs.tif
176
     1
290
     0
176
     1
 40
1.0
176
     1
 40
1.0
176
     1
  0
VISUALSTYLE
  5
3D
102
{ACAD_REACTORS
330
29
102
}
330
29
100
AcDbVisualStyle
  2
Shaded with edges
 70
    26
177
     3
291
     0
 70
    58
 90
        2
176
     1
 90
        2
176
     1
 90
        1
176
     1
 90
        2
176
     1
 40
0.6
176
     1
 40
30.0
176
     1
 62
     7
420
 16777215
176
     1
 90
        1
176
     1
 90
        2
176
     1
 62
     7
176
     1
 62
   257
176
     1
 90
        2
176
     1
 90
        1
176
     1
 40
1.0
176
     1
 90
        8
176
     1
 62
   257
176
     1
 40
1.0
176
     1
 90
        1
176
     1
 90
        6
176
     1
 90
        2
176
     1
 62
     7
176
     1
 90
        3
176
     1
 90
        0
176
     1
 90
        0
176
     1
290
     0
176
     1
 90
        5
176
     1
 40
0.0
176
     1
 90
        0
176
     1
290
     0
176
     1
290
     1
176
     1
290
     1
176
     1
290
     0
176
     1
290
     0
176
     1
290
     0
176
     1
290
     0
176
     1
290
     0
176
     1
290
     0
176
     1
 90
       50
176
     1
 40
0.0
176
     1
 40
1.0
176
     1
 90
        0
176
     1
 62
    18
420
        0
176
     1
 90
       50
176
     1
 90
        3
176
     1
 62
     5
420
      255
176
     1
290
     0
176
     1
 90
       50
176
     1
 90
       50
176
     1
 90
       50
176
     1
290
     0
176
     1
 90
       50
176
     1
 62
   256
176
     0
 40
1.0
176
     0
 90
        2
176
     1
  1
strokes_ogs.tif
176
     1
290
     0
176
     1
 40
1.0
176
     1
 40
1.0
176
     1
  0
VISUALSTYLE
  5
3A
102
{ACAD_REACTORS
330
29
102
}
330
29
100
AcDbVisualStyle
  2
Shades of Gray
 70
    23
177
     3
291
     0
 70
    58
 90
        2
176
     1
 90
        2
176
     1
 90
        3
176
     1
 90
        0
176
     1
 40
0.6
176
     1
 40
30.0
176
     1
 62
     7
420
 16777215
176
     1
 90
        2
176
     1
 90
        2
176
     1
 62
     7
176
     1
 62
     7
176
     1
 90
        1
176
     1
 90
        1
176
     1
 40
40.0
176
     1
 90
        8
176
     1
 62
     7
176
     1
 40
1.0
176
     1
 90
        1
176
     1
 90
        6
176
     1
 90
        2
176
     1
 62
     7
176
     1
 90
        3
176
     1
 90
        0
176
     1
 90
        0
176
     1
290
     0
176
     1
 90
        1
176
     1
 40
0.0
176
     1
 90
        0
176
     1
290
     0
176
     1
290
     1
176
     1
290
     1
176
     1
290
     0
176
     1
290
     0
176
     1
290
     0
176
     1
290
     0
176
     1
290
     0
176
     1
290
     0
176
     1
 90
       50
176
     1
 40
0.0
176
     1
 40
1.0
176
     1
 90
        0
176
     1
 62
    18
420
        0
176
     1
 90
       50
176
     1
 90
        3
176
     1
 62
     5
420
      255
176
     1
290
     0
176
     1
 90
       50
176
     1
 90
       50
176
     1
 90
       50
176
     1
290
     0
176
     1
 90
       50
176
     1
 62
   256
176
     0
 40
1.0
176
     0
 90
        2
176
     1
  1
strokes_ogs.tif
176
     1
290
     0
176
     1
 40
1.0
176
     1
 40
1.0
176
     1
  0
VISUALSTYLE
  5
3B
102
{ACAD_REACTORS
330
29
102
}
330
29
100
AcDbVisualStyle
  2
Sketchy
 70
    24
177
     3
291
     0
 70
    58
 90
        1
176
     1
 90
        2
176
     1
 90
        2
176
     1
 90
        0
176
     1
 40
0.6
176
     1
 40
30.0
176
     1
 62
     7
420
 16777215
176
     1
 90
        2
176
     1
 90
        2
176
     1
 62
     7
176
     1
 62
     7
176
     1
 90
        1
176
     1
 90
        1
176
     1
 40
40.0
176
     1
 90
       11
176
     1
 62
     7
176
     1
 40
1.0
176
     1
 90
        1
176
     1
 90
        6
176
     1
 90
        2
176
     1
 62
     7
176
     1
 90
        6
176
     1
 90
        0
176
     1
 90
        0
176
     1
290
     0
176
     1
 90
        1
176
     1
 40
0.0
176
     1
 90
        0
176
     1
290
     0
176
     1
290
     1
176
     1
290
     1
176
     1
290
     0
176
     1
290
     0
176
     1
290
     0
176
     1
290
     0
176
     1
290
     0
176
     1
290
     0
176
     1
 90
       50
176
     1
 40
0.0
176
     1
 40
1.0
176
     1
 90
        0
176
     1
 62
    18
420
        0
176
     1
 90
       50
176
     1
 90
        3
176
     1
 62
     5
420
      255
176
     1
290
     0
176
     1
 90
       50
176
     1
 90
       50
176
     1
 90
       50
176
     1
290
     0
176
     1
 90
       50
176
     1
 62
   256
176
     0
 40
1.0
176
     0
 90
        2
176
     1
  1
strokes_ogs.tif
176
     1
290
     0
176
     1
 40
1.0
176
     1
 40
1.0
176
     1
  0
VISUALSTYLE
  5
36
102
{ACAD_REACTORS
330
29
102
}
330
29
100
AcDbVisualStyle
  2
Thicken
 70
    13
177
     3
291
     1
 70
    58
 90
        2
176
     1
 90
        2
176
     1
 90
        0
176
     1
 90
        0
176
     1
 40
0.6
176
     1
 40
30.0
176
     1
 62
     7
420
 16777215
176
     1
 90
        1
176
     1
 90
        4
176
     1
 62
     7
176
     1
 62
   257
176
     1
 90
        1
176
     1
 90
        1
176
     1
 40
1.0
176
     1
 90
       12
176
     1
 62
     7
176
     1
 40
1.0
176
     1
 90
        1
176
     1
 90
        6
176
     1
 90
        2
176
     1
 62
     7
176
     1
 90
        5
176
     1
 90
        0
176
     1
 90
        0
176
     1
290
     0
176
     1
 90
        1
176
     1
 40
0.0
176
     1
 90
        0
176
     1
290
     0
176
     1
290
     1
176
     1
290
     1
176
     1
290
     0
176
     1
290
     0
176
     1
290
     0
176
     1
290
     0
176
     1
290
     0
176
     1
290
     0
176
     1
 90
       50
176
     1
 40
0.0
176
     1
 40
1.0
176
     1
 90
        0
176
     1
 62
    18
420
        0
176
     1
 90
       50
176
     1
 90
        3
176
     1
 62
     5
420
      255
176
     1
290
     0
176
     1
 90
       50
176
     1
 90
       50
176
     1
 90
       50
176
     1
290
     0
176
     1
 90
       50
176
     1
 62
   256
176
     0
 40
1.0
176
     0
 90
        2
176
     1
  1
strokes_ogs.tif
176
     1
290
     0
176
     1
 40
1.0
176
     1
 40
1.0
176
     1
  0
VISUALSTYLE
  5
30
102
{ACAD_REACTORS
330
29
102
}
330
29
100
AcDbVisualStyle
  2
Wireframe
 70
     5
177
     3
291
     0
 70
    58
 90
        0
176
     1
 90
        2
176
     1
 90
        0
176
     1
 90
        0
176
     1
 40
0.6
176
     1
 40
30.0
176
     1
 62
     7
420
 16777215
176
     1
 90
        1
176
     1
 90
        4
176
     1
 62
     7
176
     1
 62
   257
176
     1
 90
        1
176
     1
 90
        1
176
     1
 40
1.0
176
     1
 90
        0
176
     1
 62
   257
176
     1
 40
1.0
176
     1
 90
        1
176
     1
 90
        6
176
     1
 90
        2
176
     1
 62
     7
176
     1
 90
        3
176
     1
 90
        0
176
     1
 90
        0
176
     1
290
     0
176
     1
 90
        1
176
     1
 40
0.0
176
     1
 90
        0
176
     1
290
     0
176
     1
290
     1
176
     1
290
     1
176
     1
290
     0
176
     1
290
     0
176
     1
290
     0
176
     1
290
     0
176
     1
290
     0
176
     1
290
     0
176
     1
 90
       50
176
     1
 40
0.0
176
     1
 40
1.0
176
     1
 90
        0
176
     1
 62
    18
420
        0
176
     1
 90
       50
176
     1
 90
        3
176
     1
 62
     5
420
      255
176
     1
290
     0
176
     1
 90
       50
176
     1
 90
       50
176
     1
 90
       50
176
     1
290
     0
176
     1
 90
       50
176
     1
 62
   256
176
     0
 40
1.0
176
     0
 90
        2
176
     1
  1
strokes_ogs.tif
176
     1
290
     0
176
     1
 40
1.0
176
     1
 40
1.0
176
     1
  0
VISUALSTYLE
  5
3C
102
{ACAD_REACTORS
330
29
102
}
330
29
100
AcDbVisualStyle
  2
X-Ray
 70
    25
177
     3
291
     0
 70
    58
 90
        2
176
     1
 90
        2
176
     1
 90
        1
176
     1
 90
        1
176
     1
 40
0.5
176
     1
 40
30.0
176
     1
 62
     7
420
 16777215
176
     1
 90
        1
176
     1
 90
        0
176
     1
 62
     7
176
     1
 62
   257
176
     1
 90
        1
176
     1
 90
        1
176
     1
 40
1.0
176
     1
 90
        8
176
     1
 62
     7
176
     1
 40
1.0
176
     1
 90
        1
176
     1
 90
        6
176
     1
 90
        2
176
     1
 62
     7
176
     1
 90
        3
176
     1
 90
        0
176
     1
 90
        0
176
     1
290
     0
176
     1
 90
       13
176
     1
 40
0.0
176
     1
 90
        0
176
     1
290
     0
176
     1
290
     1
176
     1
290
     1
176
     1
290
     0
176
     1
290
     0
176
     1
290
     0
176
     1
290
     0
176
     1
290
     0
176
     1
290
     0
176
     1
 90
       50
176
     1
 40
0.0
176
     1
 40
1.0
176
     1
 90
        0
176
     1
 62
    18
420
        0
176
     1
 90
       50
176
     1
 90
        3
176
     1
 62
     5
420
      255
176
     1
290
     0
176
     1
 90
       50
176
     1
 90
       50
176
     1
 90
       50
176
     1
290
     0
176
     1
 90
       50
176
     1
 62
   256
176
     0
 40
1.0
176
     0
 90
        2
176
     1
  1
strokes_ogs.tif
176
     1
290
     0
176
     1
 40
1.0
176
     1
 40
1.0
176
     1
  0
DICTIONARYVAR
  5
1D6
102
{ACAD_REACTORS
330
1D1
102
}
330
1D1
100
DictionaryVariables
280
     0
  1
1:1
  0
DICTIONARYVAR
  5
1D3
102
{ACAD_REACTORS
330
1D1
102
}
330
1D1
100
DictionaryVariables
280
     0
  1
STANDARD
  0
DICTIONARYVAR
  5
1D2
102
{ACAD_REACTORS
330
1D1
102
}
330
1D1
100
DictionaryVariables
280
     0
  1
STANDARD
  0
DICTIONARYVAR
  5
1D4
102
{ACAD_REACTORS
330
1D1
102
}
330
1D1
100
DictionaryVariables
280
     0
  1
Imperial24
  0
DICTIONARYVAR
  5
1D5
102
{ACAD_REACTORS
330
1D1
102
}
330
1D1
100
DictionaryVariables
280
     0
  1
Imperial24
  0
DICTIONARY
  5
1A
330
19
100
AcDbDictionary
280
     1
281
     1
  3
BUMPTILE
360
1C
  3
DIFFUSETILE
360
1B
  3
OPACITYTILE
360
1F
  3
REFLECTIONTILE
360
1E
  3
REFRACTIONTILE
360
20
  3
SPECULARTILE
360
1D
  0
DICTIONARY
  5
12
330
11
100
AcDbDictionary
280
     1
281
     1
  3
BUMPTILE
360
14
  3
DIFFUSETILE
360
13
  3
OPACITYTILE
360
17
  3
REFLECTIONTILE
360
16
  3
REFRACTIONTILE
360
18
  3
SPECULARTILE
360
15
  0
DICTIONARY
  5
22
330
21
100
AcDbDictionary
280
     1
281
     1
  3
BUMPTILE
360
24
  3
DIFFUSETILE
360
23
  3
OPACITYTILE
360
27
  3
REFLECTIONTILE
360
26
  3
REFRACTIONTILE
360
28
  3
SPECULARTILE
360
25
  0
DICTIONARY
  5
1D7
330
65
100
AcDbDictionary
280
     1
281
     1
  3
ACAD_ROUNDTRIP_2008_TABLESTYLE_CELLSTYLEMAP
360
1D8
  0
XRECORD
  5
1C
102
{ACAD_REACTORS
330
1A
102
}
330
1A
100
AcDbXrecord
280
     1
270
     1
271
     1
  0
XRECORD
  5
1B
102
{ACAD_REACTORS
330
1A
102
}
330
1A
100
AcDbXrecord
280
     1
270
     1
271
     1
  0
XRECORD
  5
1F
102
{ACAD_REACTORS
330
1A
102
}
330
1A
100
AcDbXrecord
280
     1
270
     1
271
     1
  0
XRECORD
  5
1E
102
{ACAD_REACTORS
330
1A
102
}
330
1A
100
AcDbXrecord
280
     1
270
     1
271
     1
  0
XRECORD
  5
20
102
{ACAD_REACTORS
330
1A
102
}
330
1A
100
AcDbXrecord
280
     1
270
     1
271
     1
  0
XRECORD
  5
1D
102
{ACAD_REACTORS
330
1A
102
}
330
1A
100
AcDbXrecord
280
     1
270
     1
271
     1
  0
XRECORD
  5
14
102
{ACAD_REACTORS
330
12
102
}
330
12
100
AcDbXrecord
280
     1
270
     1
271
     1
  0
XRECORD
  5
13
102
{ACAD_REACTORS
330
12
102
}
330
12
100
AcDbXrecord
280
     1
270
     1
271
     1
  0
XRECORD
  5
17
102
{ACAD_REACTORS
330
12
102
}
330
12
100
AcDbXrecord
280
     1
270
     1
271
     1
  0
XRECORD
  5
16
102
{ACAD_REACTORS
330
12
102
}
330
12
100
AcDbXrecord
280
     1
270
     1
271
     1
  0
XRECORD
  5
18
102
{ACAD_REACTORS
330
12
102
}
330
12
100
AcDbXrecord
280
     1
270
     1
271
     1
  0
XRECORD
  5
15
102
{ACAD_REACTORS
330
12
102
}
330
12
100
AcDbXrecord
280
     1
270
     1
271
     1
  0
XRECORD
  5
24
102
{ACAD_REACTORS
330
22
102
}
330
22
100
AcDbXrecord
280
     1
270
     1
271
     1
  0
XRECORD
  5
23
102
{ACAD_REACTORS
330
22
102
}
330
22
100
AcDbXrecord
280
     1
270
     1
271
     1
  0
XRECORD
  5
27
102
{ACAD_REACTORS
330
22
102
}
330
22
100
AcDbXrecord
280
     1
270
     1
271
     1
  0
XRECORD
  5
26
102
{ACAD_REACTORS
330
22
102
}
330
22
100
AcDbXrecord
280
     1
270
     1
271
     1
  0
XRECORD
  5
28
102
{ACAD_REACTORS
330
22
102
}
330
22
100
AcDbXrecord
280
     1
270
     1
271
     1
  0
XRECORD
  5
25
102
{ACAD_REACTORS
330
22
102
}
330
22
100
AcDbXrecord
280
     1
270
     1
271
     1
  0
CELLSTYLEMAP
  5
1D8
102
{ACAD_REACTORS
330
1D7
102
}
330
1D7
100
AcDbCellStyleMap
 90
        3
300
CELLSTYLE
  1
TABLEFORMAT_BEGIN
 90
        5
170
     1
 91
        0
 92
    32768
 62
   257
 93
        1
300
CONTENTFORMAT
  1
CONTENTFORMAT_BEGIN
 90
        0
 91
        0
 92
      512
 93
        0
300

 40
0.0
140
1.0
 94
        5
 62
     0
340
55
144
0.25
309
CONTENTFORMAT_END
171
     0
 94
        0
309
TABLEFORMAT_END
  1
CELLSTYLE_BEGIN
 90
        1
 91
        1
300
_TITLE
309
CELLSTYLE_END
300
CELLSTYLE
  1
TABLEFORMAT_BEGIN
 90
        5
170
     1
 91
        0
 92
        0
 62
   257
 93
        1
300
CONTENTFORMAT
  1
CONTENTFORMAT_BEGIN
 90
        0
 91
        0
 92
      512
 93
        0
300

 40
0.0
140
1.0
 94
        5
 62
     0
340
55
144
0.18
309
CONTENTFORMAT_END
171
     0
 94
        0
309
TABLEFORMAT_END
  1
CELLSTYLE_BEGIN
 90
        2
 91
        1
300
_HEADER
309
CELLSTYLE_END
300
CELLSTYLE
  1
TABLEFORMAT_BEGIN
 90
        5
170
     1
 91
        0
 92
        0
 62
   257
 93
        1
300
CONTENTFORMAT
  1
CONTENTFORMAT_BEGIN
 90
        0
 91
        0
 92
      512
 93
        0
300

 40
0.0
140
1.0
 94
        2
 62
     0
340
55
144
0.18
309
CONTENTFORMAT_END
171
     0
 94
        0
309
TABLEFORMAT_END
  1
CELLSTYLE_BEGIN
 90
        3
 91
        2
300
_DATA
309
CELLSTYLE_END
  0
ENDSEC
  0
EOF
