  0
SECTION
  2
HEADER
  9
$ACADVER
  1
AC1032
  9
$ACADMAINTVER
 90
      228
  9
$DWGCODEPAGE
  3
ANSI_1252
  9
$REQUIREDVERSIONS
160
                 0
  9
$INSBASE
 10
0.0
 20
0.0
 30
0.0
  9
$EXTMIN
 10
1.000000000000000E+20
 20
1.000000000000000E+20
 30
1.000000000000000E+20
  9
$EXTMAX
 10
-1.000000000000000E+20
 20
-1.000000000000000E+20
 30
-1.000000000000000E+20
  9
$LIMMIN
 10
0.0
 20
0.0
  9
$LIMMAX
 10
12.0
 20
9.0
  9
$ORTHOMODE
 70
     0
  9
$REGENMODE
 70
     1
  9
$FILLMODE
 70
     1
  9
$QTEXTMODE
 70
     0
  9
$MIRRTEXT
 70
     0
  9
$LTSCALE
 40
1.0
  9
$ATTMODE
 70
     1
  9
$TEXTSIZE
 40
0.2
  9
$TRACEWID
 40
0.05
  9
$TEXTSTYLE
  7
Standard
  9
$CLAYER
  8
0
  9
$CELTYPE
  6
ByLayer
  9
$CECOLOR
 62
   256
  9
$CELTSCALE
 40
1.0
  9
$DISPSILH
 70
     0
  9
$DIMSCALE
 40
1.0
  9
$DIMASZ
 40
0.18
  9
$DIMEXO
 40
0.0625
  9
$DIMDLI
 40
0.38
  9
$DIMRND
 40
0.0
  9
$DIMDLE
 40
0.0
  9
$DIMEXE
 40
0.18
  9
$DIMTP
 40
0.0
  9
$DIMTM
 40
0.0
  9
$DIMTXT
 40
0.18
  9
$DIMCEN
 40
0.09
  9
$DIMTSZ
 40
0.0
  9
$DIMTOL
 70
     0
  9
$DIMLIM
 70
     0
  9
$DIMTIH
 70
     1
  9
$DIMTOH
 70
     1
  9
$DIMSE1
 70
     0
  9
$DIMSE2
 70
     0
  9
$DIMTAD
 70
     0
  9
$DIMZIN
 70
     0
  9
$DIMBLK
  1

  9
$DIMASO
 70
     1
  9
$DIMSHO
 70
     1
  9
$DIMPOST
  1

  9
$DIMAPOST
  1

  9
$DIMALT
 70
     0
  9
$DIMALTD
 70
     2
  9
$DIMALTF
 40
25.4
  9
$DIMLFAC
 40
1.0
  9
$DIMTOFL
 70
     0
  9
$DIMTVP
 40
0.0
  9
$DIMTIX
 70
     0
  9
$DIMSOXD
 70
     0
  9
$DIMSAH
 70
     0
  9
$DIMBLK1
  1

  9
$DIMBLK2
  1

  9
$DIMSTYLE
  2
Standard
  9
$DIMCLRD
 70
     0
  9
$DIMCLRE
 70
     0
  9
$DIMCLRT
 70
     0
  9
$DIMTFAC
 40
1.0
  9
$DIMGAP
 40
0.09
  9
$DIMJUST
 70
     0
  9
$DIMSD1
 70
     0
  9
$DIMSD2
 70
     0
  9
$DIMTOLJ
 70
     1
  9
$DIMTZIN
 70
     0
  9
$DIMALTZ
 70
     0
  9
$DIMALTTZ
 70
     0
  9
$DIMUPT
 70
     0
  9
$DIMDEC
 70
     4
  9
$DIMTDEC
 70
     4
  9
$DIMALTU
 70
     2
  9
$DIMALTTD
 70
     2
  9
$DIMTXSTY
  7
Standard
  9
$DIMAUNIT
 70
     0
  9
$DIMADEC
 70
     0
  9
$DIMALTRND
 40
0.0
  9
$DIMAZIN
 70
     0
  9
$DIMDSEP
 70
    46
  9
$DIMATFIT
 70
     3
  9
$DIMFRAC
 70
     0
  9
$DIMLDRBLK
  1

  9
$DIMLUNIT
 70
     2
  9
$DIMLWD
 70
    -2
  9
$DIMLWE
 70
    -2
  9
$DIMTMOVE
 70
     0
  9
$DIMFXL
 40
1.0
  9
$DIMFXLON
 70
     0
  9
$DIMJOGANG
 40
0.7853981633974483
  9
$DIMTFILL
 70
     0
  9
$DIMTFILLCLR
 70
     0
  9
$DIMARCSYM
 70
     0
  9
$DIMLTYPE
  6

  9
$DIMLTEX1
  6

  9
$DIMLTEX2
  6

  9
$DIMTXTDIRECTION
 70
     0
  9
$LUNITS
 70
     2
  9
$LUPREC
 70
     4
  9
$SKETCHINC
 40
0.1
  9
$FILLETRAD
 40
0.0
  9
$AUNITS
 70
     0
  9
$AUPREC
 70
     0
  9
$MENU
  1
.
  9
$ELEVATION
 40
0.0
  9
$PELEVATION
 40
0.0
  9
$THICKNESS
 40
0.0
  9
$LIMCHECK
 70
     0
  9
$CHAMFERA
 40
0.0
  9
$CHAMFERB
 40
0.0
  9
$CHAMFERC
 40
0.0
  9
$CHAMFERD
 40
0.0
  9
$SKPOLY
 70
     0
  9
$TDCREATE
 40
2460313.730810185
  9
$TDUCREATE
 40
2460313.730810185
  9
$TDUPDATE
 40
2460313.730810185
  9
$TDUUPDATE
 40
2460313.730810185
  9
$TDINDWG
 40
0.0000115741
  9
$TDUSRTIMER
 40
0.0000115741
  9
$USRTIMER
 70
     1
  9
$ANGBASE
 50
0.0
  9
$ANGDIR
 70
     0
  9
$PDMODE
 70
     0
  9
$PDSIZE
 40
0.0
  9
$PLINEWID
 40
0.0
  9
$SPLFRAME
 70
     0
  9
$SPLINETYPE
 70
     6
  9
$SPLINESEGS
 70
     8
  9
$HANDSEED
  5
16C
  9
$SURFTAB1
 70
     6
  9
$SURFTAB2
 70
     6
  9
$SURFTYPE
 70
     6
  9
$SURFU
 70
     6
  9
$SURFV
 70
     6
  9
$UCSBASE
  2

  9
$UCSNAME
  2

  9
$UCSORG
 10
0.0
 20
0.0
 30
0.0
  9
$UCSXDIR
 10
1.0
 20
0.0
 30
0.0
  9
$UCSYDIR
 10
0.0
 20
1.0
 30
0.0
  9
$UCSORTHOREF
  2

  9
$UCSORTHOVIEW
 70
     0
  9
$UCSORGTOP
 10
0.0
 20
0.0
 30
0.0
  9
$UCSORGBOTTOM
 10
0.0
 20
0.0
 30
0.0
  9
$UCSORGLEFT
 10
0.0
 20
0.0
 30
0.0
  9
$UCSORGRIGHT
 10
0.0
 20
0.0
 30
0.0
  9
$UCSORGFRONT
 10
0.0
 20
0.0
 30
0.0
  9
$UCSORGBACK
 10
0.0
 20
0.0
 30
0.0
  9
$PUCSBASE
  2

  9
$PUCSNAME
  2

  9
$PUCSORG
 10
0.0
 20
0.0
 30
0.0
  9
$PUCSXDIR
 10
1.0
 20
0.0
 30
0.0
  9
$PUCSYDIR
 10
0.0
 20
1.0
 30
0.0
  9
$PUCSORTHOREF
  2

  9
$PUCSORTHOVIEW
 70
     0
  9
$PUCSORGTOP
 10
0.0
 20
0.0
 30
0.0
  9
$PUCSORGBOTTOM
 10
0.0
 20
0.0
 30
0.0
  9
$PUCSORGLEFT
 10
0.0
 20
0.0
 30
0.0
  9
$PUCSORGRIGHT
 10
0.0
 20
0.0
 30
0.0
  9
$PUCSORGFRONT
 10
0.0
 20
0.0
 30
0.0
  9
$PUCSORGBACK
 10
0.0
 20
0.0
 30
0.0
  9
$USERI1
 70
     0
  9
$USERI2
 70
     0
  9
$USERI3
 70
     0
  9
$USERI4
 70
     0
  9
$USERI5
 70
     0
  9
$USERR1
 40
0.0
  9
$USERR2
 40
0.0
  9
$USERR3
 40
0.0
  9
$USERR4
 40
0.0
  9
$USERR5
 40
0.0
  9
$WORLDVIEW
 70
     1
  9
$SHADEDGE
 70
     3
  9
$SHADEDIF
 70
    70
  9
$TILEMODE
 70
     1
  9
$MAXACTVP
 70
    64
  9
$PINSBASE
 10
0.0
 20
0.0
 30
0.0
  9
$PLIMCHECK
 70
     0
  9
$PEXTMIN
 10
1.000000000000000E+20
 20
1.000000000000000E+20
 30
1.000000000000000E+20
  9
$PEXTMAX
 10
-1.000000000000000E+20
 20
-1.000000000000000E+20
 30
-1.000000000000000E+20
  9
$PLIMMIN
 10
0.0
 20
0.0
  9
$PLIMMAX
 10
12.0
 20
9.0
  9
$UNITMODE
 70
     0
  9
$VISRETAIN
 70
     1
  9
$PLINEGEN
 70
     0
  9
$PSLTSCALE
 70
     1
  9
$TREEDEPTH
 70
  3020
  9
$CMLSTYLE
  2
Standard
  9
$CMLJUST
 70
     0
  9
$CMLSCALE
 40
1.0
  9
$PROXYGRAPHICS
 70
     1
  9
$MEASUREMENT
 70
     0
  9
$CELWEIGHT
370
    -1
  9
$ENDCAPS
280
     0
  9
$JOINSTYLE
280
     0
  9
$LWDISPLAY
290
     1
  9
$INSUNITS
 70
     4
  9
$HYPERLINKBASE
  1

  9
$STYLESHEET
  1

  9
$XEDIT
290
     1
  9
$CEPSNTYPE
380
     0
  9
$PSTYLEMODE
290
     1
  9
$FINGERPRINTGUID
  2
{EC5AE3B1-EBA2-6341-A82E-BDDCE401DC93}
  9
$VERSIONGUID
  2
{1D248D0A-B59A-3C46-A6C6-7B9DC89F9C25}
  9
$EXTNAMES
290
     1
  9
$PSVPSCALE
 40
0.0
  9
$OLESTARTUP
290
     0
  9
$SORTENTS
280
   127
  9
$INDEXCTL
280
     0
  9
$HIDETEXT
280
     1
  9
$XCLIPFRAME
280
     2
  9
$HALOGAP
280
     0
  9
$OBSCOLOR
 70
   257
  9
$OBSLTYPE
280
     0
  9
$INTERSECTIONDISPLAY
280
     0
  9
$INTERSECTIONCOLOR
 70
   257
  9
$DIMASSOC
280
     2
  9
$PROJECTNAME
  1

  9
$CAMERADISPLAY
290
     0
  9
$LENSLENGTH
 40
50.0
  9
$CAMERAHEIGHT
 40
0.0
  9
$STEPSPERSEC
 40
2.0
  9
$STEPSIZE
 40
6.0
  9
$3DDWFPREC
 40
2.0
  9
$PSOLWIDTH
 40
0.25
  9
$PSOLHEIGHT
 40
4.0
  9
$LOFTANG1
 40
1.570796326794896
  9
$LOFTANG2
 40
1.570796326794896
  9
$LOFTMAG1
 40
0.0
  9
$LOFTMAG2
 40
0.0
  9
$LOFTPARAM
 70
     7
  9
$LOFTNORMALS
280
     1
  9
$LATITUDE
 40
37.795
  9
$LONGITUDE
 40
-122.394
  9
$NORTHDIRECTION
 40
0.0
  9
$TIMEZONE
 70
 -8000
  9
$LIGHTGLYPHDISPLAY
280
     1
  9
$TILEMODELIGHTSYNCH
280
     1
  9
$CMATERIAL
347
11
  9
$SOLIDHIST
280
     0
  9
$SHOWHIST
280
     1
  9
$DWFFRAME
280
     2
  9
$DGNFRAME
280
     0
  9
$REALWORLDSCALE
290
     1
  9
$INTERFERECOLOR
 62
     1
  9
$INTERFEREOBJVS
345
33
  9
$INTERFEREVPVS
346
30
  9
$CSHADOW
280
     0
  9
$SHADOWPLANELOCATION
 40
0.0
  0
ENDSEC
  0
SECTION
  2
CLASSES
  0
CLASS
  1
ACDBDICTIONARYWDFLT
  2
AcDbDictionaryWithDefault
  3
ObjectDBX Classes
 90
        0
 91
        1
280
     0
281
     0
  0
CLASS
  1
MATERIAL
  2
AcDbMaterial
  3
ObjectDBX Classes
 90
     1153
 91
        3
280
     0
281
     0
  0
CLASS
  1
VISUALSTYLE
  2
AcDbVisualStyle
  3
ObjectDBX Classes
 90
     4095
 91
       24
280
     0
281
     0
  0
CLASS
  1
SCALE
  2
AcDbScale
  3
ObjectDBX Classes
 90
     1153
 91
       17
280
     0
281
     0
  0
CLASS
  1
TABLESTYLE
  2
AcDbTableStyle
  3
ObjectDBX Classes
 90
     4095
 91
        1
280
     0
281
     0
  0
CLASS
  1
MLEADERSTYLE
  2
AcDbMLeaderStyle
  3
ACDB_MLEADERSTYLE_CLASS
 90
     4095
 91
        1
280
     0
281
     0
  0
CLASS
  1
ACDBSECTIONVIEWSTYLE
  2
AcDbSectionViewStyle
  3
ObjectDBX Classes
 90
     1025
 91
        1
280
     0
281
     0
  0
CLASS
  1
ACDBDETAILVIEWSTYLE
  2
AcDbDetailViewStyle
  3
ObjectDBX Classes
 90
     1025
 91
        1
280
     0
281
     0
  0
CLASS
  1
DICTIONARYVAR
  2
AcDbDictionaryVar
  3
ObjectDBX Classes
 90
        0
 91
        5
280
     0
281
     0
  0
CLASS
  1
CELLSTYLEMAP
  2
AcDbCellStyleMap
  3
ObjectDBX Classes
 90
     1152
 91
        1
280
     0
281
     0
  0
ENDSEC
  0
SECTION
  2
TABLES
  0
TABLE
  2
VPORT
  5
8
330
0
100
AcDbSymbolTable
 70
     1
  0
VPORT
  5
57
330
8
100
AcDbSymbolTableRecord
100
AcDbViewportTableRecord
  2
*Active
 70
     0
 10
0.0
 20
0.0
 11
1.0
 21
1.0
 12
0.0
 22
0.0
 13
0.0
 23
0.0
 14
1.0
 24
1.0
 15
0.0
 25
0.0
 16
0.0
 26
0.0
 36
1.0
 17
49.99999998749986
 27
-49.99999998749986
 37
0.0
 40
101.9999999744997
 41
1.0
 42
50.0
 43
0.0
 44
0.0
 50
0.0
 51
0.0
 71
     0
 72
   100
 73
     1
 74
     1
 75
     0
 76
     0
 77
     0
 78
     0
281
     0
 65
     1
110
0.0
120
0.0
130
0.0
111
1.0
121
0.0
131
0.0
112
0.0
122
1.0
132
0.0
 79
     0
146
0.0
 60
     3
 61
     5
292
     1
282
     1
141
0.0
142
0.0
 63
   250
421
  3355443
  0
ENDTAB
  0
TABLE
  2
LTYPE
  5
5
330
0
100
AcDbSymbolTable
 70
     1
  0
LTYPE
  5
5B
330
5
100
AcDbSymbolTableRecord
100
AcDbLinetypeTableRecord
  2
ByBlock
 70
     0
  3

 72
    65
 73
     0
 40
0.0
  0
LTYPE
  5
5C
330
5
100
AcDbSymbolTableRecord
100
AcDbLinetypeTableRecord
  2
ByLayer
 70
     0
  3

 72
    65
 73
     0
 40
0.0
  0
LTYPE
  5
5D
330
5
100
AcDbSymbolTableRecord
100
AcDbLinetypeTableRecord
  2
Continuous
 70
     0
  3
Solid line
 72
    65
 73
     0
 40
0.0
  0
ENDTAB
  0
TABLE
  2
LAYER
  5
2
330
0
100
AcDbSymbolTable
 70
     2
  0
LAYER
  5
54
330
2
100
AcDbSymbolTableRecord
100
AcDbLayerTableRecord
  2
0
 70
     0
 62
     7
  6
Continuous
370
    -3
390
F
347
21
348
0
  0
LAYER
  5
78
330
2
100
AcDbSymbolTableRecord
100
AcDbLayerTableRecord
  2
Camada 1
 70
     0
 62
     7
  6
Continuous
370
     0
390
F
347
21
348
0
  0
ENDTAB
  0
TABLE
  2
STYLE
  5
3
330
0
100
AcDbSymbolTable
 70
     2
  0
STYLE
  5
55
330
3
100
AcDbSymbolTableRecord
100
AcDbTextStyleTableRecord
  2
Standard
 70
     0
 40
0.0
 41
1.0
 50
0.0
 71
     0
 42
0.2
  3
txt
  4

  0
STYLE
  5
5A
330
3
100
AcDbSymbolTableRecord
100
AcDbTextStyleTableRecord
  2
Annotative
 70
     0
 40
0.0
 41
1.0
 50
0.0
 71
     0
 42
0.2
  3
txt
  4

1001
AcadAnnotative
1000
AnnotativeData
1002
{
1070
     1
1070
     1
1002
}
  0
ENDTAB
  0
TABLE
  2
VIEW
  5
6
330
0
100
AcDbSymbolTable
 70
     0
  0
ENDTAB
  0
TABLE
  2
UCS
  5
7
330
0
100
AcDbSymbolTable
 70
     0
  0
ENDTAB
  0
TABLE
  2
APPID
  5
9
330
0
100
AcDbSymbolTable
 70
     2
  0
APPID
  5
56
330
9
100
AcDbSymbolTableRecord
100
AcDbRegAppTableRecord
  2
ACAD
 70
     0
  0
APPID
  5
5E
330
9
100
AcDbSymbolTableRecord
100
AcDbRegAppTableRecord
  2
AcadAnnotative
 70
     0
  0
ENDTAB
  0
TABLE
  2
DIMSTYLE
  5
A
330
0
100
AcDbSymbolTable
 70
     2
100
AcDbDimStyleTable
 71
     0
  0
DIMSTYLE
105
58
330
A
100
AcDbSymbolTableRecord
100
AcDbDimStyleTableRecord
  2
Standard
 70
     0
340
55
  0
DIMSTYLE
105
59
330
A
100
AcDbSymbolTableRecord
100
AcDbDimStyleTableRecord
  2
Annotative
 70
     0
340
55
1001
AcadAnnotative
1000
AnnotativeData
1002
{
1070
     1
1070
     1
1002
}
  0
ENDTAB
  0
TABLE
  2
BLOCK_RECORD
  5
1
330
0
100
AcDbSymbolTable
 70
     7
  0
BLOCK_RECORD
  5
70
330
1
100
AcDbSymbolTableRecord
100
AcDbBlockTableRecord
  2
*Model_Space
340
73
 70
     0
280
     1
281
     0
  0
BLOCK_RECORD
  5
6C
330
1
100
AcDbSymbolTableRecord
100
AcDbBlockTableRecord
  2
*Paper_Space
340
6F
 70
     0
280
     1
281
     0
  0
BLOCK_RECORD
  5
74
330
1
100
AcDbSymbolTableRecord
100
AcDbBlockTableRecord
  2
*Paper_Space0
340
77
 70
     0
280
     1
281
     0
  0
BLOCK_RECORD
  5
79
330
1
100
AcDbSymbolTableRecord
100
AcDbBlockTableRecord
  2
Block_0
340
0
102
{BLKREFS
331
7A
102
}
 70
     0
280
     1
281
     0
  0
BLOCK_RECORD
  5
AD
330
1
100
AcDbSymbolTableRecord
100
AcDbBlockTableRecord
  2
Block_1
340
0
102
{BLKREFS
331
AE
102
}
 70
     0
280
     1
281
     0
  0
BLOCK_RECORD
  5
FA
330
1
100
AcDbSymbolTableRecord
100
AcDbBlockTableRecord
  2
Block_2
340
0
102
{BLKREFS
331
FB
102
}
 70
     0
280
     1
281
     0
  0
BLOCK_RECORD
  5
111
330
1
100
AcDbSymbolTableRecord
100
AcDbBlockTableRecord
  2
Block_3
340
0
102
{BLKREFS
331
112
102
}
 70
     0
280
     1
281
     0
  0
BLOCK_RECORD
  5
121
330
1
100
AcDbSymbolTableRecord
100
AcDbBlockTableRecord
  2
Block_4
340
0
102
{BLKREFS
331
122
102
}
 70
     0
280
     1
281
     0
  0
BLOCK_RECORD
  5
12E
330
1
100
AcDbSymbolTableRecord
100
AcDbBlockTableRecord
  2
Block_5
340
0
102
{BLKREFS
331
12F
102
}
 70
     0
280
     1
281
     0
  0
ENDTAB
  0
ENDSEC
  0
SECTION
  2
BLOCKS
  0
BLOCK
  5
71
330
70
100
AcDbEntity
  8
0
100
AcDbBlockBegin
  2
*Model_Space
 70
     0
 10
0.0
 20
0.0
 30
0.0
  3
*Model_Space
  1

  0
ENDBLK
  5
72
330
70
100
AcDbEntity
  8
0
100
AcDbBlockEnd
  0
BLOCK
  5
6D
330
6C
100
AcDbEntity
 67
     1
  8
0
100
AcDbBlockBegin
  2
*Paper_Space
 70
     0
 10
0.0
 20
0.0
 30
0.0
  3
*Paper_Space
  1

  0
ENDBLK
  5
6E
330
6C
100
AcDbEntity
 67
     1
  8
0
100
AcDbBlockEnd
  0
BLOCK
  5
75
330
74
100
AcDbEntity
 67
     1
  8
0
100
AcDbBlockBegin
  2
*Paper_Space0
 70
     0
 10
0.0
 20
0.0
 30
0.0
  3
*Paper_Space0
  1

  0
ENDBLK
  5
76
330
74
100
AcDbEntity
 67
     1
  8
0
100
AcDbBlockEnd
  0
BLOCK
  5
7B
330
79
100
AcDbEntity
  8
0
100
AcDbBlockBegin
  2
Block_0
 70
     0
 10
0.0
 20
0.0
 30
0.0
  3
Block_0
  1

  0
SPLINE
  5
7D
330
79
100
AcDbEntity
  8
Camada 1
 62
    18
420
        0
370
    15
100
AcDbSpline
210
0.0
220
0.0
230
1.0
 70
     9
 71
     3
 72
    17
 73
    13
 74
     0
 42
0.0000000001
 43
0.0000000001
 40
0.0
 40
0.0
 40
0.0
 40
0.0
 40
1.0
 40
1.0
 40
1.0
 40
2.0
 40
2.0
 40
2.0
 40
3.0
 40
3.0
 40
3.0
 40
4.0
 40
4.0
 40
4.0
 40
4.0
 10
36.29174905453187
 20
-67.59015122715126
 30
0.0
 10
36.29174905453187
 20
-67.96937319707691
 30
0.0
 10
35.98445146446307
 20
-68.27620998146381
 30
0.0
 10
35.60569030022062
 20
-68.27620998146381
 30
0.0
 10
35.22670049193675
 20
-68.27620998146381
 30
0.0
 10
34.919406419467
 20
-67.96937319707691
 30
0.0
 10
34.919406419467
 20
-67.59015122715126
 30
0.0
 10
34.919406419467
 20
-67.21093277482855
 30
0.0
 10
35.22670049193675
 20
-66.90409599043907
 30
0.0
 10
35.60569030022062
 20
-66.90409599043907
 30
0.0
 10
35.98445146446307
 20
-66.90409599043907
 30
0.0
 10
36.29174905453187
 20
-67.21093277482855
 30
0.0
 10
36.29174905453187
 20
-67.59015122715126
 30
0.0
  0
SPLINE
  5
7E
330
79
100
AcDbEntity
  8
Camada 1
 62
    18
420
        0
370
    15
100
AcDbSpline
210
0.0
220
0.0
230
1.0
 70
     9
 71
     3
 72
    17
 73
    13
 74
     0
 42
0.0000000001
 43
0.0000000001
 40
0.0
 40
0.0
 40
0.0
 40
0.0
 40
1.0
 40
1.0
 40
1.0
 40
2.0
 40
2.0
 40
2.0
 40
3.0
 40
3.0
 40
3.0
 40
4.0
 40
4.0
 40
4.0
 40
4.0
 10
36.29174905453187
 20
-67.59015122715126
 30
0.0
 10
36.29174905453187
 20
-67.96937319707691
 30
0.0
 10
35.98445146446307
 20
-68.27620998146381
 30
0.0
 10
35.60569030022062
 20
-68.27620998146381
 30
0.0
 10
35.22670049193675
 20
-68.27620998146381
 30
0.0
 10
34.919406419467
 20
-67.96937319707691
 30
0.0
 10
34.919406419467
 20
-67.59015122715126
 30
0.0
 10
34.919406419467
 20
-67.21093277482855
 30
0.0
 10
35.22670049193675
 20
-66.90409599043907
 30
0.0
 10
35.60569030022062
 20
-66.90409599043907
 30
0.0
 10
35.98445146446307
 20
-66.90409599043907
 30
0.0
 10
36.29174905453187
 20
-67.21093277482855
 30
0.0
 10
36.29174905453187
 20
-67.59015122715126
 30
0.0
  0
SPLINE
  5
7F
330
79
100
AcDbEntity
  8
Camada 1
 62
    18
420
        0
370
    15
100
AcDbSpline
210
0.0
220
0.0
230
1.0
 70
     9
 71
     3
 72
    17
 73
    13
 74
     0
 42
0.0000000001
 43
0.0000000001
 40
0.0
 40
0.0
 40
0.0
 40
0.0
 40
1.0
 40
1.0
 40
1.0
 40
2.0
 40
2.0
 40
2.0
 40
3.0
 40
3.0
 40
3.0
 40
4.0
 40
4.0
 40
4.0
 40
4.0
 10
34.37012253002023
 20
-65.07424718367596
 30
0.0
 10
34.37012253002023
 20
-65.27619263520863
 30
0.0
 10
34.20621289398063
 20
-65.44033091528965
 30
0.0
 10
34.00403879840783
 20
-65.44033091528965
 30
0.0
 10
33.8020968644755
 20
-65.44033091528965
 30
0.0
 10
33.63841939007702
 20
-65.27619263520863
 30
0.0
 10
33.63841939007702
 20
-65.07424718367596
 30
0.0
 10
33.63841939007702
 20
-64.87230524974491
 30
0.0
 10
33.8020968644755
 20
-64.70816696966391
 30
0.0
 10
34.00403879840783
 20
-64.70816696966391
 30
0.0
 10
34.20621289398063
 20
-64.70816696966391
 30
0.0
 10
34.37012253002023
 20
-64.87230524974491
 30
0.0
 10
34.37012253002023
 20
-65.07424718367596
 30
0.0
  0
SPLINE
  5
80
330
79
100
AcDbEntity
  8
Camada 1
 62
    18
420
        0
370
    15
100
AcDbSpline
210
0.0
220
0.0
230
1.0
 70
     9
 71
     3
 72
    17
 73
    13
 74
     0
 42
0.0000000001
 43
0.0000000001
 40
0.0
 40
0.0
 40
0.0
 40
0.0
 40
1.0
 40
1.0
 40
1.0
 40
2.0
 40
2.0
 40
2.0
 40
3.0
 40
3.0
 40
3.0
 40
4.0
 40
4.0
 40
4.0
 40
4.0
 10
34.37012253002023
 20
-65.07424718367596
 30
0.0
 10
34.37012253002023
 20
-65.27619263520863
 30
0.0
 10
34.20621289398063
 20
-65.44033091528965
 30
0.0
 10
34.00403879840783
 20
-65.44033091528965
 30
0.0
 10
33.8020968644755
 20
-65.44033091528965
 30
0.0
 10
33.63841939007702
 20
-65.27619263520863
 30
0.0
 10
33.63841939007702
 20
-65.07424718367596
 30
0.0
 10
33.63841939007702
 20
-64.87230524974491
 30
0.0
 10
33.8020968644755
 20
-64.70816696966391
 30
0.0
 10
34.00403879840783
 20
-64.70816696966391
 30
0.0
 10
34.20621289398063
 20
-64.70816696966391
 30
0.0
 10
34.37012253002023
 20
-64.87230524974491
 30
0.0
 10
34.37012253002023
 20
-65.07424718367596
 30
0.0
  0
SPLINE
  5
81
330
79
100
AcDbEntity
  8
Camada 1
 62
    18
420
        0
370
    15
100
AcDbSpline
210
0.0
220
0.0
230
1.0
 70
     9
 71
     3
 72
    17
 73
    13
 74
     0
 42
0.0000000001
 43
0.0000000001
 40
0.0
 40
0.0
 40
0.0
 40
0.0
 40
1.0
 40
1.0
 40
1.0
 40
2.0
 40
2.0
 40
2.0
 40
3.0
 40
3.0
 40
3.0
 40
4.0
 40
4.0
 40
4.0
 40
4.0
 10
37.57254613348997
 20
-65.07424718367596
 30
0.0
 10
37.57254613348997
 20
-65.27619263520863
 30
0.0
 10
37.40863649744908
 20
-65.44033091528965
 30
0.0
 10
37.20646240187692
 20
-65.44033091528965
 30
0.0
 10
37.00452046794492
 20
-65.44033091528965
 30
0.0
 10
36.84084299354611
 20
-65.27619263520863
 30
0.0
 10
36.84084299354611
 20
-65.07424718367596
 30
0.0
 10
36.84084299354611
 20
-64.87230524974491
 30
0.0
 10
37.00452046794492
 20
-64.70816696966391
 30
0.0
 10
37.20646240187692
 20
-64.70816696966391
 30
0.0
 10
37.40863649744908
 20
-64.70816696966391
 30
0.0
 10
37.57254613348997
 20
-64.87230524974491
 30
0.0
 10
37.57254613348997
 20
-65.07424718367596
 30
0.0
  0
SPLINE
  5
82
330
79
100
AcDbEntity
  8
Camada 1
 62
    18
420
        0
370
    15
100
AcDbSpline
210
0.0
220
0.0
230
1.0
 70
     9
 71
     3
 72
    17
 73
    13
 74
     0
 42
0.0000000001
 43
0.0000000001
 40
0.0
 40
0.0
 40
0.0
 40
0.0
 40
1.0
 40
1.0
 40
1.0
 40
2.0
 40
2.0
 40
2.0
 40
3.0
 40
3.0
 40
3.0
 40
4.0
 40
4.0
 40
4.0
 40
4.0
 10
37.57254613348997
 20
-65.07424718367596
 30
0.0
 10
37.57254613348997
 20
-65.27619263520863
 30
0.0
 10
37.40863649744908
 20
-65.44033091528965
 30
0.0
 10
37.20646240187692
 20
-65.44033091528965
 30
0.0
 10
37.00452046794492
 20
-65.44033091528965
 30
0.0
 10
36.84084299354611
 20
-65.27619263520863
 30
0.0
 10
36.84084299354611
 20
-65.07424718367596
 30
0.0
 10
36.84084299354611
 20
-64.87230524974491
 30
0.0
 10
37.00452046794492
 20
-64.70816696966391
 30
0.0
 10
37.20646240187692
 20
-64.70816696966391
 30
0.0
 10
37.40863649744908
 20
-64.70816696966391
 30
0.0
 10
37.57254613348997
 20
-64.87230524974491
 30
0.0
 10
37.57254613348997
 20
-65.07424718367596
 30
0.0
  0
SPLINE
  5
83
330
79
100
AcDbEntity
  8
Camada 1
 62
    18
420
        0
370
    15
100
AcDbSpline
210
0.0
220
0.0
230
1.0
 70
     9
 71
     3
 72
    17
 73
    13
 74
     0
 42
0.0000000001
 43
0.0000000001
 40
0.0
 40
0.0
 40
0.0
 40
0.0
 40
1.0
 40
1.0
 40
1.0
 40
2.0
 40
2.0
 40
2.0
 40
3.0
 40
3.0
 40
3.0
 40
4.0
 40
4.0
 40
4.0
 40
4.0
 10
33.24956622965729
 20
-61.51321123230978
 30
0.0
 10
33.24956622965729
 20
-61.63931369689644
 30
0.0
 10
33.14697892520737
 20
-61.74189748374601
 30
0.0
 10
33.02087997821978
 20
-61.74189748374601
 30
0.0
 10
32.89454886959171
 20
-61.74189748374601
 30
0.0
 10
32.79219372678227
 20
-61.63931369689644
 30
0.0
 10
32.79219372678227
 20
-61.51321123230978
 30
0.0
 10
32.79219372678227
 20
-61.38711228532219
 30
0.0
 10
32.89454886959171
 20
-61.28452849847261
 30
0.0
 10
33.02087997821978
 20
-61.28452849847261
 30
0.0
 10
33.14697892520737
 20
-61.28452849847261
 30
0.0
 10
33.24956622965729
 20
-61.38711228532219
 30
0.0
 10
33.24956622965729
 20
-61.51321123230978
 30
0.0
  0
SPLINE
  5
84
330
79
100
AcDbEntity
  8
Camada 1
 62
    18
420
        0
370
    15
100
AcDbSpline
210
0.0
220
0.0
230
1.0
 70
     9
 71
     3
 72
    17
 73
    13
 74
     0
 42
0.0000000001
 43
0.0000000001
 40
0.0
 40
0.0
 40
0.0
 40
0.0
 40
1.0
 40
1.0
 40
1.0
 40
2.0
 40
2.0
 40
2.0
 40
3.0
 40
3.0
 40
3.0
 40
4.0
 40
4.0
 40
4.0
 40
4.0
 10
33.24956622965729
 20
-61.51321123230978
 30
0.0
 10
33.24956622965729
 20
-61.63931369689644
 30
0.0
 10
33.14697892520737
 20
-61.74189748374601
 30
0.0
 10
33.02087997821978
 20
-61.74189748374601
 30
0.0
 10
32.89454886959171
 20
-61.74189748374601
 30
0.0
 10
32.79219372678227
 20
-61.63931369689644
 30
0.0
 10
32.79219372678227
 20
-61.51321123230978
 30
0.0
 10
32.79219372678227
 20
-61.38711228532219
 30
0.0
 10
32.89454886959171
 20
-61.28452849847261
 30
0.0
 10
33.02087997821978
 20
-61.28452849847261
 30
0.0
 10
33.14697892520737
 20
-61.28452849847261
 30
0.0
 10
33.24956622965729
 20
-61.38711228532219
 30
0.0
 10
33.24956622965729
 20
-61.51321123230978
 30
0.0
  0
SPLINE
  5
85
330
79
100
AcDbEntity
  8
Camada 1
 62
    18
420
        0
370
    15
100
AcDbSpline
210
0.0
220
0.0
230
1.0
 70
     9
 71
     3
 72
    17
 73
    13
 74
     0
 42
0.0000000001
 43
0.0000000001
 40
0.0
 40
0.0
 40
0.0
 40
0.0
 40
1.0
 40
1.0
 40
1.0
 40
2.0
 40
2.0
 40
2.0
 40
3.0
 40
3.0
 40
3.0
 40
4.0
 40
4.0
 40
4.0
 40
4.0
 10
38.41856777594762
 20
-61.51321123230978
 30
0.0
 10
38.41856777594762
 20
-61.63931369689644
 30
0.0
 10
38.31598047149706
 20
-61.74189748374601
 30
0.0
 10
38.18988152451042
 20
-61.74189748374601
 30
0.0
 10
38.06355041588203
 20
-61.74189748374601
 30
0.0
 10
37.96119527307259
 20
-61.63931369689644
 30
0.0
 10
37.96119527307259
 20
-61.51321123230978
 30
0.0
 10
37.96119527307259
 20
-61.38711228532219
 30
0.0
 10
38.06355041588203
 20
-61.28452849847261
 30
0.0
 10
38.18988152451042
 20
-61.28452849847261
 30
0.0
 10
38.31598047149706
 20
-61.28452849847261
 30
0.0
 10
38.41856777594762
 20
-61.38711228532219
 30
0.0
 10
38.41856777594762
 20
-61.51321123230978
 30
0.0
  0
SPLINE
  5
86
330
79
100
AcDbEntity
  8
Camada 1
 62
    18
420
        0
370
    15
100
AcDbSpline
210
0.0
220
0.0
230
1.0
 70
     9
 71
     3
 72
    17
 73
    13
 74
     0
 42
0.0000000001
 43
0.0000000001
 40
0.0
 40
0.0
 40
0.0
 40
0.0
 40
1.0
 40
1.0
 40
1.0
 40
2.0
 40
2.0
 40
2.0
 40
3.0
 40
3.0
 40
3.0
 40
4.0
 40
4.0
 40
4.0
 40
4.0
 10
38.41856777594762
 20
-61.51321123230978
 30
0.0
 10
38.41856777594762
 20
-61.63931369689644
 30
0.0
 10
38.31598047149706
 20
-61.74189748374601
 30
0.0
 10
38.18988152451042
 20
-61.74189748374601
 30
0.0
 10
38.06355041588203
 20
-61.74189748374601
 30
0.0
 10
37.96119527307259
 20
-61.63931369689644
 30
0.0
 10
37.96119527307259
 20
-61.51321123230978
 30
0.0
 10
37.96119527307259
 20
-61.38711228532219
 30
0.0
 10
38.06355041588203
 20
-61.28452849847261
 30
0.0
 10
38.18988152451042
 20
-61.28452849847261
 30
0.0
 10
38.31598047149706
 20
-61.28452849847261
 30
0.0
 10
38.41856777594762
 20
-61.38711228532219
 30
0.0
 10
38.41856777594762
 20
-61.51321123230978
 30
0.0
  0
SPLINE
  5
87
330
79
100
AcDbEntity
  8
Camada 1
 62
    18
420
        0
370
    15
100
AcDbSpline
210
0.0
220
0.0
230
1.0
 70
     8
 71
     3
 72
     8
 73
     4
 74
     0
 42
0.0000000001
 43
0.0000000001
 40
0.0
 40
0.0
 40
0.0
 40
0.0
 40
1.0
 40
1.0
 40
1.0
 40
1.0
 10
32.36244142396728
 20
-60.20223665764159
 30
0.0
 10
32.35091424673921
 20
-60.24995642763839
 30
0.0
 10
32.34146245387599
 20
-60.29836916495625
 30
0.0
 10
32.33339307805585
 20
-60.3467819022754
 30
0.0
  0
LINE
  5
88
330
79
100
AcDbEntity
  8
Camada 1
 62
    18
420
        0
370
    15
100
AcDbLine
 10
30.58192344828291
 20
-74.51426663745595
 30
0.0
 11
30.11671373122951
 21
-69.83152237152339
 31
0.0
  0
LINE
  5
89
330
79
100
AcDbEntity
  8
Camada 1
 62
    18
420
        0
370
    15
100
AcDbLine
 10
30.62194319052489
 20
-69.83154523592624
 30
0.0
 11
31.08714938997859
 21
-74.5142912606609
 31
0.0
  0
LINE
  5
8A
330
79
100
AcDbEntity
  8
Camada 1
 62
    18
420
        0
370
    15
100
AcDbLine
 10
29.21493108376024
 20
-59.91181651534242
 30
0.0
 11
30.1167594600378
 21
-69.83149950711925
 31
0.0
  0
LINE
  5
8B
330
79
100
AcDbEntity
  8
Camada 1
 62
    18
420
        0
370
    15
100
AcDbLine
 10
30.62194319052489
 20
-69.83154523592624
 30
0.0
 11
29.67815335646504
 21
-59.45149626314806
 31
0.0
  0
LINE
  5
8C
330
79
100
AcDbEntity
  8
Camada 1
 62
    18
420
        0
370
    15
100
AcDbLine
 10
30.94012071930896
 20
-62.67971443195646
 30
0.0
 11
30.94012071930896
 21
-60.34675727907044
 31
0.0
  0
LINE
  5
8D
330
79
100
AcDbEntity
  8
Camada 1
 62
    18
420
        0
370
    15
100
AcDbLine
 10
32.31942468599861
 20
-60.3467537614701
 30
0.0
 11
31.97570234151998
 21
-70.11866762764711
 31
0.0
  0
LWPOLYLINE
  5
8E
330
79
100
AcDbEntity
  8
Camada 1
 62
    18
420
        0
370
    15
100
AcDbPolyline
 90
       14
 70
     0
 43
0.0
 10
32.26236920395948
 20
-62.70080596526701
 10
32.30224824217626
 20
-62.6325715484618
 10
32.31769402649351
 20
-62.6108996110475
 10
32.33567600085813
 20
-62.58992415855718
 10
32.35596200362707
 20
-62.56940599414713
 10
32.37855555240259
 20
-62.54958079705944
 10
32.40345312958372
 20
-62.53137017865533
 10
32.43019392948855
 20
-62.51523142701508
 10
32.45901011375823
 20
-62.50093941570016
 10
32.48920871507165
 20
-62.48918007683226
 10
32.52078973342817
 20
-62.4799604456095
 10
32.55375668642943
 20
-62.47373781011472
 10
32.5876452507919
 20
-62.47027649110579
 10
32.62199462083562
 20
-62.47027649110579
  0
LINE
  5
8F
330
79
100
AcDbEntity
  8
Camada 1
 62
    18
420
        0
370
    15
100
AcDbLine
 10
29.67831868369326
 20
-59.45133445351953
 30
0.0
 11
28.58422529278704
 21
-56.55819236687007
 31
0.0
  0
LINE
  5
90
330
79
100
AcDbEntity
  8
Camada 1
 62
    18
420
        0
370
    15
100
AcDbLine
 10
32.24079224176272
 20
-62.82310238598566
 30
0.0
 11
32.24009927444099
 21
-62.8143435604448
 31
0.0
  0
LINE
  5
91
330
79
100
AcDbEntity
  8
Camada 1
 62
    18
420
        0
370
    15
100
AcDbLine
 10
34.26073570357468
 20
-63.46008005886164
 30
0.0
 11
34.0818446064975
 21
-58.33472138345073
 31
0.0
  0
LINE
  5
92
330
79
100
AcDbEntity
  8
Camada 1
 62
    18
420
        0
370
    15
100
AcDbLine
 10
33.81957230435058
 20
-63.0668896968807
 30
0.0
 11
33.94935769678625
 21
-64.12317591633462
 31
0.0
  0
LINE
  5
93
330
79
100
AcDbEntity
  8
Camada 1
 62
    18
420
        0
370
    15
100
AcDbLine
 10
32.16805881376521
 20
-64.89491638652343
 30
0.0
 11
32.16113969334835
 21
-64.8956093538445
 31
0.0
  0
LINE
  5
94
330
79
100
AcDbEntity
  8
Camada 1
 62
    18
420
        0
370
    15
100
AcDbLine
 10
34.04011882795601
 20
-64.20358123128227
 30
0.0
 11
37.17163112054862
 21
-64.20358123128227
 31
0.0
  0
LINE
  5
95
330
79
100
AcDbEntity
  8
Camada 1
 62
    18
420
        0
370
    15
100
AcDbLine
 10
39.05065598396392
 20
-64.89553900183256
 30
0.0
 11
39.04373686354642
 21
-64.89484955211182
 31
0.0
  0
LINE
  5
96
330
79
100
AcDbEntity
  8
Camada 1
 62
    18
420
        0
370
    15
100
AcDbLine
 10
37.12995107081414
 20
-58.33467213704211
 30
0.0
 11
36.95105997373824
 21
-63.46026649169512
 31
0.0
  0
LINE
  5
97
330
79
100
AcDbEntity
  8
Camada 1
 62
    18
420
        0
370
    15
100
AcDbLine
 10
37.39211080974179
 20
-63.0668896968807
 30
0.0
 11
37.26232189970515
 21
-64.12317591633462
 31
0.0
  0
LINE
  5
98
330
79
100
AcDbEntity
  8
Camada 1
 62
    18
420
        0
370
    15
100
AcDbLine
 10
34.53502061183458
 20
-63.72355186282045
 30
0.0
 11
36.67663787905349
 21
-63.72355186282045
 31
0.0
  0
LINE
  5
99
330
79
100
AcDbEntity
  8
Camada 1
 62
    18
420
        0
370
    15
100
AcDbLine
 10
37.96391437835116
 20
-62.50838265861082
 30
0.0
 11
38.58265329201838
 21
-62.47057900475822
 31
0.0
  0
LWPOLYLINE
  5
9A
330
79
100
AcDbEntity
  8
Camada 1
 62
    18
420
        0
370
    15
100
AcDbPolyline
 90
        3
 70
     0
 43
0.0
 10
38.58293470006812
 20
-62.47057900475822
 10
38.58961814124416
 20
-62.47035036071808
 10
38.62396751128788
 20
-62.47035036071808
  0
LINE
  5
9B
330
79
100
AcDbEntity
  8
Camada 1
 62
    18
420
        0
370
    15
100
AcDbLine
 10
30.94012071930896
 20
-62.67971443195646
 30
0.0
 11
32.23777062283108
 21
-62.67971443195646
 31
0.0
  0
LINE
  5
9C
330
79
100
AcDbEntity
  8
Camada 1
 62
    18
420
        0
370
    15
100
AcDbLine
 10
38.97375068163278
 20
-62.67971443195646
 30
0.0
 11
40.27162922919504
 21
-62.67971443195646
 31
0.0
  0
LINE
  5
9D
330
79
100
AcDbEntity
  8
Camada 1
 62
    18
420
        0
370
    15
100
AcDbLine
 10
33.24776873574122
 20
-62.50838265861082
 30
0.0
 11
34.01612175653341
 21
-62.50838265861082
 31
0.0
  0
LINE
  5
9E
330
79
100
AcDbEntity
  8
Camada 1
 62
    18
420
        0
370
    15
100
AcDbLine
 10
37.19567743837921
 20
-62.50838265861082
 30
0.0
 11
37.9640304591714
 21
-62.50838265861082
 31
0.0
  0
LINE
  5
9F
330
79
100
AcDbEntity
  8
Camada 1
 62
    18
420
        0
370
    15
100
AcDbLine
 10
32.62206497284822
 20
-62.47025538550118
 30
0.0
 11
32.62874841402426
 21
-62.47048754714294
 31
0.0
  0
LINE
  5
A0
330
79
100
AcDbEntity
  8
Camada 1
 62
    18
420
        0
370
    15
100
AcDbLine
 10
33.24776873574122
 20
-62.50838265861082
 30
0.0
 11
32.6287941428319
 21
-62.47057900475822
 31
0.0
  0
LINE
  5
A1
330
79
100
AcDbEntity
  8
Camada 1
 62
    18
420
        0
370
    15
100
AcDbLine
 10
39.23604760698401
 20
-70.11866938644664
 30
0.0
 11
38.89232526250506
 21
-60.34675727907044
 31
0.0
  0
LINE
  5
A2
330
79
100
AcDbEntity
  8
Camada 1
 62
    18
420
        0
370
    15
100
AcDbLine
 10
42.62752817331793
 20
-56.55832603569329
 30
0.0
 11
41.53343478241107
 21
-59.45147163994438
 31
0.0
  0
LWPOLYLINE
  5
A3
330
79
100
AcDbEntity
  8
Camada 1
 62
    18
420
        0
370
    15
100
AcDbPolyline
 90
       13
 70
     0
 43
0.0
 10
38.6241293209164
 20
-62.4704171951297
 10
38.6577857236384
 20
-62.4738785141399
 10
38.69074915903803
 20
-62.48010114963469
 10
38.72256233903599
 20
-62.48909213681604
 10
38.75276445795007
 20
-62.50084795808487
 10
38.78134848057927
 20
-62.5151399693998
 10
38.80832144212459
 20
-62.53151088268053
 10
38.83298685766524
 20
-62.54948933944287
 10
38.85580905048057
 20
-62.56908589249171
 10
38.87609505324983
 20
-62.5898327009419
 10
38.89384838357303
 20
-62.61104031507269
 10
38.9095228119317
 20
-62.632712252487
 10
38.94917320610836
 20
-62.70094666929221
  0
LINE
  5
A4
330
79
100
AcDbEntity
  8
Camada 1
 62
    18
420
        0
370
    15
100
AcDbLine
 10
40.27165385239935
 20
-62.67971443195646
 30
0.0
 11
40.27165385239935
 21
-60.34675727907044
 31
0.0
  0
LINE
  5
A5
330
79
100
AcDbEntity
  8
Camada 1
 62
    18
420
        0
370
    15
100
AcDbLine
 10
30.94012071930896
 20
-60.3467537614701
 30
0.0
 11
32.33343880686414
 21
-60.3467537614701
 31
0.0
  0
LINE
  5
A6
330
79
100
AcDbEntity
  8
Camada 1
 62
    18
420
        0
370
    15
100
AcDbLine
 10
38.87824078962726
 20
-60.3467537614701
 30
0.0
 11
40.27155887718308
 21
-60.3467537614701
 31
0.0
  0
LINE
  5
A7
330
79
100
AcDbEntity
  8
Camada 1
 62
    18
420
        0
370
    15
100
AcDbLine
 10
41.53338905360343
 20
-59.45133445351953
 30
0.0
 11
40.58959921954229
 21
-69.83161558793948
 31
0.0
  0
LINE
  5
A8
330
79
100
AcDbEntity
  8
Camada 1
 62
    18
420
        0
370
    15
100
AcDbLine
 10
41.09496586526187
 20
-69.83154523592624
 30
0.0
 11
41.99679424153943
 21
-59.91186224415071
 31
0.0
  0
LINE
  5
A9
330
79
100
AcDbEntity
  8
Camada 1
 62
    18
420
        0
370
    15
100
AcDbLine
 10
40.58973992356748
 20
-69.83154523592624
 30
0.0
 11
40.12453020651345
 21
-74.5142912606609
 31
0.0
  0
LINE
  5
AA
330
79
100
AcDbEntity
  8
Camada 1
 62
    18
420
        0
370
    15
100
AcDbLine
 10
40.62975966580882
 20
-74.51426663745595
 30
0.0
 11
41.09496586526187
 21
-69.83152237152339
 31
0.0
  0
LINE
  5
AB
330
79
100
AcDbEntity
  8
Camada 1
 62
    18
420
        0
370
    15
100
AcDbLine
 10
42.28523749229166
 20
-56.06303379814672
 30
0.0
 11
28.92651245621232
 21
-56.06303379814672
 31
0.0
  0
LINE
  5
AC
330
79
100
AcDbEntity
  8
Camada 1
 62
    18
420
        0
370
    15
100
AcDbLine
 10
43.64199363901344
 20
-55.65126346969506
 30
0.0
 11
27.56924625740067
 21
-55.65126346969506
 31
0.0
  0
INSERT
  5
AE
330
79
100
AcDbEntity
  8
Camada 1
100
AcDbBlockReference
  2
Block_1
 10
0.0
 20
0.0
 30
0.0
  0
LWPOLYLINE
  5
D4
330
79
100
AcDbEntity
  8
Camada 1
 62
    18
420
        0
370
    15
100
AcDbPolyline
 90
       22
 70
     0
 43
0.0
 10
27.49091632681848
 20
-55.9724133710015
 10
27.58958150657823
 20
-56.10473847108423
 10
27.67510844802667
 20
-56.22438262093528
 10
27.80489735806332
 20
-56.41687627960472
 10
27.92615256899825
 20
-56.61052019367678
 10
28.03888463363377
 20
-56.80623949211303
 10
28.1370890077129
 20
-56.98997080764126
 10
28.23206774202459
 20
-57.18361823931367
 10
28.31874493887566
 20
-57.37656918606337
 10
28.39735627750695
 20
-57.56952365041341
 10
28.40888345473501
 20
-57.60018305740872
 10
28.47735003318198
 20
-57.79014052603208
 10
28.53751859176933
 20
-57.97802261028996
 10
28.55642217749451
 20
-58.04210977596586
 10
28.60552436453441
 20
-58.22538028581218
 10
28.64725014307589
 20
-58.40703621697493
 10
28.66799695152672
 20
-58.51262051715282
 10
28.69750610311875
 20
-58.68805381282078
 10
28.71963532861204
 20
-58.86117956248152
 10
28.73116250584075
 20
-58.98335990237993
 10
28.74130726602571
 20
-59.14795898814026
 10
28.74453290579317
 20
-59.31071133357782
  0
LWPOLYLINE
  5
D5
330
79
100
AcDbEntity
  8
Camada 1
 62
    18
420
        0
370
    15
100
AcDbPolyline
 90
       22
 70
     0
 43
0.0
 10
42.46724166591513
 20
-59.31077816798944
 10
42.47069946732306
 20
-59.14802582255315
 10
42.48061206586755
 20
-58.98342673679154
 10
42.49213572549495
 20
-58.86147855853488
 10
42.51426846858954
 20
-58.6881206472324
 10
42.54354545854208
 20
-58.51268735156444
 10
42.56452442863241
 20
-58.4068744073477
 10
42.60601804553278
 20
-58.22544712022509
 10
42.65512023257299
 20
-58.04217661037746
 10
42.6740238182985
 20
-57.97785728305981
 10
42.7341923768852
 20
-57.78997519880322
 10
42.80265895533218
 20
-57.6000212477802
 10
42.81418613256025
 20
-57.56959048482502
 10
42.89279747119216
 20
-57.37663602047498
 10
42.97924602400247
 20
-57.1834529120848
 10
43.07422475831415
 20
-56.99004115965322
 10
43.17242913239296
 20
-56.8060776824858
 10
43.28515767942846
 20
-56.61081918972887
 10
43.40641640796373
 20
-56.41671446997747
 10
43.53620531800038
 20
-56.22445297294723
 10
43.62173225944882
 20
-56.10480530549584
 10
43.72016879516844
 20
-55.97248372301346
  0
LWPOLYLINE
  5
D6
330
79
100
AcDbEntity
  8
Camada 1
 62
    18
420
        0
370
    15
100
AcDbPolyline
 90
       12
 70
     0
 43
0.0
 10
38.72302666231726
 20
-71.25882223985714
 10
38.7338608722236
 20
-71.25052421999687
 10
38.79033946776189
 20
-71.20395646420353
 10
38.84405322921174
 20
-71.15416306864209
 10
38.89476999493553
 20
-71.10091011287254
 10
38.94248976493231
 20
-71.04535312869739
 10
38.98675173351988
 20
-70.98656698715507
 10
39.0201759746014
 20
-70.93723439727423
 10
39.05775450201293
 20
-70.8738384401199
 10
39.0911787430938
 20
-70.80882966308149
 10
39.12092005632696
 20
-70.74197590451858
 10
39.14650708322883
 20
-70.67327892323067
  0
LWPOLYLINE
  5
D7
330
79
100
AcDbEntity
  8
Camada 1
 62
    18
420
        0
370
    15
100
AcDbPolyline
 90
       12
 70
     0
 43
0.0
 10
39.14646487202153
 20
-70.67336862204642
 10
39.14992267342979
 20
-70.66322562066163
 10
39.16651871315063
 20
-70.60928145636925
 10
39.18150369178663
 20
-70.55487648639753
 10
39.19464544769893
 20
-70.50001071074394
 10
39.20616910732665
 20
-70.44468412940844
 10
39.21608170587113
 20
-70.38912714523329
 10
39.22299730868765
 20
-70.34394356528387
 10
39.22991642910514
 20
-70.28769361378635
 10
39.23429584187622
 20
-70.23144366228883
 10
39.23659987028118
 20
-70.17496506675117
 10
39.23590690295946
 20
-70.11848471241399
  0
LWPOLYLINE
  5
D8
330
79
100
AcDbEntity
  8
Camada 1
 62
    18
420
        0
370
    15
100
AcDbPolyline
 90
       11
 70
     0
 43
0.0
 10
38.72302666231726
 20
-71.25882223985714
 10
38.72141208363304
 20
-71.26020641570105
 10
38.71979750494946
 20
-71.26135842990321
 10
38.71818292626524
 20
-71.26251220290619
 10
38.71656834758166
 20
-71.26389461995057
 10
38.71518593053791
 20
-71.2652787957932
 10
38.71357486945435
 20
-71.2666612128376
 10
38.71218893481058
 20
-71.26827403272037
 10
38.71080651776747
 20
-71.26942780572334
 10
38.7096527447645
 20
-71.27104062560739
 10
38.70850248936187
 20
-71.27288560713193
  0
LWPOLYLINE
  5
D9
330
79
100
AcDbEntity
  8
Camada 1
 62
    18
420
        0
370
    15
100
AcDbPolyline
 90
       11
 70
     0
 43
0.0
 10
38.20013884791496
 20
-71.65120707129839
 10
38.24278623781894
 20
-71.62792407280211
 10
38.28474066040056
 20
-71.60394986578302
 10
38.32623779490191
 20
-71.57882188576095
 10
38.36704196208282
 20
-71.55277229437894
 10
38.40738180597958
 20
-71.52579933283234
 10
38.44703571775657
 20
-71.49767611588311
 10
38.48599314461086
 20
-71.46885993161408
 10
38.52426112174441
 20
-71.43912037718173
 10
38.5618361315556
 20
-71.40846097018642
 10
38.5984930476059
 20
-71.37687819302908
  0
LWPOLYLINE
  5
DA
330
79
100
AcDbEntity
  8
Camada 1
 62
    18
420
        0
370
    15
100
AcDbPolyline
 90
       13
 70
     0
 43
0.0
 10
33.01154426617742
 20
-71.65120707129839
 10
33.22155557592924
 20
-71.75632880699485
 10
33.43802168281632
 20
-71.85315252282977
 10
33.66002097547745
 20
-71.94098349268509
 10
33.88686400419061
 20
-72.01913226683368
 10
34.11785428403373
 20
-72.08783100692241
 10
34.26977241956431
 20
-72.12725099825812
 10
34.50606372353907
 20
-72.1793501810247
 10
34.74535554084344
 20
-72.22153852404824
 10
34.98648706326989
 20
-72.25335170404524
 10
35.22923668198218
 20
-72.27502012385793
 10
35.36294419910801
 20
-72.28216788831556
 10
35.60592246185981
 20
-72.28723850960818
  0
LWPOLYLINE
  5
DB
330
79
100
AcDbEntity
  8
Camada 1
 62
    18
420
        0
370
    15
100
AcDbPolyline
 90
       11
 70
     0
 43
0.0
 10
32.48865645177448
 20
-71.25882223985714
 10
32.49026751285772
 20
-71.26020641570105
 10
32.49188209154258
 20
-71.26135842990321
 10
32.49349667022616
 20
-71.26251220290619
 10
32.49511124891038
 20
-71.26389461995057
 10
32.49649366595349
 20
-71.2652787957932
 10
32.49810472703737
 20
-71.2666612128376
 10
32.49949066168082
 20
-71.26827403272037
 10
32.50064091708344
 20
-71.2696582085643
 10
32.50202685172754
 20
-71.27104062560739
 10
32.50317710712952
 20
-71.27288560713193
  0
LWPOLYLINE
  5
DC
330
79
100
AcDbEntity
  8
Camada 1
 62
    18
420
        0
370
    15
100
AcDbPolyline
 90
       11
 70
     0
 43
0.0
 10
33.01154426617742
 20
-71.65120707129839
 10
32.96912552031357
 20
-71.62792407280211
 10
32.92693893609083
 20
-71.60394986578302
 10
32.88544180158949
 20
-71.57882188576095
 10
32.84440899037036
 20
-71.55277229437894
 10
32.80429779051182
 20
-71.52579933283234
 10
32.76464387873482
 20
-71.49767611588311
 10
32.72568645188054
 20
-71.46885993161408
 10
32.68741847474699
 20
-71.43912037718173
 10
32.6498434649358
 20
-71.40846097018642
 10
32.61318654888614
 20
-71.37687819302908
  0
LWPOLYLINE
  5
DD
330
79
100
AcDbEntity
  8
Camada 1
 62
    18
420
        0
370
    15
100
AcDbPolyline
 90
       11
 70
     0
 43
0.0
 10
38.83428133469276
 20
-60.12440974394796
 10
38.83404917305165
 20
-60.09213575827035
 10
38.83381701141117
 20
-60.05986177259146
 10
38.83335620572992
 20
-60.02735914287243
 10
38.83335620572992
 20
-59.99508515719354
 10
38.83289540004868
 20
-59.96281117151465
 10
38.83266675600854
 20
-59.93030502419529
 10
38.83243459436807
 20
-59.8980310385164
 10
38.83220595032697
 20
-59.86552840879737
 10
38.83174514464668
 20
-59.83325442311976
 10
38.83151298300589
 20
-59.80097691984052
  0
LWPOLYLINE
  5
DE
330
79
100
AcDbEntity
  8
Camada 1
 62
    18
420
        0
370
    15
100
AcDbPolyline
 90
       11
 70
     0
 43
0.0
 10
38.83428133469276
 20
-60.12440974394796
 10
38.83428133469276
 20
-60.1280997069983
 10
38.83450997873289
 20
-60.13178967004735
 10
38.8347421403753
 20
-60.13547611549606
 10
38.83497078441415
 20
-60.13916607854511
 10
38.83566375173587
 20
-60.14285252399382
 10
38.83612455741712
 20
-60.14654248704288
 10
38.83658536309837
 20
-60.15000028845146
 10
38.83727481282039
 20
-60.1536902515005
 10
38.83819994178163
 20
-60.15737669694922
 10
38.83888939150333
 20
-60.16106665999827
  0
LWPOLYLINE
  5
DF
330
79
100
AcDbEntity
  8
Camada 1
 62
    18
420
        0
370
    15
100
AcDbPolyline
 90
       13
 70
     0
 43
0.0
 10
38.24797469873134
 20
-58.7836270216363
 10
38.33626647426663
 20
-58.8371121390476
 10
38.42087180435322
 20
-58.90096714308302
 10
38.49994043106573
 20
-58.97381665190141
 10
38.55665118824354
 20
-59.03559627157007
 10
38.62281373828491
 20
-59.1211232130198
 10
38.67975313950381
 20
-59.21149037291993
 10
38.72747290949995
 20
-59.30692991291221
 10
38.76712682127759
 20
-59.40905641168152
 10
38.79755406663051
 20
-59.51671257862325
 10
38.81876519836292
 20
-59.62898031997782
 10
38.8298280523094
 20
-59.74447721869955
 10
38.83167479263409
 20
-59.80095581423592
  0
LWPOLYLINE
  5
E0
330
79
100
AcDbEntity
  8
Camada 1
 62
    18
420
        0
370
    15
100
AcDbPolyline
 90
       11
 70
     0
 43
0.0
 10
32.37740177939961
 20
-60.12440974394796
 10
32.37763042343975
 20
-60.09213575827035
 10
32.37786258508022
 20
-60.05986177259146
 10
32.378091229121
 20
-60.02735914287243
 10
32.37832339076148
 20
-59.99508515719354
 10
32.37878419644272
 20
-59.96281117151465
 10
32.37901284048285
 20
-59.93030502419529
 10
32.37924500212397
 20
-59.8980310385164
 10
32.3794736461641
 20
-59.86552840879737
 10
32.37970580780458
 20
-59.83325442311976
 10
32.38016661348583
 20
-59.80097691984052
  0
LWPOLYLINE
  5
E1
330
79
100
AcDbEntity
  8
Camada 1
 62
    18
420
        0
370
    15
100
AcDbPolyline
 90
       11
 70
     0
 43
0.0
 10
32.37740177939961
 20
-60.12440974394796
 10
32.37740177939961
 20
-60.1280997069983
 10
32.3771696177585
 20
-60.13178967004735
 10
32.37693745611802
 20
-60.13547611549606
 10
32.37670881207725
 20
-60.13916607854511
 10
32.37601584475552
 20
-60.14285252399382
 10
32.37555503907492
 20
-60.14654248704288
 10
32.37509423339367
 20
-60.15000028845146
 10
32.37440478367228
 20
-60.1536902515005
 10
32.37347965470944
 20
-60.15737669694922
 10
32.37279020498807
 20
-60.16106665999827
  0
LWPOLYLINE
  5
E2
330
79
100
AcDbEntity
  8
Camada 1
 62
    18
420
        0
370
    15
100
AcDbPolyline
 90
       13
 70
     0
 43
0.0
 10
32.9637084153604
 20
-58.78348983521273
 10
32.8754131222254
 20
-58.83720359666289
 10
32.79081130973916
 20
-58.90106211829865
 10
32.71173916542662
 20
-58.97367946547656
 10
32.65502840824785
 20
-59.03545908514651
 10
32.58886585820649
 20
-59.12098602659495
 10
32.53192645698823
 20
-59.21158534813555
 10
32.48420668699209
 20
-59.30702488812912
 10
32.44478493685556
 20
-59.40891922525667
 10
32.4141255298609
 20
-59.51703619788029
 10
32.39291439812912
 20
-59.62930393923357
 10
32.38185154418264
 20
-59.74456867631483
 10
32.38000480385731
 20
-59.80081862781235
  0
LWPOLYLINE
  5
E3
330
79
100
AcDbEntity
  8
Camada 1
 62
    18
420
        0
370
    15
100
AcDbPolyline
 90
       13
 70
     0
 43
0.0
 10
38.20013884791496
 20
-71.65120707129839
 10
37.99104563192466
 20
-71.75586800131424
 10
37.7752724923593
 20
-71.85222915266774
 10
37.55373400537974
 20
-71.93983147848165
 10
37.32666233262613
 20
-72.01798025263281
 10
37.09520772950238
 20
-72.08690939555991
 10
36.94167501528726
 20
-72.12655978973656
 10
36.70422993830823
 20
-72.17911977818504
 10
36.46448083292425
 20
-72.22153852404824
 10
36.33192708880203
 20
-72.24020994813296
 10
36.08987043741146
 20
-72.266491701158
 10
35.84758514198139
 20
-72.28216788831556
 10
35.60575713463095
 20
-72.28723850960818
  0
LWPOLYLINE
  5
E4
330
79
100
AcDbEntity
  8
Camada 1
 62
    18
420
        0
370
    15
100
AcDbPolyline
 90
       12
 70
     0
 43
0.0
 10
32.48865645177448
 20
-71.25882223985714
 10
32.47781872426779
 20
-71.25052421999687
 10
32.42134012873014
 20
-71.20395646420353
 10
32.36762636727934
 20
-71.15416306864209
 10
32.31690960155586
 20
-71.10091011287254
 10
32.26918983155972
 20
-71.04535312869739
 10
32.22492786297152
 20
-70.98656698715507
 10
32.19173226593077
 20
-70.93723439727423
 10
32.15415725611894
 20
-70.8738384401199
 10
32.12050085339759
 20
-70.80882966308149
 10
32.09075954016443
 20
-70.74197590451858
 10
32.06517251326257
 20
-70.67327892323067
  0
LWPOLYLINE
  5
E5
330
79
100
AcDbEntity
  8
Camada 1
 62
    18
420
        0
370
    15
100
AcDbPolyline
 90
       12
 70
     0
 43
0.0
 10
32.06531321728711
 20
-70.67336862204642
 10
32.06185189827884
 20
-70.66299521782069
 10
32.0450236969172
 20
-70.60928145636925
 10
32.03027087992167
 20
-70.55487648639753
 10
32.01712912400938
 20
-70.49978030790299
 10
32.00537330274054
 20
-70.44445372656878
 10
31.99569286583717
 20
-70.38889674239363
 10
31.98854510137954
 20
-70.34394356528387
 10
31.98185814260316
 20
-70.28769361378635
 10
31.97725008579259
 20
-70.23144366228883
 10
31.97494253978665
 20
-70.17496506675117
 10
31.97563550710837
 20
-70.11848471241399
  0
LWPOLYLINE
  5
E6
330
79
100
AcDbEntity
  8
Camada 1
 62
    18
420
        0
370
    15
100
AcDbPolyline
 90
       11
 70
     0
 43
0.0
 10
36.995068675082
 20
-62.64612486364608
 10
36.99183951771356
 20
-62.65396559542607
 10
36.98884252198623
 20
-62.66203145364458
 10
36.98630633194015
 20
-62.6701008294647
 10
36.98400230353454
 20
-62.67817020528483
 10
36.98192691916971
 20
-62.6864682251451
 10
36.98031234048549
 20
-62.6947697626057
 10
36.97869776180127
 20
-62.7032964265061
 10
36.97777615043941
 20
-62.71159796396542
 10
36.97708670071803
 20
-62.72012814546743
 10
36.97639373339566
 20
-62.72865480936783
  0
LWPOLYLINE
  5
E7
330
79
100
AcDbEntity
  8
Camada 1
 62
    18
420
        0
370
    15
100
AcDbPolyline
 90
       12
 70
     0
 43
0.0
 10
34.26073570357468
 20
-63.46008005886164
 10
34.26534376038589
 20
-63.50065558200114
 10
34.27663877597156
 20
-63.54099894350015
 10
34.29369913897303
 20
-63.57972772631431
 10
34.31629268774919
 20
-63.61522735176002
 10
34.34441590469714
 20
-63.64704053175831
 10
34.34464806633761
 20
-63.64727269339878
 10
34.37738285769775
 20
-63.67378133166315
 10
34.41403625614708
 20
-63.6952211074357
 10
34.45299720060236
 20
-63.71089905339406
 10
34.493797850181
 20
-63.72011868461683
 10
34.53506282304188
 20
-63.72357648602412
  0
LWPOLYLINE
  5
E8
330
79
100
AcDbEntity
  8
Camada 1
 62
    18
420
        0
370
    15
100
AcDbPolyline
 90
       12
 70
     0
 43
0.0
 10
36.6766625022578
 20
-63.72355186282045
 10
36.67689114629793
 20
-63.72355186282045
 10
36.71815611915913
 20
-63.72009406141188
 10
36.75896028633844
 20
-63.71064226854864
 10
36.79791771319273
 20
-63.6949678401919
 10
36.8345746292424
 20
-63.67352806441807
 10
36.86730942060254
 20
-63.64701942615369
 10
36.89520399351036
 20
-63.61566705183858
 10
36.91779402468682
 20
-63.57993526475111
 10
36.93508303172715
 20
-63.54143512597709
 10
36.9461494032746
 20
-63.50109176447808
 10
36.95098962172629
 20
-63.46028759729844
  0
LWPOLYLINE
  5
E9
330
79
100
AcDbEntity
  8
Camada 1
 62
    18
420
        0
370
    15
100
AcDbPolyline
 90
       11
 70
     0
 43
0.0
 10
34.21695916387139
 20
-62.64677210216016
 10
34.22018480363885
 20
-62.65461283394015
 10
34.22294963772507
 20
-62.66245004811853
 10
34.22548582777114
 20
-62.67028726229818
 10
34.22779337377709
 20
-62.67858528215715
 10
34.22986875814256
 20
-62.68688681961776
 10
34.23147981922581
 20
-62.69518483947802
 10
34.23286223626955
 20
-62.70348285933828
 10
34.23401600927252
 20
-62.71178439679889
 10
34.23470897659425
 20
-62.72031106069928
 10
34.2351697822755
 20
-62.72884124220002
  0
LINE
  5
EA
330
79
100
AcDbEntity
  8
Camada 1
 62
    18
420
        0
370
    15
100
AcDbLine
 10
30.58192344828291
 20
-74.51426663745595
 30
0.0
 11
40.62978077141344
 21
-74.51426663745595
 31
0.0
  0
LINE
  5
EB
330
79
100
AcDbEntity
  8
Camada 1
 62
    18
420
        0
370
    15
100
AcDbLine
 10
62.03440194335925
 20
-74.48780196919905
 30
0.0
 11
62.03462706979903
 21
-74.48780196919905
 31
0.0
  0
LWPOLYLINE
  5
EC
330
79
100
AcDbEntity
  8
Camada 1
 62
    18
420
        0
370
    15
100
AcDbPolyline
 90
        4
 70
     0
 43
0.0
 10
62.50385388676015
 20
-62.63967006651081
 10
62.30951348776538
 20
-69.8870564912944
 10
62.30997781104761
 20
-69.8870564912944
 10
62.1253178489562
 20
-74.40451222174459
  0
LWPOLYLINE
  5
ED
330
79
100
AcDbEntity
  8
Camada 1
 62
    18
420
        0
370
    15
100
AcDbPolyline
 90
        3
 70
     0
 43
0.0
 10
68.25316807755661
 20
-64.25904675784086
 10
68.76678701432881
 20
-64.25904675784086
 10
68.76678701432881
 20
-63.29843224001971
  0
LINE
  5
EE
330
79
100
AcDbEntity
  8
Camada 1
 62
    18
420
        0
370
    15
100
AcDbLine
 10
68.01062247968076
 20
-62.36467108532457
 30
0.0
 11
67.95113985321446
 21
-62.19638555411425
 31
0.0
  0
LINE
  5
EF
330
79
100
AcDbEntity
  8
Camada 1
 62
    18
420
        0
370
    15
100
AcDbLine
 10
68.03252306113392
 20
-63.12219341381076
 30
0.0
 11
68.16230845357023
 21
-64.17871179490643
 31
0.0
  0
LINE
  5
F0
330
79
100
AcDbEntity
  8
Camada 1
 62
    18
420
        0
370
    15
100
AcDbLine
 10
77.50359941077856
 20
-62.73501814888781
 30
0.0
 11
80.61389705403776
 21
-62.73501814888781
 31
0.0
  0
LINE
  5
F1
330
79
100
AcDbEntity
  8
Camada 1
 62
    18
420
        0
370
    15
100
AcDbLine
 10
62.89185930543032
 20
-62.28430798158486
 30
0.0
 11
62.88240399496674
 21
-62.28384717590297
 31
0.0
  0
LINE
  5
F2
330
79
100
AcDbEntity
  8
Camada 1
 62
    18
420
        0
370
    15
100
AcDbLine
 10
67.46065265811359
 20
-62.56371099874584
 30
0.0
 11
62.89201407985816
 21
-62.2843114991852
 31
0.0
  0
LINE
  5
F3
330
79
100
AcDbEntity
  8
Camada 1
 62
    18
420
        0
370
    15
100
AcDbLine
 10
68.44980898735665
 20
-62.74951769863825
 30
0.0
 11
68.17662508808883
 21
-62.57408792057063
 31
0.0
  0
LINE
  5
F4
330
79
100
AcDbEntity
  8
Camada 1
 62
    18
420
        0
370
    15
100
AcDbLine
 10
77.50359941077856
 20
-60.40224391123365
 30
0.0
 11
80.61389705403776
 21
-60.40224391123365
 31
0.0
  0
LINE
  5
F5
330
79
100
AcDbEntity
  8
Camada 1
 62
    18
420
        0
370
    15
100
AcDbLine
 10
77.50359941077856
 20
-62.73501814888781
 30
0.0
 11
77.50359941077856
 21
-60.40229315764228
 31
0.0
  0
LINE
  5
F6
330
79
100
AcDbEntity
  8
Camada 1
 62
    18
420
        0
370
    15
100
AcDbLine
 10
78.0296214073324
 20
-56.24236107769891
 30
0.0
 11
76.42859252083002
 21
-56.24236107769891
 31
0.0
  0
LINE
  5
F7
330
79
100
AcDbEntity
  8
Camada 1
 62
    18
420
        0
370
    15
100
AcDbLine
 10
76.4286839784453
 20
-55.65126346969506
 30
0.0
 11
78.029705829747
 21
-55.65126346969506
 31
0.0
  0
LWPOLYLINE
  5
F8
330
79
100
AcDbEntity
  8
Camada 1
 62
    18
420
        0
370
    15
100
AcDbPolyline
 90
        3
 70
     0
 43
0.0
 10
78.82151069386594
 20
-56.39568625347691
 10
78.97734743648506
 20
-58.17744945977953
 10
80.48408352079745
 20
-58.09860947710683
  0
LINE
  5
F9
330
79
100
AcDbEntity
  8
Camada 1
 62
    18
420
        0
370
    15
100
AcDbLine
 10
80.61408700447286
 20
-62.73501814888781
 30
0.0
 11
80.61408700447286
 21
-60.40229315764228
 31
0.0
  0
INSERT
  5
FB
330
79
100
AcDbEntity
  8
Camada 1
100
AcDbBlockReference
  2
Block_2
 10
0.0
 20
0.0
 30
0.0
  0
LWPOLYLINE
  5
10E
330
79
100
AcDbEntity
  8
Camada 1
 62
    18
420
        0
370
    15
100
AcDbPolyline
 90
       12
 70
     0
 43
0.0
 10
62.12548669378669
 20
-74.40460367936117
 10
62.12410075914196
 20
-74.4175150324325
 10
62.12041431369453
 20
-74.43042462670304
 10
62.11418816059811
 20
-74.44264125365248
 10
62.10588662313751
 20
-74.45393802804153
 10
62.09620618623542
 20
-74.46385062658409
 10
62.09620618623542
 20
-74.46408102942503
 10
62.08513981468733
 20
-74.47238080808611
 10
62.07338399341849
 20
-74.47906600806104
 10
62.06070656078843
 20
-74.48390622651401
 10
62.04779696651662
 20
-74.48690322224198
 10
62.03442304896386
 20
-74.4878248336032
  0
LWPOLYLINE
  5
10F
330
79
100
AcDbEntity
  8
Camada 1
 62
    18
420
        0
370
    15
100
AcDbPolyline
 90
       12
 70
     0
 43
0.0
 10
68.44980898735665
 20
-62.74951769863825
 10
68.45142004843989
 20
-62.75044282760109
 10
68.50513380989004
 20
-62.78824999905275
 10
68.55561841397303
 20
-62.83089738895737
 10
68.60218441096684
 20
-62.87769554759166
 10
68.64437451278992
 20
-62.92887311899574
 10
68.68102791123989
 20
-62.98419794153042
 10
68.71053354523095
 20
-63.04136950439044
 10
68.73519896077032
 20
-63.10315264166073
 10
68.75249148541354
 20
-63.16746845137675
 10
68.76309353367813
 20
-63.23270939005563
 10
68.76678701432881
 20
-63.29841113441638
  0
LWPOLYLINE
  5
110
330
79
100
AcDbEntity
  8
Camada 1
 62
    18
420
        0
370
    15
100
AcDbPolyline
 90
       11
 70
     0
 43
0.0
 10
68.01062247968076
 20
-62.36467108532457
 10
68.02053507822461
 20
-62.38980082414617
 10
68.03205873785298
 20
-62.41423759564542
 10
68.04542562020377
 20
-62.43798139982357
 10
68.06041059884106
 20
-62.46080359263923
 10
68.07654935048131
 20
-62.48270417409238
 10
68.09429916320353
 20
-62.50368314418433
 10
68.11320274893001
 20
-62.52350834127201
 10
68.13349226929992
 20
-62.54195112131659
 10
68.15447123939186
 20
-62.55877932267759
 10
68.1765969472848
 20
-62.5742251069942
  0
INSERT
  5
112
330
79
100
AcDbEntity
  8
Camada 1
100
AcDbBlockReference
  2
Block_3
 10
0.0
 20
0.0
 30
0.0
  0
LWPOLYLINE
  5
117
330
79
100
AcDbEntity
  8
Camada 1
 62
    18
420
        0
370
    15
100
AcDbPolyline
 90
       11
 70
     0
 43
0.0
 10
78.72678874439969
 20
-60.17987527050784
 10
78.72724603247995
 20
-60.18333658951675
 10
78.72747819412044
 20
-60.18725519660594
 10
78.72747819412044
 20
-60.19094164205466
 10
78.72724603247995
 20
-60.19463160510499
 10
78.72678874439969
 20
-60.19855021219289
 10
78.72609225947698
 20
-60.20223665764159
 10
78.72540280975496
 20
-60.20592662069065
 10
78.72424903675199
 20
-60.20961658374099
 10
78.7230952637503
 20
-60.21307438514828
 10
78.72148420266578
 20
-60.21630002491638
  0
LWPOLYLINE
  5
118
330
79
100
AcDbEntity
  8
Camada 1
 62
    18
420
        0
370
    15
100
AcDbPolyline
 90
       15
 70
     0
 43
0.0
 10
79.02873254632723
 20
-58.8389553617726
 10
79.01374756768994
 20
-58.90097066068336
 10
78.98699973258314
 20
-58.97220207321654
 10
78.96164486732303
 20
-59.02753041335157
 10
78.94043373559061
 20
-59.07225318762038
 10
78.89225667751356
 20
-59.16999675601827
 10
78.8433831345138
 20
-59.26681871305494
 10
78.80580812470262
 20
-59.34312602328063
 10
78.7594672541486
 20
-59.44179120304101
 10
78.71867012217093
 20
-59.54276392880736
 10
78.69377254498981
 20
-59.61998933279519
 10
78.67694434362881
 20
-59.69583583734026
 10
78.67463679762287
 20
-59.71450726142626
 10
78.67025386725145
 20
-59.7875854142835
 10
78.67601569706564
 20
-59.85628415437094
  0
LWPOLYLINE
  5
119
330
79
100
AcDbEntity
  8
Camada 1
 62
    18
420
        0
370
    15
100
AcDbPolyline
 90
       11
 70
     0
 43
0.0
 10
79.15338224185882
 20
-71.31428776641701
 10
79.15360736829862
 20
-71.31567194225964
 10
79.15407169157957
 20
-71.31705435930403
 10
79.15452897966112
 20
-71.31843853514794
 10
79.15499330294207
 20
-71.31982095218977
 10
79.15522546458382
 20
-71.32097472519274
 10
79.15568275266409
 20
-71.3225875450768
 10
79.15591491430456
 20
-71.32397172092073
 10
79.15637220238483
 20
-71.32535413796382
 10
79.15637220238483
 20
-71.32673655500693
 10
79.15660436402531
 20
-71.32812073085085
  0
LWPOLYLINE
  5
11A
330
79
100
AcDbEntity
  8
Camada 1
 62
    18
420
        0
370
    15
100
AcDbPolyline
 90
       11
 70
     0
 43
0.0
 10
79.15670285684256
 20
-71.32768103077357
 10
79.15900336764782
 20
-71.33805619379883
 10
79.16062146393302
 20
-71.34842959802456
 10
79.16268981309653
 20
-71.35880300224902
 10
79.16454007102221
 20
-71.36940856811524
 10
79.16615113210546
 20
-71.37955156950001
 10
79.16707274346795
 20
-71.39038577940636
 10
79.16845867811139
 20
-71.40052878078986
 10
79.16938028947389
 20
-71.41136474949701
 10
79.17030190083767
 20
-71.42150775088309
 10
79.21133822965649
 20
-72.34270227736725
  0
LWPOLYLINE
  5
11B
330
79
100
AcDbEntity
  8
Camada 1
 62
    18
420
        0
370
    15
100
AcDbPolyline
 90
       12
 70
     0
 43
0.0
 10
79.15338224185882
 20
-71.31428776641701
 10
79.14277315839227
 20
-71.28224418357906
 10
79.11787558121115
 20
-71.22000199942769
 10
79.08882723530036
 20
-71.15960303800004
 10
79.0565567672218
 20
-71.10035784957536
 10
79.02243604121887
 20
-71.04203251371365
 10
79.0051505517776
 20
-71.01344849108382
 10
78.97010821441215
 20
-70.95581612254318
 10
78.93460858896516
 20
-70.89910536536506
 10
78.89887680187896
 20
-70.84216420534598
 10
78.8631450147915
 20
-70.78568385100751
 10
78.82763835414383
 20
-70.72874444979054
  0
LWPOLYLINE
  5
11C
330
79
100
AcDbEntity
  8
Camada 1
 62
    18
420
        0
370
    15
100
AcDbPolyline
 90
       18
 70
     0
 43
0.0
 10
78.82764538934451
 20
-70.7286740977773
 10
78.8110423144233
 20
-70.70216370071341
 10
78.77438891597461
 20
-70.64430092933183
 10
78.7370460678039
 20
-70.58666856079121
 10
78.71836760851723
 20
-70.55808277936184
 10
78.68056747226624
 20
-70.50114161934276
 10
78.64252813917412
 20
-70.44420221812322
 10
78.63238337898852
 20
-70.42944764232816
 10
78.59365459617436
 20
-70.37319769083064
 10
78.58327767434829
 20
-70.35844487383511
 10
78.54340215373312
 20
-70.30288788965996
 10
78.53256090862481
 20
-70.28836371670457
 10
78.49061000364418
 20
-70.23418914957251
 10
78.48484113862932
 20
-70.22681274107475
 10
78.45556766627744
 20
-70.19384578807349
 10
78.42859470473213
 20
-70.17379018814486
 10
78.42767309336963
 20
-70.17332938246426
 10
78.49545022209458
 20
-62.73506739529643
  0
LINE
  5
11D
330
79
100
AcDbEntity
  8
Camada 1
 62
    18
420
        0
370
    15
100
AcDbLine
 10
79.30689033286867
 20
-74.49096077455554
 30
0.0
 11
62.0344652601718
 21
-74.48773337598662
 31
0.0
  0
LINE
  5
11E
330
79
100
AcDbEntity
  8
Camada 1
 62
    18
420
        0
370
    15
100
AcDbLine
 10
80.61408700447286
 20
-57.96151451058566
 30
0.0
 11
80.61408700447286
 21
-56.40774810599852
 31
0.0
  0
LINE
  5
11F
330
79
100
AcDbEntity
  8
Camada 1
 62
    18
420
        0
370
    15
100
AcDbLine
 10
78.97737557729036
 20
-58.17754091739482
 30
0.0
 11
79.02878179273457
 21
-58.83893073856764
 31
0.0
  0
LWPOLYLINE
  5
120
330
79
100
AcDbEntity
  8
Camada 1
 62
    18
420
        0
370
    15
100
AcDbPolyline
 90
        5
 70
     0
 43
0.0
 10
80.7970374126612
 20
-56.11833751507679
 10
80.7970374126612
 20
-55.70661291543341
 10
78.02975507615562
 20
-55.70661291543341
 10
78.02975507615562
 20
-56.18703625516423
 10
78.59363349057104
 20
-56.18703625516423
  0
INSERT
  5
122
330
79
100
AcDbEntity
  8
Camada 1
100
AcDbBlockReference
  2
Block_4
 10
0.0
 20
0.0
 30
0.0
  0
LINE
  5
128
330
79
100
AcDbEntity
  8
Camada 1
 62
    18
420
        0
370
    15
100
AcDbLine
 10
68.76673776792017
 20
-64.25904675784086
 30
0.0
 11
70.87077650772693
 21
-64.25904675784086
 31
0.0
  0
LINE
  5
129
330
79
100
AcDbEntity
  8
Camada 1
 62
    18
420
        0
370
    15
100
AcDbLine
 10
67.83019067353423
 20
-62.10511788845495
 30
0.0
 11
71.80728139090622
 21
-62.10511788845495
 31
0.0
  0
LINE
  5
12A
330
79
100
AcDbEntity
  8
Camada 1
 62
    18
420
        0
370
    15
100
AcDbLine
 10
71.18776156990105
 20
-62.73909856560552
 30
0.0
 11
71.46093843396691
 21
-62.56389743157804
 31
0.0
  0
LINE
  5
12B
330
79
100
AcDbEntity
  8
Camada 1
 62
    18
420
        0
370
    15
100
AcDbLine
 10
71.62680033834978
 20
-62.35443838512403
 30
0.0
 11
71.68627592961541
 21
-62.1861528539137
 31
0.0
  0
LINE
  5
12C
330
79
100
AcDbEntity
  8
Camada 1
 62
    18
420
        0
370
    15
100
AcDbLine
 10
71.80723917969828
 20
-62.09488518825441
 30
0.0
 11
72.09862314456789
 21
-62.07713537553219
 31
0.0
  0
LINE
  5
12D
330
79
100
AcDbEntity
  8
Camada 1
 62
    18
420
        0
370
    15
100
AcDbLine
 10
71.48136162316133
 20
-64.12038294144311
 30
0.0
 11
71.47536763170539
 21
-64.16833487308037
 31
0.0
  0
INSERT
  5
12F
330
79
100
AcDbEntity
  8
Camada 1
100
AcDbBlockReference
  2
Block_5
 10
0.0
 20
0.0
 30
0.0
  0
LWPOLYLINE
  5
137
330
79
100
AcDbEntity
  8
Camada 1
 62
    18
420
        0
370
    15
100
AcDbPolyline
 90
       12
 70
     0
 43
0.0
 10
70.87084685974017
 20
-63.2879884837833
 10
70.87406898190664
 20
-63.22436564138836
 10
70.88444590373272
 20
-63.15889254106774
 10
70.90173139317399
 20
-63.09503753703232
 10
70.92593952063309
 20
-63.03279359408143
 10
70.95659892762711
 20
-62.97400745253782
 10
70.95752053898961
 20
-62.97216422981282
 10
70.99417393743959
 20
-62.91706805131956
 10
71.03636403926266
 20
-62.86612264155468
 10
71.08316219789696
 20
-62.81909232127991
 10
71.13387896362041
 20
-62.77667709301704
 10
71.18782488671233
 20
-62.73909856560552
  0
LWPOLYLINE
  5
138
330
79
100
AcDbEntity
  8
Camada 1
 62
    18
420
        0
370
    15
100
AcDbPolyline
 90
       11
 70
     0
 43
0.0
 10
71.46102989158348
 20
-62.56387280837308
 10
71.48315559947644
 20
-62.54865918569695
 10
71.50436673120885
 20
-62.53183098433595
 10
71.52419192829653
 20
-62.51338820429136
 10
71.54332767566348
 20
-62.4935630072024
 10
71.56084532674523
 20
-62.47281619875221
 10
71.57744136646575
 20
-62.45068345565858
 10
71.59196905702147
 20
-62.42763261880151
 10
71.60533593937356
 20
-62.40388881462464
 10
71.61709176064239
 20
-62.37921988148364
 10
71.62677923274644
 20
-62.35432230430379
  0
LWPOLYLINE
  5
139
330
79
100
AcDbEntity
  8
Camada 1
 62
    18
420
        0
370
    15
100
AcDbPolyline
 90
        3
 70
     0
 43
0.0
 10
71.38458539493296
 20
-64.24865224801179
 10
70.87073429652027
 20
-64.24865224801179
 10
70.87073429652027
 20
-63.65043149875527
  0
LINE
  5
13A
330
79
100
AcDbEntity
  8
Camada 1
 62
    18
420
        0
370
    15
100
AcDbLine
 10
70.87084685974017
 20
-63.29838651121271
 30
0.0
 11
72.96520516264354
 21
-62.19415187772059
 31
0.0
  0
LINE
  5
13B
330
79
100
AcDbEntity
  8
Camada 1
 62
    18
420
        0
370
    15
100
AcDbLine
 10
68.76673776792017
 20
-63.29838651121271
 30
0.0
 11
70.87077650772693
 21
-63.29838651121271
 31
0.0
  0
LINE
  5
13C
330
79
100
AcDbEntity
  8
Camada 1
 62
    18
420
        0
370
    15
100
AcDbLine
 10
55.21301454153096
 20
-55.70672899625365
 30
0.0
 11
55.49495023113768
 21
-55.70672899625365
 31
0.0
  0
LINE
  5
13D
330
79
100
AcDbEntity
  8
Camada 1
 62
    18
420
        0
370
    15
100
AcDbLine
 10
55.49495023113768
 20
-55.65126346969506
 30
0.0
 11
75.59112216547643
 21
-55.65126346969506
 31
0.0
  0
LINE
  5
13E
330
79
100
AcDbEntity
  8
Camada 1
 62
    18
420
        0
370
    15
100
AcDbLine
 10
63.19612279464588
 20
-25.36246845528817
 30
0.0
 11
80.61690669370607
 21
-25.36246845763518
 31
0.0
  0
LINE
  5
13F
330
79
100
AcDbEntity
  8
Camada 1
 62
    18
420
        0
370
    15
100
AcDbLine
 10
80.61672413243925
 20
-41.64262677279359
 30
0.0
 11
63.19594023337907
 21
-41.64262677044722
 31
0.0
  0
LINE
  5
140
330
79
100
AcDbEntity
  8
Camada 1
 62
    18
420
        0
370
    15
100
AcDbLine
 10
80.61672413463131
 20
-25.36246845763518
 30
0.0
 11
80.61672413243925
 21
-41.64251091799708
 31
0.0
  0
SPLINE
  5
141
330
79
100
AcDbEntity
  8
Camada 1
 62
    18
420
        0
370
    15
100
AcDbSpline
210
0.0
220
0.0
230
1.0
 70
     8
 71
     3
 72
     8
 73
     4
 74
     0
 42
0.0000000001
 43
0.0000000001
 40
0.0
 40
0.0
 40
0.0
 40
0.0
 40
1.0
 40
1.0
 40
1.0
 40
1.0
 10
63.19612279464588
 20
-25.36246845528817
 30
0.0
 10
58.70057751020454
 20
-25.3624684546824
 30
0.0
 10
55.0560945424717
 20
-29.00694439993079
 30
0.0
 10
55.05609454186593
 20
-33.50248968437278
 30
0.0
  0
SPLINE
  5
142
330
79
100
AcDbEntity
  8
Camada 1
 62
    18
420
        0
370
    15
100
AcDbSpline
210
0.0
220
0.0
230
1.0
 70
     8
 71
     3
 72
     8
 73
     4
 74
     0
 42
0.0000000001
 43
0.0000000001
 40
0.0
 40
0.0
 40
0.0
 40
0.0
 40
1.0
 40
1.0
 40
1.0
 40
1.0
 10
55.05609454186593
 20
-33.50248968437278
 30
0.0
 10
55.05609454126017
 20
-37.99826316765757
 30
0.0
 10
58.70057750801121
 20
-41.64251091504462
 30
0.0
 10
63.19612279245384
 20
-41.64251091565039
 30
0.0
  0
SPLINE
  5
143
330
79
100
AcDbEntity
  8
Camada 1
 62
    18
420
        0
370
    15
100
AcDbSpline
210
0.0
220
0.0
230
1.0
 70
     8
 71
     3
 72
     8
 73
     4
 74
     0
 42
0.0000000001
 43
0.0000000001
 40
0.0
 40
0.0
 40
0.0
 40
0.0
 40
1.0
 40
1.0
 40
1.0
 40
1.0
 10
63.77425929553192
 20
-29.90902495799865
 30
0.0
 10
65.03762425997027
 20
-29.88555558489925
 30
0.0
 10
67.10628538604464
 20
-29.86599718899505
 30
0.0
 10
68.36942566239166
 20
-29.83792873153025
 30
0.0
  0
SPLINE
  5
144
330
79
100
AcDbEntity
  8
Camada 1
 62
    18
420
        0
370
    15
100
AcDbSpline
210
0.0
220
0.0
230
1.0
 70
     8
 71
     3
 72
     8
 73
     4
 74
     0
 42
0.0000000001
 43
0.0000000001
 40
0.0
 40
0.0
 40
0.0
 40
0.0
 40
1.0
 40
1.0
 40
1.0
 40
1.0
 10
68.36943970440938
 20
-37.16726128588714
 30
0.0
 10
67.10628538506412
 20
-37.13896111848825
 30
0.0
 10
65.03763830200083
 20
-37.11940272202641
 30
0.0
 10
63.77425929456424
 20
-37.09616505818058
 30
0.0
  0
LWPOLYLINE
  5
145
330
79
100
AcDbEntity
  8
Camada 1
 62
    18
420
        0
370
    15
100
AcDbPolyline
 90
       11
 70
     0
 43
0.0
 10
63.21891459254719
 20
-27.90863390404358
 10
63.7404999101092
 20
-27.90863390411352
 10
64.17097420671395
 20
-27.90863390417128
 10
64.60099912713605
 20
-27.90863390422967
 10
65.03124873565075
 20
-27.90863390428774
 10
65.46173707526143
 20
-27.9086339043455
 10
65.89174795267886
 20
-27.90863390440357
 10
66.32201160419824
 20
-27.90863390446165
 10
66.75226121271165
 20
-27.9086339045194
 10
67.18251082122508
 20
-27.90863390457747
 10
68.31472815546526
 20
-27.90863390472988
  0
LWPOLYLINE
  5
146
330
79
100
AcDbEntity
  8
Camada 1
 62
    18
420
        0
370
    15
100
AcDbPolyline
 90
       12
 70
     0
 43
0.0
 10
68.31470006973315
 20
-25.837792602024
 10
68.31470006973315
 20
-25.837792602024
 10
67.81426351874992
 20
-25.83710098392617
 10
67.31384101077394
 20
-25.83710098385879
 10
66.81341850279668
 20
-25.8373291826339
 10
66.31299599481941
 20
-25.83756089216051
 10
65.81257348684343
 20
-25.83779260168711
 10
65.31213693586021
 20
-25.83802080046222
 10
64.81171442788422
 20
-25.83802080039485
 10
64.31129191990696
 20
-25.83802080032715
 10
63.81086941192969
 20
-25.83779260141759
 10
63.21887246381042
 20
-25.83756089174372
  0
LINE
  5
147
330
79
100
AcDbEntity
  8
Camada 1
 62
    18
420
        0
370
    15
100
AcDbLine
 10
68.31470006794666
 20
-39.09655611267275
 30
0.0
 11
63.21887246202392
 21
-39.09655611198645
 31
0.0
  0
LWPOLYLINE
  5
148
330
79
100
AcDbEntity
  8
Camada 1
 62
    18
420
        0
370
    15
100
AcDbPolyline
 90
       11
 70
     0
 43
0.0
 10
63.21891459076199
 20
-41.1676501887949
 10
63.81091153888255
 20
-41.16741847928017
 10
64.31133404685981
 20
-41.16741847934788
 10
64.81175655483579
 20
-41.16718676982127
 10
65.31217906281307
 20
-41.16718676988865
 10
65.81260157079033
 20
-41.16741847955001
 10
66.31303812177226
 20
-41.16765018921137
 10
66.81346062974954
 20
-41.16787838812093
 10
67.31365844963419
 20
-41.16811009778261
 10
67.81430564570278
 20
-41.16787838825568
 10
68.31472815368005
 20
-41.16741847988754
  0
LWPOLYLINE
  5
149
330
79
100
AcDbEntity
  8
Camada 1
 62
    18
420
        0
370
    15
100
AcDbPolyline
 90
       49
 70
     0
 43
0.0
 10
68.31470006766815
 20
-41.16765018948089
 10
68.52568218524574
 20
-41.16235597636209
 10
68.78751402644962
 20
-41.14786008376742
 10
69.03922086054675
 20
-41.12462242012596
 10
69.26216761898082
 20
-41.09632225292727
 10
69.5097317664014
 20
-41.05536933759956
 10
69.75476817279741
 20
-41.0054429416317
 10
69.9975015262602
 20
-40.94607964583673
 10
70.24116171810149
 20
-40.87659485368522
 10
70.45305663105676
 20
-40.80826158799712
 10
70.65069789323207
 20
-40.73762878012407
 10
70.89114223677144
 20
-40.64260327136323
 10
71.12674174334708
 20
-40.5388395023074
 10
71.3584232513349
 20
-40.42655865029613
 10
71.5871276421168
 20
-40.30507611880223
 10
71.81215276540689
 20
-40.17462010666821
 10
72.03279647092056
 20
-40.03565052233087
 10
72.24907280166506
 20
-39.88817087654008
 10
72.3721597466027
 20
-39.79866777975336
 10
72.57970132780501
 20
-39.63853187507883
 10
72.78193465285497
 20
-39.47034230663616
 10
72.97866311967443
 20
-39.29456249361461
 10
73.16939522306164
 20
-39.11095721566774
 10
73.35368158683649
 20
-38.92022160157814
 10
73.44295297405939
 20
-38.82266835177156
 10
73.61690368564211
 20
-38.62180773057362
 10
73.78439461460654
 20
-38.41381326248145
 10
73.94499042777465
 20
-38.19938007627671
 10
74.09846643705643
 20
-37.97850115045638
 10
74.24410644916003
 20
-37.75141170536596
 10
74.30185128859418
 20
-37.65592979889542
 10
74.43645349822235
 20
-37.42147479731615
 10
74.56321971067232
 20
-37.18127269565443
 10
74.68171459276873
 20
-36.93577638084472
 10
74.79192410150428
 20
-36.6856774709165
 10
74.8933848176917
 20
-36.43120767546442
 10
74.92467263439343
 20
-36.34745870024933
 10
75.01440744082676
 20
-36.08838982043024
 10
75.09609560499524
 20
-35.8228752009959
 10
75.142788598957
 20
-35.6556089601565
 10
75.18627978762149
 20
-35.48488813991629
 10
75.24725451838917
 20
-35.21500263495616
 10
75.29832893014145
 20
-34.94718847333494
 10
75.33998048507159
 20
-34.67776638755988
 10
75.37286920444891
 20
-34.40189856216957
 10
75.38897653200635
 20
-34.22749847443274
 10
75.40785033169974
 20
-33.94173735152775
 10
75.41866344612749
 20
-33.63043902276298
 10
75.4211911871713
 20
-33.50274246121831
  0
LWPOLYLINE
  5
14A
330
79
100
AcDbEntity
  8
Camada 1
 62
    18
420
        0
370
    15
100
AcDbPolyline
 90
       49
 70
     0
 43
0.0
 10
68.31470006973315
 20
-25.83756440318151
 10
68.52498003702355
 20
-25.8428551056056
 10
68.78751402850818
 20
-25.85757919711336
 10
69.03922086260019
 20
-25.88058866198034
 10
69.26263104021387
 20
-25.90911702808184
 10
69.50995645652691
 20
-25.94984174463349
 10
69.75476817481876
 20
-25.99976814066679
 10
69.99727684017483
 20
-26.05889972693419
 10
70.24069830089958
 20
-26.12838451915051
 10
70.45305663302548
 20
-26.19694949449003
 10
70.65069789518156
 20
-26.26758230241602
 10
70.89114223869525
 20
-26.36260781124232
 10
71.12674174524265
 20
-26.4661433815195
 10
71.35842325319967
 20
-26.57865243243455
 10
71.58712764394948
 20
-26.70013496399036
 10
71.81215276720364
 20
-26.83035926659104
 10
72.0327964726801
 20
-26.96956056058237
 10
72.24907280338482
 20
-27.11704020643059
 10
72.37215974829807
 20
-27.20654330325068
 10
72.57970132945802
 20
-27.36667920798169
 10
72.78193465446435
 20
-27.53486877647857
 10
72.97866312123506
 20
-27.71064858955274
 10
73.16939522457349
 20
-27.89425386755095
 10
73.35368158829571
 20
-28.08498948169028
 10
73.44295297549166
 20
-28.18254273152092
 10
73.61690368702177
 20
-28.38340335276539
 10
73.78439461592972
 20
-28.59139782090311
 10
73.94499042904008
 20
-28.80583100715118
 10
74.09846643826154
 20
-29.02670993301257
 10
74.24410645030481
 20
-29.25379937814246
 10
74.3018512897133
 20
-29.3492812846284
 10
74.43645349927729
 20
-29.58373628624424
 10
74.56321971166312
 20
-29.82393838793966
 10
74.68171459369277
 20
-30.06943470278177
 10
74.79192410236159
 20
-30.31953361273983
 10
74.89338481848098
 20
-30.57400340821886
 10
74.92467263515962
 20
-30.65775238344229
 10
75.01440744152235
 20
-30.91682126328576
 10
75.09609560562025
 20
-31.18210417314827
 10
75.14278859953709
 20
-31.34937392475102
 10
75.18627978815537
 20
-31.52032294384623
 10
75.24725451884991
 20
-31.79020844882242
 10
75.29832893053032
 20
-32.05802261045775
 10
75.33998048538859
 20
-32.32744820699489
 10
75.37286920469148
 20
-32.60331252164334
 10
75.38897653220144
 20
-32.77771260938401
 10
75.40761160072183
 20
-33.06324553345164
 10
75.41866344616214
 20
-33.3747720610618
 10
75.4211911871713
 20
-33.50246862260711
  0
LWPOLYLINE
  5
14B
330
79
100
AcDbEntity
  8
Camada 1
 62
    18
420
        0
370
    15
100
AcDbPolyline
 90
       41
 70
     0
 43
0.0
 10
73.9638501850576
 20
-33.5025844772079
 10
73.95900534812338
 20
-33.27480341406681
 10
73.9447516973717
 20
-33.04564262561469
 10
73.92058368459993
 20
-32.8160219287248
 10
73.8867681269147
 20
-32.5866329414276
 10
73.84327693830539
 20
-32.35816026025028
 10
73.79887295432097
 20
-32.16397357748056
 10
73.73813695471603
 20
-31.93964358298172
 10
73.66841343146564
 20
-31.71853645828874
 10
73.58996920167642
 20
-31.50134031068124
 10
73.50298682442444
 20
-31.28874675818902
 10
73.40728374063363
 20
-31.08006418278227
 10
73.30281782128871
 20
-30.87506087486702
 10
73.18892904512167
 20
-30.67374034519345
 10
73.06699362668978
 20
-30.47679421179364
 10
72.93653410379977
 20
-30.28467536160045
 10
72.79825262673627
 20
-30.09807892339646
 10
72.70622881042701
 20
-29.98235051344341
 10
72.55574396141229
 20
-29.80541917390775
 10
72.39813930850868
 20
-29.63538646091989
 10
72.23432764708739
 20
-29.47225939598118
 10
72.0636068268613
 20
-29.31626617793573
 10
71.88621557893025
 20
-29.16694338759461
 10
71.70215390329166
 20
-29.02429453571027
 10
71.51164648803812
 20
-28.88969583683968
 10
71.31606954772698
 20
-28.76246269445634
 10
71.24429574562092
 20
-28.71874681771495
 10
71.0418236895109
 20
-28.60278669815315
 10
70.83474552753314
 20
-28.49534015079371
 10
70.62422682915701
 20
-28.39686357332226
 10
70.4102535513791
 20
-28.30736398724115
 10
70.19258696310216
 20
-28.22683437104835
 10
69.97032831196213
 20
-28.15481832705792
 10
69.74439039332773
 20
-28.09154756486414
 10
69.51523662638757
 20
-28.03747848215203
 10
69.2837798065116
 20
-27.99261107892221
 10
69.05024462179246
 20
-27.95718057551984
 10
69.0173418594464
 20
-27.95303788883526
 10
68.78289387935599
 20
-27.92864869866109
 10
68.54820716816575
 20
-27.91369640831469
 10
68.31467198344275
 20
-27.90863390472988
  0
LWPOLYLINE
  5
14C
330
79
100
AcDbEntity
  8
Camada 1
 62
    18
420
        0
370
    15
100
AcDbPolyline
 90
       41
 70
     0
 43
0.0
 10
68.31470006794666
 20
-39.09655611267275
 10
68.54845994076355
 20
-39.09149360915082
 10
68.78268323276905
 20
-39.07653780811614
 10
69.01713121286715
 20
-39.05214861800518
 10
69.05025866330453
 20
-39.04800593132926
 10
69.28379384803395
 20
-39.01257542798978
 10
69.51548939901745
 20
-38.96770802482253
 10
69.74464316597174
 20
-38.91363894217202
 10
69.9705810846241
 20
-38.8503681800392
 10
70.19261504769204
 20
-38.77835213610845
 10
70.41026759298614
 20
-38.69782603072553
 10
70.6240161826971
 20
-38.608322933951
 10
70.83499830028625
 20
-38.50961815769417
 10
71.04183773119752
 20
-38.40239980923274
 10
71.24430978733705
 20
-38.28643968972548
 10
71.31585890136462
 20
-38.24272381300303
 10
71.51189926089774
 20
-38.11549067067229
 10
71.70194325699988
 20
-37.98066377301088
 10
71.88600493267698
 20
-37.8384748296121
 10
72.06385959983643
 20
-37.68892032972512
 10
72.2343416890063
 20
-37.53292711172555
 10
72.39839208156978
 20
-37.36980004683144
 10
72.55577204642699
 20
-37.19953913504344
 10
72.70646754057456
 20
-37.02283950514252
 10
72.79828071183053
 20
-36.90710758446235
 10
72.93678687703543
 20
-36.7205111462959
 10
73.06700766888076
 20
-36.52839580688886
 10
73.18895713037122
 20
-36.33144616277061
 10
73.30260717549617
 20
-36.13012563312816
 10
73.40752247107893
 20
-35.92489412639833
 10
73.50323959793088
 20
-35.71621155101693
 10
73.58998324414334
 20
-35.50361448779696
 10
73.66844151699625
 20
-35.28665004980461
 10
73.73838972839701
 20
-35.06554292513089
 10
73.79890103997095
 20
-34.84121293064777
 10
73.84352971209932
 20
-34.6470262478896
 10
73.88678216967424
 20
-34.41855707747595
 10
73.92061177042702
 20
-34.18893638059377
 10
73.94476574025444
 20
-33.95954388255312
 10
73.9590334340724
 20
-33.73038309410483
 10
73.96386422806227
 20
-33.50260554171651
  0
LWPOLYLINE
  5
14D
330
79
100
AcDbEntity
  8
Camada 1
 62
    18
420
        0
370
    15
100
AcDbPolyline
 90
       35
 70
     0
 43
0.0
 10
68.36943970440938
 20
-37.16726128588714
 10
68.55372606815857
 20
-37.16840930162761
 10
68.73986610865959
 20
-37.15989572944931
 10
68.92691894453317
 20
-37.14172056935256
 10
69.11421051150402
 20
-37.11388031058618
 10
69.30033650900424
 20
-37.07660666274193
 10
69.3028642500288
 20
-37.07591855546328
 10
69.48738934488038
 20
-37.02897980894908
 10
69.66869859143004
 20
-36.97284289370376
 10
69.84608983939063
 20
-36.90818889550361
 10
70.01887498148346
 20
-36.83479312625637
 10
70.18753147990313
 20
-36.7528837848058
 10
70.3524946678263
 20
-36.66177276387261
 10
70.5133292120763
 20
-36.56237636957794
 10
70.66954360745261
 20
-36.45446991383079
 10
70.82071656378575
 20
-36.33827808472282
 10
70.96589315668791
 20
-36.21449601103499
 10
71.01260019363893
 20
-36.17215985961907
 10
71.14904203699888
 20
-36.03917610644831
 10
71.27833599046059
 20
-35.89974661366101
 10
71.40051014003596
 20
-35.75387489201059
 10
71.51555044271775
 20
-35.60179265108976
 10
71.62276879122732
 20
-35.44372457899015
 10
71.64853770668493
 20
-35.40323157206906
 10
71.74563104808903
 20
-35.23872478185654
 10
71.83445305913955
 20
-35.07007530496232
 10
71.91404881544736
 20
-34.89728314138672
 10
71.98468513412162
 20
-34.72150332834817
 10
72.04634797215769
 20
-34.54272884434335
 10
72.09927606065027
 20
-34.35981518440897
 10
72.1427532063101
 20
-34.17391036426015
 10
72.16346663972629
 20
-34.0683034506771
 10
72.19222671541633
 20
-33.87986737874934
 10
72.21132520318821
 20
-33.69097139838351
 10
72.22098679113329
 20
-33.5025353264535
  0
LWPOLYLINE
  5
14E
330
79
100
AcDbEntity
  8
Camada 1
 62
    18
420
        0
370
    15
100
AcDbPolyline
 90
       35
 70
     0
 43
0.0
 10
72.22109913517832
 20
-33.50258447697304
 10
72.21142350427861
 20
-33.31437660388297
 10
72.19233905956402
 20
-33.12548062351201
 10
72.16334025282677
 20
-32.93704455157623
 10
72.14286555053608
 20
-32.83120592839438
 10
72.09914967383031
 20
-32.64530110823304
 10
72.04623562839245
 20
-32.46238744828455
 10
71.98457279040515
 20
-32.28338476542056
 10
71.91416115986841
 20
-32.10783315120525
 10
71.83432667251081
 20
-31.93527269720245
 10
71.7457433926025
 20
-31.76639502144135
 10
71.64842536315198
 20
-31.60188823120284
 10
71.62265644770464
 20
-31.56139171352353
 10
71.51543809923743
 20
-31.40332715214653
 10
71.4003977965967
 20
-31.25124491119489
 10
71.27844833515244
 20
-31.10537318951111
 10
71.149140338722
 20
-30.9659436966898
 10
71.01247380730666
 20
-30.83295643273033
 10
70.96600550146447
 20
-30.79062379205339
 10
70.8205901774984
 20
-30.66683820757493
 10
70.66965595229333
 20
-30.55064988917737
 10
70.51342751394059
 20
-30.44273992263703
 10
70.35238232463218
 20
-30.34311532945623
 10
70.18740509372744
 20
-30.25223250732126
 10
70.01876263833555
 20
-30.17055487541911
 10
69.84620218435328
 20
-30.09693090728317
 10
69.66857220531339
 20
-30.0322769090349
 10
69.48727700178507
 20
-29.97613648298931
 10
69.30297659503764
 20
-29.9292012471772
 10
69.30022416592048
 20
-29.92874133874039
 10
69.11408412542588
 20
-29.89123598125243
 10
68.92679255846144
 20
-29.86339923318685
 10
68.73973972259427
 20
-29.84522056228791
 10
68.55361372510047
 20
-29.83670699005924
 10
68.36931331834534
 20
-29.83785851650179
  0
LWPOLYLINE
  5
14F
330
79
100
AcDbEntity
  8
Camada 1
 62
    18
420
        0
370
    15
100
AcDbPolyline
 90
       49
 70
     0
 43
0.0
 10
55.48443430160499
 20
-33.50258447471875
 10
55.48926509552813
 20
-33.7722382700939
 10
55.50375747737067
 20
-34.04235197390712
 10
55.51687364466875
 20
-34.20202797017533
 10
55.5463218275771
 20
-34.47122185711721
 10
55.58565628649491
 20
-34.73903601875061
 10
55.63444168824804
 20
-35.00455063820292
 10
55.6924252587307
 20
-35.2682221131588
 10
55.75983168603677
 20
-35.53005395437005
 10
55.83667501316966
 20
-35.78958274264744
 10
55.88614852221684
 20
-35.94120858590543
 10
55.9774842312282
 20
-36.19613477906881
 10
56.07780746388757
 20
-36.44738521549187
 10
56.18709013417918
 20
-36.69495287367291
 10
56.30512159702151
 20
-36.93906595245348
 10
56.43190185241328
 20
-37.17903985530671
 10
56.50896986765418
 20
-37.31547818790812
 10
56.64886629036713
 20
-37.54786184618408
 10
56.79680935534364
 20
-37.77495129131396
 10
56.95279906258498
 20
-37.99651832445497
 10
57.11684945509583
 20
-38.21302285404389
 10
57.28848307068419
 20
-38.42377677280079
 10
57.38903099145157
 20
-38.5401968007856
 10
57.5721798717112
 20
-38.74128913162565
 10
57.76244855586103
 20
-38.93547581441558
 10
57.95917702263046
 20
-39.12276035990656
 10
58.16280060519875
 20
-39.30360618728719
 10
58.373094615472
 20
-39.47708645818091
 10
58.49157545451753
 20
-39.56957720446203
 10
58.71108167653011
 20
-39.73132454409837
 10
58.93564338059309
 20
-39.88524992956215
 10
59.16572398589636
 20
-40.03088994166607
 10
59.4013234924399
 20
-40.16893970919271
 10
59.64197848103513
 20
-40.29870410335884
 10
59.88701488740804
 20
-40.4199549253226
 10
60.01977746324923
 20
-40.4813895645088
 10
60.27102087814236
 20
-40.58906431071682
 10
60.52571887243726
 20
-40.68800079663083
 10
60.78433486532254
 20
-40.77796029115421
 10
60.92100139674943
 20
-40.82144796906144
 10
61.18420945250035
 20
-40.89760318898657
 10
61.44972056118448
 20
-40.96432853058693
 10
61.71708534662304
 20
-41.02161697236016
 10
61.98627572280412
 20
-41.06947553580794
 10
62.25754446382839
 20
-41.10812890902258
 10
62.53041410750256
 20
-41.13711718356729
 10
62.67215016399093
 20
-41.14839020640905
 10
62.94570791494761
 20
-41.16288609907559
 10
63.21881628972292
 20
-41.16748869422907
  0
LWPOLYLINE
  5
150
330
79
100
AcDbEntity
  8
Camada 1
 62
    18
420
        0
370
    15
100
AcDbPolyline
 90
       49
 70
     0
 43
0.0
 10
63.21891459282698
 20
-25.83756440249521
 10
62.94556748695312
 20
-25.8423951964177
 10
62.67200973599386
 20
-25.85665937941679
 10
62.53051241059893
 20
-25.86793240222004
 10
62.2576287239111
 20
-25.89715238628526
 10
61.98613529478524
 20
-25.93557756058425
 10
61.71694491859261
 20
-25.98343261320869
 10
61.44959417614331
 20
-26.04072456566121
 10
61.18406902443526
 20
-26.10767810603218
 10
60.9208609686651
 20
-26.18360512704328
 10
60.78441912531669
 20
-26.22708929416277
 10
60.52581717541299
 20
-26.31728049821049
 10
60.27111918109113
 20
-26.41598527446186
 10
60.01986172316382
 20
-26.52389173019618
 10
59.88711319031189
 20
-26.58509465975342
 10
59.64207678390561
 20
-26.70634548165077
 10
59.40118306417845
 20
-26.83611338650325
 10
59.16580824568902
 20
-26.97415964321455
 10
58.93572764034725
 20
-27.11980316600835
 10
58.71094124815059
 20
-27.27372504066033
 10
58.49143502609437
 20
-27.43547238023731
 10
58.37295418702447
 20
-27.52819483608001
 10
58.16288486479504
 20
-27.70167510691758
 10
57.95903659408795
 20
-27.88228922464936
 10
57.76232217027313
 20
-28.0695737700874
 10
57.57226413115735
 20
-28.26376396357748
 10
57.38889056275248
 20
-28.46485278361664
 10
57.2885813730503
 20
-28.58150452116847
 10
57.11670902630819
 20
-28.79202673028519
 10
56.95289736483558
 20
-29.008534770581
 10
56.79689361452797
 20
-29.23010180368061
 10
56.64895054949114
 20
-29.4571912487704
 10
56.50906816972125
 20
-29.68980310585131
 10
56.43198611143719
 20
-29.82600972883788
 10
56.30498116788992
 20
-30.06598363165678
 10
56.18694970498342
 20
-30.31010022115707
 10
56.07789172271512
 20
-30.55766787930859
 10
55.97758253299367
 20
-30.80891480495353
 10
55.88623278090707
 20
-31.0638445088437
 10
55.83654862673472
 20
-31.2154668413364
 10
55.75992998762258
 20
-31.47499914034538
 10
55.69250951724125
 20
-31.73683098153803
 10
55.63430125859539
 20
-32.00050245647851
 10
55.58552989977762
 20
-32.26601356516586
 10
55.54640608587203
 20
-32.53382772678899
 10
55.51673321480048
 20
-32.80302161372284
 10
55.50361704745878
 20
-32.96292931958151
 10
55.48934935363568
 20
-33.23304302339057
 10
55.4845185596394
 20
-33.50246861992225
  0
LWPOLYLINE
  5
151
330
79
100
AcDbEntity
  8
Camada 1
 62
    18
420
        0
370
    15
100
AcDbPolyline
 90
       41
 70
     0
 43
0.0
 10
63.21891459254719
 20
-27.90863390404358
 10
62.98330104297973
 20
-27.91001362932124
 10
62.74678874104695
 20
-27.921054942518
 10
62.50979897691834
 20
-27.94153315554221
 10
62.40395684298661
 20
-27.95395770481753
 10
62.16813264832864
 20
-27.98870010087772
 10
61.93390935631929
 20
-28.03264417642053
 10
61.70221380533321
 20
-28.08579344219745
 10
61.4735094145603
 20
-28.14837609705
 10
61.24896175347118
 20
-28.21947232410749
 10
61.02830400495926
 20
-28.29931032221111
 10
60.81157829804109
 20
-28.38812180095454
 10
60.59805439642017
 20
-28.48590324958725
 10
60.38846253639429
 20
-28.59242998001727
 10
60.27111918078954
 20
-28.65685577938294
 10
60.06864712464872
 20
-28.77695507481977
 10
59.87146928165301
 20
-28.90465163633813
 10
59.68027375908362
 20
-29.04017015203034
 10
59.4950465139346
 20
-29.18327891230142
 10
59.31674247059248
 20
-29.33306161103122
 10
59.14533354304668
 20
-29.48928653862477
 10
58.98059504320457
 20
-29.65264180236137
 10
58.82230228297609
 20
-29.82313442374368
 10
58.71530862256171
 20
-29.94691649743632
 10
58.5694439223732
 20
-30.12821872245542
 10
58.43116244525963
 20
-30.31504687021584
 10
58.30116634150562
 20
-30.50716220962226
 10
58.17945561111244
 20
-30.70388014414684
 10
58.06647963026018
 20
-30.90497247494679
 10
57.96249117305464
 20
-31.10951236364649
 10
57.86746215348134
 20
-31.31727512215462
 10
57.78140661454753
 20
-31.52894885775014
 10
57.7036504919805
 20
-31.7454568980575
 10
57.63461507594844
 20
-31.96564420585859
 10
57.5748059146591
 20
-32.18928258231093
 10
57.53476930539637
 20
-32.36322276160743
 10
57.49151684782273
 20
-32.59077211514813
 10
57.45768724706994
 20
-32.81924128556338
 10
57.43353327724253
 20
-33.04771396673108
 10
57.41904089533325
 20
-33.27572322871179
 10
57.41421010134338
 20
-33.50258096422716
  0
LWPOLYLINE
  5
152
330
79
100
AcDbEntity
  8
Camada 1
 62
    18
420
        0
370
    15
100
AcDbPolyline
 90
       41
 70
     0
 43
0.0
 10
57.41428031637184
 20
-33.50258447497864
 10
57.4191111103001
 20
-33.72944221049562
 10
57.43360349214778
 20
-33.95745147248049
 10
57.45775746191489
 20
-34.18592064290313
 10
57.49134833150878
 20
-34.41439332407885
 10
57.53483952011809
 20
-34.64171096803712
 10
57.57463739823734
 20
-34.81588285693851
 10
57.63468529056365
 20
-35.03928952381258
 10
57.7034819754381
 20
-35.25970854122659
 10
57.78125214095334
 20
-35.47598487196115
 10
57.867532367922
 20
-35.68788680642227
 10
57.96256138743755
 20
-35.89564956495574
 10
58.06654984458919
 20
-36.10019296443484
 10
58.17952582538627
 20
-36.3012817845141
 10
58.30123655572682
 20
-36.49800322982258
 10
58.43123265942949
 20
-36.69011856926428
 10
58.56927540539572
 20
-36.87694671706193
 10
58.71537883663275
 20
-37.05824894212017
 10
58.82237249701376
 20
-37.18180281699919
 10
58.98042652609876
 20
-37.35229192767333
 10
59.14540375699324
 20
-37.51587890104787
 10
59.31681268449797
 20
-37.67210382868731
 10
59.4951167278003
 20
-37.82188652746491
 10
59.68010524181353
 20
-37.96476708894419
 10
59.87153949544299
 20
-38.10051380353022
 10
60.06871733840405
 20
-38.22820685435004
 10
60.27118939451279
 20
-38.34808146175009
 10
60.38851870709361
 20
-38.41250375039603
 10
60.59812461009721
 20
-38.51926219047682
 10
60.81164851169246
 20
-38.61681544032414
 10
61.02837421858625
 20
-38.70585511796878
 10
61.24879323598037
 20
-38.78569311613177
 10
61.47357962814623
 20
-38.85678934324925
 10
61.70228401890374
 20
-38.91914028857007
 10
61.93374083877714
 20
-38.97251775325172
 10
62.16820286187221
 20
-39.01646533960923
 10
62.40402705651991
 20
-39.05120773573295
 10
62.50986919044908
 20
-39.06340057544253
 10
62.74662022347528
 20
-39.08387878853091
 10
62.98337125650276
 20
-39.09515181138485
 10
63.21897076306428
 20
-39.09630333788387
  0
LWPOLYLINE
  5
153
330
79
100
AcDbEntity
  8
Camada 1
 62
    18
420
        0
370
    15
100
AcDbPolyline
 90
       33
 70
     0
 43
0.0
 10
60.3223480649155
 20
-33.5025844753704
 10
60.3237242794497
 20
-33.68388670040907
 10
60.3345373938107
 20
-33.86634045191596
 10
60.35523678418245
 20
-34.04902591301747
 10
60.38538711738695
 20
-34.23124795493294
 10
60.40677461504762
 20
-34.33524343361771
 10
60.4518807493192
 20
-34.51424611647882
 10
60.5059463212256
 20
-34.68979773069156
 10
60.56852195458288
 20
-34.86143836781948
 10
60.64008511158688
 20
-35.02916802786225
 10
60.72084643732297
 20
-35.19390652769281
 10
60.81011782451121
 20
-35.35450234084425
 10
60.90812396124167
 20
-35.51095546731655
 10
60.97162643298642
 20
-35.6032180147478
 10
61.08229936085669
 20
-35.75092937017589
 10
61.20033082371314
 20
-35.89243020633612
 10
61.32503271427456
 20
-36.02702890519804
 10
61.4566437636408
 20
-36.15495366560285
 10
61.59537461689595
 20
-36.27620448755283
 10
61.74078994086201
 20
-36.39055317220287
 10
61.82499180300675
 20
-36.45152439219501
 10
61.97938060761487
 20
-36.55391194674551
 10
62.13836147508734
 20
-36.6480141279355
 10
62.30194844842755
 20
-36.73337453808095
 10
62.46876531308077
 20
-36.80976146758659
 10
62.63948613331713
 20
-36.87763482488988
 10
62.81479901641784
 20
-36.93676641114765
 10
62.99380521001887
 20
-36.98692451676692
 10
63.17556383273579
 20
-37.02833734058855
 10
63.22158276240045
 20
-37.03708262239196
 10
63.40564443805446
 20
-37.06630260651877
 10
63.59016953289706
 20
-37.08608920156931
 10
63.77424525155829
 20
-37.09598249910677
  0
LWPOLYLINE
  5
154
330
79
100
AcDbEntity
  8
Camada 1
 62
    18
420
        0
370
    15
100
AcDbPolyline
 90
       33
 70
     0
 43
0.0
 10
63.77425929553192
 20
-29.90902495799865
 10
63.59018357686812
 20
-29.9189182554867
 10
63.40565848202039
 20
-29.93893304933001
 10
63.22159680635869
 20
-29.96815303340709
 10
63.17557787669145
 20
-29.9768983151983
 10
62.99381925396298
 20
-30.01808294012867
 10
62.81458837225779
 20
-30.06823753494768
 10
62.63950017723171
 20
-30.12760083075292
 10
62.46877935697611
 20
-30.1952424784157
 10
62.30173780421232
 20
-30.27162940787674
 10
62.13837551894034
 20
-30.3572215275719
 10
61.97916996335215
 20
-30.45132370871953
 10
61.82478115871579
 20
-30.55347955363402
 10
61.7408039846457
 20
-30.61445077360306
 10
61.59538866064883
 20
-30.72879945821461
 10
61.45664376435565
 20
-30.85028198972037
 10
61.32480802686472
 20
-30.97820675009022
 10
61.20034486736207
 20
-31.11280544891845
 10
61.08207467337113
 20
-31.25407457545261
 10
60.97164047655835
 20
-31.40178593085118
 10
60.90813800478921
 20
-31.4942801878594
 10
60.81011782500917
 20
-31.65050160471109
 10
60.72084643777857
 20
-31.81132912743277
 10
60.6400991550048
 20
-31.97583591764754
 10
60.5685359979546
 20
-32.14379728726471
 10
60.50596036455112
 20
-32.31543792437562
 10
60.45189479259723
 20
-32.49098953857425
 10
60.40678865827816
 20
-32.66999222142348
 10
60.38540116058797
 20
-32.77398770010216
 10
60.35525082733471
 20
-32.95598154316679
 10
60.33455143691419
 20
-33.13889520310599
 10
60.32373832250442
 20
-33.32134895460967
 10
60.3223480649155
 20
-33.50242298080488
  0
SPLINE
  5
155
330
79
100
AcDbEntity
  8
Camada 1
 62
    18
420
        0
370
    15
100
AcDbSpline
210
0.0
220
0.0
230
1.0
 70
     9
 71
     3
 72
    17
 73
    13
 74
     0
 42
0.0000000001
 43
0.0000000001
 40
0.0
 40
0.0
 40
0.0
 40
0.0
 40
1.0
 40
1.0
 40
1.0
 40
2.0
 40
2.0
 40
2.0
 40
3.0
 40
3.0
 40
3.0
 40
4.0
 40
4.0
 40
4.0
 40
4.0
 10
77.05555831898053
 20
-34.30151564692968
 30
0.0
 10
77.49684572997067
 20
-34.30151564698904
 30
0.0
 10
77.85439469804446
 20
-33.94373848016901
 30
0.0
 10
77.85439469810478
 20
-33.50267575726924
 30
0.0
 10
77.85439469816381
 20
-33.061377814024
 30
0.0
 10
77.49684573018628
 20
-32.70360415785856
 30
0.0
 10
77.05555831919486
 20
-32.70360415779953
 30
0.0
 10
76.61425686519878
 20
-32.70360415774017
 30
0.0
 10
76.256707897125
 20
-33.06137781380839
 30
0.0
 10
76.25670789706467
 20
-33.50267575705363
 30
0.0
 10
76.25670789700564
 20
-33.94373847995372
 30
0.0
 10
76.61425686498316
 20
-34.30151564687032
 30
0.0
 10
77.05555831898053
 20
-34.30151564692968
 30
0.0
  0
LINE
  5
156
330
79
100
AcDbEntity
  8
Camada 1
 62
    18
420
        0
370
    15
100
AcDbLine
 10
77.05555831924107
 20
-32.36120057141677
 30
0.0
 11
77.05555831893433
 21
-34.64382795377505
 31
0.0
  0
LINE
  5
157
330
79
100
AcDbEntity
  8
Camada 1
 62
    18
420
        0
370
    15
100
AcDbLine
 10
78.19700190806995
 20
-33.50251426274959
 30
0.0
 11
75.91436750420868
 21
-33.50274246128472
 31
0.0
  0
SPLINE
  5
158
330
79
100
AcDbEntity
  8
Camada 1
 62
    18
420
        0
370
    15
100
AcDbSpline
210
0.0
220
0.0
230
1.0
 70
     9
 71
     3
 72
    17
 73
    13
 74
     0
 42
0.0000000001
 43
0.0000000001
 40
0.0
 40
0.0
 40
0.0
 40
0.0
 40
1.0
 40
1.0
 40
1.0
 40
2.0
 40
2.0
 40
2.0
 40
3.0
 40
3.0
 40
3.0
 40
4.0
 40
4.0
 40
4.0
 40
4.0
 10
77.05555831959529
 20
-29.73609587689577
 30
0.0
 10
77.49684573058542
 20
-29.73609587695512
 30
0.0
 10
77.8543946986605
 20
-29.37855041972876
 30
0.0
 10
77.85439469871953
 20
-28.93725598723533
 30
0.0
 10
77.85439469877856
 20
-28.49595804399008
 30
0.0
 10
77.49684573080102
 20
-28.13818438782465
 30
0.0
 10
77.0555583198096
 20
-28.13818438776561
 30
0.0
 10
76.61425686581353
 20
-28.13818438770562
 30
0.0
 10
76.25670789773974
 20
-28.49595804377448
 30
0.0
 10
76.2567078976807
 20
-28.93725598701971
 30
0.0
 10
76.25670789762039
 20
-29.37855041951379
 30
0.0
 10
76.61425686559791
 20
-29.73609587683641
 30
0.0
 10
77.05555831959529
 20
-29.73609587689577
 30
0.0
  0
LINE
  5
159
330
79
100
AcDbEntity
  8
Camada 1
 62
    18
420
        0
370
    15
100
AcDbLine
 10
77.05555831985582
 20
-27.79587208091959
 30
0.0
 11
77.05555831954908
 21
-30.07849946327821
 31
0.0
  0
LINE
  5
15A
330
79
100
AcDbEntity
  8
Camada 1
 62
    18
420
        0
370
    15
100
AcDbLine
 10
78.1970019086847
 20
-28.93718577225275
 30
0.0
 11
75.91436750482343
 21
-28.93741397078787
 31
0.0
  0
SPLINE
  5
15B
330
79
100
AcDbEntity
  8
Camada 1
 62
    18
420
        0
370
    15
100
AcDbSpline
210
0.0
220
0.0
230
1.0
 70
     9
 71
     3
 72
    17
 73
    13
 74
     0
 42
0.0000000001
 43
0.0000000001
 40
0.0
 40
0.0
 40
0.0
 40
0.0
 40
1.0
 40
1.0
 40
1.0
 40
2.0
 40
2.0
 40
2.0
 40
3.0
 40
3.0
 40
3.0
 40
4.0
 40
4.0
 40
4.0
 40
4.0
 10
77.0555583183645
 20
-38.86691435245499
 30
0.0
 10
77.49684572935592
 20
-38.86691435251434
 30
0.0
 10
77.85439469742971
 20
-38.50913718569368
 30
0.0
 10
77.85439469748876
 20
-38.06807446279422
 30
0.0
 10
77.85439469754907
 20
-37.62677651954899
 30
0.0
 10
77.49684572957153
 20
-37.26900286338419
 30
0.0
 10
77.05555831858011
 20
-37.26900286332451
 30
0.0
 10
76.61425686458404
 20
-37.26900286326515
 30
0.0
 10
76.25670789651024
 20
-37.6267765193337
 30
0.0
 10
76.25670789644992
 20
-38.06807446257894
 30
0.0
 10
76.25670789639089
 20
-38.50913718547871
 30
0.0
 10
76.61425686436841
 20
-38.86691435239531
 30
0.0
 10
77.0555583183645
 20
-38.86691435245499
 30
0.0
  0
LINE
  5
15C
330
79
100
AcDbEntity
  8
Camada 1
 62
    18
420
        0
370
    15
100
AcDbLine
 10
77.05555831862632
 20
-36.92662034145067
 30
0.0
 11
77.05555831831958
 21
-39.20924772380896
 31
0.0
  0
LINE
  5
15D
330
79
100
AcDbEntity
  8
Camada 1
 62
    18
420
        0
370
    15
100
AcDbLine
 10
78.1970019074552
 20
-38.06793403278351
 30
0.0
 11
75.91436750359264
 21
-38.06816223131863
 31
0.0
  0
SPLINE
  5
15E
330
79
100
AcDbEntity
  8
Camada 1
 62
    18
420
        0
370
    15
100
AcDbSpline
210
0.0
220
0.0
230
1.0
 70
     9
 71
     3
 72
    17
 73
    13
 74
     0
 42
0.0000000001
 43
0.0000000001
 40
0.0
 40
0.0
 40
0.0
 40
0.0
 40
1.0
 40
1.0
 40
1.0
 40
2.0
 40
2.0
 40
2.0
 40
3.0
 40
3.0
 40
3.0
 40
4.0
 40
4.0
 40
4.0
 40
4.0
 10
69.66007618625757
 20
-34.55253437274937
 30
0.0
 10
70.24010849352548
 20
-34.55253437282733
 30
0.0
 10
70.71015598024543
 20
-34.08247635397998
 30
0.0
 10
70.71015598032372
 20
-33.50290395514951
 30
0.0
 10
70.71015598040201
 20
-32.92287164788159
 30
0.0
 10
70.24010849380911
 20
-32.45258543006533
 30
0.0
 10
69.66007618654121
 20
-32.45258542998737
 30
0.0
 10
69.08002983626733
 20
-32.45258542990908
 30
0.0
 10
68.60998234954867
 20
-32.92287164759892
 30
0.0
 10
68.60998234947039
 20
-33.50290395486684
 30
0.0
 10
68.60998234939209
 20
-34.08247635369764
 30
0.0
 10
69.08002983598499
 20
-34.55253437267108
 30
0.0
 10
69.66007618625757
 20
-34.55253437274937
 30
0.0
  0
SPLINE
  5
15F
330
79
100
AcDbEntity
  8
Camada 1
 62
    18
420
        0
370
    15
100
AcDbSpline
210
0.0
220
0.0
230
1.0
 70
     9
 71
     3
 72
    17
 73
    13
 74
     0
 42
0.0000000001
 43
0.0000000001
 40
0.0
 40
0.0
 40
0.0
 40
0.0
 40
1.0
 40
1.0
 40
1.0
 40
2.0
 40
2.0
 40
2.0
 40
3.0
 40
3.0
 40
3.0
 40
4.0
 40
4.0
 40
4.0
 40
4.0
 10
69.66000597114055
 20
-35.21452166125836
 30
0.0
 10
70.60563388869704
 20
-35.21452166138606
 30
0.0
 10
71.37225561275132
 20
-34.44789291603672
 30
0.0
 10
71.37225561287838
 20
-33.50272139616425
 30
0.0
 10
71.37225561300543
 20
-32.55685825826198
 30
0.0
 10
70.60563388915906
 20
-31.79046122229967
 30
0.0
 10
69.66000597160129
 20
-31.79046122217229
 30
0.0
 10
68.71436401103885
 20
-31.79046122204523
 30
0.0
 10
67.94796697507719
 20
-32.55685825780027
 30
0.0
 10
67.94796697494884
 20
-33.50272139570319
 30
0.0
 10
67.9479669748218
 20
-34.44789291557502
 30
0.0
 10
68.71436401057811
 20
-35.21452166113131
 30
0.0
 10
69.66000597114055
 20
-35.21452166125836
 30
0.0
  0
LINE
  5
160
330
79
100
AcDbEntity
  8
Camada 1
 62
    18
420
        0
370
    15
100
AcDbLine
 10
71.48610226005581
 20
-33.50251426184576
 30
0.0
 11
67.83357265054968
 21
-33.50251426135358
 31
0.0
  0
LINE
  5
161
330
79
100
AcDbEntity
  8
Camada 1
 62
    18
420
        0
370
    15
100
AcDbLine
 10
69.6600059716167
 20
-31.67641095141212
 30
0.0
 11
69.66000597112516
 21
-35.32870885132396
 31
0.0
  0
LINE
  5
162
330
79
100
AcDbEntity
  8
Camada 1
 62
    18
420
        0
370
    15
100
AcDbLine
 10
80.79714277851987
 20
-55.6387180316717
 30
0.0
 11
80.79714277632783
 21
-74.35407310939225
 31
0.0
  0
ENDBLK
  5
7C
330
79
100
AcDbEntity
  8
0
100
AcDbBlockEnd
  0
BLOCK
  5
AF
330
AD
100
AcDbEntity
  8
0
100
AcDbBlockBegin
  2
Block_1
 70
     0
 10
0.0
 20
0.0
 30
0.0
  3
Block_1
  1

  0
SPLINE
  5
B1
330
AD
100
AcDbEntity
  8
Camada 1
 62
    18
420
        0
370
    15
100
AcDbSpline
210
0.0
220
0.0
230
1.0
 70
     8
 71
     3
 72
     8
 73
     4
 74
     0
 42
0.0000000001
 43
0.0000000001
 40
0.0
 40
0.0
 40
0.0
 40
0.0
 40
1.0
 40
1.0
 40
1.0
 40
1.0
 10
33.05928514177754
 20
-58.73320925196491
 30
0.0
 10
33.02723980013878
 20
-58.74958016524565
 30
0.0
 10
32.99542662014113
 20
-58.76640836660664
 30
0.0
 10
32.96384560178461
 20
-58.78346521200778
 30
0.0
  0
SPLINE
  5
B2
330
AD
100
AcDbEntity
  8
Camada 1
 62
    18
420
        0
370
    15
100
AcDbSpline
210
0.0
220
0.0
230
1.0
 70
     8
 71
     3
 72
     8
 73
     4
 74
     0
 42
0.0000000001
 43
0.0000000001
 40
0.0
 40
0.0
 40
0.0
 40
0.0
 40
1.0
 40
1.0
 40
1.0
 40
1.0
 10
32.37267764176817
 20
-60.16097168478136
 30
0.0
 10
32.36921632275925
 20
-60.17480640801601
 30
0.0
 10
32.36575852135067
 20
-60.18840545200857
 30
0.0
 10
32.36253288158321
 20
-60.20223665764159
 30
0.0
  0
SPLINE
  5
B3
330
AD
100
AcDbEntity
  8
Camada 1
 62
    18
420
        0
370
    15
100
AcDbSpline
210
0.0
220
0.0
230
1.0
 70
     8
 71
     3
 72
     8
 73
     4
 74
     0
 42
0.0000000001
 43
0.0000000001
 40
0.0
 40
0.0
 40
0.0
 40
0.0
 40
1.0
 40
1.0
 40
1.0
 40
1.0
 10
32.50387007445189
 20
-71.27237731384221
 30
0.0
 10
32.5117072886309
 20
-71.2806770925033
 30
0.0
 10
32.52000530849052
 20
-71.28897687116309
 30
0.0
 10
32.52807468431065
 20
-71.29681408534274
 30
0.0
  0
SPLINE
  5
B4
330
AD
100
AcDbEntity
  8
Camada 1
 62
    18
420
        0
370
    15
100
AcDbSpline
210
0.0
220
0.0
230
1.0
 70
     8
 71
     3
 72
     8
 73
     4
 74
     0
 42
0.0000000001
 43
0.0000000001
 40
0.0
 40
0.0
 40
0.0
 40
0.0
 40
1.0
 40
1.0
 40
1.0
 40
1.0
 10
32.52805357870669
 20
-71.2969512717663
 30
0.0
 10
32.55548382833291
 20
-71.32461544183446
 30
0.0
 10
32.58407136856309
 20
-71.35112583889963
 30
0.0
 10
32.61311619687353
 20
-71.37671462459976
 30
0.0
  0
SPLINE
  5
B5
330
AD
100
AcDbEntity
  8
Camada 1
 62
    18
420
        0
370
    15
100
AcDbSpline
210
0.0
220
0.0
230
1.0
 70
     8
 71
     3
 72
     8
 73
     4
 74
     0
 42
0.0000000001
 43
0.0000000001
 40
0.0
 40
0.0
 40
0.0
 40
0.0
 40
1.0
 40
1.0
 40
1.0
 40
1.0
 10
33.52094559980707
 20
-62.65778922729835
 30
0.0
 10
33.56635782379727
 20
-62.72003317024925
 30
0.0
 10
33.62007158524871
 20
-62.77536151038555
 30
0.0
 10
33.68092959355616
 20
-62.82262047470045
 30
0.0
  0
SPLINE
  5
B6
330
AD
100
AcDbEntity
  8
Camada 1
 62
    18
420
        0
370
    15
100
AcDbSpline
210
0.0
220
0.0
230
1.0
 70
     8
 71
     3
 72
     8
 73
     4
 74
     0
 42
0.0000000001
 43
0.0000000001
 40
0.0
 40
0.0
 40
0.0
 40
0.0
 40
1.0
 40
1.0
 40
1.0
 40
1.0
 10
28.74444144817724
 20
-59.31077816798944
 30
0.0
 10
28.74444144817724
 20
-59.51687438825177
 30
0.0
 10
28.8822962164324
 20
-59.69737654641154
 30
0.0
 10
29.08101251059727
 20
-59.75178327518407
 30
0.0
  0
SPLINE
  5
B7
330
AD
100
AcDbEntity
  8
Camada 1
 62
    18
420
        0
370
    15
100
AcDbSpline
210
0.0
220
0.0
230
1.0
 70
     8
 71
     3
 72
     8
 73
     4
 74
     0
 42
0.0000000001
 43
0.0000000001
 40
0.0
 40
0.0
 40
0.0
 40
0.0
 40
1.0
 40
1.0
 40
1.0
 40
1.0
 10
32.26236920395948
 20
-62.70080596526701
 30
0.0
 10
32.24899528640671
 20
-62.73723071967685
 30
0.0
 10
32.24161887790831
 20
-62.7754986968104
 30
0.0
 10
32.24000781682507
 20
-62.81422747962455
 30
0.0
  0
SPLINE
  5
B8
330
AD
100
AcDbEntity
  8
Camada 1
 62
    18
420
        0
370
    15
100
AcDbSpline
210
0.0
220
0.0
230
1.0
 70
     8
 71
     3
 72
     8
 73
     4
 74
     0
 42
0.0000000001
 43
0.0000000001
 40
0.0
 40
0.0
 40
0.0
 40
0.0
 40
1.0
 40
1.0
 40
1.0
 40
1.0
 10
33.81957230435058
 20
-63.0668896968807
 30
0.0
 10
33.80758432144127
 20
-62.9702999014845
 30
0.0
 10
33.75778916707965
 20
-62.88223676998998
 30
0.0
 10
33.68079240713195
 20
-62.82252901708516
 30
0.0
  0
SPLINE
  5
B9
330
AD
100
AcDbEntity
  8
Camada 1
 62
    18
420
        0
370
    15
100
AcDbSpline
210
0.0
220
0.0
230
1.0
 70
     8
 71
     3
 72
     8
 73
     4
 74
     0
 42
0.0000000001
 43
0.0000000001
 40
0.0
 40
0.0
 40
0.0
 40
0.0
 40
1.0
 40
1.0
 40
1.0
 40
1.0
 10
33.52094559980707
 20
-62.65778922729835
 30
0.0
 10
33.45662627249006
 20
-62.56972961340417
 30
0.0
 10
33.35657515808558
 20
-62.51486207895104
 30
0.0
 10
33.24776521814088
 20
-62.50840820522967
 30
0.0
  0
SPLINE
  5
BA
330
AD
100
AcDbEntity
  8
Camada 1
 62
    18
420
        0
370
    15
100
AcDbSpline
210
0.0
220
0.0
230
1.0
 70
     8
 71
     3
 72
     8
 73
     4
 74
     0
 42
0.0000000001
 43
0.0000000001
 40
0.0
 40
0.0
 40
0.0
 40
0.0
 40
1.0
 40
1.0
 40
1.0
 40
1.0
 10
28.92653707941664
 20
-56.06303379814672
 30
0.0
 10
28.80619996224322
 20
-56.06303379814672
 30
0.0
 10
28.69393222088994
 20
-56.1220521013308
 30
0.0
 10
28.62546212484263
 20
-56.22094944273166
 30
0.0
  0
SPLINE
  5
BB
330
AD
100
AcDbEntity
  8
Camada 1
 62
    18
420
        0
370
    15
100
AcDbSpline
210
0.0
220
0.0
230
1.0
 70
     8
 71
     3
 72
     8
 73
     4
 74
     0
 42
0.0000000001
 43
0.0000000001
 40
0.0
 40
0.0
 40
0.0
 40
0.0
 40
1.0
 40
1.0
 40
1.0
 40
1.0
 10
28.62546212484263
 20
-56.22094944273166
 30
0.0
 10
28.55722770803613
 20
-56.31984678413252
 30
0.0
 10
28.54154976207777
 20
-56.44594573112012
 30
0.0
 10
28.58420066958273
 20
-56.55821347247339
 30
0.0
  0
SPLINE
  5
BC
330
AD
100
AcDbEntity
  8
Camada 1
 62
    18
420
        0
370
    15
100
AcDbSpline
210
0.0
220
0.0
230
1.0
 70
     8
 71
     3
 72
     8
 73
     4
 74
     0
 42
0.0000000001
 43
0.0000000001
 40
0.0
 40
0.0
 40
0.0
 40
0.0
 40
1.0
 40
1.0
 40
1.0
 40
1.0
 10
34.21695916387139
 20
-62.64677210216016
 30
0.0
 10
34.18214898814642
 20
-62.56585673512327
 30
0.0
 10
34.10399845519574
 20
-62.51214297367183
 30
0.0
 10
34.01593532370057
 20
-62.50845652822311
 30
0.0
  0
SPLINE
  5
BD
330
AD
100
AcDbEntity
  8
Camada 1
 62
    18
420
        0
370
    15
100
AcDbSpline
210
0.0
220
0.0
230
1.0
 70
     8
 71
     3
 72
     8
 73
     4
 74
     0
 42
0.0000000001
 43
0.0000000001
 40
0.0
 40
0.0
 40
0.0
 40
0.0
 40
1.0
 40
1.0
 40
1.0
 40
1.0
 10
29.21493108376024
 20
-59.91181651534242
 30
0.0
 10
29.20801196334371
 20
-59.83574488435756
 30
0.0
 10
29.15453036353243
 20
-59.77211852436227
 30
0.0
 10
29.08099140499265
 20
-59.75183252159269
 30
0.0
  0
SPLINE
  5
BE
330
AD
100
AcDbEntity
  8
Camada 1
 62
    18
420
        0
370
    15
100
AcDbSpline
210
0.0
220
0.0
230
1.0
 70
     8
 71
     3
 72
     8
 73
     4
 74
     0
 42
0.0000000001
 43
0.0000000001
 40
0.0
 40
0.0
 40
0.0
 40
0.0
 40
1.0
 40
1.0
 40
1.0
 40
1.0
 10
33.94933659118292
 20
-64.12319702193794
 30
0.0
 10
33.95486625935534
 20
-64.16907356920972
 30
0.0
 10
33.99382720381062
 20
-64.20365510089457
 30
0.0
 10
34.03993239512318
 20
-64.20365510089457
 30
0.0
  0
SPLINE
  5
BF
330
AD
100
AcDbEntity
  8
Camada 1
 62
    18
420
        0
370
    15
100
AcDbSpline
210
0.0
220
0.0
230
1.0
 70
     8
 71
     3
 72
     8
 73
     4
 74
     0
 42
0.0000000001
 43
0.0000000001
 40
0.0
 40
0.0
 40
0.0
 40
0.0
 40
1.0
 40
1.0
 40
1.0
 40
1.0
 10
38.15239797231484
 20
-58.73320925196491
 30
0.0
 10
36.552290697174
 20
-57.91851887822033
 30
0.0
 10
34.65918487848125
 20
-57.91851887822033
 30
0.0
 10
33.05930976498185
 20
-58.73320925196491
 30
0.0
  0
SPLINE
  5
C0
330
AD
100
AcDbEntity
  8
Camada 1
 62
    18
420
        0
370
    15
100
AcDbSpline
210
0.0
220
0.0
230
1.0
 70
     8
 71
     3
 72
     8
 73
     4
 74
     0
 42
0.0000000001
 43
0.0000000001
 40
0.0
 40
0.0
 40
0.0
 40
0.0
 40
1.0
 40
1.0
 40
1.0
 40
1.0
 10
38.24804505074393
 20
-58.78348983521273
 30
0.0
 10
38.21646051478642
 20
-58.7664329898116
 30
0.0
 10
38.18441869074865
 20
-58.7496047884506
 30
0.0
 10
38.15237334911053
 20
-58.73323739277021
 30
0.0
  0
SPLINE
  5
C1
330
AD
100
AcDbEntity
  8
Camada 1
 62
    18
420
        0
370
    15
100
AcDbSpline
210
0.0
220
0.0
230
1.0
 70
     8
 71
     3
 72
     8
 73
     4
 74
     0
 42
0.0000000001
 43
0.0000000001
 40
0.0
 40
0.0
 40
0.0
 40
0.0
 40
1.0
 40
1.0
 40
1.0
 40
1.0
 10
38.87824078962726
 20
-60.3467537614701
 30
0.0
 10
38.8704000578479
 20
-60.29811238011082
 30
0.0
 10
38.86071962094422
 20
-60.24970316039329
 30
0.0
 10
38.84919244371583
 20
-60.20175122875603
 30
0.0
  0
SPLINE
  5
C2
330
AD
100
AcDbEntity
  8
Camada 1
 62
    18
420
        0
370
    15
100
AcDbSpline
210
0.0
220
0.0
230
1.0
 70
     8
 71
     3
 72
     8
 73
     4
 74
     0
 42
0.0000000001
 43
0.0000000001
 40
0.0
 40
0.0
 40
0.0
 40
0.0
 40
1.0
 40
1.0
 40
1.0
 40
1.0
 10
38.8491713381125
 20
-60.20177585196099
 30
0.0
 10
38.8459421807447
 20
-60.18817680796844
 30
0.0
 10
38.84248437933676
 20
-60.17457424637426
 30
0.0
 10
38.83902657792754
 20
-60.16097520238298
 30
0.0
  0
SPLINE
  5
C3
330
AD
100
AcDbEntity
  8
Camada 1
 62
    18
420
        0
370
    15
100
AcDbSpline
210
0.0
220
0.0
230
1.0
 70
     8
 71
     3
 72
     8
 73
     4
 74
     0
 42
0.0000000001
 43
0.0000000001
 40
0.0
 40
0.0
 40
0.0
 40
0.0
 40
1.0
 40
1.0
 40
1.0
 40
1.0
 10
38.59851767081022
 20
-71.37683070542127
 30
0.0
 10
38.62779466076114
 20
-71.35101151687765
 30
0.0
 10
38.65615003935084
 20
-71.3242707169728
 30
0.0
 10
38.68381245061755
 20
-71.29706911138736
 30
0.0
  0
SPLINE
  5
C4
330
AD
100
AcDbEntity
  8
Camada 1
 62
    18
420
        0
370
    15
100
AcDbSpline
210
0.0
220
0.0
230
1.0
 70
     8
 71
     3
 72
     8
 73
     4
 74
     0
 42
0.0000000001
 43
0.0000000001
 40
0.0
 40
0.0
 40
0.0
 40
0.0
 40
1.0
 40
1.0
 40
1.0
 40
1.0
 10
38.68369988739765
 20
-71.2969512717663
 30
0.0
 10
38.69176574561679
 20
-71.28865325190604
 30
0.0
 10
38.69983512143692
 20
-71.28058387608591
 30
0.0
 10
38.70767233561626
 20
-71.27251625906659
 30
0.0
  0
SPLINE
  5
C5
330
AD
100
AcDbEntity
  8
Camada 1
 62
    18
420
        0
370
    15
100
AcDbSpline
210
0.0
220
0.0
230
1.0
 70
     8
 71
     3
 72
     8
 73
     4
 74
     0
 42
0.0000000001
 43
0.0000000001
 40
0.0
 40
0.0
 40
0.0
 40
0.0
 40
1.0
 40
1.0
 40
1.0
 40
1.0
 10
37.53086608375548
 20
-62.82247977067654
 30
0.0
 10
37.59149193042309
 20
-62.77545296800212
 30
0.0
 10
37.64543785351501
 20
-62.71989598382567
 30
0.0
 10
37.69085007750521
 20
-62.65765204087479
 30
0.0
  0
SPLINE
  5
C6
330
AD
100
AcDbEntity
  8
Camada 1
 62
    18
420
        0
370
    15
100
AcDbSpline
210
0.0
220
0.0
230
1.0
 70
     8
 71
     3
 72
     8
 73
     4
 74
     0
 42
0.0000000001
 43
0.0000000001
 40
0.0
 40
0.0
 40
0.0
 40
0.0
 40
1.0
 40
1.0
 40
1.0
 40
1.0
 10
38.97162956845903
 20
-62.81427320843156
 30
0.0
 10
38.97024363381558
 20
-62.7755444256174
 30
0.0
 10
38.96263858127704
 20
-62.73704780444372
 30
0.0
 10
38.94926818132526
 20
-62.70085521167565
 30
0.0
  0
SPLINE
  5
C7
330
AD
100
AcDbEntity
  8
Camada 1
 62
    18
420
        0
370
    15
100
AcDbSpline
210
0.0
220
0.0
230
1.0
 70
     8
 71
     3
 72
     8
 73
     4
 74
     0
 42
0.0000000001
 43
0.0000000001
 40
0.0
 40
0.0
 40
0.0
 40
0.0
 40
1.0
 40
1.0
 40
1.0
 40
1.0
 10
37.53086608375548
 20
-62.82247977067654
 30
0.0
 10
37.45386580620743
 20
-62.88218752358135
 30
0.0
 10
37.4040741694468
 20
-62.97025065507587
 30
0.0
 10
37.39231483057698
 20
-63.06707261211254
 30
0.0
  0
SPLINE
  5
C8
330
AD
100
AcDbEntity
  8
Camada 1
 62
    18
420
        0
370
    15
100
AcDbSpline
210
0.0
220
0.0
230
1.0
 70
     8
 71
     3
 72
     8
 73
     4
 74
     0
 42
0.0000000001
 43
0.0000000001
 40
0.0
 40
0.0
 40
0.0
 40
0.0
 40
1.0
 40
1.0
 40
1.0
 40
1.0
 10
37.96391437835116
 20
-62.50838265861082
 30
0.0
 10
37.85510443840581
 20
-62.51506961738655
 30
0.0
 10
37.75505332400198
 20
-62.5697049902005
 30
0.0
 10
37.69073399668497
 20
-62.65776812169502
 30
0.0
  0
SPLINE
  5
C9
330
AD
100
AcDbEntity
  8
Camada 1
 62
    18
420
        0
370
    15
100
AcDbSpline
210
0.0
220
0.0
230
1.0
 70
     8
 71
     3
 72
     8
 73
     4
 74
     0
 42
0.0000000001
 43
0.0000000001
 40
0.0
 40
0.0
 40
0.0
 40
0.0
 40
1.0
 40
1.0
 40
1.0
 40
1.0
 10
37.19567743837921
 20
-62.50838265861082
 30
0.0
 10
37.10784295092482
 20
-62.51184397761974
 30
0.0
 10
37.02992457961462
 20
-62.56555422146956
 30
0.0
 10
36.99511440388964
 20
-62.64624094446631
 30
0.0
  0
SPLINE
  5
CA
330
AD
100
AcDbEntity
  8
Camada 1
 62
    18
420
        0
370
    15
100
AcDbSpline
210
0.0
220
0.0
230
1.0
 70
     8
 71
     3
 72
     8
 73
     4
 74
     0
 42
0.0000000001
 43
0.0000000001
 40
0.0
 40
0.0
 40
0.0
 40
0.0
 40
1.0
 40
1.0
 40
1.0
 40
1.0
 10
36.97637262779233
 20
-62.76793585547917
 30
0.0
 10
36.9754474988295
 20
-62.77346904125193
 30
0.0
 10
36.97475804910811
 20
-62.77900222702598
 30
0.0
 10
36.974525887467
 20
-62.7847675744405
 30
0.0
  0
SPLINE
  5
CB
330
AD
100
AcDbEntity
  8
Camada 1
 62
    18
420
        0
370
    15
100
AcDbSpline
210
0.0
220
0.0
230
1.0
 70
     8
 71
     3
 72
     8
 73
     4
 74
     0
 42
0.0000000001
 43
0.0000000001
 40
0.0
 40
0.0
 40
0.0
 40
0.0
 40
1.0
 40
1.0
 40
1.0
 40
1.0
 10
37.17156428613637
 20
-64.20358123128227
 30
0.0
 10
37.21789812148907
 20
-64.20358123128227
 30
0.0
 10
37.25685906594434
 20
-64.16900321719777
 30
0.0
 10
37.26239225171774
 20
-64.12312666992599
 30
0.0
  0
SPLINE
  5
CC
330
AD
100
AcDbEntity
  8
Camada 1
 62
    18
420
        0
370
    15
100
AcDbSpline
210
0.0
220
0.0
230
1.0
 70
     8
 71
     3
 72
     8
 73
     4
 74
     0
 42
0.0000000001
 43
0.0000000001
 40
0.0
 40
0.0
 40
0.0
 40
0.0
 40
1.0
 40
1.0
 40
1.0
 40
1.0
 10
42.13071281470241
 20
-59.75185010959697
 30
0.0
 10
42.32942910886728
 20
-59.6974468984235
 30
0.0
 10
42.46705523308293
 20
-59.51694122266339
 30
0.0
 10
42.46705523308293
 20
-59.3108485200014
 30
0.0
  0
SPLINE
  5
CD
330
AD
100
AcDbEntity
  8
Camada 1
 62
    18
420
        0
370
    15
100
AcDbSpline
210
0.0
220
0.0
230
1.0
 70
     8
 71
     3
 72
     8
 73
     4
 74
     0
 42
0.0000000001
 43
0.0000000001
 40
0.0
 40
0.0
 40
0.0
 40
0.0
 40
1.0
 40
1.0
 40
1.0
 40
1.0
 10
42.58630892926533
 20
-56.2209248195267
 30
0.0
 10
42.65454334607118
 20
-56.31959351688743
 30
0.0
 10
42.66998913038843
 20
-56.44615326955563
 30
0.0
 10
42.62734174048509
 20
-56.5584210109102
 30
0.0
  0
SPLINE
  5
CE
330
AD
100
AcDbEntity
  8
Camada 1
 62
    18
420
        0
370
    15
100
AcDbSpline
210
0.0
220
0.0
230
1.0
 70
     8
 71
     3
 72
     8
 73
     4
 74
     0
 42
0.0000000001
 43
0.0000000001
 40
0.0
 40
0.0
 40
0.0
 40
0.0
 40
1.0
 40
1.0
 40
1.0
 40
1.0
 10
42.28523397469068
 20
-56.0630126925421
 30
0.0
 10
42.40534244782396
 20
-56.0630126925421
 30
0.0
 10
42.51783883321802
 20
-56.12203099572617
 30
0.0
 10
42.58630892926533
 20
-56.2209248195267
 30
0.0
  0
SPLINE
  5
CF
330
AD
100
AcDbEntity
  8
Camada 1
 62
    18
420
        0
370
    15
100
AcDbSpline
210
0.0
220
0.0
230
1.0
 70
     8
 71
     3
 72
     8
 73
     4
 74
     0
 42
0.0000000001
 43
0.0000000001
 40
0.0
 40
0.0
 40
0.0
 40
0.0
 40
1.0
 40
1.0
 40
1.0
 40
1.0
 10
43.75394127871131
 20
-55.7702392754287
 30
0.0
 10
43.77145892979306
 20
-55.84170636720269
 30
0.0
 10
43.75808852984063
 20
-55.92238957259912
 30
0.0
 10
43.72028135838833
 20
-55.97241688860185
 30
0.0
  0
SPLINE
  5
D0
330
AD
100
AcDbEntity
  8
Camada 1
 62
    18
420
        0
370
    15
100
AcDbSpline
210
0.0
220
0.0
230
1.0
 70
     8
 71
     3
 72
     8
 73
     4
 74
     0
 42
0.0000000001
 43
0.0000000001
 40
0.0
 40
0.0
 40
0.0
 40
0.0
 40
1.0
 40
1.0
 40
1.0
 40
1.0
 10
43.64190218139752
 20
-55.65128809289873
 30
0.0
 10
43.69169733575914
 20
-55.65128809289873
 30
0.0
 10
43.73642011002795
 20
-55.69877570125377
 30
0.0
 10
43.75394127871131
 20
-55.7702392754287
 30
0.0
  0
SPLINE
  5
D1
330
AD
100
AcDbEntity
  8
Camada 1
 62
    18
420
        0
370
    15
100
AcDbSpline
210
0.0
220
0.0
230
1.0
 70
     8
 71
     3
 72
     8
 73
     4
 74
     0
 42
0.0000000001
 43
0.0000000001
 40
0.0
 40
0.0
 40
0.0
 40
0.0
 40
1.0
 40
1.0
 40
1.0
 40
1.0
 10
42.13071281470241
 20
-59.75185010959697
 30
0.0
 10
42.05694169452313
 20
-59.77190746832513
 30
0.0
 10
42.00368873875262
 20
-59.83599463400103
 30
0.0
 10
41.99677313593546
 20
-59.91183762094575
 30
0.0
  0
SPLINE
  5
D2
330
AD
100
AcDbEntity
  8
Camada 1
 62
    18
420
        0
370
    15
100
AcDbSpline
210
0.0
220
0.0
230
1.0
 70
     8
 71
     3
 72
     8
 73
     4
 74
     0
 42
0.0000000001
 43
0.0000000001
 40
0.0
 40
0.0
 40
0.0
 40
0.0
 40
1.0
 40
1.0
 40
1.0
 40
1.0
 10
27.56922515179734
 20
-55.65126346969506
 30
0.0
 10
27.51942999743508
 20
-55.65126346969506
 30
0.0
 10
27.47470722316627
 20
-55.69875459565043
 30
0.0
 10
27.45718605448355
 20
-55.77021816982409
 30
0.0
  0
SPLINE
  5
D3
330
AD
100
AcDbEntity
  8
Camada 1
 62
    18
420
        0
370
    15
100
AcDbSpline
210
0.0
220
0.0
230
1.0
 70
     8
 71
     3
 72
     8
 73
     4
 74
     0
 42
0.0000000001
 43
0.0000000001
 40
0.0
 40
0.0
 40
0.0
 40
0.0
 40
1.0
 40
1.0
 40
1.0
 40
1.0
 10
27.45718605448355
 20
-55.77021816982409
 30
0.0
 10
27.4398970474413
 20
-55.8419139056395
 30
0.0
 10
27.45326744739404
 20
-55.92259711103592
 30
0.0
 10
27.49084245720555
 20
-55.97239226539689
 30
0.0
  0
ENDBLK
  5
B0
330
AD
100
AcDbEntity
  8
0
100
AcDbBlockEnd
  0
BLOCK
  5
FC
330
FA
100
AcDbEntity
  8
0
100
AcDbBlockBegin
  2
Block_2
 70
     0
 10
0.0
 20
0.0
 30
0.0
  3
Block_2
  1

  0
SPLINE
  5
FE
330
FA
100
AcDbEntity
  8
Camada 1
 62
    18
420
        0
370
    15
100
AcDbSpline
210
0.0
220
0.0
230
1.0
 70
     8
 71
     3
 72
     8
 73
     4
 74
     0
 42
0.0000000001
 43
0.0000000001
 40
0.0
 40
0.0
 40
0.0
 40
0.0
 40
1.0
 40
1.0
 40
1.0
 40
1.0
 10
78.72678874439969
 20
-60.17987527050784
 30
0.0
 10
78.71018566947849
 20
-60.07199045952468
 30
0.0
 10
78.69335746811748
 20
-59.96410213094248
 30
0.0
 10
78.67629710511472
 20
-59.85621380235898
 30
0.0
  0
SPLINE
  5
FF
330
FA
100
AcDbEntity
  8
Camada 1
 62
    18
420
        0
370
    15
100
AcDbSpline
210
0.0
220
0.0
230
1.0
 70
     8
 71
     3
 72
     8
 73
     4
 74
     0
 42
0.0000000001
 43
0.0000000001
 40
0.0
 40
0.0
 40
0.0
 40
0.0
 40
1.0
 40
1.0
 40
1.0
 40
1.0
 10
78.62892909518028
 20
-60.40224391123365
 30
0.0
 10
78.66027795189634
 20
-60.34069293560383
 30
0.0
 10
78.6914016821726
 20
-60.27845251025199
 30
0.0
 10
78.7213646042452
 20
-60.21643721134124
 30
0.0
  0
SPLINE
  5
100
330
FA
100
AcDbEntity
  8
Camada 1
 62
    18
420
        0
370
    15
100
AcDbSpline
210
0.0
220
0.0
230
1.0
 70
     8
 71
     3
 72
    20
 73
    16
 74
     0
 42
0.0000000001
 43
0.0000000001
 40
0.0
 40
0.0
 40
0.0
 40
0.0
 40
1.0
 40
1.0
 40
1.0
 40
2.0
 40
2.0
 40
2.0
 40
3.0
 40
3.0
 40
3.0
 40
4.0
 40
4.0
 40
4.0
 40
5.0
 40
5.0
 40
5.0
 40
5.0
 10
55.49495023113768
 20
-55.70672899625365
 30
0.0
 10
56.4138389704167
 20
-55.70672899625365
 30
0.0
 10
57.24328216115811
 20
-56.25654404339428
 30
0.0
 10
57.60129651695166
 20
-57.10258679145653
 30
0.0
 10
57.60129651695166
 20
-57.10258679145653
 30
0.0
 10
59.00545233201352
 20
-60.42128820098403
 30
0.0
 10
59.00545233201352
 20
-60.42128820098403
 30
0.0
 10
59.30997805279543
 20
-61.14077119637808
 30
0.0
 10
59.99534032218526
 20
-61.62580611052045
 30
0.0
 10
60.77522755540812
 20
-61.67375452455736
 30
0.0
 10
60.77522755540812
 20
-61.67375452455736
 30
0.0
 10
60.77545268184663
 20
-61.67375452455736
 30
0.0
 10
60.77545268184663
 20
-61.67375452455736
 30
0.0
 10
60.77545268184663
 20
-61.67375452455736
 30
0.0
 10
67.83012032152099
 20
-62.10507567724829
 30
0.0
 10
67.83012032152099
 20
-62.10507567724829
 30
0.0
  0
SPLINE
  5
101
330
FA
100
AcDbEntity
  8
Camada 1
 62
    18
420
        0
370
    15
100
AcDbSpline
210
0.0
220
0.0
230
1.0
 70
     8
 71
     3
 72
     8
 73
     4
 74
     0
 42
0.0000000001
 43
0.0000000001
 40
0.0
 40
0.0
 40
0.0
 40
0.0
 40
1.0
 40
1.0
 40
1.0
 40
1.0
 10
67.7338998741914
 20
-62.71311756743337
 30
0.0
 10
67.77907993654048
 20
-62.77536151038555
 30
0.0
 10
67.8330258596324
 20
-62.83068985052057
 30
0.0
 10
67.89365522390099
 20
-62.87794881483547
 30
0.0
  0
SPLINE
  5
102
330
FA
100
AcDbEntity
  8
Camada 1
 62
    18
420
        0
370
    15
100
AcDbSpline
210
0.0
220
0.0
230
1.0
 70
     8
 71
     3
 72
     8
 73
     4
 74
     0
 42
0.0000000001
 43
0.0000000001
 40
0.0
 40
0.0
 40
0.0
 40
0.0
 40
1.0
 40
1.0
 40
1.0
 40
1.0
 10
68.03252306113392
 20
-63.12219341381076
 30
0.0
 10
68.02053507822461
 20
-63.02560361841585
 30
0.0
 10
67.97050776222317
 20
-62.93754048692132
 30
0.0
 10
67.89373964631559
 20
-62.87783273401522
 30
0.0
  0
SPLINE
  5
103
330
FA
100
AcDbEntity
  8
Camada 1
 62
    18
420
        0
370
    15
100
AcDbSpline
210
0.0
220
0.0
230
1.0
 70
     8
 71
     3
 72
     8
 73
     4
 74
     0
 42
0.0000000001
 43
0.0000000001
 40
0.0
 40
0.0
 40
0.0
 40
0.0
 40
1.0
 40
1.0
 40
1.0
 40
1.0
 10
67.7338998741914
 20
-62.71311756743337
 30
0.0
 10
67.66957702927341
 20
-62.62505795353919
 30
0.0
 10
67.56929727082944
 20
-62.57019041908606
 30
0.0
 10
67.46071597492487
 20
-62.56373562194951
 30
0.0
  0
SPLINE
  5
104
330
FA
100
AcDbEntity
  8
Camada 1
 62
    18
420
        0
370
    15
100
AcDbSpline
210
0.0
220
0.0
230
1.0
 70
     8
 71
     3
 72
     8
 73
     4
 74
     0
 42
0.0000000001
 43
0.0000000001
 40
0.0
 40
0.0
 40
0.0
 40
0.0
 40
1.0
 40
1.0
 40
1.0
 40
1.0
 10
62.86377478208869
 20
-62.28368888387478
 30
0.0
 10
62.66759116037149
 20
-62.28691804124323
 30
0.0
 10
62.50898958366359
 20
-62.44367639522486
 30
0.0
 10
62.50368504193095
 20
-62.63962785530287
 30
0.0
  0
SPLINE
  5
105
330
FA
100
AcDbEntity
  8
Camada 1
 62
    18
420
        0
370
    15
100
AcDbSpline
210
0.0
220
0.0
230
1.0
 70
     8
 71
     3
 72
     8
 73
     4
 74
     0
 42
0.0000000001
 43
0.0000000001
 40
0.0
 40
0.0
 40
0.0
 40
0.0
 40
1.0
 40
1.0
 40
1.0
 40
1.0
 10
62.88238288936341
 20
-62.28382607029963
 30
0.0
 10
62.87615673626699
 20
-62.28359742625951
 30
0.0
 10
62.86993058317187
 20
-62.28359742625951
 30
0.0
 10
62.86370443007673
 20
-62.28359742625951
 30
0.0
  0
SPLINE
  5
106
330
FA
100
AcDbEntity
  8
Camada 1
 62
    18
420
        0
370
    15
100
AcDbSpline
210
0.0
220
0.0
230
1.0
 70
     8
 71
     3
 72
     8
 73
     4
 74
     0
 42
0.0000000001
 43
0.0000000001
 40
0.0
 40
0.0
 40
0.0
 40
0.0
 40
1.0
 40
1.0
 40
1.0
 40
1.0
 10
78.82151069386594
 20
-56.39568625347691
 30
0.0
 10
78.81113377203987
 20
-56.27765668230816
 30
0.0
 10
78.71223291303738
 20
-56.18682871672742
 30
0.0
 10
78.59374605379092
 20
-56.18682871672742
 30
0.0
  0
SPLINE
  5
107
330
FA
100
AcDbEntity
  8
Camada 1
 62
    18
420
        0
370
    15
100
AcDbSpline
210
0.0
220
0.0
230
1.0
 70
     8
 71
     3
 72
     8
 73
     4
 74
     0
 42
0.0000000001
 43
0.0000000001
 40
0.0
 40
0.0
 40
0.0
 40
0.0
 40
1.0
 40
1.0
 40
1.0
 40
1.0
 10
80.71855974285316
 20
-56.24236107769891
 30
0.0
 10
80.65470122121739
 20
-56.27256319661267
 30
0.0
 10
80.61412921567953
 20
-56.3368790063287
 30
0.0
 10
80.61412921567953
 20
-56.40765313078161
 30
0.0
  0
SPLINE
  5
108
330
FA
100
AcDbEntity
  8
Camada 1
 62
    18
420
        0
370
    15
100
AcDbSpline
210
0.0
220
0.0
230
1.0
 70
     8
 71
     3
 72
     8
 73
     4
 74
     0
 42
0.0000000001
 43
0.0000000001
 40
0.0
 40
0.0
 40
0.0
 40
0.0
 40
1.0
 40
1.0
 40
1.0
 40
1.0
 10
55.21301454153096
 20
-55.70672899625365
 30
0.0
 10
55.13647858726514
 20
-55.70672899625365
 30
0.0
 10
55.06846929689844
 20
-55.7542201222103
 30
0.0
 10
55.0417284969936
 20
-55.82568369638396
 30
0.0
  0
SPLINE
  5
109
330
FA
100
AcDbEntity
  8
Camada 1
 62
    18
420
        0
370
    15
100
AcDbSpline
210
0.0
220
0.0
230
1.0
 70
     8
 71
     3
 72
     8
 73
     4
 74
     0
 42
0.0000000001
 43
0.0000000001
 40
0.0
 40
0.0
 40
0.0
 40
0.0
 40
1.0
 40
1.0
 40
1.0
 40
1.0
 10
55.0417284969936
 20
-55.82568369638396
 30
0.0
 10
55.014755535447
 20
-55.89737943219809
 30
0.0
 10
55.03527018225671
 20
-55.97783399355438
 30
0.0
 10
55.09313471243782
 20
-56.02785779195676
 30
0.0
  0
SPLINE
  5
10A
330
FA
100
AcDbEntity
  8
Camada 1
 62
    18
420
        0
370
    15
100
AcDbSpline
210
0.0
220
0.0
230
1.0
 70
     8
 71
     3
 72
     8
 73
     4
 74
     0
 42
0.0000000001
 43
0.0000000001
 40
0.0
 40
0.0
 40
0.0
 40
0.0
 40
1.0
 40
1.0
 40
1.0
 40
1.0
 10
80.71855974285316
 20
-56.24236107769891
 30
0.0
 10
80.76650463928974
 20
-56.21953888488326
 30
0.0
 10
80.79693891984396
 20
-56.17135830920586
 30
0.0
 10
80.79693891984396
 20
-56.11833751507679
 30
0.0
  0
SPLINE
  5
10B
330
FA
100
AcDbEntity
  8
Camada 1
 62
    18
420
        0
370
    15
100
AcDbSpline
210
0.0
220
0.0
230
1.0
 70
     8
 71
     3
 72
     8
 73
     4
 74
     0
 42
0.0000000001
 43
0.0000000001
 40
0.0
 40
0.0
 40
0.0
 40
0.0
 40
1.0
 40
1.0
 40
1.0
 40
1.0
 10
67.9512149986823
 20
-62.1963609309093
 30
0.0
 10
67.93300310442393
 20
-62.14449390978319
 30
0.0
 10
67.88528333442716
 20
-62.10830131701511
 30
0.0
 10
67.83018363833225
 20
-62.10530432128842
 30
0.0
  0
SPLINE
  5
10C
330
FA
100
AcDbEntity
  8
Camada 1
 62
    18
420
        0
370
    15
100
AcDbSpline
210
0.0
220
0.0
230
1.0
 70
     8
 71
     3
 72
     8
 73
     4
 74
     0
 42
0.0000000001
 43
0.0000000001
 40
0.0
 40
0.0
 40
0.0
 40
0.0
 40
1.0
 40
1.0
 40
1.0
 40
1.0
 10
80.4840413095895
 20
-58.09860947710683
 30
0.0
 10
80.55688378320594
 20
-58.09492303165812
 30
0.0
 10
80.61405886366628
 20
-58.03452231143094
 30
0.0
 10
80.61405886366628
 20
-57.96144767617405
 30
0.0
  0
SPLINE
  5
10D
330
FA
100
AcDbEntity
  8
Camada 1
 62
    18
420
        0
370
    15
100
AcDbSpline
210
0.0
220
0.0
230
1.0
 70
     8
 71
     3
 72
     8
 73
     4
 74
     0
 42
0.0000000001
 43
0.0000000001
 40
0.0
 40
0.0
 40
0.0
 40
0.0
 40
1.0
 40
1.0
 40
1.0
 40
1.0
 10
68.16222403115563
 20
-64.17868717170148
 30
0.0
 10
68.16775369932805
 20
-64.22456371897455
 30
0.0
 10
68.20671464378396
 20
-64.25891308901764
 30
0.0
 10
68.25281631749556
 20
-64.2591452506581
 30
0.0
  0
ENDBLK
  5
FD
330
FA
100
AcDbEntity
  8
0
100
AcDbBlockEnd
  0
BLOCK
  5
113
330
111
100
AcDbEntity
  8
0
100
AcDbBlockBegin
  2
Block_3
 70
     0
 10
0.0
 20
0.0
 30
0.0
  3
Block_3
  1

  0
SPLINE
  5
115
330
111
100
AcDbEntity
  8
Camada 1
 62
    18
420
        0
370
    15
100
AcDbSpline
210
0.0
220
0.0
230
1.0
 70
     9
 71
     3
 72
    98
 73
    94
 74
     0
 42
0.0000000001
 43
0.0000000001
 40
0.0
 40
0.0
 40
0.0
 40
0.0
 40
1.0
 40
1.0
 40
1.0
 40
2.0
 40
2.0
 40
2.0
 40
3.0
 40
3.0
 40
3.0
 40
4.0
 40
4.0
 40
4.0
 40
5.0
 40
5.0
 40
5.0
 40
6.0
 40
6.0
 40
6.0
 40
7.0
 40
7.0
 40
7.0
 40
8.0
 40
8.0
 40
8.0
 40
9.0
 40
9.0
 40
9.0
 40
10.0
 40
10.0
 40
10.0
 40
11.0
 40
11.0
 40
11.0
 40
12.0
 40
12.0
 40
12.0
 40
13.0
 40
13.0
 40
13.0
 40
14.0
 40
14.0
 40
14.0
 40
15.0
 40
15.0
 40
15.0
 40
16.0
 40
16.0
 40
16.0
 40
17.0
 40
17.0
 40
17.0
 40
18.0
 40
18.0
 40
18.0
 40
19.0
 40
19.0
 40
19.0
 40
20.0
 40
20.0
 40
20.0
 40
21.0
 40
21.0
 40
21.0
 40
22.0
 40
22.0
 40
22.0
 40
23.0
 40
23.0
 40
23.0
 40
24.0
 40
24.0
 40
24.0
 40
25.0
 40
25.0
 40
25.0
 40
26.0
 40
26.0
 40
26.0
 40
27.0
 40
27.0
 40
27.0
 40
28.0
 40
28.0
 40
28.0
 40
29.0
 40
29.0
 40
29.0
 40
30.0
 40
30.0
 40
30.0
 40
31.0
 40
31.0
 40
31.0
 40
31.0
 10
55.76489793783508
 20
-56.15127984487308
 30
0.0
 10
55.79324979882446
 20
-56.18009602914341
 30
0.0
 10
56.00787268298717
 20
-56.39633349199099
 30
0.0
 10
56.00787268298717
 20
-56.39633349199099
 30
0.0
 10
56.00787268298717
 20
-56.39633349199099
 30
0.0
 10
56.1906823871529
 20
-56.60127593925035
 30
0.0
 10
56.1906823871529
 20
-56.60127593925035
 30
0.0
 10
56.1906823871529
 20
-56.60127593925035
 30
0.0
 10
56.47261807675962
 20
-56.95444655899059
 30
0.0
 10
56.47261807675962
 20
-56.95444655899059
 30
0.0
 10
56.47261807675962
 20
-56.95444655899059
 30
0.0
 10
56.61508793702667
 20
-57.15523823752029
 30
0.0
 10
56.61508793702667
 20
-57.15523823752029
 30
0.0
 10
56.61508793702667
 20
-57.15523823752029
 30
0.0
 10
56.75478592800683
 20
-57.37170434440802
 30
0.0
 10
56.75478592800683
 20
-57.37170434440802
 30
0.0
 10
56.75478592800683
 20
-57.37170434440802
 30
0.0
 10
56.8836567442826
 20
-57.59531821575208
 30
0.0
 10
56.8836567442826
 20
-57.59531821575208
 30
0.0
 10
56.8836567442826
 20
-57.59531821575208
 30
0.0
 10
56.99269532826743
 20
-57.80970893827562
 30
0.0
 10
56.99269532826743
 20
-57.80970893827562
 30
0.0
 10
56.99269532826743
 20
-57.80970893827562
 30
0.0
 10
57.0846735492508
 20
-58.0144192238945
 30
0.0
 10
57.0846735492508
 20
-58.0144192238945
 30
0.0
 10
57.0846735492508
 20
-58.0144192238945
 30
0.0
 10
57.16374921116432
 20
-58.21705764274825
 30
0.0
 10
57.16374921116432
 20
-58.21705764274825
 30
0.0
 10
57.16374921116432
 20
-58.21705764274825
 30
0.0
 10
57.22990824360534
 20
-58.41784580367761
 30
0.0
 10
57.22990824360534
 20
-58.41784580367761
 30
0.0
 10
57.22990824360534
 20
-58.41784580367761
 30
0.0
 10
57.28385416669726
 20
-58.61610129215995
 30
0.0
 10
57.28385416669726
 20
-58.61610129215995
 30
0.0
 10
57.28385416669726
 20
-58.61610129215995
 30
0.0
 10
57.32534778359763
 20
-58.81135978491559
 30
0.0
 10
57.32534778359763
 20
-58.81135978491559
 30
0.0
 10
57.32534778359763
 20
-58.81135978491559
 30
0.0
 10
57.3543961295097
 20
-59.00362128194455
 30
0.0
 10
57.3543961295097
 20
-59.00362128194455
 30
0.0
 10
57.3543961295097
 20
-59.00362128194455
 30
0.0
 10
57.37122433086941
 20
-59.19219633352479
 30
0.0
 10
57.37122433086941
 20
-59.19219633352479
 30
0.0
 10
57.37122433086941
 20
-59.19219633352479
 30
0.0
 10
57.37652887260333
 20
-59.35379842355845
 30
0.0
 10
57.37652887260333
 20
-59.35379842355845
 30
0.0
 10
57.37675399904312
 20
-59.40866244041252
 30
0.0
 10
57.40557018331344
 20
-59.44508719482108
 30
0.0
 10
57.44683867377402
 20
-59.45522843740505
 30
0.0
 10
57.65062734803168
 20
-59.50387333636467
 30
0.0
 10
57.80646409065081
 20
-59.66178546334926
 30
0.0
 10
57.8532622492851
 20
-59.86672439300829
 30
0.0
 10
57.8532622492851
 20
-59.86672439300829
 30
0.0
 10
60.11175883226948
 20
-69.80369639182672
 30
0.0
 10
60.11175883226948
 20
-69.80369639182672
 30
0.0
 10
60.11175883226948
 20
-69.80369639182672
 30
0.0
 10
61.1491414659982
 20
-74.02284727819027
 30
0.0
 10
61.1491414659982
 20
-74.02284727819027
 30
0.0
 10
61.16389428299374
 20
-74.08278367513521
 30
0.0
 10
61.21760804444389
 20
-74.12497201815877
 30
0.0
 10
61.27939118171546
 20
-74.12497201815877
 30
0.0
 10
61.27939118171546
 20
-74.12497201815877
 30
0.0
 10
61.65215835450454
 20
-74.12497201815877
 30
0.0
 10
61.65215835450454
 20
-74.12497201815877
 30
0.0
 10
61.71854954858604
 20
-74.12497201815877
 30
0.0
 10
61.77295275975822
 20
-74.07264067375172
 30
0.0
 10
61.77571759384443
 20
-74.00624947967021
 30
0.0
 10
61.77571759384443
 20
-74.00624947967021
 30
0.0
 10
61.94400664265511
 20
-69.88691754607002
 30
0.0
 10
61.94400664265511
 20
-69.88691754607002
 30
0.0
 10
61.94400664265511
 20
-69.88691754607002
 30
0.0
 10
61.94354231937287
 20
-69.88691754607002
 30
0.0
 10
61.94354231937287
 20
-69.88691754607002
 30
0.0
 10
61.94354231937287
 20
-69.88691754607002
 30
0.0
 10
62.14364454818183
 20
-62.42237380587716
 30
0.0
 10
62.14364454818183
 20
-62.42237380587716
 30
0.0
 10
62.14825260499176
 20
-62.25616365903229
 30
0.0
 10
62.02031043528045
 20
-62.11646215045181
 30
0.0
 10
61.85409677083525
 20
-62.10608874622607
 30
0.0
 10
61.85409677083525
 20
-62.10608874622607
 30
0.0
 10
60.75309481231321
 20
-62.03877242318173
 30
0.0
 10
60.75309481231321
 20
-62.03877242318173
 30
0.0
 10
59.82820504637755
 20
-61.9820616660036
 30
0.0
 10
59.02918910098971
 20
-61.41680435214672
 30
0.0
 10
58.66818478467144
 20
-60.5638460012673
 30
0.0
 10
58.66818478467144
 20
-60.5638460012673
 30
0.0
 10
57.26426113125004
 20
-57.24514459173981
 30
0.0
 10
57.26426113125004
 20
-57.24514459173981
 30
0.0
 10
57.00122199216782
 20
-56.62386597042553
 30
0.0
 10
56.43388929394546
 20
-56.19369859073629
 30
0.0
 10
55.78079749263291
 20
-56.09411179961341
 30
0.0
 10
55.75313508136556
 20
-56.08972886924327
 30
0.0
 10
55.73630688000457
 20
-56.12269582224325
 30
0.0
 10
55.76489793783508
 20
-56.15127984487308
 30
0.0
  0
SPLINE
  5
116
330
111
100
AcDbEntity
  8
Camada 1
 62
    18
420
        0
370
    15
100
AcDbSpline
210
0.0
220
0.0
230
1.0
 70
     8
 71
     3
 72
   146
 73
   142
 74
     0
 42
0.0000000001
 43
0.0000000001
 40
0.0
 40
0.0
 40
0.0
 40
0.0
 40
1.0
 40
1.0
 40
1.0
 40
2.0
 40
2.0
 40
2.0
 40
3.0
 40
3.0
 40
3.0
 40
4.0
 40
4.0
 40
4.0
 40
5.0
 40
5.0
 40
5.0
 40
6.0
 40
6.0
 40
6.0
 40
7.0
 40
7.0
 40
7.0
 40
8.0
 40
8.0
 40
8.0
 40
9.0
 40
9.0
 40
9.0
 40
10.0
 40
10.0
 40
10.0
 40
11.0
 40
11.0
 40
11.0
 40
12.0
 40
12.0
 40
12.0
 40
13.0
 40
13.0
 40
13.0
 40
14.0
 40
14.0
 40
14.0
 40
15.0
 40
15.0
 40
15.0
 40
16.0
 40
16.0
 40
16.0
 40
17.0
 40
17.0
 40
17.0
 40
18.0
 40
18.0
 40
18.0
 40
19.0
 40
19.0
 40
19.0
 40
20.0
 40
20.0
 40
20.0
 40
21.0
 40
21.0
 40
21.0
 40
22.0
 40
22.0
 40
22.0
 40
23.0
 40
23.0
 40
23.0
 40
24.0
 40
24.0
 40
24.0
 40
25.0
 40
25.0
 40
25.0
 40
26.0
 40
26.0
 40
26.0
 40
27.0
 40
27.0
 40
27.0
 40
28.0
 40
28.0
 40
28.0
 40
29.0
 40
29.0
 40
29.0
 40
30.0
 40
30.0
 40
30.0
 40
31.0
 40
31.0
 40
31.0
 40
32.0
 40
32.0
 40
32.0
 40
33.0
 40
33.0
 40
33.0
 40
34.0
 40
34.0
 40
34.0
 40
35.0
 40
35.0
 40
35.0
 40
36.0
 40
36.0
 40
36.0
 40
37.0
 40
37.0
 40
37.0
 40
38.0
 40
38.0
 40
38.0
 40
39.0
 40
39.0
 40
39.0
 40
40.0
 40
40.0
 40
40.0
 40
41.0
 40
41.0
 40
41.0
 40
42.0
 40
42.0
 40
42.0
 40
43.0
 40
43.0
 40
43.0
 40
44.0
 40
44.0
 40
44.0
 40
45.0
 40
45.0
 40
45.0
 40
46.0
 40
46.0
 40
46.0
 40
47.0
 40
47.0
 40
47.0
 40
47.0
 10
55.09309250123116
 20
-56.02787889756009
 30
0.0
 10
55.09309250123116
 20
-56.02787889756009
 30
0.0
 10
55.13366450676902
 20
-56.06315339656729
 30
0.0
 10
55.13366450676902
 20
-56.06315339656729
 30
0.0
 10
55.13366450676902
 20
-56.06315339656729
 30
0.0
 10
55.17400435066642
 20
-56.09842437797287
 30
0.0
 10
55.17400435066642
 20
-56.09842437797287
 30
0.0
 10
55.17400435066642
 20
-56.09842437797287
 30
0.0
 10
55.21411906812531
 20
-56.13369535937845
 30
0.0
 10
55.21411906812531
 20
-56.13369535937845
 30
0.0
 10
55.21411906812531
 20
-56.13369535937845
 30
0.0
 10
55.25422675038223
 20
-56.16942714646592
 30
0.0
 10
55.25422675038223
 20
-56.16942714646592
 30
0.0
 10
55.25422675038223
 20
-56.16942714646592
 30
0.0
 10
55.29387714455888
 20
-56.20538757759352
 30
0.0
 10
55.29387714455888
 20
-56.20538757759352
 30
0.0
 10
55.29387714455888
 20
-56.20538757759352
 30
0.0
 10
55.33353457393623
 20
-56.24135152632018
 30
0.0
 10
55.33353457393623
 20
-56.24135152632018
 30
0.0
 10
55.33353457393623
 20
-56.24135152632018
 30
0.0
 10
55.37272064483193
 20
-56.27777628073002
 30
0.0
 10
55.37272064483193
 20
-56.27777628073002
 30
0.0
 10
55.37272064483193
 20
-56.27777628073002
 30
0.0
 10
55.39346745328211
 20
-56.2971406721371
 30
0.0
 10
55.39346745328211
 20
-56.2971406721371
 30
0.0
 10
55.39346745328211
 20
-56.2971406721371
 30
0.0
 10
55.43242839773674
 20
-56.33379407058707
 30
0.0
 10
55.43242839773674
 20
-56.33379407058707
 30
0.0
 10
55.43242839773674
 20
-56.33379407058707
 30
0.0
 10
55.47092501891043
 20
-56.37090827471636
 30
0.0
 10
55.47092501891043
 20
-56.37090827471636
 30
0.0
 10
55.47092501891043
 20
-56.37090827471636
 30
0.0
 10
55.48937131655663
 20
-56.38842944339972
 30
0.0
 10
55.48937131655663
 20
-56.38842944339972
 30
0.0
 10
55.48937131655663
 20
-56.38842944339972
 30
0.0
 10
55.45064253374247
 20
-56.35154388330928
 30
0.0
 10
55.45064253374247
 20
-56.35154388330928
 30
0.0
 10
55.45064253374247
 20
-56.35154388330928
 30
0.0
 10
55.41191375092832
 20
-56.31419751753823
 30
0.0
 10
55.41191375092832
 20
-56.31419751753823
 30
0.0
 10
55.41191375092832
 20
-56.31419751753823
 30
0.0
 10
55.37272064483193
 20
-56.27777628073002
 30
0.0
 10
55.37272064483193
 20
-56.27777628073002
 30
0.0
 10
55.37272064483193
 20
-56.27777628073002
 30
0.0
 10
55.33353457393623
 20
-56.24135152632018
 30
0.0
 10
55.33353457393623
 20
-56.24135152632018
 30
0.0
 10
55.33353457393623
 20
-56.24135152632018
 30
0.0
 10
55.29410930619936
 20
-56.20515893355339
 30
0.0
 10
55.29410930619936
 20
-56.20515893355339
 30
0.0
 10
55.29410930619936
 20
-56.20515893355339
 30
0.0
 10
55.25422675038223
 20
-56.16919498482545
 30
0.0
 10
55.25422675038223
 20
-56.16919498482545
 30
0.0
 10
55.25422675038223
 20
-56.16919498482545
 30
0.0
 10
55.21411906812531
 20
-56.13346319773798
 30
0.0
 10
55.21411906812531
 20
-56.13346319773798
 30
0.0
 10
55.21411906812531
 20
-56.13346319773798
 30
0.0
 10
55.19498332075836
 20
-56.11686364041712
 30
0.0
 10
55.19498332075836
 20
-56.11686364041712
 30
0.0
 10
55.19498332075836
 20
-56.11686364041712
 30
0.0
 10
55.15464347686097
 20
-56.0813640149714
 30
0.0
 10
55.15464347686097
 20
-56.0813640149714
 30
0.0
 10
55.15464347686097
 20
-56.0813640149714
 30
0.0
 10
55.11429659776289
 20
-56.04609303356454
 30
0.0
 10
55.11429659776289
 20
-56.04609303356454
 30
0.0
 10
55.11429659776289
 20
-56.04609303356454
 30
0.0
 10
55.09309250123116
 20
-56.02787889756009
 30
0.0
 10
55.09309250123116
 20
-56.02787889756009
 30
0.0
 10
55.09309250123116
 20
-56.02787889756009
 30
0.0
 10
55.48937131655663
 20
-56.38842944339972
 30
0.0
 10
55.48937131655663
 20
-56.38842944339972
 30
0.0
 10
55.48937131655663
 20
-56.38842944339972
 30
0.0
 10
55.55875950636481
 20
-56.4573568275273
 30
0.0
 10
55.55875950636481
 20
-56.4573568275273
 30
0.0
 10
55.55875950636481
 20
-56.4573568275273
 30
0.0
 10
55.74410188297628
 20
-56.64985048619674
 30
0.0
 10
55.74410188297628
 20
-56.64985048619674
 30
0.0
 10
55.74410188297628
 20
-56.64985048619674
 30
0.0
 10
55.91699898859816
 20
-56.84464817327178
 30
0.0
 10
55.91699898859816
 20
-56.84464817327178
 30
0.0
 10
55.91699898859816
 20
-56.84464817327178
 30
0.0
 10
56.07790811130945
 20
-57.04036747170803
 30
0.0
 10
56.07790811130945
 20
-57.04036747170803
 30
0.0
 10
56.07790811130945
 20
-57.04036747170803
 30
0.0
 10
56.18164918876361
 20
-57.17637901723946
 30
0.0
 10
56.18164918876361
 20
-57.17637901723946
 30
0.0
 10
56.18164918876361
 20
-57.17637901723946
 30
0.0
 10
56.31650696129208
 20
-57.36656512990296
 30
0.0
 10
56.31650696129208
 20
-57.36656512990296
 30
0.0
 10
56.31650696129208
 20
-57.36656512990296
 30
0.0
 10
56.43823001310894
 20
-57.5556009871651
 30
0.0
 10
56.43823001310894
 20
-57.5556009871651
 30
0.0
 10
56.43823001310894
 20
-57.5556009871651
 30
0.0
 10
56.54819020845629
 20
-57.74463332682433
 30
0.0
 10
56.54819020845629
 20
-57.74463332682433
 30
0.0
 10
56.54819020845629
 20
-57.74463332682433
 30
0.0
 10
56.56294302545309
 20
-57.77160628837093
 30
0.0
 10
56.56294302545309
 20
-57.77160628837093
 30
0.0
 10
56.56294302545309
 20
-57.77160628837093
 30
0.0
 10
56.65930417680659
 20
-57.96040998399131
 30
0.0
 10
56.65930417680659
 20
-57.96040998399131
 30
0.0
 10
56.65930417680659
 20
-57.96040998399131
 30
0.0
 10
56.74390950689382
 20
-58.14783126256731
 30
0.0
 10
56.74390950689382
 20
-58.14783126256731
 30
0.0
 10
56.74390950689382
 20
-58.14783126256731
 30
0.0
 10
56.81652685407045
 20
-58.33248418945803
 30
0.0
 10
56.81652685407045
 20
-58.33248418945803
 30
0.0
 10
56.81652685407045
 20
-58.33248418945803
 30
0.0
 10
56.87715621833777
 20
-58.51460092630139
 30
0.0
 10
56.87715621833777
 20
-58.51460092630139
 30
0.0
 10
56.87715621833777
 20
-58.51460092630139
 30
0.0
 10
56.92602976133752
 20
-58.69303121769604
 30
0.0
 10
56.92602976133752
 20
-58.69303121769604
 30
0.0
 10
56.92602976133752
 20
-58.69303121769604
 30
0.0
 10
56.9636047711487
 20
-58.86754290200149
 30
0.0
 10
56.9636047711487
 20
-58.86754290200149
 30
0.0
 10
56.9636047711487
 20
-58.86754290200149
 30
0.0
 10
56.98988828297328
 20
-59.03767165593682
 30
0.0
 10
56.98988828297328
 20
-59.03767165593682
 30
0.0
 10
56.98988828297328
 20
-59.03767165593682
 30
0.0
 10
57.0055627113313
 20
-59.20411396442087
 30
0.0
 10
57.0055627113313
 20
-59.20411396442087
 30
0.0
 10
57.0055627113313
 20
-59.20411396442087
 30
0.0
 10
57.01086725306522
 20
-59.36617686013642
 30
0.0
 10
57.01086725306522
 20
-59.36594821609628
 30
0.0
 10
57.01086725306522
 20
-59.57711329885043
 30
0.0
 10
57.15540546249705
 20
-59.76107325841879
 30
0.0
 10
57.36103735947716
 20
-59.81063976874091
 30
0.0
 10
57.42858232656162
 20
-59.82700716442002
 30
0.0
 10
57.48114231501009
 20
-59.88026012018957
 30
0.0
 10
57.49659161692832
 20
-59.94803373131546
 30
0.0
 10
57.49659161692832
 20
-59.94803373131546
 30
0.0
 10
59.75485603827224
 20
-69.88454492445199
 30
0.0
 10
59.75485603827224
 20
-69.88454492445199
 30
0.0
 10
59.75532036155319
 20
-69.88615950313685
 30
0.0
 10
59.75554548799298
 20
-69.88777232302091
 30
0.0
 10
59.75600981127522
 20
-69.88915474006273
 30
0.0
 10
59.75600981127522
 20
-69.88915474006273
 30
0.0
 10
60.88767821199326
 20
-74.4919070091217
 30
0.0
 10
60.88767821199326
 20
-74.4919070091217
 30
0.0
 10
60.88767821199326
 20
-74.4919070091217
 30
0.0
 10
62.03456375298777
 20
-74.48775624039076
 30
0.0
 10
62.03456375298777
 20
-74.48775624039076
 30
0.0
  0
ENDBLK
  5
114
330
111
100
AcDbEntity
  8
0
100
AcDbBlockEnd
  0
BLOCK
  5
123
330
121
100
AcDbEntity
  8
0
100
AcDbBlockBegin
  2
Block_4
 70
     0
 10
0.0
 20
0.0
 30
0.0
  3
Block_4
  1

  0
SPLINE
  5
125
330
121
100
AcDbEntity
  8
Camada 1
 62
    18
420
        0
370
    15
100
AcDbSpline
210
0.0
220
0.0
230
1.0
 70
     9
 71
     3
 72
    29
 73
    25
 74
     0
 42
0.0000000001
 43
0.0000000001
 40
0.0
 40
0.0
 40
0.0
 40
0.0
 40
1.0
 40
1.0
 40
1.0
 40
2.0
 40
2.0
 40
2.0
 40
3.0
 40
3.0
 40
3.0
 40
4.0
 40
4.0
 40
4.0
 40
5.0
 40
5.0
 40
5.0
 40
6.0
 40
6.0
 40
6.0
 40
7.0
 40
7.0
 40
7.0
 40
8.0
 40
8.0
 40
8.0
 40
8.0
 10
79.2564549751943
 20
-56.07264740063719
 30
0.0
 10
79.2564549751943
 20
-56.07264740063719
 30
0.0
 10
80.15712957846888
 20
-56.07264740063719
 30
0.0
 10
80.15712957846888
 20
-56.07264740063719
 30
0.0
 10
80.20738905611208
 20
-56.07264740063719
 30
0.0
 10
80.24796106165124
 20
-56.11322292377669
 30
0.0
 10
80.24796106165124
 20
-56.16324672217778
 30
0.0
 10
80.24796106165124
 20
-56.16324672217778
 30
0.0
 10
80.24796106165124
 20
-57.65823050282167
 30
0.0
 10
80.24796106165124
 20
-57.65823050282167
 30
0.0
 10
80.24796106165124
 20
-57.70687188418095
 30
0.0
 10
80.20992172855782
 20
-57.74698308403822
 30
0.0
 10
80.16128034719983
 20
-57.7495192740843
 30
0.0
 10
80.16128034719983
 20
-57.7495192740843
 30
0.0
 10
79.3956886428935
 20
-57.78963399154318
 30
0.0
 10
79.3956886428935
 20
-57.78963399154318
 30
0.0
 10
79.34751158481645
 20
-57.79217018158798
 30
0.0
 10
79.30624309435588
 20
-57.75620623286132
 30
0.0
 10
79.30209936082562
 20
-57.70825430122407
 30
0.0
 10
79.30209936082562
 20
-57.70825430122407
 30
0.0
 10
79.16746671473695
 20
-56.16970151931433
 30
0.0
 10
79.16746671473695
 20
-56.16970151931433
 30
0.0
 10
79.16285865792573
 20
-56.11760233654776
 30
0.0
 10
79.20388795154643
 20
-56.07264740063719
 30
0.0
 10
79.2564549751943
 20
-56.07264740063719
 30
0.0
  0
SPLINE
  5
126
330
121
100
AcDbEntity
  8
Camada 1
 62
    18
420
        0
370
    15
100
AcDbSpline
210
0.0
220
0.0
230
1.0
 70
     9
 71
     3
 72
    29
 73
    25
 74
     0
 42
0.0000000001
 43
0.0000000001
 40
0.0
 40
0.0
 40
0.0
 40
0.0
 40
1.0
 40
1.0
 40
1.0
 40
2.0
 40
2.0
 40
2.0
 40
3.0
 40
3.0
 40
3.0
 40
4.0
 40
4.0
 40
4.0
 40
5.0
 40
5.0
 40
5.0
 40
6.0
 40
6.0
 40
6.0
 40
7.0
 40
7.0
 40
7.0
 40
8.0
 40
8.0
 40
8.0
 40
8.0
 10
79.35495482772584
 20
-72.34270227736725
 30
0.0
 10
79.35495482772584
 20
-72.34270227736725
 30
0.0
 10
80.65767007614008
 20
-72.34270227736725
 30
0.0
 10
80.65767007614008
 20
-72.34270227736725
 30
0.0
 10
80.73467035368812
 20
-72.34270227736725
 30
0.0
 10
80.79714294068043
 20
-72.40517662315909
 30
0.0
 10
80.79714294068043
 20
-72.48194298026584
 30
0.0
 10
80.79714294068043
 20
-72.48194298026584
 30
0.0
 10
80.79714294068043
 20
-74.35407334646988
 30
0.0
 10
80.79714294068043
 20
-74.35407334646988
 30
0.0
 10
80.79714294068043
 20
-74.42968593057367
 30
0.0
 10
80.73582412669109
 20
-74.49100650336254
 30
0.0
 10
80.6602097837865
 20
-74.49100650336254
 30
0.0
 10
80.6602097837865
 20
-74.49100650336254
 30
0.0
 10
79.43909583453083
 20
-74.49100650336254
 30
0.0
 10
79.43909583453083
 20
-74.49100650336254
 30
0.0
 10
79.36509255270947
 20
-74.49100650336254
 30
0.0
 10
79.30446318844215
 20
-74.43268292630036
 30
0.0
 10
79.30100890463392
 20
-74.35868316208062
 30
0.0
 10
79.30100890463392
 20
-74.35868316208062
 30
0.0
 10
79.21755734755095
 20
-72.48609199019727
 30
0.0
 10
79.21755734755095
 20
-72.48609199019727
 30
0.0
 10
79.21432819018249
 20
-72.4079432160461
 30
0.0
 10
79.27656861553434
 20
-72.34270227736725
 30
0.0
 10
79.35495482772584
 20
-72.34270227736725
 30
0.0
  0
SPLINE
  5
127
330
121
100
AcDbEntity
  8
Camada 1
 62
    18
420
        0
370
    15
100
AcDbSpline
210
0.0
220
0.0
230
1.0
 70
     9
 71
     3
 72
    29
 73
    25
 74
     0
 42
0.0000000001
 43
0.0000000001
 40
0.0
 40
0.0
 40
0.0
 40
0.0
 40
1.0
 40
1.0
 40
1.0
 40
2.0
 40
2.0
 40
2.0
 40
3.0
 40
3.0
 40
3.0
 40
4.0
 40
4.0
 40
4.0
 40
5.0
 40
5.0
 40
5.0
 40
6.0
 40
6.0
 40
6.0
 40
7.0
 40
7.0
 40
7.0
 40
8.0
 40
8.0
 40
8.0
 40
8.0
 10
79.65296595216154
 20
-74.03679456464482
 30
0.0
 10
79.65296595216154
 20
-74.03679456464482
 30
0.0
 10
79.59832354414692
 20
-72.80507680832248
 30
0.0
 10
79.59832354414692
 20
-72.80507680832248
 30
0.0
 10
79.59579087170118
 20
-72.75251506107448
 30
0.0
 10
79.63798097352425
 20
-72.70871565696769
 30
0.0
 10
79.69054096197273
 20
-72.70871565696769
 30
0.0
 10
79.69054096197273
 20
-72.70871565696769
 30
0.0
 10
80.34201466700009
 20
-72.70871565696769
 30
0.0
 10
80.34201466700009
 20
-72.70871565696769
 30
0.0
 10
80.39112037164031
 20
-72.70871565696769
 30
0.0
 10
80.43100292745744
 20
-72.748596453984
 30
0.0
 10
80.43100292745744
 20
-72.7976986410239
 30
0.0
 10
80.43100292745744
 20
-72.7976986410239
 30
0.0
 10
80.43100292745744
 20
-74.03402973055732
 30
0.0
 10
80.43100292745744
 20
-74.03402973055732
 30
0.0
 10
80.43100292745744
 20
-74.08428393180066
 30
0.0
 10
80.39042388671761
 20
-74.125088098979
 30
0.0
 10
80.34017144427508
 20
-74.125088098979
 30
0.0
 10
80.34017144427508
 20
-74.125088098979
 30
0.0
 10
79.74517633478538
 20
-74.125088098979
 30
0.0
 10
79.74517633478538
 20
-74.125088098979
 30
0.0
 10
79.69583846850468
 20
-74.125088098979
 30
0.0
 10
79.65526646296552
 20
-74.0861289133239
 30
0.0
 10
79.65296595216154
 20
-74.03679456464482
 30
0.0
  0
ENDBLK
  5
124
330
121
100
AcDbEntity
  8
0
100
AcDbBlockEnd
  0
BLOCK
  5
130
330
12E
100
AcDbEntity
  8
0
100
AcDbBlockBegin
  2
Block_5
 70
     0
 10
0.0
 20
0.0
 30
0.0
  3
Block_5
  1

  0
SPLINE
  5
132
330
12E
100
AcDbEntity
  8
Camada 1
 62
    18
420
        0
370
    15
100
AcDbSpline
210
0.0
220
0.0
230
1.0
 70
     8
 71
     3
 72
    26
 73
    22
 74
     0
 42
0.0000000001
 43
0.0000000001
 40
0.0
 40
0.0
 40
0.0
 40
0.0
 40
1.0
 40
1.0
 40
1.0
 40
2.0
 40
2.0
 40
2.0
 40
3.0
 40
3.0
 40
3.0
 40
4.0
 40
4.0
 40
4.0
 40
5.0
 40
5.0
 40
5.0
 40
6.0
 40
6.0
 40
6.0
 40
7.0
 40
7.0
 40
7.0
 40
7.0
 10
72.87223497828573
 20
-62.24318371274853
 30
0.0
 10
73.45616371622861
 20
-61.95525403168587
 30
0.0
 10
73.87618633573224
 20
-61.38607811074107
 30
0.0
 10
73.95479767436353
 20
-60.70463093083881
 30
0.0
 10
73.95479767436353
 20
-60.70463093083881
 30
0.0
 10
74.36445040724177
 20
-57.15586085282942
 30
0.0
 10
74.36445040724177
 20
-57.15586085282942
 30
0.0
 10
74.42323654878537
 20
-56.64408513878349
 30
0.0
 10
74.78931324519709
 20
-56.23558617890695
 30
0.0
 10
75.26558933379859
 20
-56.10580078647064
 30
0.0
 10
75.26558933379859
 20
-56.10580078647064
 30
0.0
 10
75.26558933379859
 20
-56.10602943051077
 30
0.0
 10
75.26558933379859
 20
-56.10602943051077
 30
0.0
 10
75.26558933379859
 20
-56.10602943051077
 30
0.0
 10
74.59797687713096
 20
-61.9156036375105
 30
0.0
 10
74.59797687713096
 20
-61.9156036375105
 30
0.0
 10
74.50645594422787
 20
-62.70885423548381
 30
0.0
 10
73.88771703056129
 20
-63.32114186961547
 30
0.0
 10
73.09354130362513
 20
-63.40482207073986
 30
0.0
 10
73.09354130362513
 20
-63.40482207073986
 30
0.0
 10
70.87100866936869
 20
-63.65056868517884
 30
0.0
 10
70.87100866936869
 20
-63.65056868517884
 30
0.0
  0
SPLINE
  5
133
330
12E
100
AcDbEntity
  8
Camada 1
 62
    18
420
        0
370
    15
100
AcDbSpline
210
0.0
220
0.0
230
1.0
 70
     8
 71
     3
 72
    38
 73
    34
 74
     0
 42
0.0000000001
 43
0.0000000001
 40
0.0
 40
0.0
 40
0.0
 40
0.0
 40
1.0
 40
1.0
 40
1.0
 40
2.0
 40
2.0
 40
2.0
 40
3.0
 40
3.0
 40
3.0
 40
4.0
 40
4.0
 40
4.0
 40
5.0
 40
5.0
 40
5.0
 40
6.0
 40
6.0
 40
6.0
 40
7.0
 40
7.0
 40
7.0
 40
8.0
 40
8.0
 40
8.0
 40
9.0
 40
9.0
 40
9.0
 40
10.0
 40
10.0
 40
10.0
 40
11.0
 40
11.0
 40
11.0
 40
11.0
 10
72.09863017976987
 20
-62.07708612912357
 30
0.0
 10
72.87320583605685
 20
-62.02959852076726
 30
0.0
 10
73.50232167154949
 20
-61.43344963827458
 30
0.0
 10
73.59130289680618
 20
-60.66256042743631
 30
0.0
 10
73.59130289680618
 20
-60.66256042743631
 30
0.0
 10
74.0009556296857
 20
-57.11378683182658
 30
0.0
 10
74.0009556296857
 20
-57.11378683182658
 30
0.0
 10
74.0009556296857
 20
-57.11378683182658
 30
0.0
 10
74.00072346804394
 20
-57.11378683182658
 30
0.0
 10
74.00072346804394
 20
-57.11378683182658
 30
0.0
 10
74.09408762367204
 20
-56.30601206089786
 30
0.0
 10
74.77807099361911
 20
-55.6962606168123
 30
0.0
 10
75.59137543272024
 20
-55.6962606168123
 30
0.0
 10
75.59137543272024
 20
-55.6962606168123
 30
0.0
 10
76.42866287284198
 20
-55.6962606168123
 30
0.0
 10
76.42866287284198
 20
-55.6962606168123
 30
0.0
 10
76.42866287284198
 20
-55.6962606168123
 30
0.0
 10
76.42866287284198
 20
-56.17668747414345
 30
0.0
 10
76.42866287284198
 20
-56.17668747414345
 30
0.0
 10
76.42866287284198
 20
-56.17668747414345
 30
0.0
 10
75.83228182870882
 20
-56.17668747414345
 30
0.0
 10
75.83228182870882
 20
-56.17668747414345
 30
0.0
 10
75.71609548026507
 20
-56.17668747414345
 30
0.0
 10
75.61834839426684
 20
-56.26382547667513
 30
0.0
 10
75.60498151191476
 20
-56.37909021375638
 30
0.0
 10
75.60498151191476
 20
-56.37909021375638
 30
0.0
 10
74.96134502106706
 20
-61.95744197927252
 30
0.0
 10
74.96134502106706
 20
-61.95744197927252
 30
0.0
 10
74.85092050243749
 20
-62.91506301896604
 30
0.0
 10
74.0906333398638
 20
-63.66774161140149
 30
0.0
 10
73.1316298831259
 20
-63.76848217552607
 30
0.0
 10
73.1316298831259
 20
-63.76848217552607
 30
0.0
 10
71.68459451651893
 20
-63.92063247269648
 30
0.0
 10
71.68459451651893
 20
-63.92063247269648
 30
0.0
  0
SPLINE
  5
134
330
12E
100
AcDbEntity
  8
Camada 1
 62
    18
420
        0
370
    15
100
AcDbSpline
210
0.0
220
0.0
230
1.0
 70
     8
 71
     3
 72
     8
 73
     4
 74
     0
 42
0.0000000001
 43
0.0000000001
 40
0.0
 40
0.0
 40
0.0
 40
0.0
 40
1.0
 40
1.0
 40
1.0
 40
1.0
 10
71.68448195329903
 20
-63.92069930710809
 30
0.0
 10
71.57866549148066
 20
-63.93176567865619
 30
0.0
 10
71.4942923230352
 20
-64.01452778601843
 30
0.0
 10
71.48115056712291
 20
-64.12034073023516
 30
0.0
  0
SPLINE
  5
135
330
12E
100
AcDbEntity
  8
Camada 1
 62
    18
420
        0
370
    15
100
AcDbSpline
210
0.0
220
0.0
230
1.0
 70
     8
 71
     3
 72
     8
 73
     4
 74
     0
 42
0.0000000001
 43
0.0000000001
 40
0.0
 40
0.0
 40
0.0
 40
0.0
 40
1.0
 40
1.0
 40
1.0
 40
1.0
 10
71.80723917969828
 20
-62.09488518825441
 30
0.0
 10
71.7521394836034
 20
-62.09834650726461
 30
0.0
 10
71.70465187524837
 20
-62.13407829435079
 30
0.0
 10
71.68620557760345
 20
-62.18617747711865
 30
0.0
  0
SPLINE
  5
136
330
12E
100
AcDbEntity
  8
Camada 1
 62
    18
420
        0
370
    15
100
AcDbSpline
210
0.0
220
0.0
230
1.0
 70
     8
 71
     3
 72
     8
 73
     4
 74
     0
 42
0.0000000001
 43
0.0000000001
 40
0.0
 40
0.0
 40
0.0
 40
0.0
 40
1.0
 40
1.0
 40
1.0
 40
1.0
 10
71.38458539493296
 20
-64.24865224801179
 30
0.0
 10
71.43068706864453
 20
-64.24865224801179
 30
0.0
 10
71.46988017473963
 20
-64.21430639556906
 30
0.0
 10
71.47517768127286
 20
-64.16819768665679
 30
0.0
  0
ENDBLK
  5
131
330
12E
100
AcDbEntity
  8
0
100
AcDbBlockEnd
  0
ENDSEC
  0
SECTION
  2
ENTITIES
  0
INSERT
  5
7A
330
70
100
AcDbEntity
  8
Camada 1
100
AcDbBlockReference
  2
Block_0
 10
0.0
 20
0.0
 30
0.0
  0
ENDSEC
  0
SECTION
  2
OBJECTS
  0
DICTIONARY
  5
C
330
0
100
AcDbDictionary
281
     1
  3
ACAD_COLOR
350
63
  3
ACAD_DETAILVIEWSTYLE
350
6A
  3
ACAD_GROUP
350
D
  3
ACAD_LAYOUT
350
62
  3
ACAD_MATERIAL
350
10
  3
ACAD_MLEADERSTYLE
350
66
  3
ACAD_MLINESTYLE
350
5F
  3
ACAD_PLOTSETTINGS
350
61
  3
ACAD_PLOTSTYLENAME
350
E
  3
ACAD_SCALELIST
350
42
  3
ACAD_SECTIONVIEWSTYLE
350
68
  3
ACAD_TABLESTYLE
350
64
  3
ACAD_VISUALSTYLE
350
29
  3
ACDB_RECOMPOSE_DATA
350
16B
  3
AcDbVariableDictionary
350
163
  0
DICTIONARY
  5
63
102
{ACAD_REACTORS
330
C
102
}
330
C
100
AcDbDictionary
281
     1
  0
DICTIONARY
  5
6A
102
{ACAD_REACTORS
330
C
102
}
330
C
100
AcDbDictionary
281
     1
  3
Imperial24
350
6B
  0
DICTIONARY
  5
D
102
{ACAD_REACTORS
330
C
102
}
330
C
100
AcDbDictionary
281
     1
  0
DICTIONARY
  5
62
102
{ACAD_REACTORS
330
C
102
}
330
C
100
AcDbDictionary
281
     1
  3
Layout1
350
6F
  3
Layout2
350
77
  3
Model
350
73
  0
DICTIONARY
  5
10
102
{ACAD_REACTORS
330
C
102
}
330
C
100
AcDbDictionary
281
     1
  3
ByBlock
350
19
  3
ByLayer
350
11
  3
Global
350
21
  0
DICTIONARY
  5
66
102
{ACAD_REACTORS
330
C
102
}
330
C
100
AcDbDictionary
281
     1
  3
Standard
350
67
  0
DICTIONARY
  5
5F
102
{ACAD_REACTORS
330
C
102
}
330
C
100
AcDbDictionary
281
     1
  3
Standard
350
60
  0
DICTIONARY
  5
61
102
{ACAD_REACTORS
330
C
102
}
330
C
100
AcDbDictionary
281
     1
  0
ACDBDICTIONARYWDFLT
  5
E
102
{ACAD_REACTORS
330
C
102
}
330
C
100
AcDbDictionary
281
     1
  3
Normal
350
F
100
AcDbDictionaryWithDefault
340
F
  0
DICTIONARY
  5
42
102
{ACAD_REACTORS
330
C
102
}
330
C
100
AcDbDictionary
281
     1
  3
A0
350
43
  3
A1
350
44
  3
A2
350
45
  3
A3
350
46
  3
A4
350
47
  3
A5
350
48
  3
A6
350
49
  3
A7
350
4A
  3
A8
350
4B
  3
A9
350
4C
  3
B0
350
4D
  3
B1
350
4E
  3
B2
350
4F
  3
B3
350
50
  3
B4
350
51
  3
B5
350
52
  3
B6
350
53
  0
DICTIONARY
  5
68
102
{ACAD_REACTORS
330
C
102
}
330
C
100
AcDbDictionary
281
     1
  3
Imperial24
350
69
  0
DICTIONARY
  5
64
102
{ACAD_REACTORS
330
C
102
}
330
C
100
AcDbDictionary
281
     1
  3
Standard
350
65
  0
DICTIONARY
  5
29
102
{ACAD_REACTORS
330
C
102
}
330
C
100
AcDbDictionary
281
     1
  3
2dWireframe
350
2F
  3
Basic
350
2E
  3
Brighten
350
35
  3
ColorChange
350
39
  3
Conceptual
350
32
  3
Dim
350
34
  3
EdgeColorOff
350
41
  3
Facepattern
350
38
  3
Flat
350
2A
  3
FlatWithEdges
350
2B
  3
Gouraud
350
2C
  3
GouraudWithEdges
350
2D
  3
Hidden
350
31
  3
JitterOff
350
3F
  3
Linepattern
350
37
  3
OverhangOff
350
40
  3
Realistic
350
33
  3
Shaded
350
3E
  3
Shaded with edges
350
3D
  3
Shades of Gray
350
3A
  3
Sketchy
350
3B
  3
Thicken
350
36
  3
Wireframe
350
30
  3
X-Ray
350
3C
  0
XRECORD
  5
16B
102
{ACAD_REACTORS
330
C
102
}
330
C
100
AcDbXrecord
280
     1
 90
        1
330
65
  0
DICTIONARY
  5
163
102
{ACAD_REACTORS
330
C
102
}
330
C
100
AcDbDictionary
281
     1
  3
CANNOSCALE
350
168
  3
CMLEADERSTYLE
350
165
  3
CTABLESTYLE
350
164
  3
CVIEWDETAILSTYLE
350
166
  3
CVIEWSECTIONSTYLE
350
167
  0
ACDBDETAILVIEWSTYLE
  5
6B
102
{ACAD_REACTORS
330
6A
102
}
330
6A
100
AcDbModelDocViewStyle
 70
     0
  3
Imperial24
290
     1
300
Imperial24
 90
        0
100
AcDbDetailViewStyle
 70
     0
 71
     0
 90
        3
 71
     1
340
55
 62
   256
 40
0.24
340
0
 62
   256
 40
0.24
300

 40
0.36
280
     3
 71
     2
340
5D
 90
       25
 62
   256
 71
     3
340
55
 62
   256
 40
0.24
 90
        1
 40
0.75
 90
        1
300
%<\AcVar ViewType \f "%tc1">% %<\AcVar ViewDetailId>%\PSCALE %<\AcVar ViewScale \f "%sn">%
 71
     4
340
5D
 90
       25
 62
   256
340
5D
 90
       25
 62
   256
280
     0
  0
LAYOUT
  5
6F
102
{ACAD_REACTORS
330
62
102
}
330
62
100
AcDbPlotSettings
  1

  2

  4

  6

 40
0.0
 41
0.0
 42
0.0
 43
0.0
 44
0.0
 45
0.0
 46
0.0
 47
0.0
 48
0.0
 49
0.0
140
0.0
141
0.0
142
1.0
143
1.0
 70
   688
 72
     0
 73
     0
 74
     5
  7

 75
    16
147
1.0
 76
     0
 77
     2
 78
   300
148
0.0
149
0.0
100
AcDbLayout
  1
Layout1
 70
     1
 71
     1
 10
0.0
 20
0.0
 11
12.0
 21
9.0
 12
0.0
 22
0.0
 32
0.0
 14
0.0
 24
0.0
 34
0.0
 15
0.0
 25
0.0
 35
0.0
146
0.0
 13
0.0
 23
0.0
 33
0.0
 16
1.0
 26
0.0
 36
0.0
 17
0.0
 27
1.0
 37
0.0
 76
     0
330
6C
  0
LAYOUT
  5
77
102
{ACAD_REACTORS
330
62
102
}
330
62
100
AcDbPlotSettings
  1

  2

  4

  6

 40
0.0
 41
0.0
 42
0.0
 43
0.0
 44
0.0
 45
0.0
 46
0.0
 47
0.0
 48
0.0
 49
0.0
140
0.0
141
0.0
142
1.0
143
1.0
 70
   688
 72
     0
 73
     0
 74
     5
  7

 75
    16
147
1.0
 76
     0
 77
     2
 78
   300
148
0.0
149
0.0
100
AcDbLayout
  1
Layout2
 70
     1
 71
     2
 10
0.0
 20
0.0
 11
12.0
 21
9.0
 12
0.0
 22
0.0
 32
0.0
 14
0.0
 24
0.0
 34
0.0
 15
0.0
 25
0.0
 35
0.0
146
0.0
 13
0.0
 23
0.0
 33
0.0
 16
1.0
 26
0.0
 36
0.0
 17
0.0
 27
1.0
 37
0.0
 76
     0
330
74
  0
LAYOUT
  5
73
102
{ACAD_REACTORS
330
62
102
}
330
62
100
AcDbPlotSettings
  1

  2

  4

  6

 40
0.0
 41
0.0
 42
0.0
 43
0.0
 44
0.0
 45
0.0
 46
0.0
 47
0.0
 48
0.0
 49
0.0
140
0.0
141
0.0
142
1.0
143
1.0
 70
  1712
 72
     0
 73
     0
 74
     0
  7

 75
     0
147
1.0
 76
     0
 77
     2
 78
   300
148
0.0
149
0.0
100
AcDbLayout
  1
Model
 70
     1
 71
     0
 10
0.0
 20
0.0
 11
12.0
 21
9.0
 12
0.0
 22
0.0
 32
0.0
 14
0.0
 24
0.0
 34
0.0
 15
0.0
 25
0.0
 35
0.0
146
0.0
 13
0.0
 23
0.0
 33
0.0
 16
1.0
 26
0.0
 36
0.0
 17
0.0
 27
1.0
 37
0.0
 76
     0
330
70
  0
MATERIAL
  5
19
102
{ACAD_XDICTIONARY
360
1A
102
}
102
{ACAD_REACTORS
330
10
102
}
330
10
100
AcDbMaterial
  1
ByBlock
 72
     0
 43
0.0208333333333333
 43
0.0
 43
0.0
 43
0.0
 43
0.0
 43
0.0208333333333333
 43
0.0
 43
0.0
 43
0.0
 43
0.0
 43
1.0
 43
0.0
 43
0.0
 43
0.0
 43
0.0
 43
1.0
 77
     0
 47
0.0208333333333333
 47
0.0
 47
0.0
 47
0.0
 47
0.0
 47
0.0208333333333333
 47
0.0
 47
0.0
 47
0.0
 47
0.0
 47
1.0
 47
0.0
 47
0.0
 47
0.0
 47
0.0
 47
1.0
171
     0
 49
0.0208333333333333
 49
0.0
 49
0.0
 49
0.0
 49
0.0
 49
0.0208333333333333
 49
0.0
 49
0.0
 49
0.0
 49
0.0
 49
1.0
 49
0.0
 49
0.0
 49
0.0
 49
0.0
 49
1.0
175
     0
142
0.0208333333333333
142
0.0
142
0.0
142
0.0
142
0.0
142
0.0208333333333333
142
0.0
142
0.0
142
0.0
142
0.0
142
1.0
142
0.0
142
0.0
142
0.0
142
0.0
142
1.0
179
     0
144
0.0208333333333333
144
0.0
144
0.0
144
0.0
144
0.0
144
0.0208333333333333
144
0.0
144
0.0
144
0.0
144
0.0
144
1.0
144
0.0
144
0.0
144
0.0
144
0.0
144
1.0
147
0.0208333333333333
147
0.0
147
0.0
147
0.0
147
0.0
147
0.0208333333333333
147
0.0
147
0.0
147
0.0
147
0.0
147
1.0
147
0.0
147
0.0
147
0.0
147
0.0
147
1.0
  0
MATERIAL
  5
11
102
{ACAD_XDICTIONARY
360
12
102
}
102
{ACAD_REACTORS
330
10
102
}
330
10
100
AcDbMaterial
  1
ByLayer
 72
     0
 43
0.0208333333333333
 43
0.0
 43
0.0
 43
0.0
 43
0.0
 43
0.0208333333333333
 43
0.0
 43
0.0
 43
0.0
 43
0.0
 43
1.0
 43
0.0
 43
0.0
 43
0.0
 43
0.0
 43
1.0
 77
     0
 47
0.0208333333333333
 47
0.0
 47
0.0
 47
0.0
 47
0.0
 47
0.0208333333333333
 47
0.0
 47
0.0
 47
0.0
 47
0.0
 47
1.0
 47
0.0
 47
0.0
 47
0.0
 47
0.0
 47
1.0
171
     0
 49
0.0208333333333333
 49
0.0
 49
0.0
 49
0.0
 49
0.0
 49
0.0208333333333333
 49
0.0
 49
0.0
 49
0.0
 49
0.0
 49
1.0
 49
0.0
 49
0.0
 49
0.0
 49
0.0
 49
1.0
175
     0
142
0.0208333333333333
142
0.0
142
0.0
142
0.0
142
0.0
142
0.0208333333333333
142
0.0
142
0.0
142
0.0
142
0.0
142
1.0
142
0.0
142
0.0
142
0.0
142
0.0
142
1.0
179
     0
144
0.0208333333333333
144
0.0
144
0.0
144
0.0
144
0.0
144
0.0208333333333333
144
0.0
144
0.0
144
0.0
144
0.0
144
1.0
144
0.0
144
0.0
144
0.0
144
0.0
144
1.0
147
0.0208333333333333
147
0.0
147
0.0
147
0.0
147
0.0
147
0.0208333333333333
147
0.0
147
0.0
147
0.0
147
0.0
147
1.0
147
0.0
147
0.0
147
0.0
147
0.0
147
1.0
  0
MATERIAL
  5
21
102
{ACAD_XDICTIONARY
360
22
102
}
102
{ACAD_REACTORS
330
10
102
}
330
10
100
AcDbMaterial
  1
Global
 72
     0
 43
0.0208333333333333
 43
0.0
 43
0.0
 43
0.0
 43
0.0
 43
0.0208333333333333
 43
0.0
 43
0.0
 43
0.0
 43
0.0
 43
1.0
 43
0.0
 43
0.0
 43
0.0
 43
0.0
 43
1.0
 77
     0
 47
0.0208333333333333
 47
0.0
 47
0.0
 47
0.0
 47
0.0
 47
0.0208333333333333
 47
0.0
 47
0.0
 47
0.0
 47
0.0
 47
1.0
 47
0.0
 47
0.0
 47
0.0
 47
0.0
 47
1.0
171
     0
 49
0.0208333333333333
 49
0.0
 49
0.0
 49
0.0
 49
0.0
 49
0.0208333333333333
 49
0.0
 49
0.0
 49
0.0
 49
0.0
 49
1.0
 49
0.0
 49
0.0
 49
0.0
 49
0.0
 49
1.0
175
     0
142
0.0208333333333333
142
0.0
142
0.0
142
0.0
142
0.0
142
0.0208333333333333
142
0.0
142
0.0
142
0.0
142
0.0
142
1.0
142
0.0
142
0.0
142
0.0
142
0.0
142
1.0
179
     0
144
0.0208333333333333
144
0.0
144
0.0
144
0.0
144
0.0
144
0.0208333333333333
144
0.0
144
0.0
144
0.0
144
0.0
144
1.0
144
0.0
144
0.0
144
0.0
144
0.0
144
1.0
147
0.0208333333333333
147
0.0
147
0.0
147
0.0
147
0.0
147
0.0208333333333333
147
0.0
147
0.0
147
0.0
147
0.0
147
1.0
147
0.0
147
0.0
147
0.0
147
0.0
147
1.0
  0
MLEADERSTYLE
  5
67
102
{ACAD_REACTORS
330
66
102
}
330
66
100
AcDbMLeaderStyle
179
     2
170
     2
171
     1
172
     0
 90
        2
 40
0.0
 41
0.0
173
     1
 91
-1056964608
340
5B
 92
       -2
290
     1
 42
0.09
291
     1
 43
0.36
  3
Standard
 44
0.18
300

342
55
174
     1
178
     6
175
     1
176
     0
 93
-1056964608
 45
0.18
292
     0
297
     0
 46
0.18
 94
-1056964608
 47
1.0
 49
1.0
140
1.0
293
     1
141
0.0
294
     1
177
     0
142
1.0
295
     1
296
     0
143
0.125
271
     0
272
     9
273
     9
298
     1
  0
MLINESTYLE
  5
60
102
{ACAD_REACTORS
330
5F
102
}
330
5F
100
AcDbMlineStyle
  2
STANDARD
 70
     0
  3

 62
   256
 51
90.0
 52
90.0
 71
     2
 49
0.5
 62
   256
  6
BYLAYER
 49
-0.5
 62
   256
  6
BYLAYER
  0
ACDBPLACEHOLDER
  5
F
102
{ACAD_REACTORS
330
E
102
}
330
E
  0
SCALE
  5
43
102
{ACAD_REACTORS
330
42
102
}
330
42
100
AcDbScale
 70
     0
300
1:1
140
1.0
141
1.0
290
     1
  0
SCALE
  5
44
102
{ACAD_REACTORS
330
42
102
}
330
42
100
AcDbScale
 70
     0
300
1/128" = 1'-0"
140
0.0078125
141
12.0
290
     0
  0
SCALE
  5
45
102
{ACAD_REACTORS
330
42
102
}
330
42
100
AcDbScale
 70
     0
300
1/64" = 1'-0"
140
0.015625
141
12.0
290
     0
  0
SCALE
  5
46
102
{ACAD_REACTORS
330
42
102
}
330
42
100
AcDbScale
 70
     0
300
1/32" = 1'-0"
140
0.03125
141
12.0
290
     0
  0
SCALE
  5
47
102
{ACAD_REACTORS
330
42
102
}
330
42
100
AcDbScale
 70
     0
300
1/16" = 1'-0"
140
0.0625
141
12.0
290
     0
  0
SCALE
  5
48
102
{ACAD_REACTORS
330
42
102
}
330
42
100
AcDbScale
 70
     0
300
3/32" = 1'-0"
140
0.09375
141
12.0
290
     0
  0
SCALE
  5
49
102
{ACAD_REACTORS
330
42
102
}
330
42
100
AcDbScale
 70
     0
300
1/8" = 1'-0"
140
0.125
141
12.0
290
     0
  0
SCALE
  5
4A
102
{ACAD_REACTORS
330
42
102
}
330
42
100
AcDbScale
 70
     0
300
3/16" = 1'-0"
140
0.1875
141
12.0
290
     0
  0
SCALE
  5
4B
102
{ACAD_REACTORS
330
42
102
}
330
42
100
AcDbScale
 70
     0
300
1/4" = 1'-0"
140
0.25
141
12.0
290
     0
  0
SCALE
  5
4C
102
{ACAD_REACTORS
330
42
102
}
330
42
100
AcDbScale
 70
     0
300
3/8" = 1'-0"
140
0.375
141
12.0
290
     0
  0
SCALE
  5
4D
102
{ACAD_REACTORS
330
42
102
}
330
42
100
AcDbScale
 70
     0
300
1/2" = 1'-0"
140
0.5
141
12.0
290
     0
  0
SCALE
  5
4E
102
{ACAD_REACTORS
330
42
102
}
330
42
100
AcDbScale
 70
     0
300
3/4" = 1'-0"
140
0.75
141
12.0
290
     0
  0
SCALE
  5
4F
102
{ACAD_REACTORS
330
42
102
}
330
42
100
AcDbScale
 70
     0
300
1" = 1'-0"
140
1.0
141
12.0
290
     0
  0
SCALE
  5
50
102
{ACAD_REACTORS
330
42
102
}
330
42
100
AcDbScale
 70
     0
300
1-1/2" = 1'-0"
140
1.5
141
12.0
290
     0
  0
SCALE
  5
51
102
{ACAD_REACTORS
330
42
102
}
330
42
100
AcDbScale
 70
     0
300
3" = 1'-0"
140
3.0
141
12.0
290
     0
  0
SCALE
  5
52
102
{ACAD_REACTORS
330
42
102
}
330
42
100
AcDbScale
 70
     0
300
6" = 1'-0"
140
6.0
141
12.0
290
     0
  0
SCALE
  5
53
102
{ACAD_REACTORS
330
42
102
}
330
42
100
AcDbScale
 70
     0
300
1'-0" = 1'-0"
140
12.0
141
12.0
290
     0
  0
ACDBSECTIONVIEWSTYLE
  5
69
102
{ACAD_REACTORS
330
68
102
}
330
68
100
AcDbModelDocViewStyle
 70
     0
  3
Imperial24
290
     1
300
Imperial24
 90
        0
100
AcDbSectionViewStyle
 70
     0
 71
     0
 90
       78
 71
     1
340
55
 62
   256
 40
0.24
340
0
340
0
 62
   256
 40
0.24
300
I, O, Q, S, X, Z
 40
0.48
 90
        3
 40
0.18
 90
        1
 71
     2
340
5D
 90
       25
 62
   256
340
5D
 90
       50
 62
   256
 40
0.24
 40
0.0
 40
0.24
 71
     3
340
55
 62
   256
 40
0.24
 90
        1
 40
0.75
 90
        1
300
%<\AcVar ViewType \f "%tc1">% %<\AcVar ViewSectionStartId>%-%<\AcVar ViewSectionEndId>%\PSCALE %<\AcVar ViewScale \f "%sn">%
 71
     4
 62
   256
 62
   257
300
ANSI31
 40
1.0
 90
        0
290
     0
290
     0
 90
        6
 40
0.0
 40
1.570796326794896
 40
0.2617993877991494
 40
1.308996938995747
 40
-0.2617993877991494
 40
1.832595714594046
  0
TABLESTYLE
  5
65
102
{ACAD_XDICTIONARY
360
169
102
}
102
{ACAD_REACTORS
330
64
102
}
330
64
100
AcDbTableStyle
280
     0
  3
Standard
 70
     0
 71
     0
 40
0.06
 41
0.06
280
     0
281
     0
  7
Standard
140
0.18
170
     2
 62
     0
 63
     7
283
     0
 90
      512
 91
        0
  1

274
    -2
284
     1
 64
     0
275
    -2
285
     1
 65
     0
276
    -2
286
     1
 66
     0
277
    -2
287
     1
 67
     0
278
    -2
288
     1
 68
     0
279
    -2
289
     1
 69
     0
  7
Standard
140
0.25
170
     5
 62
     0
 63
     7
283
     0
 90
      512
 91
        0
  1

274
    -2
284
     1
 64
     0
275
    -2
285
     1
 65
     0
276
    -2
286
     1
 66
     0
277
    -2
287
     1
 67
     0
278
    -2
288
     1
 68
     0
279
    -2
289
     1
 69
     0
  7
Standard
140
0.18
170
     5
 62
     0
 63
     7
283
     0
 90
      512
 91
        0
  1

274
    -2
284
     1
 64
     0
275
    -2
285
     1
 65
     0
276
    -2
286
     1
 66
     0
277
    -2
287
     1
 67
     0
278
    -2
288
     1
 68
     0
279
    -2
289
     1
 69
     0
  0
VISUALSTYLE
  5
2F
102
{ACAD_REACTORS
330
29
102
}
330
29
100
AcDbVisualStyle
  2
2dWireframe
 70
     4
177
     3
291
     0
 70
    58
 90
        0
176
     1
 90
        2
176
     1
 90
        0
176
     1
 90
        0
176
     1
 40
0.6
176
     1
 40
30.0
176
     1
 62
     7
420
 16777215
176
     1
 90
        1
176
     1
 90
        4
176
     1
 62
     7
176
     1
 62
   257
176
     1
 90
        1
176
     1
 90
        1
176
     1
 40
1.0
176
     1
 90
        0
176
     1
 62
   257
176
     1
 40
1.0
176
     1
 90
        1
176
     1
 90
        6
176
     1
 90
        2
176
     1
 62
     7
176
     1
 90
        5
176
     1
 90
        0
176
     1
 90
        0
176
     1
290
     0
176
     1
 90
        1
176
     1
 40
0.0
176
     1
 90
        0
176
     1
290
     1
176
     1
290
     1
176
     1
290
     0
176
     1
290
     0
176
     1
290
     0
176
     1
290
     0
176
     1
290
     0
176
     1
290
     0
176
     1
290
     0
176
     1
 90
       50
176
     1
 40
0.0
176
     1
 40
1.0
176
     1
 90
        0
176
     1
 62
    18
420
        0
176
     1
 90
       50
176
     1
 90
        3
176
     1
 62
     5
420
      255
176
     1
290
     0
176
     1
 90
       50
176
     1
 90
       50
176
     1
 90
       50
176
     1
290
     0
176
     1
 90
       50
176
     1
 62
   256
176
     0
 40
1.0
176
     0
 90
        2
176
     1
  1
strokes_ogs.tif
176
     1
290
     0
176
     1
 40
1.0
176
     1
 40
1.0
176
     1
  0
VISUALSTYLE
  5
2E
102
{ACAD_REACTORS
330
29
102
}
330
29
100
AcDbVisualStyle
  2
Basic
 70
     7
177
     3
291
     1
 70
    58
 90
        1
176
     1
 90
        0
176
     1
 90
        1
176
     1
 90
        0
176
     1
 40
0.6
176
     1
 40
30.0
176
     1
 62
     7
420
 16777215
176
     1
 90
        0
176
     1
 90
        4
176
     1
 62
     7
176
     1
 62
   257
176
     1
 90
        1
176
     1
 90
        1
176
     1
 40
1.0
176
     1
 90
        8
176
     1
 62
     7
176
     1
 40
1.0
176
     1
 90
        1
176
     1
 90
        6
176
     1
 90
        2
176
     1
 62
     7
176
     1
 90
        5
176
     1
 90
        0
176
     1
 90
        0
176
     1
290
     0
176
     1
 90
        1
176
     1
 40
0.0
176
     1
 90
        0
176
     1
290
     0
176
     1
290
     1
176
     1
290
     1
176
     1
290
     0
176
     1
290
     0
176
     1
290
     0
176
     1
290
     0
176
     1
290
     0
176
     1
290
     0
176
     1
 90
       50
176
     1
 40
0.0
176
     1
 40
1.0
176
     1
 90
        0
176
     1
 62
    18
420
        0
176
     1
 90
       50
176
     1
 90
        3
176
     1
 62
     5
420
      255
176
     1
290
     0
176
     1
 90
       50
176
     1
 90
       50
176
     1
 90
       50
176
     1
290
     0
176
     1
 90
       50
176
     1
 62
   256
176
     0
 40
1.0
176
     0
 90
        2
176
     1
  1
strokes_ogs.tif
176
     1
290
     0
176
     1
 40
1.0
176
     1
 40
1.0
176
     1
  0
VISUALSTYLE
  5
35
102
{ACAD_REACTORS
330
29
102
}
330
29
100
AcDbVisualStyle
  2
Brighten
 70
    12
177
     3
291
     1
 70
    58
 90
        2
176
     1
 90
        2
176
     1
 90
        0
176
     1
 90
        0
176
     1
 40
0.6
176
     1
 40
30.0
176
     1
 62
     7
420
 16777215
176
     1
 90
        1
176
     1
 90
        4
176
     1
 62
     7
176
     1
 62
   257
176
     1
 90
        1
176
     1
 90
        1
176
     1
 40
1.0
176
     1
 90
        8
176
     1
 62
     7
176
     1
 40
1.0
176
     1
 90
        1
176
     1
 90
        6
176
     1
 90
        2
176
     1
 62
     7
176
     1
 90
        5
176
     1
 90
        0
176
     1
 90
        0
176
     1
290
     0
176
     1
 90
        1
176
     1
 40
50.0
176
     1
 90
        0
176
     1
290
     0
176
     1
290
     1
176
     1
290
     1
176
     1
290
     0
176
     1
290
     0
176
     1
290
     0
176
     1
290
     0
176
     1
290
     0
176
     1
290
     0
176
     1
 90
       50
176
     1
 40
0.0
176
     1
 40
1.0
176
     1
 90
        0
176
     1
 62
    18
420
        0
176
     1
 90
       50
176
     1
 90
        3
176
     1
 62
     5
420
      255
176
     1
290
     0
176
     1
 90
       50
176
     1
 90
       50
176
     1
 90
       50
176
     1
290
     0
176
     1
 90
       50
176
     1
 62
   256
176
     0
 40
1.0
176
     0
 90
        2
176
     1
  1
strokes_ogs.tif
176
     1
290
     0
176
     1
 40
1.0
176
     1
 40
1.0
176
     1
  0
VISUALSTYLE
  5
39
102
{ACAD_REACTORS
330
29
102
}
330
29
100
AcDbVisualStyle
  2
ColorChange
 70
    16
177
     3
291
     1
 70
    58
 90
        2
176
     1
 90
        2
176
     1
 90
        3
176
     1
 90
        0
176
     1
 40
0.6
176
     1
 40
30.0
176
     1
 62
     8
420
  8421504
176
     1
 90
        1
176
     1
 90
        4
176
     1
 62
     7
176
     1
 62
   257
176
     1
 90
        1
176
     1
 90
        1
176
     1
 40
1.0
176
     1
 90
        8
176
     1
 62
     8
420
  8421504
176
     1
 40
1.0
176
     1
 90
        1
176
     1
 90
        6
176
     1
 90
        2
176
     1
 62
     7
176
     1
 90
        5
176
     1
 90
        0
176
     1
 90
        0
176
     1
290
     0
176
     1
 90
        1
176
     1
 40
0.0
176
     1
 90
        0
176
     1
290
     0
176
     1
290
     1
176
     1
290
     1
176
     1
290
     0
176
     1
290
     0
176
     1
290
     0
176
     1
290
     0
176
     1
290
     0
176
     1
290
     0
176
     1
 90
       50
176
     1
 40
0.0
176
     1
 40
1.0
176
     1
 90
        0
176
     1
 62
    18
420
        0
176
     1
 90
       50
176
     1
 90
        3
176
     1
 62
     5
420
      255
176
     1
290
     0
176
     1
 90
       50
176
     1
 90
       50
176
     1
 90
       50
176
     1
290
     0
176
     1
 90
       50
176
     1
 62
   256
176
     0
 40
1.0
176
     0
 90
        2
176
     1
  1
strokes_ogs.tif
176
     1
290
     0
176
     1
 40
1.0
176
     1
 40
1.0
176
     1
  0
VISUALSTYLE
  5
32
102
{ACAD_REACTORS
330
29
102
}
330
29
100
AcDbVisualStyle
  2
Conceptual
 70
     9
177
     3
291
     0
 70
    58
 90
        3
176
     1
 90
        2
176
     1
 90
        0
176
     1
 90
        0
176
     1
 40
0.6
176
     1
 40
30.0
176
     1
 62
     7
420
 16777215
176
     1
 90
        2
176
     1
 90
        2
176
     1
 62
     7
176
     1
 62
   257
176
     1
 90
        1
176
     1
 90
        1
176
     1
 40
179.0
176
     1
 90
        8
176
     1
 62
     7
176
     1
 40
1.0
176
     1
 90
        1
176
     1
 90
        6
176
     1
 90
        2
176
     1
 62
     7
176
     1
 90
        3
176
     1
 90
        0
176
     1
 90
        0
176
     1
290
     0
176
     1
 90
        1
176
     1
 40
0.0
176
     1
 90
        0
176
     1
290
     0
176
     1
290
     1
176
     1
290
     1
176
     1
290
     0
176
     1
290
     0
176
     1
290
     0
176
     1
290
     0
176
     1
290
     0
176
     1
290
     0
176
     1
 90
       50
176
     1
 40
0.0
176
     1
 40
1.0
176
     1
 90
        0
176
     1
 62
    18
420
        0
176
     1
 90
       50
176
     1
 90
        3
176
     1
 62
     5
420
      255
176
     1
290
     0
176
     1
 90
       50
176
     1
 90
       50
176
     1
 90
       50
176
     1
290
     0
176
     1
 90
       50
176
     1
 62
   256
176
     0
 40
1.0
176
     0
 90
        2
176
     1
  1
strokes_ogs.tif
176
     1
290
     0
176
     1
 40
1.0
176
     1
 40
1.0
176
     1
  0
VISUALSTYLE
  5
34
102
{ACAD_REACTORS
330
29
102
}
330
29
100
AcDbVisualStyle
  2
Dim
 70
    11
177
     3
291
     1
 70
    58
 90
        2
176
     1
 90
        2
176
     1
 90
        0
176
     1
 90
        0
176
     1
 40
0.6
176
     1
 40
30.0
176
     1
 62
     7
420
 16777215
176
     1
 90
        1
176
     1
 90
        4
176
     1
 62
     7
176
     1
 62
   257
176
     1
 90
        1
176
     1
 90
        1
176
     1
 40
1.0
176
     1
 90
        8
176
     1
 62
     7
176
     1
 40
1.0
176
     1
 90
        1
176
     1
 90
        6
176
     1
 90
        2
176
     1
 62
     7
176
     1
 90
        5
176
     1
 90
        0
176
     1
 90
        0
176
     1
290
     0
176
     1
 90
        1
176
     1
 40
-50.0
176
     1
 90
        0
176
     1
290
     0
176
     1
290
     1
176
     1
290
     1
176
     1
290
     0
176
     1
290
     0
176
     1
290
     0
176
     1
290
     0
176
     1
290
     0
176
     1
290
     0
176
     1
 90
       50
176
     1
 40
0.0
176
     1
 40
1.0
176
     1
 90
        0
176
     1
 62
    18
420
        0
176
     1
 90
       50
176
     1
 90
        3
176
     1
 62
     5
420
      255
176
     1
290
     0
176
     1
 90
       50
176
     1
 90
       50
176
     1
 90
       50
176
     1
290
     0
176
     1
 90
       50
176
     1
 62
   256
176
     0
 40
1.0
176
     0
 90
        2
176
     1
  1
strokes_ogs.tif
176
     1
290
     0
176
     1
 40
1.0
176
     1
 40
1.0
176
     1
  0
VISUALSTYLE
  5
41
102
{ACAD_REACTORS
330
29
102
}
330
29
100
AcDbVisualStyle
  2
EdgeColorOff
 70
    22
177
     3
291
     1
 70
    58
 90
        2
176
     0
 90
        2
176
     0
 90
        0
176
     0
 90
        0
176
     0
 40
0.6
176
     0
 40
30.0
176
     0
 62
     7
420
 16777215
176
     0
 90
        1
176
     0
 90
        4
176
     0
 62
     7
176
     0
 62
   257
176
     0
 90
        1
176
     0
 90
        1
176
     0
 40
1.0
176
     0
 90
        8
176
     2
 62
     7
176
     0
 40
1.0
176
     0
 90
        1
176
     0
 90
        6
176
     0
 90
        2
176
     0
 62
     7
176
     0
 90
        5
176
     0
 90
        0
176
     0
 90
        0
176
     0
290
     0
176
     0
 90
        1
176
     0
 40
0.0
176
     0
 90
        0
176
     0
290
     0
176
     0
290
     1
176
     0
290
     1
176
     0
290
     0
176
     0
290
     0
176
     0
290
     0
176
     0
290
     0
176
     0
290
     0
176
     0
290
     0
176
     0
 90
       50
176
     0
 40
0.0
176
     0
 40
1.0
176
     0
 90
        0
176
     0
 62
    18
420
        0
176
     0
 90
       50
176
     0
 90
        3
176
     0
 62
     5
420
      255
176
     0
290
     0
176
     0
 90
       50
176
     0
 90
       50
176
     0
 90
       50
176
     0
290
     0
176
     0
 90
       50
176
     0
 62
   256
176
     0
 40
1.0
176
     0
 90
        2
176
     0
  1
strokes_ogs.tif
176
     0
290
     0
176
     0
 40
1.0
176
     0
 40
1.0
176
     0
  0
VISUALSTYLE
  5
38
102
{ACAD_REACTORS
330
29
102
}
330
29
100
AcDbVisualStyle
  2
Facepattern
 70
    15
177
     3
291
     1
 70
    58
 90
        2
176
     1
 90
        2
176
     1
 90
        0
176
     1
 90
        0
176
     1
 40
0.6
176
     1
 40
30.0
176
     1
 62
     7
420
 16777215
176
     1
 90
        1
176
     1
 90
        4
176
     1
 62
     7
176
     1
 62
   257
176
     1
 90
        1
176
     1
 90
        1
176
     1
 40
1.0
176
     1
 90
        8
176
     1
 62
     7
176
     1
 40
1.0
176
     1
 90
        1
176
     1
 90
        6
176
     1
 90
        2
176
     1
 62
     7
176
     1
 90
        5
176
     1
 90
        0
176
     1
 90
        0
176
     1
290
     0
176
     1
 90
        1
176
     1
 40
0.0
176
     1
 90
        0
176
     1
290
     0
176
     1
290
     1
176
     1
290
     1
176
     1
290
     0
176
     1
290
     0
176
     1
290
     0
176
     1
290
     0
176
     1
290
     0
176
     1
290
     0
176
     1
 90
       50
176
     1
 40
0.0
176
     1
 40
1.0
176
     1
 90
        0
176
     1
 62
    18
420
        0
176
     1
 90
       50
176
     1
 90
        3
176
     1
 62
     5
420
      255
176
     1
290
     0
176
     1
 90
       50
176
     1
 90
       50
176
     1
 90
       50
176
     1
290
     0
176
     1
 90
       50
176
     1
 62
   256
176
     0
 40
1.0
176
     0
 90
        2
176
     1
  1
strokes_ogs.tif
176
     1
290
     0
176
     1
 40
1.0
176
     1
 40
1.0
176
     1
  0
VISUALSTYLE
  5
2A
102
{ACAD_REACTORS
330
29
102
}
330
29
100
AcDbVisualStyle
  2
Flat
 70
     0
177
     3
291
     1
 70
    58
 90
        2
176
     1
 90
        1
176
     1
 90
        1
176
     1
 90
        2
176
     1
 40
0.6
176
     1
 40
30.0
176
     1
 62
     7
420
 16777215
176
     1
 90
        0
176
     1
 90
        0
176
     1
 62
     7
176
     1
 62
   257
176
     1
 90
        1
176
     1
 90
        1
176
     1
 40
1.0
176
     1
 90
        8
176
     1
 62
     7
176
     1
 40
1.0
176
     1
 90
        1
176
     1
 90
        6
176
     1
 90
        2
176
     1
 62
     7
176
     1
 90
        5
176
     1
 90
        0
176
     1
 90
        0
176
     1
290
     0
176
     1
 90
       13
176
     1
 40
0.0
176
     1
 90
        0
176
     1
290
     0
176
     1
290
     1
176
     1
290
     1
176
     1
290
     0
176
     1
290
     0
176
     1
290
     0
176
     1
290
     0
176
     1
290
     0
176
     1
290
     0
176
     1
 90
       50
176
     1
 40
0.0
176
     1
 40
1.0
176
     1
 90
        0
176
     1
 62
    18
420
        0
176
     1
 90
       50
176
     1
 90
        3
176
     1
 62
     5
420
      255
176
     1
290
     0
176
     1
 90
       50
176
     1
 90
       50
176
     1
 90
       50
176
     1
290
     0
176
     1
 90
       50
176
     1
 62
   256
176
     0
 40
1.0
176
     0
 90
        2
176
     1
  1
strokes_ogs.tif
176
     1
290
     0
176
     1
 40
1.0
176
     1
 40
1.0
176
     1
  0
VISUALSTYLE
  5
2B
102
{ACAD_REACTORS
330
29
102
}
330
29
100
AcDbVisualStyle
  2
FlatWithEdges
 70
     1
177
     3
291
     1
 70
    58
 90
        2
176
     1
 90
        1
176
     1
 90
        1
176
     1
 90
        2
176
     1
 40
0.6
176
     1
 40
30.0
176
     1
 62
     7
420
 16777215
176
     1
 90
        1
176
     1
 90
        0
176
     1
 62
     7
176
     1
 62
   257
176
     1
 90
        1
176
     1
 90
        1
176
     1
 40
1.0
176
     1
 90
        0
176
     1
 62
   257
176
     1
 40
1.0
176
     1
 90
        1
176
     1
 90
        6
176
     1
 90
        2
176
     1
 62
     7
176
     1
 90
        5
176
     1
 90
        0
176
     1
 90
        0
176
     1
290
     0
176
     1
 90
       13
176
     1
 40
0.0
176
     1
 90
        0
176
     1
290
     0
176
     1
290
     1
176
     1
290
     1
176
     1
290
     0
176
     1
290
     0
176
     1
290
     0
176
     1
290
     0
176
     1
290
     0
176
     1
290
     0
176
     1
 90
       50
176
     1
 40
0.0
176
     1
 40
1.0
176
     1
 90
        0
176
     1
 62
    18
420
        0
176
     1
 90
       50
176
     1
 90
        3
176
     1
 62
     5
420
      255
176
     1
290
     0
176
     1
 90
       50
176
     1
 90
       50
176
     1
 90
       50
176
     1
290
     0
176
     1
 90
       50
176
     1
 62
   256
176
     0
 40
1.0
176
     0
 90
        2
176
     1
  1
strokes_ogs.tif
176
     1
290
     0
176
     1
 40
1.0
176
     1
 40
1.0
176
     1
  0
VISUALSTYLE
  5
2C
102
{ACAD_REACTORS
330
29
102
}
330
29
100
AcDbVisualStyle
  2
Gouraud
 70
     2
177
     3
291
     1
 70
    58
 90
        2
176
     1
 90
        2
176
     1
 90
        1
176
     1
 90
        2
176
     1
 40
0.6
176
     1
 40
30.0
176
     1
 62
     7
420
 16777215
176
     1
 90
        0
176
     1
 90
        0
176
     1
 62
     7
176
     1
 62
   257
176
     1
 90
        1
176
     1
 90
        1
176
     1
 40
1.0
176
     1
 90
        0
176
     1
 62
     7
176
     1
 40
1.0
176
     1
 90
        1
176
     1
 90
        6
176
     1
 90
        2
176
     1
 62
     7
176
     1
 90
        5
176
     1
 90
        0
176
     1
 90
        0
176
     1
290
     0
176
     1
 90
       13
176
     1
 40
0.0
176
     1
 90
        0
176
     1
290
     0
176
     1
290
     1
176
     1
290
     1
176
     1
290
     0
176
     1
290
     0
176
     1
290
     0
176
     1
290
     0
176
     1
290
     0
176
     1
290
     0
176
     1
 90
       50
176
     1
 40
0.0
176
     1
 40
1.0
176
     1
 90
        0
176
     1
 62
    18
420
        0
176
     1
 90
       50
176
     1
 90
        3
176
     1
 62
     5
420
      255
176
     1
290
     0
176
     1
 90
       50
176
     1
 90
       50
176
     1
 90
       50
176
     1
290
     0
176
     1
 90
       50
176
     1
 62
   256
176
     0
 40
1.0
176
     0
 90
        2
176
     1
  1
strokes_ogs.tif
176
     1
290
     0
176
     1
 40
1.0
176
     1
 40
1.0
176
     1
  0
VISUALSTYLE
  5
2D
102
{ACAD_REACTORS
330
29
102
}
330
29
100
AcDbVisualStyle
  2
GouraudWithEdges
 70
     3
177
     3
291
     1
 70
    58
 90
        2
176
     1
 90
        2
176
     1
 90
        1
176
     1
 90
        2
176
     1
 40
0.6
176
     1
 40
30.0
176
     1
 62
     7
420
 16777215
176
     1
 90
        1
176
     1
 90
        0
176
     1
 62
     7
176
     1
 62
   257
176
     1
 90
        1
176
     1
 90
        1
176
     1
 40
1.0
176
     1
 90
        0
176
     1
 62
   257
176
     1
 40
1.0
176
     1
 90
        1
176
     1
 90
        6
176
     1
 90
        2
176
     1
 62
     7
176
     1
 90
        5
176
     1
 90
        0
176
     1
 90
        0
176
     1
290
     0
176
     1
 90
       13
176
     1
 40
0.0
176
     1
 90
        0
176
     1
290
     0
176
     1
290
     1
176
     1
290
     1
176
     1
290
     0
176
     1
290
     0
176
     1
290
     0
176
     1
290
     0
176
     1
290
     0
176
     1
290
     0
176
     1
 90
       50
176
     1
 40
0.0
176
     1
 40
1.0
176
     1
 90
        0
176
     1
 62
    18
420
        0
176
     1
 90
       50
176
     1
 90
        3
176
     1
 62
     5
420
      255
176
     1
290
     0
176
     1
 90
       50
176
     1
 90
       50
176
     1
 90
       50
176
     1
290
     0
176
     1
 90
       50
176
     1
 62
   256
176
     0
 40
1.0
176
     0
 90
        2
176
     1
  1
strokes_ogs.tif
176
     1
290
     0
176
     1
 40
1.0
176
     1
 40
1.0
176
     1
  0
VISUALSTYLE
  5
31
102
{ACAD_REACTORS
330
29
102
}
330
29
100
AcDbVisualStyle
  2
Hidden
 70
     6
177
     3
291
     0
 70
    58
 90
        1
176
     1
 90
        2
176
     1
 90
        2
176
     1
 90
        0
176
     1
 40
0.6
176
     1
 40
30.0
176
     1
 62
     7
420
 16777215
176
     1
 90
        2
176
     1
 90
        2
176
     1
 62
     7
176
     1
 62
   257
176
     1
 90
        2
176
     1
 90
        1
176
     1
 40
40.0
176
     1
 90
        0
176
     1
 62
   257
176
     1
 40
1.0
176
     1
 90
        1
176
     1
 90
        6
176
     1
 90
        2
176
     1
 62
     7
176
     1
 90
        3
176
     1
 90
        0
176
     1
 90
        0
176
     1
290
     0
176
     1
 90
        1
176
     1
 40
0.0
176
     1
 90
        0
176
     1
290
     0
176
     1
290
     1
176
     1
290
     1
176
     1
290
     0
176
     1
290
     0
176
     1
290
     0
176
     1
290
     0
176
     1
290
     0
176
     1
290
     0
176
     1
 90
       50
176
     1
 40
0.0
176
     1
 40
1.0
176
     1
 90
        0
176
     1
 62
    18
420
        0
176
     1
 90
       50
176
     1
 90
        3
176
     1
 62
     5
420
      255
176
     1
290
     0
176
     1
 90
       50
176
     1
 90
       50
176
     1
 90
       50
176
     1
290
     0
176
     1
 90
       50
176
     1
 62
   256
176
     0
 40
1.0
176
     0
 90
        2
176
     1
  1
strokes_ogs.tif
176
     1
290
     0
176
     1
 40
1.0
176
     1
 40
1.0
176
     1
  0
VISUALSTYLE
  5
3F
102
{ACAD_REACTORS
330
29
102
}
330
29
100
AcDbVisualStyle
  2
JitterOff
 70
    20
177
     3
291
     1
 70
    58
 90
        2
176
     0
 90
        2
176
     0
 90
        0
176
     0
 90
        0
176
     0
 40
0.6
176
     0
 40
30.0
176
     0
 62
     7
420
 16777215
176
     0
 90
        1
176
     0
 90
        4
176
     0
 62
     7
176
     0
 62
   257
176
     0
 90
        1
176
     0
 90
        1
176
     0
 40
1.0
176
     0
 90
       10
176
     2
 62
     7
176
     0
 40
1.0
176
     0
 90
        1
176
     0
 90
        6
176
     0
 90
        2
176
     0
 62
     7
176
     0
 90
        5
176
     0
 90
        0
176
     0
 90
        0
176
     0
290
     0
176
     0
 90
        1
176
     0
 40
0.0
176
     0
 90
        0
176
     0
290
     0
176
     0
290
     1
176
     0
290
     1
176
     0
290
     0
176
     0
290
     0
176
     0
290
     0
176
     0
290
     0
176
     0
290
     0
176
     0
290
     0
176
     0
 90
       50
176
     0
 40
0.0
176
     0
 40
1.0
176
     0
 90
        0
176
     0
 62
    18
420
        0
176
     0
 90
       50
176
     0
 90
        3
176
     0
 62
     5
420
      255
176
     0
290
     0
176
     0
 90
       50
176
     0
 90
       50
176
     0
 90
       50
176
     0
290
     0
176
     0
 90
       50
176
     0
 62
   256
176
     0
 40
1.0
176
     0
 90
        2
176
     0
  1
strokes_ogs.tif
176
     0
290
     0
176
     0
 40
1.0
176
     0
 40
1.0
176
     0
  0
VISUALSTYLE
  5
37
102
{ACAD_REACTORS
330
29
102
}
330
29
100
AcDbVisualStyle
  2
Linepattern
 70
    14
177
     3
291
     1
 70
    58
 90
        2
176
     1
 90
        2
176
     1
 90
        0
176
     1
 90
        0
176
     1
 40
0.6
176
     1
 40
30.0
176
     1
 62
     7
420
 16777215
176
     1
 90
        1
176
     1
 90
        4
176
     1
 62
     7
176
     1
 62
   257
176
     1
 90
        7
176
     1
 90
        7
176
     1
 40
1.0
176
     1
 90
        8
176
     1
 62
     7
176
     1
 40
1.0
176
     1
 90
        1
176
     1
 90
        6
176
     1
 90
        2
176
     1
 62
     7
176
     1
 90
        5
176
     1
 90
        0
176
     1
 90
        0
176
     1
290
     0
176
     1
 90
        1
176
     1
 40
0.0
176
     1
 90
        0
176
     1
290
     0
176
     1
290
     1
176
     1
290
     1
176
     1
290
     0
176
     1
290
     0
176
     1
290
     0
176
     1
290
     0
176
     1
290
     0
176
     1
290
     0
176
     1
 90
       50
176
     1
 40
0.0
176
     1
 40
1.0
176
     1
 90
        0
176
     1
 62
    18
420
        0
176
     1
 90
       50
176
     1
 90
        3
176
     1
 62
     5
420
      255
176
     1
290
     0
176
     1
 90
       50
176
     1
 90
       50
176
     1
 90
       50
176
     1
290
     0
176
     1
 90
       50
176
     1
 62
   256
176
     0
 40
1.0
176
     0
 90
        2
176
     1
  1
strokes_ogs.tif
176
     1
290
     0
176
     1
 40
1.0
176
     1
 40
1.0
176
     1
  0
VISUALSTYLE
  5
40
102
{ACAD_REACTORS
330
29
102
}
330
29
100
AcDbVisualStyle
  2
OverhangOff
 70
    21
177
     3
291
     1
 70
    58
 90
        2
176
     0
 90
        2
176
     0
 90
        0
176
     0
 90
        0
176
     0
 40
0.6
176
     0
 40
30.0
176
     0
 62
     7
420
 16777215
176
     0
 90
        1
176
     0
 90
        4
176
     0
 62
     7
176
     0
 62
   257
176
     0
 90
        1
176
     0
 90
        1
176
     0
 40
1.0
176
     0
 90
        9
176
     2
 62
     7
176
     0
 40
1.0
176
     0
 90
        1
176
     0
 90
        6
176
     0
 90
        2
176
     0
 62
     7
176
     0
 90
        5
176
     0
 90
        0
176
     0
 90
        0
176
     0
290
     0
176
     0
 90
        1
176
     0
 40
0.0
176
     0
 90
        0
176
     0
290
     0
176
     0
290
     1
176
     0
290
     1
176
     0
290
     0
176
     0
290
     0
176
     0
290
     0
176
     0
290
     0
176
     0
290
     0
176
     0
290
     0
176
     0
 90
       50
176
     0
 40
0.0
176
     0
 40
1.0
176
     0
 90
        0
176
     0
 62
    18
420
        0
176
     0
 90
       50
176
     0
 90
        3
176
     0
 62
     5
420
      255
176
     0
290
     0
176
     0
 90
       50
176
     0
 90
       50
176
     0
 90
       50
176
     0
290
     0
176
     0
 90
       50
176
     0
 62
   256
176
     0
 40
1.0
176
     0
 90
        2
176
     0
  1
strokes_ogs.tif
176
     0
290
     0
176
     0
 40
1.0
176
     0
 40
1.0
176
     0
  0
VISUALSTYLE
  5
33
102
{ACAD_REACTORS
330
29
102
}
330
29
100
AcDbVisualStyle
  2
Realistic
 70
     8
177
     3
291
     0
 70
    58
 90
        2
176
     1
 90
        3
176
     1
 90
        0
176
     1
 90
        2
176
     1
 40
0.6
176
     1
 40
30.0
176
     1
 62
     7
420
 16777215
176
     1
 90
        0
176
     1
 90
        0
176
     1
 62
     7
176
     1
 62
   257
176
     1
 90
        1
176
     1
 90
        1
176
     1
 40
1.0
176
     1
 90
        8
176
     1
 62
   257
176
     1
 40
1.0
176
     1
 90
        1
176
     1
 90
        6
176
     1
 90
        2
176
     1
 62
     7
176
     1
 90
        3
176
     1
 90
        0
176
     1
 90
        0
176
     1
290
     0
176
     1
 90
       13
176
     1
 40
0.0
176
     1
 90
        0
176
     1
290
     0
176
     1
290
     1
176
     1
290
     1
176
     1
290
     0
176
     1
290
     0
176
     1
290
     0
176
     1
290
     0
176
     1
290
     0
176
     1
290
     0
176
     1
 90
       50
176
     1
 40
0.0
176
     1
 40
1.0
176
     1
 90
        0
176
     1
 62
    18
420
        0
176
     1
 90
       50
176
     1
 90
        3
176
     1
 62
     5
420
      255
176
     1
290
     0
176
     1
 90
       50
176
     1
 90
       50
176
     1
 90
       50
176
     1
290
     0
176
     1
 90
       50
176
     1
 62
   256
176
     0
 40
1.0
176
     0
 90
        2
176
     1
  1
strokes_ogs.tif
176
     1
290
     0
176
     1
 40
1.0
176
     1
 40
1.0
176
     1
  0
VISUALSTYLE
  5
3E
102
{ACAD_REACTORS
330
29
102
}
330
29
100
AcDbVisualStyle
  2
Shaded
 70
    27
177
     3
291
     0
 70
    58
 90
        2
176
     1
 90
        2
176
     1
 90
        1
176
     1
 90
        2
176
     1
 40
0.6
176
     1
 40
30.0
176
     1
 62
     7
420
 16777215
176
     1
 90
        0
176
     1
 90
        4
176
     1
 62
     7
176
     1
 62
   257
176
     1
 90
        1
176
     1
 90
        1
176
     1
 40
1.0
176
     1
 90
        8
176
     1
 62
   257
176
     1
 40
1.0
176
     1
 90
        1
176
     1
 90
        6
176
     1
 90
        2
176
     1
 62
     8
420
  7895160
176
     1
 90
        3
176
     1
 90
        0
176
     1
 90
        0
176
     1
290
     0
176
     1
 90
        5
176
     1
 40
0.0
176
     1
 90
        0
176
     1
290
     0
176
     1
290
     1
176
     1
290
     1
176
     1
290
     0
176
     1
290
     0
176
     1
290
     0
176
     1
290
     0
176
     1
290
     0
176
     1
290
     0
176
     1
 90
       50
176
     1
 40
0.0
176
     1
 40
1.0
176
     1
 90
        0
176
     1
 62
    18
420
        0
176
     1
 90
       50
176
     1
 90
        3
176
     1
 62
     5
420
      255
176
     1
290
     0
176
     1
 90
       50
176
     1
 90
       50
176
     1
 90
       50
176
     1
290
     0
176
     1
 90
       50
176
     1
 62
   256
176
     0
 40
1.0
176
     0
 90
        2
176
     1
  1
strokes_ogs.tif
176
     1
290
     0
176
     1
 40
1.0
176
     1
 40
1.0
176
     1
  0
VISUALSTYLE
  5
3D
102
{ACAD_REACTORS
330
29
102
}
330
29
100
AcDbVisualStyle
  2
Shaded with edges
 70
    26
177
     3
291
     0
 70
    58
 90
        2
176
     1
 90
        2
176
     1
 90
        1
176
     1
 90
        2
176
     1
 40
0.6
176
     1
 40
30.0
176
     1
 62
     7
420
 16777215
176
     1
 90
        1
176
     1
 90
        2
176
     1
 62
     7
176
     1
 62
   257
176
     1
 90
        2
176
     1
 90
        1
176
     1
 40
1.0
176
     1
 90
        8
176
     1
 62
   257
176
     1
 40
1.0
176
     1
 90
        1
176
     1
 90
        6
176
     1
 90
        2
176
     1
 62
     7
176
     1
 90
        3
176
     1
 90
        0
176
     1
 90
        0
176
     1
290
     0
176
     1
 90
        5
176
     1
 40
0.0
176
     1
 90
        0
176
     1
290
     0
176
     1
290
     1
176
     1
290
     1
176
     1
290
     0
176
     1
290
     0
176
     1
290
     0
176
     1
290
     0
176
     1
290
     0
176
     1
290
     0
176
     1
 90
       50
176
     1
 40
0.0
176
     1
 40
1.0
176
     1
 90
        0
176
     1
 62
    18
420
        0
176
     1
 90
       50
176
     1
 90
        3
176
     1
 62
     5
420
      255
176
     1
290
     0
176
     1
 90
       50
176
     1
 90
       50
176
     1
 90
       50
176
     1
290
     0
176
     1
 90
       50
176
     1
 62
   256
176
     0
 40
1.0
176
     0
 90
        2
176
     1
  1
strokes_ogs.tif
176
     1
290
     0
176
     1
 40
1.0
176
     1
 40
1.0
176
     1
  0
VISUALSTYLE
  5
3A
102
{ACAD_REACTORS
330
29
102
}
330
29
100
AcDbVisualStyle
  2
Shades of Gray
 70
    23
177
     3
291
     0
 70
    58
 90
        2
176
     1
 90
        2
176
     1
 90
        3
176
     1
 90
        0
176
     1
 40
0.6
176
     1
 40
30.0
176
     1
 62
     7
420
 16777215
176
     1
 90
        2
176
     1
 90
        2
176
     1
 62
     7
176
     1
 62
     7
176
     1
 90
        1
176
     1
 90
        1
176
     1
 40
40.0
176
     1
 90
        8
176
     1
 62
     7
176
     1
 40
1.0
176
     1
 90
        1
176
     1
 90
        6
176
     1
 90
        2
176
     1
 62
     7
176
     1
 90
        3
176
     1
 90
        0
176
     1
 90
        0
176
     1
290
     0
176
     1
 90
        1
176
     1
 40
0.0
176
     1
 90
        0
176
     1
290
     0
176
     1
290
     1
176
     1
290
     1
176
     1
290
     0
176
     1
290
     0
176
     1
290
     0
176
     1
290
     0
176
     1
290
     0
176
     1
290
     0
176
     1
 90
       50
176
     1
 40
0.0
176
     1
 40
1.0
176
     1
 90
        0
176
     1
 62
    18
420
        0
176
     1
 90
       50
176
     1
 90
        3
176
     1
 62
     5
420
      255
176
     1
290
     0
176
     1
 90
       50
176
     1
 90
       50
176
     1
 90
       50
176
     1
290
     0
176
     1
 90
       50
176
     1
 62
   256
176
     0
 40
1.0
176
     0
 90
        2
176
     1
  1
strokes_ogs.tif
176
     1
290
     0
176
     1
 40
1.0
176
     1
 40
1.0
176
     1
  0
VISUALSTYLE
  5
3B
102
{ACAD_REACTORS
330
29
102
}
330
29
100
AcDbVisualStyle
  2
Sketchy
 70
    24
177
     3
291
     0
 70
    58
 90
        1
176
     1
 90
        2
176
     1
 90
        2
176
     1
 90
        0
176
     1
 40
0.6
176
     1
 40
30.0
176
     1
 62
     7
420
 16777215
176
     1
 90
        2
176
     1
 90
        2
176
     1
 62
     7
176
     1
 62
     7
176
     1
 90
        1
176
     1
 90
        1
176
     1
 40
40.0
176
     1
 90
       11
176
     1
 62
     7
176
     1
 40
1.0
176
     1
 90
        1
176
     1
 90
        6
176
     1
 90
        2
176
     1
 62
     7
176
     1
 90
        6
176
     1
 90
        0
176
     1
 90
        0
176
     1
290
     0
176
     1
 90
        1
176
     1
 40
0.0
176
     1
 90
        0
176
     1
290
     0
176
     1
290
     1
176
     1
290
     1
176
     1
290
     0
176
     1
290
     0
176
     1
290
     0
176
     1
290
     0
176
     1
290
     0
176
     1
290
     0
176
     1
 90
       50
176
     1
 40
0.0
176
     1
 40
1.0
176
     1
 90
        0
176
     1
 62
    18
420
        0
176
     1
 90
       50
176
     1
 90
        3
176
     1
 62
     5
420
      255
176
     1
290
     0
176
     1
 90
       50
176
     1
 90
       50
176
     1
 90
       50
176
     1
290
     0
176
     1
 90
       50
176
     1
 62
   256
176
     0
 40
1.0
176
     0
 90
        2
176
     1
  1
strokes_ogs.tif
176
     1
290
     0
176
     1
 40
1.0
176
     1
 40
1.0
176
     1
  0
VISUALSTYLE
  5
36
102
{ACAD_REACTORS
330
29
102
}
330
29
100
AcDbVisualStyle
  2
Thicken
 70
    13
177
     3
291
     1
 70
    58
 90
        2
176
     1
 90
        2
176
     1
 90
        0
176
     1
 90
        0
176
     1
 40
0.6
176
     1
 40
30.0
176
     1
 62
     7
420
 16777215
176
     1
 90
        1
176
     1
 90
        4
176
     1
 62
     7
176
     1
 62
   257
176
     1
 90
        1
176
     1
 90
        1
176
     1
 40
1.0
176
     1
 90
       12
176
     1
 62
     7
176
     1
 40
1.0
176
     1
 90
        1
176
     1
 90
        6
176
     1
 90
        2
176
     1
 62
     7
176
     1
 90
        5
176
     1
 90
        0
176
     1
 90
        0
176
     1
290
     0
176
     1
 90
        1
176
     1
 40
0.0
176
     1
 90
        0
176
     1
290
     0
176
     1
290
     1
176
     1
290
     1
176
     1
290
     0
176
     1
290
     0
176
     1
290
     0
176
     1
290
     0
176
     1
290
     0
176
     1
290
     0
176
     1
 90
       50
176
     1
 40
0.0
176
     1
 40
1.0
176
     1
 90
        0
176
     1
 62
    18
420
        0
176
     1
 90
       50
176
     1
 90
        3
176
     1
 62
     5
420
      255
176
     1
290
     0
176
     1
 90
       50
176
     1
 90
       50
176
     1
 90
       50
176
     1
290
     0
176
     1
 90
       50
176
     1
 62
   256
176
     0
 40
1.0
176
     0
 90
        2
176
     1
  1
strokes_ogs.tif
176
     1
290
     0
176
     1
 40
1.0
176
     1
 40
1.0
176
     1
  0
VISUALSTYLE
  5
30
102
{ACAD_REACTORS
330
29
102
}
330
29
100
AcDbVisualStyle
  2
Wireframe
 70
     5
177
     3
291
     0
 70
    58
 90
        0
176
     1
 90
        2
176
     1
 90
        0
176
     1
 90
        0
176
     1
 40
0.6
176
     1
 40
30.0
176
     1
 62
     7
420
 16777215
176
     1
 90
        1
176
     1
 90
        4
176
     1
 62
     7
176
     1
 62
   257
176
     1
 90
        1
176
     1
 90
        1
176
     1
 40
1.0
176
     1
 90
        0
176
     1
 62
   257
176
     1
 40
1.0
176
     1
 90
        1
176
     1
 90
        6
176
     1
 90
        2
176
     1
 62
     7
176
     1
 90
        3
176
     1
 90
        0
176
     1
 90
        0
176
     1
290
     0
176
     1
 90
        1
176
     1
 40
0.0
176
     1
 90
        0
176
     1
290
     0
176
     1
290
     1
176
     1
290
     1
176
     1
290
     0
176
     1
290
     0
176
     1
290
     0
176
     1
290
     0
176
     1
290
     0
176
     1
290
     0
176
     1
 90
       50
176
     1
 40
0.0
176
     1
 40
1.0
176
     1
 90
        0
176
     1
 62
    18
420
        0
176
     1
 90
       50
176
     1
 90
        3
176
     1
 62
     5
420
      255
176
     1
290
     0
176
     1
 90
       50
176
     1
 90
       50
176
     1
 90
       50
176
     1
290
     0
176
     1
 90
       50
176
     1
 62
   256
176
     0
 40
1.0
176
     0
 90
        2
176
     1
  1
strokes_ogs.tif
176
     1
290
     0
176
     1
 40
1.0
176
     1
 40
1.0
176
     1
  0
VISUALSTYLE
  5
3C
102
{ACAD_REACTORS
330
29
102
}
330
29
100
AcDbVisualStyle
  2
X-Ray
 70
    25
177
     3
291
     0
 70
    58
 90
        2
176
     1
 90
        2
176
     1
 90
        1
176
     1
 90
        1
176
     1
 40
0.5
176
     1
 40
30.0
176
     1
 62
     7
420
 16777215
176
     1
 90
        1
176
     1
 90
        0
176
     1
 62
     7
176
     1
 62
   257
176
     1
 90
        1
176
     1
 90
        1
176
     1
 40
1.0
176
     1
 90
        8
176
     1
 62
     7
176
     1
 40
1.0
176
     1
 90
        1
176
     1
 90
        6
176
     1
 90
        2
176
     1
 62
     7
176
     1
 90
        3
176
     1
 90
        0
176
     1
 90
        0
176
     1
290
     0
176
     1
 90
       13
176
     1
 40
0.0
176
     1
 90
        0
176
     1
290
     0
176
     1
290
     1
176
     1
290
     1
176
     1
290
     0
176
     1
290
     0
176
     1
290
     0
176
     1
290
     0
176
     1
290
     0
176
     1
290
     0
176
     1
 90
       50
176
     1
 40
0.0
176
     1
 40
1.0
176
     1
 90
        0
176
     1
 62
    18
420
        0
176
     1
 90
       50
176
     1
 90
        3
176
     1
 62
     5
420
      255
176
     1
290
     0
176
     1
 90
       50
176
     1
 90
       50
176
     1
 90
       50
176
     1
290
     0
176
     1
 90
       50
176
     1
 62
   256
176
     0
 40
1.0
176
     0
 90
        2
176
     1
  1
strokes_ogs.tif
176
     1
290
     0
176
     1
 40
1.0
176
     1
 40
1.0
176
     1
  0
DICTIONARYVAR
  5
168
102
{ACAD_REACTORS
330
163
102
}
330
163
100
DictionaryVariables
280
     0
  1
1:1
  0
DICTIONARYVAR
  5
165
102
{ACAD_REACTORS
330
163
102
}
330
163
100
DictionaryVariables
280
     0
  1
STANDARD
  0
DICTIONARYVAR
  5
164
102
{ACAD_REACTORS
330
163
102
}
330
163
100
DictionaryVariables
280
     0
  1
STANDARD
  0
DICTIONARYVAR
  5
166
102
{ACAD_REACTORS
330
163
102
}
330
163
100
DictionaryVariables
280
     0
  1
Imperial24
  0
DICTIONARYVAR
  5
167
102
{ACAD_REACTORS
330
163
102
}
330
163
100
DictionaryVariables
280
     0
  1
Imperial24
  0
DICTIONARY
  5
1A
330
19
100
AcDbDictionary
280
     1
281
     1
  3
BUMPTILE
360
1C
  3
DIFFUSETILE
360
1B
  3
OPACITYTILE
360
1F
  3
REFLECTIONTILE
360
1E
  3
REFRACTIONTILE
360
20
  3
SPECULARTILE
360
1D
  0
DICTIONARY
  5
12
330
11
100
AcDbDictionary
280
     1
281
     1
  3
BUMPTILE
360
14
  3
DIFFUSETILE
360
13
  3
OPACITYTILE
360
17
  3
REFLECTIONTILE
360
16
  3
REFRACTIONTILE
360
18
  3
SPECULARTILE
360
15
  0
DICTIONARY
  5
22
330
21
100
AcDbDictionary
280
     1
281
     1
  3
BUMPTILE
360
24
  3
DIFFUSETILE
360
23
  3
OPACITYTILE
360
27
  3
REFLECTIONTILE
360
26
  3
REFRACTIONTILE
360
28
  3
SPECULARTILE
360
25
  0
DICTIONARY
  5
169
330
65
100
AcDbDictionary
280
     1
281
     1
  3
ACAD_ROUNDTRIP_2008_TABLESTYLE_CELLSTYLEMAP
360
16A
  0
XRECORD
  5
1C
102
{ACAD_REACTORS
330
1A
102
}
330
1A
100
AcDbXrecord
280
     1
270
     1
271
     1
  0
XRECORD
  5
1B
102
{ACAD_REACTORS
330
1A
102
}
330
1A
100
AcDbXrecord
280
     1
270
     1
271
     1
  0
XRECORD
  5
1F
102
{ACAD_REACTORS
330
1A
102
}
330
1A
100
AcDbXrecord
280
     1
270
     1
271
     1
  0
XRECORD
  5
1E
102
{ACAD_REACTORS
330
1A
102
}
330
1A
100
AcDbXrecord
280
     1
270
     1
271
     1
  0
XRECORD
  5
20
102
{ACAD_REACTORS
330
1A
102
}
330
1A
100
AcDbXrecord
280
     1
270
     1
271
     1
  0
XRECORD
  5
1D
102
{ACAD_REACTORS
330
1A
102
}
330
1A
100
AcDbXrecord
280
     1
270
     1
271
     1
  0
XRECORD
  5
14
102
{ACAD_REACTORS
330
12
102
}
330
12
100
AcDbXrecord
280
     1
270
     1
271
     1
  0
XRECORD
  5
13
102
{ACAD_REACTORS
330
12
102
}
330
12
100
AcDbXrecord
280
     1
270
     1
271
     1
  0
XRECORD
  5
17
102
{ACAD_REACTORS
330
12
102
}
330
12
100
AcDbXrecord
280
     1
270
     1
271
     1
  0
XRECORD
  5
16
102
{ACAD_REACTORS
330
12
102
}
330
12
100
AcDbXrecord
280
     1
270
     1
271
     1
  0
XRECORD
  5
18
102
{ACAD_REACTORS
330
12
102
}
330
12
100
AcDbXrecord
280
     1
270
     1
271
     1
  0
XRECORD
  5
15
102
{ACAD_REACTORS
330
12
102
}
330
12
100
AcDbXrecord
280
     1
270
     1
271
     1
  0
XRECORD
  5
24
102
{ACAD_REACTORS
330
22
102
}
330
22
100
AcDbXrecord
280
     1
270
     1
271
     1
  0
XRECORD
  5
23
102
{ACAD_REACTORS
330
22
102
}
330
22
100
AcDbXrecord
280
     1
270
     1
271
     1
  0
XRECORD
  5
27
102
{ACAD_REACTORS
330
22
102
}
330
22
100
AcDbXrecord
280
     1
270
     1
271
     1
  0
XRECORD
  5
26
102
{ACAD_REACTORS
330
22
102
}
330
22
100
AcDbXrecord
280
     1
270
     1
271
     1
  0
XRECORD
  5
28
102
{ACAD_REACTORS
330
22
102
}
330
22
100
AcDbXrecord
280
     1
270
     1
271
     1
  0
XRECORD
  5
25
102
{ACAD_REACTORS
330
22
102
}
330
22
100
AcDbXrecord
280
     1
270
     1
271
     1
  0
CELLSTYLEMAP
  5
16A
102
{ACAD_REACTORS
330
169
102
}
330
169
100
AcDbCellStyleMap
 90
        3
300
CELLSTYLE
  1
TABLEFORMAT_BEGIN
 90
        5
170
     1
 91
        0
 92
    32768
 62
   257
 93
        1
300
CONTENTFORMAT
  1
CONTENTFORMAT_BEGIN
 90
        0
 91
        0
 92
      512
 93
        0
300

 40
0.0
140
1.0
 94
        5
 62
     0
340
55
144
0.25
309
CONTENTFORMAT_END
171
     0
 94
        0
309
TABLEFORMAT_END
  1
CELLSTYLE_BEGIN
 90
        1
 91
        1
300
_TITLE
309
CELLSTYLE_END
300
CELLSTYLE
  1
TABLEFORMAT_BEGIN
 90
        5
170
     1
 91
        0
 92
        0
 62
   257
 93
        1
300
CONTENTFORMAT
  1
CONTENTFORMAT_BEGIN
 90
        0
 91
        0
 92
      512
 93
        0
300

 40
0.0
140
1.0
 94
        5
 62
     0
340
55
144
0.18
309
CONTENTFORMAT_END
171
     0
 94
        0
309
TABLEFORMAT_END
  1
CELLSTYLE_BEGIN
 90
        2
 91
        1
300
_HEADER
309
CELLSTYLE_END
300
CELLSTYLE
  1
TABLEFORMAT_BEGIN
 90
        5
170
     1
 91
        0
 92
        0
 62
   257
 93
        1
300
CONTENTFORMAT
  1
CONTENTFORMAT_BEGIN
 90
        0
 91
        0
 92
      512
 93
        0
300

 40
0.0
140
1.0
 94
        2
 62
     0
340
55
144
0.18
309
CONTENTFORMAT_END
171
     0
 94
        0
309
TABLEFORMAT_END
  1
CELLSTYLE_BEGIN
 90
        3
 91
        2
300
_DATA
309
CELLSTYLE_END
  0
ENDSEC
  0
EOF
