  0
SECTION
  2
HEADER
  9
$ACADVER
  1
AC1032
  9
$ACADMAINTVER
 90
      228
  9
$DWGCODEPAGE
  3
ANSI_1252
  9
$REQUIREDVERSIONS
160
                 0
  9
$INSBASE
 10
0.0
 20
0.0
 30
0.0
  9
$EXTMIN
 10
1.000000000000000E+20
 20
1.000000000000000E+20
 30
1.000000000000000E+20
  9
$EXTMAX
 10
-1.000000000000000E+20
 20
-1.000000000000000E+20
 30
-1.000000000000000E+20
  9
$LIMMIN
 10
0.0
 20
0.0
  9
$LIMMAX
 10
12.0
 20
9.0
  9
$ORTHOMODE
 70
     0
  9
$REGENMODE
 70
     1
  9
$FILLMODE
 70
     1
  9
$QTEXTMODE
 70
     0
  9
$MIRRTEXT
 70
     0
  9
$LTSCALE
 40
1.0
  9
$ATTMODE
 70
     1
  9
$TEXTSIZE
 40
0.2
  9
$TRACEWID
 40
0.05
  9
$TEXTSTYLE
  7
Standard
  9
$CLAYER
  8
0
  9
$CELTYPE
  6
ByLayer
  9
$CECOLOR
 62
   256
  9
$CELTSCALE
 40
1.0
  9
$DISPSILH
 70
     0
  9
$DIMSCALE
 40
1.0
  9
$DIMASZ
 40
0.18
  9
$DIMEXO
 40
0.0625
  9
$DIMDLI
 40
0.38
  9
$DIMRND
 40
0.0
  9
$DIMDLE
 40
0.0
  9
$DIMEXE
 40
0.18
  9
$DIMTP
 40
0.0
  9
$DIMTM
 40
0.0
  9
$DIMTXT
 40
0.18
  9
$DIMCEN
 40
0.09
  9
$DIMTSZ
 40
0.0
  9
$DIMTOL
 70
     0
  9
$DIMLIM
 70
     0
  9
$DIMTIH
 70
     1
  9
$DIMTOH
 70
     1
  9
$DIMSE1
 70
     0
  9
$DIMSE2
 70
     0
  9
$DIMTAD
 70
     0
  9
$DIMZIN
 70
     0
  9
$DIMBLK
  1

  9
$DIMASO
 70
     1
  9
$DIMSHO
 70
     1
  9
$DIMPOST
  1

  9
$DIMAPOST
  1

  9
$DIMALT
 70
     0
  9
$DIMALTD
 70
     2
  9
$DIMALTF
 40
25.4
  9
$DIMLFAC
 40
1.0
  9
$DIMTOFL
 70
     0
  9
$DIMTVP
 40
0.0
  9
$DIMTIX
 70
     0
  9
$DIMSOXD
 70
     0
  9
$DIMSAH
 70
     0
  9
$DIMBLK1
  1

  9
$DIMBLK2
  1

  9
$DIMSTYLE
  2
Standard
  9
$DIMCLRD
 70
     0
  9
$DIMCLRE
 70
     0
  9
$DIMCLRT
 70
     0
  9
$DIMTFAC
 40
1.0
  9
$DIMGAP
 40
0.09
  9
$DIMJUST
 70
     0
  9
$DIMSD1
 70
     0
  9
$DIMSD2
 70
     0
  9
$DIMTOLJ
 70
     1
  9
$DIMTZIN
 70
     0
  9
$DIMALTZ
 70
     0
  9
$DIMALTTZ
 70
     0
  9
$DIMUPT
 70
     0
  9
$DIMDEC
 70
     4
  9
$DIMTDEC
 70
     4
  9
$DIMALTU
 70
     2
  9
$DIMALTTD
 70
     2
  9
$DIMTXSTY
  7
Standard
  9
$DIMAUNIT
 70
     0
  9
$DIMADEC
 70
     0
  9
$DIMALTRND
 40
0.0
  9
$DIMAZIN
 70
     0
  9
$DIMDSEP
 70
    46
  9
$DIMATFIT
 70
     3
  9
$DIMFRAC
 70
     0
  9
$DIMLDRBLK
  1

  9
$DIMLUNIT
 70
     2
  9
$DIMLWD
 70
    -2
  9
$DIMLWE
 70
    -2
  9
$DIMTMOVE
 70
     0
  9
$DIMFXL
 40
1.0
  9
$DIMFXLON
 70
     0
  9
$DIMJOGANG
 40
0.7853981633974483
  9
$DIMTFILL
 70
     0
  9
$DIMTFILLCLR
 70
     0
  9
$DIMARCSYM
 70
     0
  9
$DIMLTYPE
  6

  9
$DIMLTEX1
  6

  9
$DIMLTEX2
  6

  9
$DIMTXTDIRECTION
 70
     0
  9
$LUNITS
 70
     2
  9
$LUPREC
 70
     4
  9
$SKETCHINC
 40
0.1
  9
$FILLETRAD
 40
0.0
  9
$AUNITS
 70
     0
  9
$AUPREC
 70
     0
  9
$MENU
  1
.
  9
$ELEVATION
 40
0.0
  9
$PELEVATION
 40
0.0
  9
$THICKNESS
 40
0.0
  9
$LIMCHECK
 70
     0
  9
$CHAMFERA
 40
0.0
  9
$CHAMFERB
 40
0.0
  9
$CHAMFERC
 40
0.0
  9
$CHAMFERD
 40
0.0
  9
$SKPOLY
 70
     0
  9
$TDCREATE
 40
2460256.433865741
  9
$TDUCREATE
 40
2460256.433865741
  9
$TDUPDATE
 40
2460256.433865741
  9
$TDUUPDATE
 40
2460256.433865741
  9
$TDINDWG
 40
0.0000000000
  9
$TDUSRTIMER
 40
0.0000000000
  9
$USRTIMER
 70
     1
  9
$ANGBASE
 50
0.0
  9
$ANGDIR
 70
     0
  9
$PDMODE
 70
     0
  9
$PDSIZE
 40
0.0
  9
$PLINEWID
 40
0.0
  9
$SPLFRAME
 70
     0
  9
$SPLINETYPE
 70
     6
  9
$SPLINESEGS
 70
     8
  9
$HANDSEED
  5
156
  9
$SURFTAB1
 70
     6
  9
$SURFTAB2
 70
     6
  9
$SURFTYPE
 70
     6
  9
$SURFU
 70
     6
  9
$SURFV
 70
     6
  9
$UCSBASE
  2

  9
$UCSNAME
  2

  9
$UCSORG
 10
0.0
 20
0.0
 30
0.0
  9
$UCSXDIR
 10
1.0
 20
0.0
 30
0.0
  9
$UCSYDIR
 10
0.0
 20
1.0
 30
0.0
  9
$UCSORTHOREF
  2

  9
$UCSORTHOVIEW
 70
     0
  9
$UCSORGTOP
 10
0.0
 20
0.0
 30
0.0
  9
$UCSORGBOTTOM
 10
0.0
 20
0.0
 30
0.0
  9
$UCSORGLEFT
 10
0.0
 20
0.0
 30
0.0
  9
$UCSORGRIGHT
 10
0.0
 20
0.0
 30
0.0
  9
$UCSORGFRONT
 10
0.0
 20
0.0
 30
0.0
  9
$UCSORGBACK
 10
0.0
 20
0.0
 30
0.0
  9
$PUCSBASE
  2

  9
$PUCSNAME
  2

  9
$PUCSORG
 10
0.0
 20
0.0
 30
0.0
  9
$PUCSXDIR
 10
1.0
 20
0.0
 30
0.0
  9
$PUCSYDIR
 10
0.0
 20
1.0
 30
0.0
  9
$PUCSORTHOREF
  2

  9
$PUCSORTHOVIEW
 70
     0
  9
$PUCSORGTOP
 10
0.0
 20
0.0
 30
0.0
  9
$PUCSORGBOTTOM
 10
0.0
 20
0.0
 30
0.0
  9
$PUCSORGLEFT
 10
0.0
 20
0.0
 30
0.0
  9
$PUCSORGRIGHT
 10
0.0
 20
0.0
 30
0.0
  9
$PUCSORGFRONT
 10
0.0
 20
0.0
 30
0.0
  9
$PUCSORGBACK
 10
0.0
 20
0.0
 30
0.0
  9
$USERI1
 70
     0
  9
$USERI2
 70
     0
  9
$USERI3
 70
     0
  9
$USERI4
 70
     0
  9
$USERI5
 70
     0
  9
$USERR1
 40
0.0
  9
$USERR2
 40
0.0
  9
$USERR3
 40
0.0
  9
$USERR4
 40
0.0
  9
$USERR5
 40
0.0
  9
$WORLDVIEW
 70
     1
  9
$SHADEDGE
 70
     3
  9
$SHADEDIF
 70
    70
  9
$TILEMODE
 70
     1
  9
$MAXACTVP
 70
    64
  9
$PINSBASE
 10
0.0
 20
0.0
 30
0.0
  9
$PLIMCHECK
 70
     0
  9
$PEXTMIN
 10
1.000000000000000E+20
 20
1.000000000000000E+20
 30
1.000000000000000E+20
  9
$PEXTMAX
 10
-1.000000000000000E+20
 20
-1.000000000000000E+20
 30
-1.000000000000000E+20
  9
$PLIMMIN
 10
0.0
 20
0.0
  9
$PLIMMAX
 10
12.0
 20
9.0
  9
$UNITMODE
 70
     0
  9
$VISRETAIN
 70
     1
  9
$PLINEGEN
 70
     0
  9
$PSLTSCALE
 70
     1
  9
$TREEDEPTH
 70
  3020
  9
$CMLSTYLE
  2
Standard
  9
$CMLJUST
 70
     0
  9
$CMLSCALE
 40
1.0
  9
$PROXYGRAPHICS
 70
     1
  9
$MEASUREMENT
 70
     0
  9
$CELWEIGHT
370
    -1
  9
$ENDCAPS
280
     0
  9
$JOINSTYLE
280
     0
  9
$LWDISPLAY
290
     1
  9
$INSUNITS
 70
     4
  9
$HYPERLINKBASE
  1

  9
$STYLESHEET
  1

  9
$XEDIT
290
     1
  9
$CEPSNTYPE
380
     0
  9
$PSTYLEMODE
290
     1
  9
$FINGERPRINTGUID
  2
{3BC05DBC-C2BC-F243-92CE-96F4340F9040}
  9
$VERSIONGUID
  2
{01D9D71F-93A7-5145-9DC6-4B426679F788}
  9
$EXTNAMES
290
     1
  9
$PSVPSCALE
 40
0.0
  9
$OLESTARTUP
290
     0
  9
$SORTENTS
280
   127
  9
$INDEXCTL
280
     0
  9
$HIDETEXT
280
     1
  9
$XCLIPFRAME
280
     2
  9
$HALOGAP
280
     0
  9
$OBSCOLOR
 70
   257
  9
$OBSLTYPE
280
     0
  9
$INTERSECTIONDISPLAY
280
     0
  9
$INTERSECTIONCOLOR
 70
   257
  9
$DIMASSOC
280
     2
  9
$PROJECTNAME
  1

  9
$CAMERADISPLAY
290
     0
  9
$LENSLENGTH
 40
50.0
  9
$CAMERAHEIGHT
 40
0.0
  9
$STEPSPERSEC
 40
2.0
  9
$STEPSIZE
 40
6.0
  9
$3DDWFPREC
 40
2.0
  9
$PSOLWIDTH
 40
0.25
  9
$PSOLHEIGHT
 40
4.0
  9
$LOFTANG1
 40
1.570796326794896
  9
$LOFTANG2
 40
1.570796326794896
  9
$LOFTMAG1
 40
0.0
  9
$LOFTMAG2
 40
0.0
  9
$LOFTPARAM
 70
     7
  9
$LOFTNORMALS
280
     1
  9
$LATITUDE
 40
37.795
  9
$LONGITUDE
 40
-122.394
  9
$NORTHDIRECTION
 40
0.0
  9
$TIMEZONE
 70
 -8000
  9
$LIGHTGLYPHDISPLAY
280
     1
  9
$TILEMODELIGHTSYNCH
280
     1
  9
$CMATERIAL
347
11
  9
$SOLIDHIST
280
     0
  9
$SHOWHIST
280
     1
  9
$DWFFRAME
280
     2
  9
$DGNFRAME
280
     0
  9
$REALWORLDSCALE
290
     1
  9
$INTERFERECOLOR
 62
     1
  9
$INTERFEREOBJVS
345
33
  9
$INTERFEREVPVS
346
30
  9
$CSHADOW
280
     0
  9
$SHADOWPLANELOCATION
 40
0.0
  0
ENDSEC
  0
SECTION
  2
CLASSES
  0
CLASS
  1
ACDBDICTIONARYWDFLT
  2
AcDbDictionaryWithDefault
  3
ObjectDBX Classes
 90
        0
 91
        1
280
     0
281
     0
  0
CLASS
  1
MATERIAL
  2
AcDbMaterial
  3
ObjectDBX Classes
 90
     1153
 91
        3
280
     0
281
     0
  0
CLASS
  1
VISUALSTYLE
  2
AcDbVisualStyle
  3
ObjectDBX Classes
 90
     4095
 91
       24
280
     0
281
     0
  0
CLASS
  1
SCALE
  2
AcDbScale
  3
ObjectDBX Classes
 90
     1153
 91
       17
280
     0
281
     0
  0
CLASS
  1
TABLESTYLE
  2
AcDbTableStyle
  3
ObjectDBX Classes
 90
     4095
 91
        1
280
     0
281
     0
  0
CLASS
  1
MLEADERSTYLE
  2
AcDbMLeaderStyle
  3
ACDB_MLEADERSTYLE_CLASS
 90
     4095
 91
        1
280
     0
281
     0
  0
CLASS
  1
ACDBSECTIONVIEWSTYLE
  2
AcDbSectionViewStyle
  3
ObjectDBX Classes
 90
     1025
 91
        1
280
     0
281
     0
  0
CLASS
  1
ACDBDETAILVIEWSTYLE
  2
AcDbDetailViewStyle
  3
ObjectDBX Classes
 90
     1025
 91
        1
280
     0
281
     0
  0
CLASS
  1
DICTIONARYVAR
  2
AcDbDictionaryVar
  3
ObjectDBX Classes
 90
        0
 91
        5
280
     0
281
     0
  0
CLASS
  1
CELLSTYLEMAP
  2
AcDbCellStyleMap
  3
ObjectDBX Classes
 90
     1152
 91
        1
280
     0
281
     0
  0
ENDSEC
  0
SECTION
  2
TABLES
  0
TABLE
  2
VPORT
  5
8
330
0
100
AcDbSymbolTable
 70
     1
  0
VPORT
  5
57
330
8
100
AcDbSymbolTableRecord
100
AcDbViewportTableRecord
  2
*Active
 70
     0
 10
0.0
 20
0.0
 11
1.0
 21
1.0
 12
0.0
 22
0.0
 13
0.0
 23
0.0
 14
1.0
 24
1.0
 15
0.0
 25
0.0
 16
0.0
 26
0.0
 36
1.0
 17
49.99999998749986
 27
-49.99999998749986
 37
0.0
 40
101.9999999744997
 41
1.0
 42
50.0
 43
0.0
 44
0.0
 50
0.0
 51
0.0
 71
     0
 72
   100
 73
     1
 74
     1
 75
     0
 76
     0
 77
     0
 78
     0
281
     0
 65
     1
110
0.0
120
0.0
130
0.0
111
1.0
121
0.0
131
0.0
112
0.0
122
1.0
132
0.0
 79
     0
146
0.0
 60
     3
 61
     5
292
     1
282
     1
141
0.0
142
0.0
 63
   250
421
  3355443
  0
ENDTAB
  0
TABLE
  2
LTYPE
  5
5
330
0
100
AcDbSymbolTable
 70
     1
  0
LTYPE
  5
5B
330
5
100
AcDbSymbolTableRecord
100
AcDbLinetypeTableRecord
  2
ByBlock
 70
     0
  3

 72
    65
 73
     0
 40
0.0
  0
LTYPE
  5
5C
330
5
100
AcDbSymbolTableRecord
100
AcDbLinetypeTableRecord
  2
ByLayer
 70
     0
  3

 72
    65
 73
     0
 40
0.0
  0
LTYPE
  5
5D
330
5
100
AcDbSymbolTableRecord
100
AcDbLinetypeTableRecord
  2
Continuous
 70
     0
  3
Solid line
 72
    65
 73
     0
 40
0.0
  0
ENDTAB
  0
TABLE
  2
LAYER
  5
2
330
0
100
AcDbSymbolTable
 70
     2
  0
LAYER
  5
54
330
2
100
AcDbSymbolTableRecord
100
AcDbLayerTableRecord
  2
0
 70
     0
 62
     7
  6
Continuous
370
    -3
390
F
347
21
348
0
  0
LAYER
  5
78
330
2
100
AcDbSymbolTableRecord
100
AcDbLayerTableRecord
  2
Camada 1
 70
     0
 62
     7
  6
Continuous
370
     0
390
F
347
21
348
0
  0
ENDTAB
  0
TABLE
  2
STYLE
  5
3
330
0
100
AcDbSymbolTable
 70
     2
  0
STYLE
  5
55
330
3
100
AcDbSymbolTableRecord
100
AcDbTextStyleTableRecord
  2
Standard
 70
     0
 40
0.0
 41
1.0
 50
0.0
 71
     0
 42
0.2
  3
txt
  4

  0
STYLE
  5
5A
330
3
100
AcDbSymbolTableRecord
100
AcDbTextStyleTableRecord
  2
Annotative
 70
     0
 40
0.0
 41
1.0
 50
0.0
 71
     0
 42
0.2
  3
txt
  4

1001
AcadAnnotative
1000
AnnotativeData
1002
{
1070
     1
1070
     1
1002
}
  0
ENDTAB
  0
TABLE
  2
VIEW
  5
6
330
0
100
AcDbSymbolTable
 70
     0
  0
ENDTAB
  0
TABLE
  2
UCS
  5
7
330
0
100
AcDbSymbolTable
 70
     0
  0
ENDTAB
  0
TABLE
  2
APPID
  5
9
330
0
100
AcDbSymbolTable
 70
     2
  0
APPID
  5
56
330
9
100
AcDbSymbolTableRecord
100
AcDbRegAppTableRecord
  2
ACAD
 70
     0
  0
APPID
  5
5E
330
9
100
AcDbSymbolTableRecord
100
AcDbRegAppTableRecord
  2
AcadAnnotative
 70
     0
  0
ENDTAB
  0
TABLE
  2
DIMSTYLE
  5
A
330
0
100
AcDbSymbolTable
 70
     2
100
AcDbDimStyleTable
 71
     0
  0
DIMSTYLE
105
58
330
A
100
AcDbSymbolTableRecord
100
AcDbDimStyleTableRecord
  2
Standard
 70
     0
340
55
  0
DIMSTYLE
105
59
330
A
100
AcDbSymbolTableRecord
100
AcDbDimStyleTableRecord
  2
Annotative
 70
     0
340
55
1001
AcadAnnotative
1000
AnnotativeData
1002
{
1070
     1
1070
     1
1002
}
  0
ENDTAB
  0
TABLE
  2
BLOCK_RECORD
  5
1
330
0
100
AcDbSymbolTable
 70
     5
  0
BLOCK_RECORD
  5
70
330
1
100
AcDbSymbolTableRecord
100
AcDbBlockTableRecord
  2
*Model_Space
340
73
 70
     0
280
     1
281
     0
  0
BLOCK_RECORD
  5
6C
330
1
100
AcDbSymbolTableRecord
100
AcDbBlockTableRecord
  2
*Paper_Space
340
6F
 70
     0
280
     1
281
     0
  0
BLOCK_RECORD
  5
74
330
1
100
AcDbSymbolTableRecord
100
AcDbBlockTableRecord
  2
*Paper_Space0
340
77
 70
     0
280
     1
281
     0
  0
BLOCK_RECORD
  5
79
330
1
100
AcDbSymbolTableRecord
100
AcDbBlockTableRecord
  2
Block_0
340
0
102
{BLKREFS
331
7A
102
}
 70
     0
280
     1
281
     0
  0
BLOCK_RECORD
  5
8D
330
1
100
AcDbSymbolTableRecord
100
AcDbBlockTableRecord
  2
Block_1
340
0
102
{BLKREFS
331
8E
102
}
 70
     0
280
     1
281
     0
  0
BLOCK_RECORD
  5
AF
330
1
100
AcDbSymbolTableRecord
100
AcDbBlockTableRecord
  2
Block_2
340
0
102
{BLKREFS
331
B0
102
}
 70
     0
280
     1
281
     0
  0
BLOCK_RECORD
  5
C1
330
1
100
AcDbSymbolTableRecord
100
AcDbBlockTableRecord
  2
Block_3
340
0
102
{BLKREFS
331
C2
102
}
 70
     0
280
     1
281
     0
  0
ENDTAB
  0
ENDSEC
  0
SECTION
  2
BLOCKS
  0
BLOCK
  5
71
330
70
100
AcDbEntity
  8
0
100
AcDbBlockBegin
  2
*Model_Space
 70
     0
 10
0.0
 20
0.0
 30
0.0
  3
*Model_Space
  1

  0
ENDBLK
  5
72
330
70
100
AcDbEntity
  8
0
100
AcDbBlockEnd
  0
BLOCK
  5
6D
330
6C
100
AcDbEntity
 67
     1
  8
0
100
AcDbBlockBegin
  2
*Paper_Space
 70
     0
 10
0.0
 20
0.0
 30
0.0
  3
*Paper_Space
  1

  0
ENDBLK
  5
6E
330
6C
100
AcDbEntity
 67
     1
  8
0
100
AcDbBlockEnd
  0
BLOCK
  5
75
330
74
100
AcDbEntity
 67
     1
  8
0
100
AcDbBlockBegin
  2
*Paper_Space0
 70
     0
 10
0.0
 20
0.0
 30
0.0
  3
*Paper_Space0
  1

  0
ENDBLK
  5
76
330
74
100
AcDbEntity
 67
     1
  8
0
100
AcDbBlockEnd
  0
BLOCK
  5
7B
330
79
100
AcDbEntity
  8
0
100
AcDbBlockBegin
  2
Block_0
 70
     0
 10
0.0
 20
0.0
 30
0.0
  3
Block_0
  1

  0
SPLINE
  5
7D
330
79
100
AcDbEntity
  8
Camada 1
 62
    18
420
        0
370
    15
100
AcDbSpline
210
0.0
220
0.0
230
1.0
 70
     9
 71
     3
 72
    17
 73
    13
 74
     0
 42
0.0000000001
 43
0.0000000001
 40
0.0
 40
0.0
 40
0.0
 40
0.0
 40
1.0
 40
1.0
 40
1.0
 40
2.0
 40
2.0
 40
2.0
 40
3.0
 40
3.0
 40
3.0
 40
4.0
 40
4.0
 40
4.0
 40
4.0
 10
33.37590214754084
 20
-70.54958615957303
 30
0.0
 10
33.37590214754084
 20
-70.9297697803709
 30
0.0
 10
33.06782529619737
 20
-71.23738465749788
 30
0.0
 10
32.68810364961664
 20
-71.23738465749788
 30
0.0
 10
32.30815277918924
 20
-71.23738465749788
 30
0.0
 10
32.00007945436573
 20
-70.9297697803709
 30
0.0
 10
32.00007945436573
 20
-70.54958615957303
 30
0.0
 10
32.00007945436573
 20
-70.16940606529771
 30
0.0
 10
32.30815277918924
 20
-69.86179118816943
 30
0.0
 10
32.68810364961664
 20
-69.86179118816943
 30
0.0
 10
33.06782529619737
 20
-69.86179118816943
 30
0.0
 10
33.37590214754084
 20
-70.16940606529771
 30
0.0
 10
33.37590214754084
 20
-70.54958615957303
 30
0.0
  0
SPLINE
  5
7E
330
79
100
AcDbEntity
  8
Camada 1
 62
    18
420
        0
370
    15
100
AcDbSpline
210
0.0
220
0.0
230
1.0
 70
     9
 71
     3
 72
    17
 73
    13
 74
     0
 42
0.0000000001
 43
0.0000000001
 40
0.0
 40
0.0
 40
0.0
 40
0.0
 40
1.0
 40
1.0
 40
1.0
 40
2.0
 40
2.0
 40
2.0
 40
3.0
 40
3.0
 40
3.0
 40
4.0
 40
4.0
 40
4.0
 40
4.0
 10
33.37590214754084
 20
-70.54958615957303
 30
0.0
 10
33.37590214754084
 20
-70.9297697803709
 30
0.0
 10
33.06782529619737
 20
-71.23738465749788
 30
0.0
 10
32.68810364961664
 20
-71.23738465749788
 30
0.0
 10
32.30815277918924
 20
-71.23738465749788
 30
0.0
 10
32.00007945436573
 20
-70.9297697803709
 30
0.0
 10
32.00007945436573
 20
-70.54958615957303
 30
0.0
 10
32.00007945436573
 20
-70.16940606529771
 30
0.0
 10
32.30815277918924
 20
-69.86179118816943
 30
0.0
 10
32.68810364961664
 20
-69.86179118816943
 30
0.0
 10
33.06782529619737
 20
-69.86179118816943
 30
0.0
 10
33.37590214754084
 20
-70.16940606529771
 30
0.0
 10
33.37590214754084
 20
-70.54958615957303
 30
0.0
  0
SPLINE
  5
7F
330
79
100
AcDbEntity
  8
Camada 1
 62
    18
420
        0
370
    15
100
AcDbSpline
210
0.0
220
0.0
230
1.0
 70
     9
 71
     3
 72
    17
 73
    13
 74
     0
 42
0.0000000001
 43
0.0000000001
 40
0.0
 40
0.0
 40
0.0
 40
0.0
 40
1.0
 40
1.0
 40
1.0
 40
2.0
 40
2.0
 40
2.0
 40
3.0
 40
3.0
 40
3.0
 40
4.0
 40
4.0
 40
4.0
 40
4.0
 10
31.67866882812593
 20
-68.02736915915045
 30
0.0
 10
31.67866882812593
 20
-68.22982671450493
 30
0.0
 10
31.51434354147218
 20
-68.39438122500599
 30
0.0
 10
31.31188951263959
 20
-68.39438122500599
 30
0.0
 10
31.10920273343909
 20
-68.39438122500599
 30
0.0
 10
30.94488097330595
 20
-68.22982671450493
 30
0.0
 10
30.94488097330595
 20
-68.02736915915045
 30
0.0
 10
30.94488097330595
 20
-67.82491513031851
 30
0.0
 10
31.10920273343909
 20
-67.66036061981747
 30
0.0
 10
31.31188951263959
 20
-67.66036061981747
 30
0.0
 10
31.51434354147218
 20
-67.66036061981747
 30
0.0
 10
31.67866882812593
 20
-67.82491513031851
 30
0.0
 10
31.67866882812593
 20
-68.02736915915045
 30
0.0
  0
SPLINE
  5
80
330
79
100
AcDbEntity
  8
Camada 1
 62
    18
420
        0
370
    15
100
AcDbSpline
210
0.0
220
0.0
230
1.0
 70
     9
 71
     3
 72
    17
 73
    13
 74
     0
 42
0.0000000001
 43
0.0000000001
 40
0.0
 40
0.0
 40
0.0
 40
0.0
 40
1.0
 40
1.0
 40
1.0
 40
2.0
 40
2.0
 40
2.0
 40
3.0
 40
3.0
 40
3.0
 40
4.0
 40
4.0
 40
4.0
 40
4.0
 10
31.67866882812593
 20
-68.02736915915045
 30
0.0
 10
31.67866882812593
 20
-68.22982671450493
 30
0.0
 10
31.51434354147218
 20
-68.39438122500599
 30
0.0
 10
31.31188951263959
 20
-68.39438122500599
 30
0.0
 10
31.10920273343909
 20
-68.39438122500599
 30
0.0
 10
30.94488097330595
 20
-68.22982671450493
 30
0.0
 10
30.94488097330595
 20
-68.02736915915045
 30
0.0
 10
30.94488097330595
 20
-67.82491513031851
 30
0.0
 10
31.10920273343909
 20
-67.66036061981747
 30
0.0
 10
31.31188951263959
 20
-67.66036061981747
 30
0.0
 10
31.51434354147218
 20
-67.66036061981747
 30
0.0
 10
31.67866882812593
 20
-67.82491513031851
 30
0.0
 10
31.67866882812593
 20
-68.02736915915045
 30
0.0
  0
SPLINE
  5
81
330
79
100
AcDbEntity
  8
Camada 1
 62
    18
420
        0
370
    15
100
AcDbSpline
210
0.0
220
0.0
230
1.0
 70
     9
 71
     3
 72
    17
 73
    13
 74
     0
 42
0.0000000001
 43
0.0000000001
 40
0.0
 40
0.0
 40
0.0
 40
0.0
 40
1.0
 40
1.0
 40
1.0
 40
2.0
 40
2.0
 40
2.0
 40
3.0
 40
3.0
 40
3.0
 40
4.0
 40
4.0
 40
4.0
 40
4.0
 10
34.42633629908865
 20
-68.02736915915045
 30
0.0
 10
34.42633629908865
 20
-68.22982671450493
 30
0.0
 10
34.26201101243619
 20
-68.39438122500599
 30
0.0
 10
34.05932423323441
 20
-68.39438122500599
 30
0.0
 10
33.85687020440182
 20
-68.39438122500599
 30
0.0
 10
33.69277766811725
 20
-68.22982671450493
 30
0.0
 10
33.69277766811725
 20
-68.02736915915045
 30
0.0
 10
33.69277766811725
 20
-67.82491513031851
 30
0.0
 10
33.85687020440182
 20
-67.66036061981747
 30
0.0
 10
34.05932423323441
 20
-67.66036061981747
 30
0.0
 10
34.26201101243619
 20
-67.66036061981747
 30
0.0
 10
34.42633629908865
 20
-67.82491513031851
 30
0.0
 10
34.42633629908865
 20
-68.02736915915045
 30
0.0
  0
SPLINE
  5
82
330
79
100
AcDbEntity
  8
Camada 1
 62
    18
420
        0
370
    15
100
AcDbSpline
210
0.0
220
0.0
230
1.0
 70
     9
 71
     3
 72
    17
 73
    13
 74
     0
 42
0.0000000001
 43
0.0000000001
 40
0.0
 40
0.0
 40
0.0
 40
0.0
 40
1.0
 40
1.0
 40
1.0
 40
2.0
 40
2.0
 40
2.0
 40
3.0
 40
3.0
 40
3.0
 40
4.0
 40
4.0
 40
4.0
 40
4.0
 10
34.42633629908865
 20
-68.02736915915045
 30
0.0
 10
34.42633629908865
 20
-68.22982671450493
 30
0.0
 10
34.26201101243619
 20
-68.39438122500599
 30
0.0
 10
34.05932423323441
 20
-68.39438122500599
 30
0.0
 10
33.85687020440182
 20
-68.39438122500599
 30
0.0
 10
33.69277766811725
 20
-68.22982671450493
 30
0.0
 10
33.69277766811725
 20
-68.02736915915045
 30
0.0
 10
33.69277766811725
 20
-67.82491513031851
 30
0.0
 10
33.85687020440182
 20
-67.66036061981747
 30
0.0
 10
34.05932423323441
 20
-67.66036061981747
 30
0.0
 10
34.26201101243619
 20
-67.66036061981747
 30
0.0
 10
34.42633629908865
 20
-67.82491513031851
 30
0.0
 10
34.42633629908865
 20
-68.02736915915045
 30
0.0
  0
SPLINE
  5
83
330
79
100
AcDbEntity
  8
Camada 1
 62
    18
420
        0
370
    15
100
AcDbSpline
210
0.0
220
0.0
230
1.0
 70
     9
 71
     3
 72
    17
 73
    13
 74
     0
 42
0.0000000001
 43
0.0000000001
 40
0.0
 40
0.0
 40
0.0
 40
0.0
 40
1.0
 40
1.0
 40
1.0
 40
2.0
 40
2.0
 40
2.0
 40
3.0
 40
3.0
 40
3.0
 40
4.0
 40
4.0
 40
4.0
 40
4.0
 10
30.32605064138142
 20
-62.83946218875319
 30
0.0
 10
30.32605064138142
 20
-62.96611365440337
 30
0.0
 10
30.22320319068811
 20
-63.06872835472813
 30
0.0
 10
30.09678447540711
 20
-63.06872835472813
 30
0.0
 10
29.97013300975692
 20
-63.06872835472813
 30
0.0
 10
29.86728908558422
 20
-62.96611365440337
 30
0.0
 10
29.86728908558422
 20
-62.83946218875319
 30
0.0
 10
29.86728908558422
 20
-62.71281424962553
 30
0.0
 10
29.97013300975692
 20
-62.61019954929948
 30
0.0
 10
30.09678447540711
 20
-62.61019954929948
 30
0.0
 10
30.22320319068811
 20
-62.61019954929948
 30
0.0
 10
30.32605064138142
 20
-62.71281424962553
 30
0.0
 10
30.32605064138142
 20
-62.83946218875319
 30
0.0
  0
SPLINE
  5
84
330
79
100
AcDbEntity
  8
Camada 1
 62
    18
420
        0
370
    15
100
AcDbSpline
210
0.0
220
0.0
230
1.0
 70
     9
 71
     3
 72
    17
 73
    13
 74
     0
 42
0.0000000001
 43
0.0000000001
 40
0.0
 40
0.0
 40
0.0
 40
0.0
 40
1.0
 40
1.0
 40
1.0
 40
2.0
 40
2.0
 40
2.0
 40
3.0
 40
3.0
 40
3.0
 40
4.0
 40
4.0
 40
4.0
 40
4.0
 10
30.32605064138142
 20
-62.83946218875319
 30
0.0
 10
30.32605064138142
 20
-62.96611365440337
 30
0.0
 10
30.22320319068811
 20
-63.06872835472813
 30
0.0
 10
30.09678447540711
 20
-63.06872835472813
 30
0.0
 10
29.97013300975692
 20
-63.06872835472813
 30
0.0
 10
29.86728908558422
 20
-62.96611365440337
 30
0.0
 10
29.86728908558422
 20
-62.83946218875319
 30
0.0
 10
29.86728908558422
 20
-62.71281424962553
 30
0.0
 10
29.97013300975692
 20
-62.61019954929948
 30
0.0
 10
30.09678447540711
 20
-62.61019954929948
 30
0.0
 10
30.22320319068811
 20
-62.61019954929948
 30
0.0
 10
30.32605064138142
 20
-62.71281424962553
 30
0.0
 10
30.32605064138142
 20
-62.83946218875319
 30
0.0
  0
SPLINE
  5
85
330
79
100
AcDbEntity
  8
Camada 1
 62
    18
420
        0
370
    15
100
AcDbSpline
210
0.0
220
0.0
230
1.0
 70
     9
 71
     3
 72
    17
 73
    13
 74
     0
 42
0.0000000001
 43
0.0000000001
 40
0.0
 40
0.0
 40
0.0
 40
0.0
 40
1.0
 40
1.0
 40
1.0
 40
2.0
 40
2.0
 40
2.0
 40
3.0
 40
3.0
 40
3.0
 40
4.0
 40
4.0
 40
4.0
 40
4.0
 10
35.5080894812774
 20
-62.83946218875319
 30
0.0
 10
35.5080894812774
 20
-62.96588443055608
 30
0.0
 10
35.40524203058345
 20
-63.06872835472813
 30
0.0
 10
35.27882331530245
 20
-63.06872835472813
 30
0.0
 10
35.15217184965226
 20
-63.06872835472813
 30
0.0
 10
35.0493279254802
 20
-62.96588443055608
 30
0.0
 10
35.0493279254802
 20
-62.83946218875319
 30
0.0
 10
35.0493279254802
 20
-62.71281424962553
 30
0.0
 10
35.15217184965226
 20
-62.61019954929948
 30
0.0
 10
35.27882331530245
 20
-62.61019954929948
 30
0.0
 10
35.40524203058345
 20
-62.61019954929948
 30
0.0
 10
35.5080894812774
 20
-62.71281424962553
 30
0.0
 10
35.5080894812774
 20
-62.83946218875319
 30
0.0
  0
SPLINE
  5
86
330
79
100
AcDbEntity
  8
Camada 1
 62
    18
420
        0
370
    15
100
AcDbSpline
210
0.0
220
0.0
230
1.0
 70
     9
 71
     3
 72
    17
 73
    13
 74
     0
 42
0.0000000001
 43
0.0000000001
 40
0.0
 40
0.0
 40
0.0
 40
0.0
 40
1.0
 40
1.0
 40
1.0
 40
2.0
 40
2.0
 40
2.0
 40
3.0
 40
3.0
 40
3.0
 40
4.0
 40
4.0
 40
4.0
 40
4.0
 10
35.5080894812774
 20
-62.83946218875319
 30
0.0
 10
35.5080894812774
 20
-62.96588443055608
 30
0.0
 10
35.40524203058345
 20
-63.06872835472813
 30
0.0
 10
35.27882331530245
 20
-63.06872835472813
 30
0.0
 10
35.15217184965226
 20
-63.06872835472813
 30
0.0
 10
35.0493279254802
 20
-62.96588443055608
 30
0.0
 10
35.0493279254802
 20
-62.83946218875319
 30
0.0
 10
35.0493279254802
 20
-62.71281424962553
 30
0.0
 10
35.15217184965226
 20
-62.61019954929948
 30
0.0
 10
35.27882331530245
 20
-62.61019954929948
 30
0.0
 10
35.40524203058345
 20
-62.61019954929948
 30
0.0
 10
35.5080894812774
 20
-62.71281424962553
 30
0.0
 10
35.5080894812774
 20
-62.83946218875319
 30
0.0
  0
SPLINE
  5
87
330
79
100
AcDbEntity
  8
Camada 1
 62
    18
420
        0
370
    15
100
AcDbSpline
210
0.0
220
0.0
230
1.0
 70
     9
 71
     3
 72
    29
 73
    25
 74
     0
 42
0.0000000001
 43
0.0000000001
 40
0.0
 40
0.0
 40
0.0
 40
0.0
 40
1.0
 40
1.0
 40
1.0
 40
2.0
 40
2.0
 40
2.0
 40
3.0
 40
3.0
 40
3.0
 40
4.0
 40
4.0
 40
4.0
 40
5.0
 40
5.0
 40
5.0
 40
6.0
 40
6.0
 40
6.0
 40
7.0
 40
7.0
 40
7.0
 40
8.0
 40
8.0
 40
8.0
 40
8.0
 10
82.8821771601798
 20
-58.81234478324118
 30
0.0
 10
82.8821771601798
 20
-58.81234478324118
 30
0.0
 10
83.4393885953154
 20
-58.81234478324118
 30
0.0
 10
83.4393885953154
 20
-58.81234478324118
 30
0.0
 10
83.48977552356606
 20
-58.81234478324118
 30
0.0
 10
83.53045041371455
 20
-58.8530231999109
 30
0.0
 10
83.53045041371455
 20
-58.90317385127242
 30
0.0
 10
83.53045041371455
 20
-58.90317385127242
 30
0.0
 10
83.53045041371455
 20
-60.44239435614771
 30
0.0
 10
83.53045041371455
 20
-60.44239435614771
 30
0.0
 10
83.53045041371455
 20
-60.49115908486171
 30
0.0
 10
83.4923146184945
 20
-60.53114277694704
 30
0.0
 10
83.44378264014968
 20
-60.53391462224338
 30
0.0
 10
83.44378264014968
 20
-60.53391462224338
 30
0.0
 10
82.94873671251833
 20
-60.53368539839607
 30
0.0
 10
82.94873671251833
 20
-60.53368539839607
 30
0.0
 10
82.90066318186879
 20
-60.53622801984511
 30
0.0
 10
82.85906434328799
 20
-60.50017287185761
 30
0.0
 10
82.85490304882094
 20
-60.45209934120933
 30
0.0
 10
82.85490304882094
 20
-60.45209934120933
 30
0.0
 10
82.79296323864466
 20
-58.9096450168193
 30
0.0
 10
82.79296323864466
 20
-58.9096450168193
 30
0.0
 10
82.78834349648304
 20
-58.85741371822458
 30
0.0
 10
82.82947683432741
 20
-58.81234478324118
 30
0.0
 10
82.8821771601798
 20
-58.81234478324118
 30
0.0
  0
LINE
  5
88
330
79
100
AcDbEntity
  8
Camada 1
 62
    18
420
        0
370
    15
100
AcDbLine
 10
71.88219020854863
 20
-67.20388777597587
 30
0.0
 11
73.99156447965459
 21
-67.20388777597587
 31
0.0
  0
LINE
  5
89
330
79
100
AcDbEntity
  8
Camada 1
 62
    18
420
        0
370
    15
100
AcDbLine
 10
74.30941684647359
 20
-65.68024391318409
 30
0.0
 11
74.58328644669487
 21
-65.5045984949726
 31
0.0
  0
LINE
  5
8A
330
79
100
AcDbEntity
  8
Camada 1
 62
    18
420
        0
370
    15
100
AcDbLine
 10
74.74963948277089
 20
-65.29447075702255
 30
0.0
 11
74.80926589534544
 21
-65.12575847857636
 31
0.0
  0
LINE
  5
8B
330
79
100
AcDbEntity
  8
Camada 1
 62
    18
420
        0
370
    15
100
AcDbLine
 10
74.93051473123078
 20
-65.03425937160558
 30
0.0
 11
75.22263760277251
 21
-65.01646454798102
 31
0.0
  0
LINE
  5
8C
330
79
100
AcDbEntity
  8
Camada 1
 62
    18
420
        0
370
    15
100
AcDbLine
 10
74.60371910782914
 20
-67.06489701427817
 30
0.0
 11
74.5977099164981
 21
-67.11320329529499
 31
0.0
  0
INSERT
  5
8E
330
79
100
AcDbEntity
  8
Camada 1
100
AcDbBlockReference
  2
Block_1
 10
0.0
 20
0.0
 30
0.0
  0
LWPOLYLINE
  5
96
330
79
100
AcDbEntity
  8
Camada 1
 62
    18
420
        0
370
    15
100
AcDbPolyline
 90
       12
 70
     0
 43
0.0
 10
73.99163501007042
 20
-66.23050457595207
 10
73.99486530306136
 20
-66.16672039543108
 10
74.00526853922797
 20
-66.10108126500555
 10
74.02283061248462
 20
-66.03683158374749
 10
74.04686737780941
 20
-65.97466254972388
 10
74.07760453252965
 20
-65.91549811136518
 10
74.07852848096133
 20
-65.91387943834783
 10
74.11527482701197
 20
-65.85864354408825
 10
74.15757191669904
 20
-65.80756894429377
 10
74.20448874854709
 20
-65.76065211244443
 10
74.25533412449299
 20
-65.71789657506276
 10
74.30941684647359
 20
-65.6802227540592
  0
LWPOLYLINE
  5
97
330
79
100
AcDbEntity
  8
Camada 1
 62
    18
420
        0
370
    15
100
AcDbPolyline
 90
       11
 70
     0
 43
0.0
 10
74.58333581798519
 20
-65.50448211978833
 10
74.60551763340347
 20
-65.4892299176128
 10
74.62678255343128
 20
-65.4723590424212
 10
74.64665802428967
 20
-65.45386949421097
 10
74.66584229708364
 20
-65.43399402335322
 10
74.68340437034031
 20
-65.41296185369396
 10
74.70004249516465
 20
-65.391005735603
 10
74.71483272312433
 20
-65.36789644523179
 10
74.72800780458664
 20
-65.34409243027491
 10
74.7397934368808
 20
-65.31959369073364
 10
74.74973117230968
 20
-65.29440022660799
  0
LWPOLYLINE
  5
98
330
79
100
AcDbEntity
  8
Camada 1
 62
    18
420
        0
370
    15
100
AcDbPolyline
 90
        3
 70
     0
 43
0.0
 10
74.50671862851288
 20
-67.19357975587058
 10
73.99179017698128
 20
-67.19357975587058
 10
73.99179017698128
 20
-66.59384200720059
  0
LINE
  5
99
330
79
100
AcDbEntity
  8
Camada 1
 62
    18
420
        0
370
    15
100
AcDbLine
 10
73.99163501007042
 20
-66.24083728170346
 30
0.0
 11
76.09130429611475
 21
-65.13380247237087
 31
0.0
  0
LINE
  5
9A
330
79
100
AcDbEntity
  8
Camada 1
 62
    18
420
        0
370
    15
100
AcDbLine
 10
71.88219020854863
 20
-66.24083728170346
 30
0.0
 11
73.99156447965459
 21
-66.24083728170346
 31
0.0
  0
LINE
  5
9B
330
79
100
AcDbEntity
  8
Camada 1
 62
    18
420
        0
370
    15
100
AcDbLine
 10
64.45320752370442
 20
-71.92284507217488
 30
0.0
 11
60.86076906389448
 21
-62.23986197439363
 31
0.0
  0
LINE
  5
9C
330
79
100
AcDbEntity
  8
Camada 1
 62
    18
420
        0
370
    15
100
AcDbLine
 10
65.01757074288891
 20
-72.2229237744942
 30
0.0
 11
83.94303923353838
 21
-72.38817300957963
 31
0.0
  0
LINE
  5
9D
330
79
100
AcDbEntity
  8
Camada 1
 62
    18
420
        0
370
    15
100
AcDbLine
 10
67.2289390466704
 20
-71.74375424320757
 30
0.0
 11
67.54556418427398
 21
-65.70382223081233
 31
0.0
  0
LINE
  5
9E
330
79
100
AcDbEntity
  8
Camada 1
 62
    18
420
        0
370
    15
100
AcDbLine
 10
71.40780263937824
 20
-67.20388777597587
 30
0.0
 11
71.88204209467833
 21
-67.20388777597587
 31
0.0
  0
LINE
  5
9F
330
79
100
AcDbEntity
  8
Camada 1
 62
    18
420
        0
370
    15
100
AcDbLine
 10
67.93425024656096
 20
-65.35693954530927
 30
0.0
 11
67.92153361279391
 21
-65.35647757109344
 31
0.0
  0
LINE
  5
A0
330
79
100
AcDbEntity
  8
Camada 1
 62
    18
420
        0
370
    15
100
AcDbLine
 10
70.62698157752596
 20
-65.52165627576432
 30
0.0
 11
67.93427140568519
 21
-65.35687254141596
 31
0.0
  0
LINE
  5
A1
330
79
100
AcDbEntity
  8
Camada 1
 62
    18
420
        0
370
    15
100
AcDbLine
 10
71.56447184951753
 20
-65.69055193328937
 30
0.0
 11
71.29059519625442
 21
-65.51490651507918
 31
0.0
  0
LINE
  5
A2
330
79
100
AcDbEntity
  8
Camada 1
 62
    18
420
        0
370
    15
100
AcDbLine
 10
71.12424921322023
 20
-65.304799936254
 30
0.0
 11
71.06138545461227
 21
-65.12707387081062
 31
0.0
  0
LINE
  5
A3
330
79
100
AcDbEntity
  8
Camada 1
 62
    18
420
        0
370
    15
100
AcDbLine
 10
71.14139515703013
 20
-66.02555377043952
 30
0.0
 11
71.27127691567254
 21
-67.08313265299498
 31
0.0
  0
LINE
  5
A4
330
79
100
AcDbEntity
  8
Camada 1
 62
    18
420
        0
370
    15
100
AcDbLine
 10
71.88219020854863
 20
-67.20388777597587
 30
0.0
 11
71.88219020854863
 21
-66.24083728170346
 31
0.0
  0
LINE
  5
A5
330
79
100
AcDbEntity
  8
Camada 1
 62
    18
420
        0
370
    15
100
AcDbLine
 10
74.933745024223
 20
-65.03541254388584
 30
0.0
 11
70.94008724743661
 21
-65.03541254388584
 31
0.0
  0
LINE
  5
A6
330
79
100
AcDbEntity
  8
Camada 1
 62
    18
420
        0
370
    15
100
AcDbLine
 10
83.80910902909327
 20
-65.41568785422057
 30
0.0
 11
78.90601797927735
 21
-65.28718849170701
 31
0.0
  0
LINE
  5
A7
330
79
100
AcDbEntity
  8
Camada 1
 62
    18
420
        0
370
    15
100
AcDbLine
 10
70.94014367176812
 20
-65.03541254388584
 30
0.0
 11
64.82740663881608
 21
-64.66147086478883
 31
0.0
  0
LINE
  5
A8
330
79
100
AcDbEntity
  8
Camada 1
 62
    18
420
        0
370
    15
100
AcDbLine
 10
81.44346954927119
 20
-58.90444339873695
 30
0.0
 11
79.83838069012175
 21
-58.90444339873695
 31
0.0
  0
LINE
  5
A9
330
79
100
AcDbEntity
  8
Camada 1
 62
    18
420
        0
370
    15
100
AcDbLine
 10
79.79298731523037
 20
-58.39962195563007
 30
0.0
 11
81.48982213780216
 21
-58.39962195563007
 31
0.0
  0
LINE
  5
AA
330
79
100
AcDbEntity
  8
Camada 1
 62
    18
420
        0
370
    15
100
AcDbLine
 10
58.53823777352747
 20
-58.39962195563007
 30
0.0
 11
58.68037066520113
 21
-58.40101140479884
 31
0.0
  0
LINE
  5
AB
330
79
100
AcDbEntity
  8
Camada 1
 62
    18
420
        0
370
    15
100
AcDbLine
 10
78.63721246282991
 20
-65.01218687833035
 30
0.0
 11
78.62934832159239
 21
-60.65245156368321
 31
0.0
  0
LWPOLYLINE
  5
AC
330
79
100
AcDbEntity
  8
Camada 1
 62
    18
420
        0
370
    15
100
AcDbPolyline
 90
        4
 70
     0
 43
0.0
 10
81.44346954927119
 20
-58.44510349353836
 10
81.44346954927119
 20
-58.90363582548825
 10
81.44346954927119
 20
-58.90433055007264
 10
82.1294130972889
 20
-58.90433055007264
  0
SPLINE
  5
AD
330
79
100
AcDbEntity
  8
Camada 1
 62
    18
420
        0
370
    15
100
AcDbSpline
210
0.0
220
0.0
230
1.0
 70
     8
 71
     3
 72
    14
 73
    10
 74
     0
 42
0.0000000001
 43
0.0000000001
 40
0.0
 40
0.0
 40
0.0
 40
0.0
 40
1.0
 40
1.0
 40
1.0
 40
2.0
 40
2.0
 40
2.0
 40
3.0
 40
3.0
 40
3.0
 40
3.0
 10
82.4020343091718
 20
-59.16999393654542
 30
0.0
 10
82.4020343091718
 20
-59.16999393654542
 30
0.0
 10
82.46304311787326
 20
-60.95096096427486
 30
0.0
 10
82.46304311787326
 20
-60.95096096427486
 30
0.0
 10
82.46419981667413
 20
-60.98632138767797
 30
0.0
 10
82.49378027259352
 20
-61.01382472288411
 30
0.0
 10
82.52891147214739
 20
-61.0126680240826
 30
0.0
 10
82.52891147214739
 20
-61.0126680240826
 30
0.0
 10
83.80905260476176
 20
-60.96991248670093
 30
0.0
 10
83.80905260476176
 20
-60.96991248670093
 30
0.0
  0
LINE
  5
AE
330
79
100
AcDbEntity
  8
Camada 1
 62
    18
420
        0
370
    15
100
AcDbLine
 10
83.94308155178752
 20
-72.38807779352026
 30
0.0
 11
83.94308155178752
 21
-60.90124760148435
 31
0.0
  0
INSERT
  5
B0
330
79
100
AcDbEntity
  8
Camada 1
100
AcDbBlockReference
  2
Block_2
 10
0.0
 20
0.0
 30
0.0
  0
LINE
  5
BF
330
79
100
AcDbEntity
  8
Camada 1
 62
    18
420
        0
370
    15
100
AcDbLine
 10
60.58819722330318
 20
-59.45243650867292
 30
0.0
 11
63.39715562462687
 21
-63.82372823176501
 31
0.0
  0
LINE
  5
C0
330
79
100
AcDbEntity
  8
Camada 1
 62
    18
420
        0
370
    15
100
AcDbLine
 10
63.05002608267288
 20
-64.03845807927369
 30
0.0
 11
60.24129337867588
 21
-59.67571816896168
 31
0.0
  0
INSERT
  5
C2
330
79
100
AcDbEntity
  8
Camada 1
100
AcDbBlockReference
  2
Block_3
 10
0.0
 20
0.0
 30
0.0
  0
LWPOLYLINE
  5
DB
330
79
100
AcDbEntity
  8
Camada 1
 62
    18
420
        0
370
    15
100
AcDbPolyline
 90
       12
 70
     0
 43
0.0
 10
71.56447184951753
 20
-65.69053077416576
 10
71.56608699601365
 20
-65.6914582491187
 10
71.61993696762571
 20
-65.72959051781814
 10
71.6707823435716
 20
-65.7721168313525
 10
71.71746642505175
 20
-65.81926288704787
 10
71.75953076436965
 20
-65.87034101336358
 10
71.79627711042091
 20
-65.92580613147176
 10
71.82609031670884
 20
-65.98312267296453
 10
71.85035983240088
 20
-66.0452917069894
 10
71.86815465602608
 20
-66.10954138824617
 10
71.87878358951938
 20
-66.17494776830446
 10
71.88225368592134
 20
-66.24081612257859
  0
LWPOLYLINE
  5
DC
330
79
100
AcDbEntity
  8
Camada 1
 62
    18
420
        0
370
    15
100
AcDbPolyline
 90
       11
 70
     0
 43
0.0
 10
71.12424921322023
 20
-65.304799936254
 10
71.13418694864911
 20
-65.32999340037965
 10
71.14573983057475
 20
-65.35425938955109
 10
71.15891491203768
 20
-65.37829615487651
 10
71.17393789036592
 20
-65.40117622140043
 10
71.19034326482171
 20
-65.42313233949137
 10
71.20813808844627
 20
-65.44416450915064
 10
71.22708961087234
 20
-65.46403998000839
 10
71.24719783209929
 20
-65.48252952821862
 10
71.26846275212646
 20
-65.4994004034115
 10
71.29064456754474
 20
-65.51488535595557
  0
LWPOLYLINE
  5
DD
330
79
100
AcDbEntity
  8
Camada 1
 62
    18
420
        0
370
    15
100
AcDbPolyline
 90
       12
 70
     0
 43
0.0
 10
82.10870536753761
 20
-65.06511290150945
 10
82.1084726171697
 20
-65.07690206032421
 10
82.10777436606409
 20
-65.09469688394879
 10
82.10615921956733
 20
-65.11249170757334
 10
82.10570077187274
 20
-65.11827167505709
 10
82.10292187353392
 20
-65.13606649868293
 10
82.09922607980399
 20
-65.15386132230749
 10
82.0948320349697
 20
-65.17119769823745
 10
82.08905559400655
 20
-65.18829779727635
 10
82.08258795498029
 20
-65.20516867246922
 10
82.07449811641605
 20
-65.22111559923043
 10
82.0657170797874
 20
-65.23637132792592
  0
LINE
  5
DE
330
79
100
AcDbEntity
  8
Camada 1
 62
    18
420
        0
370
    15
100
AcDbLine
 10
65.50605028891336
 20
-71.86030575347361
 30
0.0
 11
67.09033267573214
 21
-71.87417555952158
 31
0.0
  0
SPLINE
  5
DF
330
79
100
AcDbEntity
  8
Camada 1
 62
    18
420
        0
370
    15
100
AcDbSpline
210
0.0
220
0.0
230
1.0
 70
     8
 71
     3
 72
    14
 73
    10
 74
     0
 42
0.0000000001
 43
0.0000000001
 40
0.0
 40
0.0
 40
0.0
 40
0.0
 40
1.0
 40
1.0
 40
1.0
 40
2.0
 40
2.0
 40
2.0
 40
3.0
 40
3.0
 40
3.0
 40
3.0
 10
65.50605028891336
 20
-71.44739602026366
 30
0.0
 10
65.50605028891336
 20
-71.44739602026366
 30
0.0
 10
66.63804228548181
 20
-71.45918517907844
 30
0.0
 10
66.63804228548181
 20
-71.45918517907844
 30
0.0
 10
66.7455094783374
 20
-71.46034187787866
 30
0.0
 10
66.83495615024106
 20
-71.37644594961144
 30
0.0
 10
66.840499840835
 20
-71.26897875675585
 30
0.0
 10
66.840499840835
 20
-71.26897875675585
 30
0.0
 10
67.13332096348235
 20
-65.68225755652267
 30
0.0
 10
67.13332096348235
 20
-65.68225755652267
 30
0.0
  0
LINE
  5
E0
330
79
100
AcDbEntity
  8
Camada 1
 62
    18
420
        0
370
    15
100
AcDbLine
 10
64.87929586489918
 20
-72.22172123092426
 30
0.0
 11
65.01750021247372
 21
-72.22172123092426
 31
0.0
  0
LWPOLYLINE
  5
E1
330
79
100
AcDbEntity
  8
Camada 1
 62
    18
420
        0
370
    15
100
AcDbPolyline
 90
        3
 70
     0
 43
0.0
 10
82.10870536753761
 20
-65.09471804307366
 10
82.10870536753761
 20
-61.01671294336472
 10
82.46531419722717
 20
-61.00515653491977
  0
LWPOLYLINE
  5
E2
330
79
100
AcDbEntity
  8
Camada 1
 62
    18
420
        0
370
    15
100
AcDbPolyline
 90
        3
 70
     0
 43
0.0
 10
83.94306039266327
 20
-60.83251218585449
 10
83.94306039266327
 20
-58.39957611086035
 10
81.4895470691845
 20
-58.39957611086035
  0
SPLINE
  5
E3
330
79
100
AcDbEntity
  8
Camada 1
 62
    18
420
        0
370
    15
100
AcDbSpline
210
0.0
220
0.0
230
1.0
 70
     8
 71
     3
 72
    23
 73
    19
 74
     0
 42
0.0000000001
 43
0.0000000001
 40
0.0
 40
0.0
 40
0.0
 40
0.0
 40
1.0
 40
1.0
 40
1.0
 40
2.0
 40
2.0
 40
2.0
 40
3.0
 40
3.0
 40
3.0
 40
4.0
 40
4.0
 40
4.0
 40
5.0
 40
5.0
 40
5.0
 40
6.0
 40
6.0
 40
6.0
 40
6.0
 10
79.83845122053567
 20
-58.44588990766218
 30
0.0
 10
79.83845122053567
 20
-58.44588990766218
 30
0.0
 10
79.83845122053567
 20
-58.90465146345937
 30
0.0
 10
79.83845122053567
 20
-58.90465146345937
 30
0.0
 10
79.83845122053567
 20
-58.90465146345937
 30
0.0
 10
78.96576429355613
 20
-58.89402252996736
 30
0.0
 10
78.96576429355613
 20
-58.89402252996736
 30
0.0
 10
78.84905056333675
 20
-58.89402252996736
 30
0.0
 10
78.75128835554086
 20
-58.98369489919708
 30
0.0
 10
78.73788052370939
 20
-59.10248575013034
 30
0.0
 10
78.73788052370939
 20
-59.10248575013034
 30
0.0
 10
78.09261186584016
 20
-64.844052949283
 30
0.0
 10
78.09261186584016
 20
-64.844052949283
 30
0.0
 10
77.98190732695052
 20
-65.82975428623329
 30
0.0
 10
77.21946649116538
 20
-66.60444978156902
 30
0.0
 10
76.25825684071513
 20
-66.70821765417533
 30
0.0
 10
76.25825684071513
 20
-66.70821765417533
 30
0.0
 10
74.80732630894135
 20
-66.86468232611216
 30
0.0
 10
74.80732630894135
 20
-66.86468232611216
 30
0.0
  0
LINE
  5
E4
330
79
100
AcDbEntity
  8
Camada 1
 62
    18
420
        0
370
    15
100
AcDbLine
 10
58.68030718782842
 20
-58.40087034396972
 30
0.0
 11
78.72390139551964
 21
-58.39948442132092
 31
0.0
  0
LINE
  5
E5
330
79
100
AcDbEntity
  8
Camada 1
 62
    18
420
        0
370
    15
100
AcDbLine
 10
36.67893668329513
 20
-72.15775014480446
 30
0.0
 11
36.54049605883146
 21
-72.15775014480446
 31
0.0
  0
LINE
  5
E6
330
79
100
AcDbEntity
  8
Camada 1
 62
    18
420
        0
370
    15
100
AcDbLine
 10
28.69694970255141
 20
-72.15775014480446
 30
0.0
 11
28.83538680049512
 21
-72.15775014480446
 31
0.0
  0
LINE
  5
E7
330
79
100
AcDbEntity
  8
Camada 1
 62
    18
420
        0
370
    15
100
AcDbLine
 10
36.05513748365616
 20
-71.79085445413448
 30
0.0
 11
36.01815838723634
 21
-71.79085445413448
 31
0.0
  0
LINE
  5
E8
330
79
100
AcDbEntity
  8
Camada 1
 62
    18
420
        0
370
    15
100
AcDbLine
 10
29.32077358783585
 20
-71.79085445413448
 30
0.0
 11
29.35774915773443
 21
-71.79085445413448
 31
0.0
  0
LINE
  5
E9
330
79
100
AcDbEntity
  8
Camada 1
 62
    18
420
        0
370
    15
100
AcDbLine
 10
28.24988208950894
 20
-71.80132469419376
 30
0.0
 11
26.06631334867549
 21
-62.24753215699049
 31
0.0
  0
LINE
  5
EA
330
79
100
AcDbEntity
  8
Camada 1
 62
    18
420
        0
370
    15
100
AcDbLine
 10
27.64348626969325
 20
-64.81823529098751
 30
0.0
 11
27.64348626969325
 21
-61.10677675639701
 31
0.0
  0
LINE
  5
EB
330
79
100
AcDbEntity
  8
Camada 1
 62
    18
420
        0
370
    15
100
AcDbLine
 10
29.72425340460311
 20
-65.05693137340578
 30
0.0
 11
29.7212488089376
 21
-65.18543426244058
 31
0.0
  0
LINE
  5
EC
330
79
100
AcDbEntity
  8
Camada 1
 62
    18
420
        0
370
    15
100
AcDbLine
 10
29.72126996806247
 20
-65.18533904638118
 30
0.0
 11
29.49523762160099
 21
-71.65815147890352
 31
0.0
  0
LINE
  5
ED
330
79
100
AcDbEntity
  8
Camada 1
 62
    18
420
        0
370
    15
100
AcDbLine
 10
31.33962559821491
 20
-66.20958878147707
 30
0.0
 11
31.15011037395611
 21
-60.78372629801563
 31
0.0
  0
LINE
  5
EE
330
79
100
AcDbEntity
  8
Camada 1
 62
    18
420
        0
370
    15
100
AcDbLine
 10
31.15875387627626
 20
-66.97356012726138
 30
0.0
 11
34.2170831382806
 21
-66.97356012726138
 31
0.0
  0
LINE
  5
EF
330
79
100
AcDbEntity
  8
Camada 1
 62
    18
420
        0
370
    15
100
AcDbLine
 10
31.7062638528715
 20
-66.56164487289768
 30
0.0
 11
33.66957668820596
 21
-66.56164487289768
 31
0.0
  0
LINE
  5
F0
330
79
100
AcDbEntity
  8
Camada 1
 62
    18
420
        0
370
    15
100
AcDbLine
 10
30.8923957652191
 20
-65.7952472808486
 30
0.0
 11
31.02228105038211
 21
-66.85282616340278
 31
0.0
  0
LINE
  5
F1
330
79
100
AcDbEntity
  8
Camada 1
 62
    18
420
        0
370
    15
100
AcDbLine
 10
37.36555379677428
 20
-65.18533904638118
 30
0.0
 11
35.6546164177847
 21
-65.18533904638118
 31
0.0
  0
LINE
  5
F2
330
79
100
AcDbEntity
  8
Camada 1
 62
    18
420
        0
370
    15
100
AcDbLine
 10
29.72126996806247
 20
-65.18533904638118
 30
0.0
 11
28.01033258907354
 21
-65.18533904638118
 31
0.0
  0
LINE
  5
F3
330
79
100
AcDbEntity
  8
Camada 1
 62
    18
420
        0
370
    15
100
AcDbLine
 10
34.22577601189106
 20
-60.78377214278535
 30
0.0
 11
34.03626078763227
 21
-66.20963815276674
 31
0.0
  0
LINE
  5
F4
330
79
100
AcDbEntity
  8
Camada 1
 62
    18
420
        0
370
    15
100
AcDbLine
 10
34.48351530627355
 20
-65.7952472808486
 30
0.0
 11
34.35362649458995
 21
-66.85282616340278
 31
0.0
  0
LINE
  5
F5
330
79
100
AcDbEntity
  8
Camada 1
 62
    18
420
        0
370
    15
100
AcDbLine
 10
35.65463757690894
 20
-65.18533904638118
 30
0.0
 11
35.88066639685048
 21
-71.65815147890352
 31
0.0
  0
LINE
  5
F6
330
79
100
AcDbEntity
  8
Camada 1
 62
    18
420
        0
370
    15
100
AcDbLine
 10
35.65463757690894
 20
-65.18533904638118
 30
0.0
 11
35.65163298124407
 21
-65.05683968386636
 31
0.0
  0
LINE
  5
F7
330
79
100
AcDbEntity
  8
Camada 1
 62
    18
420
        0
370
    15
100
AcDbLine
 10
37.73242480179876
 20
-61.1067979155219
 30
0.0
 11
37.73242480179876
 21
-64.81825997663236
 31
0.0
  0
LINE
  5
F8
330
79
100
AcDbEntity
  8
Camada 1
 62
    18
420
        0
370
    15
100
AcDbLine
 10
28.01035727471838
 20
-60.73969768664817
 30
0.0
 11
37.36562080066759
 21
-60.73969768664817
 31
0.0
  0
LINE
  5
F9
330
79
100
AcDbEntity
  8
Camada 1
 62
    18
420
        0
370
    15
100
AcDbLine
 10
37.12600429633759
 20
-71.80132469419376
 30
0.0
 11
39.30956951065045
 21
-62.24753215699049
 31
0.0
  0
LINE
  5
FA
330
79
100
AcDbEntity
  8
Camada 1
 62
    18
420
        0
370
    15
100
AcDbLine
 10
24.70852175601408
 20
-58.39957611086035
 30
0.0
 11
40.66741047460218
 21
-58.39957611086035
 31
0.0
  0
SPLINE
  5
FB
330
79
100
AcDbEntity
  8
Camada 1
 62
    18
420
        0
370
    15
100
AcDbSpline
210
0.0
220
0.0
230
1.0
 70
     8
 71
     3
 72
     8
 73
     4
 74
     0
 42
0.0000000001
 43
0.0000000001
 40
0.0
 40
0.0
 40
0.0
 40
0.0
 40
1.0
 40
1.0
 40
1.0
 40
1.0
 10
25.6294902783656
 20
-61.6964850800987
 30
0.0
 10
25.48596793752381
 20
-60.66409966166887
 30
0.0
 10
25.0930712094795
 20
-59.68209764496911
 30
0.0
 10
24.48501087187738
 20
-58.83529538017965
 30
0.0
  0
SPLINE
  5
FC
330
79
100
AcDbEntity
  8
Camada 1
 62
    18
420
        0
370
    15
100
AcDbSpline
210
0.0
220
0.0
230
1.0
 70
     8
 71
     3
 72
     8
 73
     4
 74
     0
 42
0.0000000001
 43
0.0000000001
 40
0.0
 40
0.0
 40
0.0
 40
0.0
 40
1.0
 40
1.0
 40
1.0
 40
1.0
 10
24.70852175601408
 20
-58.39957611086035
 30
0.0
 10
24.55667682623888
 20
-58.39957611086035
 30
0.0
 10
24.43326270662339
 20
-58.52276100662725
 30
0.0
 10
24.43326270662339
 20
-58.67483516025039
 30
0.0
  0
SPLINE
  5
FD
330
79
100
AcDbEntity
  8
Camada 1
 62
    18
420
        0
370
    15
100
AcDbSpline
210
0.0
220
0.0
230
1.0
 70
     8
 71
     3
 72
     8
 73
     4
 74
     0
 42
0.0000000001
 43
0.0000000001
 40
0.0
 40
0.0
 40
0.0
 40
0.0
 40
1.0
 40
1.0
 40
1.0
 40
1.0
 10
30.58700259615313
 20
-65.40873355533297
 30
0.0
 10
30.64015784318081
 20
-65.48477239540452
 30
0.0
 10
30.70533147287055
 20
-65.55133194774308
 30
0.0
 10
30.78044283798917
 20
-65.60587664393951
 30
0.0
  0
SPLINE
  5
FE
330
79
100
AcDbEntity
  8
Camada 1
 62
    18
420
        0
370
    15
100
AcDbSpline
210
0.0
220
0.0
230
1.0
 70
     8
 71
     3
 72
     8
 73
     4
 74
     0
 42
0.0000000001
 43
0.0000000001
 40
0.0
 40
0.0
 40
0.0
 40
0.0
 40
1.0
 40
1.0
 40
1.0
 40
1.0
 10
28.24988208950894
 20
-71.80132469419376
 30
0.0
 10
28.29749011942142
 20
-72.00979144087799
 30
0.0
 10
28.48307327306113
 20
-72.15770430003475
 30
0.0
 10
28.69685448649202
 20
-72.15770430003475
 30
0.0
  0
SPLINE
  5
FF
330
79
100
AcDbEntity
  8
Camada 1
 62
    18
420
        0
370
    15
100
AcDbSpline
210
0.0
220
0.0
230
1.0
 70
     8
 71
     3
 72
     8
 73
     4
 74
     0
 42
0.0000000001
 43
0.0000000001
 40
0.0
 40
0.0
 40
0.0
 40
0.0
 40
1.0
 40
1.0
 40
1.0
 40
1.0
 10
25.6294902783656
 20
-61.6964850800987
 30
0.0
 10
25.65190484415243
 20
-61.85641632191751
 30
0.0
 10
25.75637096786373
 20
-61.99277629914799
 30
0.0
 10
25.90520777545281
 20
-62.05540730738871
 30
0.0
  0
SPLINE
  5
100
330
79
100
AcDbEntity
  8
Camada 1
 62
    18
420
        0
370
    15
100
AcDbSpline
210
0.0
220
0.0
230
1.0
 70
     8
 71
     3
 72
     8
 73
     4
 74
     0
 42
0.0000000001
 43
0.0000000001
 40
0.0
 40
0.0
 40
0.0
 40
0.0
 40
1.0
 40
1.0
 40
1.0
 40
1.0
 10
28.01035727471838
 20
-60.73969768664817
 30
0.0
 10
27.80766696899665
 20
-60.73969768664817
 30
0.0
 10
27.64334520886414
 20
-60.90402297330193
 30
0.0
 10
27.64334520886414
 20
-61.1067097525037
 30
0.0
  0
SPLINE
  5
101
330
79
100
AcDbEntity
  8
Camada 1
 62
    18
420
        0
370
    15
100
AcDbSpline
210
0.0
220
0.0
230
1.0
 70
     8
 71
     3
 72
     8
 73
     4
 74
     0
 42
0.0000000001
 43
0.0000000001
 40
0.0
 40
0.0
 40
0.0
 40
0.0
 40
1.0
 40
1.0
 40
1.0
 40
1.0
 10
30.09052137458266
 20
-65.25874004894302
 30
0.0
 10
29.91487242985122
 20
-65.2490350638827
 30
0.0
 10
29.75702183526559
 20
-65.36528681988817
 30
0.0
 10
29.71403354751538
 20
-65.53584699519901
 30
0.0
  0
SPLINE
  5
102
330
79
100
AcDbEntity
  8
Camada 1
 62
    18
420
        0
370
    15
100
AcDbSpline
210
0.0
220
0.0
230
1.0
 70
     8
 71
     3
 72
     8
 73
     4
 74
     0
 42
0.0000000001
 43
0.0000000001
 40
0.0
 40
0.0
 40
0.0
 40
0.0
 40
1.0
 40
1.0
 40
1.0
 40
1.0
 10
27.64348626969325
 20
-64.81823529098751
 30
0.0
 10
27.64348626969325
 20
-64.91553552456692
 30
0.0
 10
27.68208051260918
 20
-65.00890721404719
 30
0.0
 10
27.75095346254882
 20
-65.07777663746622
 30
0.0
  0
SPLINE
  5
103
330
79
100
AcDbEntity
  8
Camada 1
 62
    18
420
        0
370
    15
100
AcDbSpline
210
0.0
220
0.0
230
1.0
 70
     8
 71
     3
 72
     8
 73
     4
 74
     0
 42
0.0000000001
 43
0.0000000001
 40
0.0
 40
0.0
 40
0.0
 40
0.0
 40
1.0
 40
1.0
 40
1.0
 40
1.0
 10
27.75095346254882
 20
-65.07777663746622
 30
0.0
 10
27.81959366211993
 20
-65.14664958740524
 30
0.0
 10
27.91296182508024
 20
-65.18524735684176
 30
0.0
 10
28.01049480902753
 20
-65.18524735684176
 30
0.0
  0
SPLINE
  5
104
330
79
100
AcDbEntity
  8
Camada 1
 62
    18
420
        0
370
    15
100
AcDbSpline
210
0.0
220
0.0
230
1.0
 70
     8
 71
     3
 72
     8
 73
     4
 74
     0
 42
0.0000000001
 43
0.0000000001
 40
0.0
 40
0.0
 40
0.0
 40
0.0
 40
1.0
 40
1.0
 40
1.0
 40
1.0
 10
29.32077358783585
 20
-71.79085445413448
 30
0.0
 10
29.15668105155065
 20
-71.79085445413448
 30
0.0
 10
29.01246398612448
 20
-71.89994032000614
 30
0.0
 10
28.96786055187752
 20
-72.05756169074446
 30
0.0
  0
SPLINE
  5
105
330
79
100
AcDbEntity
  8
Camada 1
 62
    18
420
        0
370
    15
100
AcDbSpline
210
0.0
220
0.0
230
1.0
 70
     8
 71
     3
 72
     8
 73
     4
 74
     0
 42
0.0000000001
 43
0.0000000001
 40
0.0
 40
0.0
 40
0.0
 40
0.0
 40
1.0
 40
1.0
 40
1.0
 40
1.0
 10
30.89237107957298
 20
-65.7952472808486
 30
0.0
 10
30.88312454220789
 20
-65.71944471766555
 30
0.0
 10
30.84244965205877
 20
-65.65057176772526
 30
0.0
 10
30.78050984188312
 20
-65.6057355831104
 30
0.0
  0
SPLINE
  5
106
330
79
100
AcDbEntity
  8
Camada 1
 62
    18
420
        0
370
    15
100
AcDbSpline
210
0.0
220
0.0
230
1.0
 70
     8
 71
     3
 72
     8
 73
     4
 74
     0
 42
0.0000000001
 43
0.0000000001
 40
0.0
 40
0.0
 40
0.0
 40
0.0
 40
1.0
 40
1.0
 40
1.0
 40
1.0
 10
30.58700259615313
 20
-65.40873355533297
 30
0.0
 10
30.53892906550421
 20
-65.33963138154539
 30
0.0
 10
30.46196980352094
 20
-65.29641386994787
 30
0.0
 10
30.37807387525306
 20
-65.2913286270498
 30
0.0
  0
SPLINE
  5
107
330
79
100
AcDbEntity
  8
Camada 1
 62
    18
420
        0
370
    15
100
AcDbSpline
210
0.0
220
0.0
230
1.0
 70
     8
 71
     3
 72
     8
 73
     4
 74
     0
 42
0.0000000001
 43
0.0000000001
 40
0.0
 40
0.0
 40
0.0
 40
0.0
 40
1.0
 40
1.0
 40
1.0
 40
1.0
 10
26.06629571607185
 20
-62.24762384652993
 30
0.0
 10
26.0466494690614
 20
-62.16142157370088
 30
0.0
 10
25.9867903061183
 20
-62.09000600231155
 30
0.0
 10
25.90520777545281
 20
-62.05534030349411
 30
0.0
  0
SPLINE
  5
108
330
79
100
AcDbEntity
  8
Camada 1
 62
    18
420
        0
370
    15
100
AcDbSpline
210
0.0
220
0.0
230
1.0
 70
     8
 71
     3
 72
     8
 73
     4
 74
     0
 42
0.0000000001
 43
0.0000000001
 40
0.0
 40
0.0
 40
0.0
 40
0.0
 40
1.0
 40
1.0
 40
1.0
 40
1.0
 10
31.31642109178302
 20
-65.54566835544361
 30
0.0
 10
31.31133584888431
 20
-65.40191679075452
 30
0.0
 10
31.19624079168228
 20
-65.28635975933473
 30
0.0
 10
31.05248570047003
 20
-65.28058331837224
 30
0.0
  0
SPLINE
  5
109
330
79
100
AcDbEntity
  8
Camada 1
 62
    18
420
        0
370
    15
100
AcDbSpline
210
0.0
220
0.0
230
1.0
 70
     8
 71
     3
 72
     8
 73
     4
 74
     0
 42
0.0000000001
 43
0.0000000001
 40
0.0
 40
0.0
 40
0.0
 40
0.0
 40
1.0
 40
1.0
 40
1.0
 40
1.0
 10
29.35779852902475
 20
-71.79085445413448
 30
0.0
 10
29.43198594571104
 20
-71.79085445413448
 30
0.0
 10
29.49276905708646
 20
-71.73215198999162
 30
0.0
 10
29.49530815201489
 20
-71.65796457330597
 30
0.0
  0
SPLINE
  5
10A
330
79
100
AcDbEntity
  8
Camada 1
 62
    18
420
        0
370
    15
100
AcDbSpline
210
0.0
220
0.0
230
1.0
 70
     8
 71
     3
 72
     8
 73
     4
 74
     0
 42
0.0000000001
 43
0.0000000001
 40
0.0
 40
0.0
 40
0.0
 40
0.0
 40
1.0
 40
1.0
 40
1.0
 40
1.0
 10
28.83543264526484
 20
-72.15775014480446
 30
0.0
 10
28.89690695470404
 20
-72.15775014480446
 30
0.0
 10
28.95098967668528
 20
-72.11684603080868
 30
0.0
 10
28.96786055187752
 20
-72.05767806592873
 30
0.0
  0
SPLINE
  5
10B
330
79
100
AcDbEntity
  8
Camada 1
 62
    18
420
        0
370
    15
100
AcDbSpline
210
0.0
220
0.0
230
1.0
 70
     8
 71
     3
 72
     8
 73
     4
 74
     0
 42
0.0000000001
 43
0.0000000001
 40
0.0
 40
0.0
 40
0.0
 40
0.0
 40
1.0
 40
1.0
 40
1.0
 40
1.0
 10
31.02221051996691
 20
-66.85273447386464
 30
0.0
 10
31.03052958237908
 20
-66.92160742380363
 30
0.0
 10
31.08923204652131
 20
-66.97360949855104
 30
0.0
 10
31.15879619452474
 20
-66.97360949855104
 30
0.0
  0
SPLINE
  5
10C
330
79
100
AcDbEntity
  8
Camada 1
 62
    18
420
        0
370
    15
100
AcDbSpline
210
0.0
220
0.0
230
1.0
 70
     8
 71
     3
 72
     8
 73
     4
 74
     0
 42
0.0000000001
 43
0.0000000001
 40
0.0
 40
0.0
 40
0.0
 40
0.0
 40
1.0
 40
1.0
 40
1.0
 40
1.0
 10
31.31679137646071
 20
-65.55634666022787
 30
0.0
 10
31.31655862609153
 20
-65.55288009034587
 30
0.0
 10
31.31655862609153
 20
-65.54941352046387
 30
0.0
 10
31.31609665187633
 20
-65.54571772673456
 30
0.0
  0
SPLINE
  5
10D
330
79
100
AcDbEntity
  8
Camada 1
 62
    18
420
        0
370
    15
100
AcDbSpline
210
0.0
220
0.0
230
1.0
 70
     8
 71
     3
 72
     8
 73
     4
 74
     0
 42
0.0000000001
 43
0.0000000001
 40
0.0
 40
0.0
 40
0.0
 40
0.0
 40
1.0
 40
1.0
 40
1.0
 40
1.0
 10
30.09052137458266
 20
-65.25874004894302
 30
0.0
 10
30.41107505628408
 20
-65.26821581015607
 30
0.0
 10
30.73186148835405
 20
-65.27538170028861
 30
0.0
 10
31.05241517005548
 20
-65.28069616703525
 30
0.0
  0
SPLINE
  5
10E
330
79
100
AcDbEntity
  8
Camada 1
 62
    18
420
        0
370
    15
100
AcDbSpline
210
0.0
220
0.0
230
1.0
 70
     8
 71
     3
 72
     8
 73
     4
 74
     0
 42
0.0000000001
 43
0.0000000001
 40
0.0
 40
0.0
 40
0.0
 40
0.0
 40
1.0
 40
1.0
 40
1.0
 40
1.0
 10
34.59535185831857
 20
-65.60584843177472
 30
0.0
 10
34.6704632234372
 20
-65.55154001246677
 30
0.0
 10
34.73586607697488
 20
-65.48474770975968
 30
0.0
 10
34.78879210015462
 20
-65.40870886968814
 30
0.0
  0
SPLINE
  5
10F
330
79
100
AcDbEntity
  8
Camada 1
 62
    18
420
        0
370
    15
100
AcDbSpline
210
0.0
220
0.0
230
1.0
 70
     8
 71
     3
 72
     8
 73
     4
 74
     0
 42
0.0000000001
 43
0.0000000001
 40
0.0
 40
0.0
 40
0.0
 40
0.0
 40
1.0
 40
1.0
 40
1.0
 40
1.0
 10
36.67893668329513
 20
-72.15775014480446
 30
0.0
 10
36.89271437020541
 20
-72.15775014480446
 30
0.0
 10
37.07830105036573
 20
-72.00983728564771
 30
0.0
 10
37.12590908027756
 20
-71.80137406548344
 30
0.0
  0
SPLINE
  5
110
330
79
100
AcDbEntity
  8
Camada 1
 62
    18
420
        0
370
    15
100
AcDbSpline
210
0.0
220
0.0
230
1.0
 70
     8
 71
     3
 72
     8
 73
     4
 74
     0
 42
0.0000000001
 43
0.0000000001
 40
0.0
 40
0.0
 40
0.0
 40
0.0
 40
1.0
 40
1.0
 40
1.0
 40
1.0
 10
39.4707702999338
 20
-62.05547431128202
 30
0.0
 10
39.6193743571537
 20
-61.99261407919401
 30
0.0
 10
39.72406970471294
 20
-61.85625410196353
 30
0.0
 10
39.74648779702037
 20
-61.69655561051325
 30
0.0
  0
SPLINE
  5
111
330
79
100
AcDbEntity
  8
Camada 1
 62
    18
420
        0
370
    15
100
AcDbSpline
210
0.0
220
0.0
230
1.0
 70
     8
 71
     3
 72
     8
 73
     4
 74
     0
 42
0.0000000001
 43
0.0000000001
 40
0.0
 40
0.0
 40
0.0
 40
0.0
 40
1.0
 40
1.0
 40
1.0
 40
1.0
 10
37.36555379677428
 20
-60.73969768664817
 30
0.0
 10
37.56824057597477
 20
-60.73969768664817
 30
0.0
 10
37.73256233610727
 20
-60.90402297330193
 30
0.0
 10
37.73256233610727
 20
-61.1067097525037
 30
0.0
  0
SPLINE
  5
112
330
79
100
AcDbEntity
  8
Camada 1
 62
    18
420
        0
370
    15
100
AcDbSpline
210
0.0
220
0.0
230
1.0
 70
     8
 71
     3
 72
     8
 73
     4
 74
     0
 42
0.0000000001
 43
0.0000000001
 40
0.0
 40
0.0
 40
0.0
 40
0.0
 40
1.0
 40
1.0
 40
1.0
 40
1.0
 10
37.62502461283715
 20
-65.07777663746622
 30
0.0
 10
37.55615166289751
 20
-65.14664958740524
 30
0.0
 10
37.46301272378513
 20
-65.18547658069035
 30
0.0
 10
37.36548326635844
 20
-65.18547658069035
 30
0.0
  0
SPLINE
  5
113
330
79
100
AcDbEntity
  8
Camada 1
 62
    18
420
        0
370
    15
100
AcDbSpline
210
0.0
220
0.0
230
1.0
 70
     8
 71
     3
 72
     8
 73
     4
 74
     0
 42
0.0000000001
 43
0.0000000001
 40
0.0
 40
0.0
 40
0.0
 40
0.0
 40
1.0
 40
1.0
 40
1.0
 40
1.0
 10
37.73249180569272
 20
-64.81823881750876
 30
0.0
 10
37.73249180569272
 20
-64.91553552456692
 30
0.0
 10
37.69389403625619
 20
-65.00890721404719
 30
0.0
 10
37.62502461283715
 20
-65.07777663746622
 30
0.0
  0
SPLINE
  5
114
330
79
100
AcDbEntity
  8
Camada 1
 62
    18
420
        0
370
    15
100
AcDbSpline
210
0.0
220
0.0
230
1.0
 70
     8
 71
     3
 72
     8
 73
     4
 74
     0
 42
0.0000000001
 43
0.0000000001
 40
0.0
 40
0.0
 40
0.0
 40
0.0
 40
1.0
 40
1.0
 40
1.0
 40
1.0
 10
35.65024705859526
 20
-65.49858930364286
 30
0.0
 10
35.59454566359731
 20
-65.3472098746041
 30
0.0
 10
35.44663280444119
 20
-65.2496804171774
 30
0.0
 10
35.28531563997421
 20
-65.25892695454314
 30
0.0
  0
SPLINE
  5
115
330
79
100
AcDbEntity
  8
Camada 1
 62
    18
420
        0
370
    15
100
AcDbSpline
210
0.0
220
0.0
230
1.0
 70
     8
 71
     3
 72
     8
 73
     4
 74
     0
 42
0.0000000001
 43
0.0000000001
 40
0.0
 40
0.0
 40
0.0
 40
0.0
 40
1.0
 40
1.0
 40
1.0
 40
1.0
 10
36.40811752350909
 20
-72.05767806592873
 30
0.0
 10
36.36328133889359
 20
-71.8998274713431
 30
0.0
 10
36.21906427346614
 20
-71.79097435583873
 30
0.0
 10
36.05520448755012
 20
-71.79097435583873
 30
0.0
  0
SPLINE
  5
116
330
79
100
AcDbEntity
  8
Camada 1
 62
    18
420
        0
370
    15
100
AcDbSpline
210
0.0
220
0.0
230
1.0
 70
     8
 71
     3
 72
     8
 73
     4
 74
     0
 42
0.0000000001
 43
0.0000000001
 40
0.0
 40
0.0
 40
0.0
 40
0.0
 40
1.0
 40
1.0
 40
1.0
 40
1.0
 10
34.59532717267374
 20
-65.605802587005
 30
0.0
 10
34.53338736249745
 20
-65.65063877161986
 30
0.0
 10
34.49294169619628
 20
-65.71928249771286
 30
0.0
 10
34.48346593498388
 20
-65.79531781126316
 30
0.0
  0
SPLINE
  5
117
330
79
100
AcDbEntity
  8
Camada 1
 62
    18
420
        0
370
    15
100
AcDbSpline
210
0.0
220
0.0
230
1.0
 70
     8
 71
     3
 72
     8
 73
     4
 74
     0
 42
0.0000000001
 43
0.0000000001
 40
0.0
 40
0.0
 40
0.0
 40
0.0
 40
1.0
 40
1.0
 40
1.0
 40
1.0
 10
34.99792888577839
 20
-65.29130394140368
 30
0.0
 10
34.91403295751052
 20
-65.29638918430304
 30
0.0
 10
34.8368409451587
 20
-65.3396102224218
 30
0.0
 10
34.78900016487768
 20
-65.40871239620938
 30
0.0
  0
SPLINE
  5
118
330
79
100
AcDbEntity
  8
Camada 1
 62
    18
420
        0
370
    15
100
AcDbSpline
210
0.0
220
0.0
230
1.0
 70
     8
 71
     3
 72
     8
 73
     4
 74
     0
 42
0.0000000001
 43
0.0000000001
 40
0.0
 40
0.0
 40
0.0
 40
0.0
 40
1.0
 40
1.0
 40
1.0
 40
1.0
 10
39.4707702999338
 20
-62.05547431128202
 30
0.0
 10
39.38918424274707
 20
-62.08991078625216
 30
0.0
 10
39.32932507980397
 20
-62.16155910801003
 30
0.0
 10
39.30968235931412
 20
-62.24776138083779
 30
0.0
  0
SPLINE
  5
119
330
79
100
AcDbEntity
  8
Camada 1
 62
    18
420
        0
370
    15
100
AcDbSpline
210
0.0
220
0.0
230
1.0
 70
     8
 71
     3
 72
     8
 73
     4
 74
     0
 42
0.0000000001
 43
0.0000000001
 40
0.0
 40
0.0
 40
0.0
 40
0.0
 40
1.0
 40
1.0
 40
1.0
 40
1.0
 10
34.32342184450074
 20
-65.28060447749583
 30
0.0
 10
34.17966675329042
 20
-65.28638444497956
 30
0.0
 10
34.06457169608646
 20
-65.40170872603082
 30
0.0
 10
34.05948645318775
 20
-65.54569304108973
 30
0.0
  0
SPLINE
  5
11A
330
79
100
AcDbEntity
  8
Camada 1
 62
    18
420
        0
370
    15
100
AcDbSpline
210
0.0
220
0.0
230
1.0
 70
     8
 71
     3
 72
     8
 73
     4
 74
     0
 42
0.0000000001
 43
0.0000000001
 40
0.0
 40
0.0
 40
0.0
 40
0.0
 40
1.0
 40
1.0
 40
1.0
 40
1.0
 10
35.8708908813743
 20
-71.53082997431507
 30
0.0
 10
35.87112010522224
 20
-71.54261913312983
 30
0.0
 10
35.87273877823895
 20
-71.55440476542335
 30
0.0
 10
35.87574337390447
 20
-71.5659611738696
 30
0.0
  0
SPLINE
  5
11B
330
79
100
AcDbEntity
  8
Camada 1
 62
    18
420
        0
370
    15
100
AcDbSpline
210
0.0
220
0.0
230
1.0
 70
     8
 71
     3
 72
     8
 73
     4
 74
     0
 42
0.0000000001
 43
0.0000000001
 40
0.0
 40
0.0
 40
0.0
 40
0.0
 40
1.0
 40
1.0
 40
1.0
 40
1.0
 10
35.88062407860071
 20
-71.65808094849023
 30
0.0
 10
35.88316317352979
 20
-71.73227189169714
 30
0.0
 10
35.94394628490521
 20
-71.79097435583873
 30
0.0
 10
36.0181337015915
 20
-71.79097435583873
 30
0.0
  0
SPLINE
  5
11C
330
79
100
AcDbEntity
  8
Camada 1
 62
    18
420
        0
370
    15
100
AcDbSpline
210
0.0
220
0.0
230
1.0
 70
     8
 71
     3
 72
     8
 73
     4
 74
     0
 42
0.0000000001
 43
0.0000000001
 40
0.0
 40
0.0
 40
0.0
 40
0.0
 40
1.0
 40
1.0
 40
1.0
 40
1.0
 10
36.40811752350909
 20
-72.05767806592873
 30
0.0
 10
36.42498839870133
 20
-72.11684603080868
 30
0.0
 10
36.47906759416133
 20
-72.15775367132441
 30
0.0
 10
36.54054543012113
 20
-72.15775367132441
 30
0.0
  0
SPLINE
  5
11D
330
79
100
AcDbEntity
  8
Camada 1
 62
    18
420
        0
370
    15
100
AcDbSpline
210
0.0
220
0.0
230
1.0
 70
     8
 71
     3
 72
     8
 73
     4
 74
     0
 42
0.0000000001
 43
0.0000000001
 40
0.0
 40
0.0
 40
0.0
 40
0.0
 40
1.0
 40
1.0
 40
1.0
 40
1.0
 10
34.21715719521639
 20
-66.97356012726138
 30
0.0
 10
34.28672134321983
 20
-66.97356012726138
 30
0.0
 10
34.34519105699351
 20
-66.92179080288251
 30
0.0
 10
34.35374286977487
 20
-66.85268862909492
 30
0.0
  0
SPLINE
  5
11E
330
79
100
AcDbEntity
  8
Camada 1
 62
    18
420
        0
370
    15
100
AcDbSpline
210
0.0
220
0.0
230
1.0
 70
     8
 71
     3
 72
     8
 73
     4
 74
     0
 42
0.0000000001
 43
0.0000000001
 40
0.0
 40
0.0
 40
0.0
 40
0.0
 40
1.0
 40
1.0
 40
1.0
 40
1.0
 10
34.32342184450074
 20
-65.28060447749583
 30
0.0
 10
34.64397552620282
 20
-65.27552276111771
 30
0.0
 10
34.96476195827278
 20
-65.26812764713787
 30
0.0
 10
35.28531563997421
 20
-65.25888110977343
 30
0.0
  0
SPLINE
  5
11F
330
79
100
AcDbEntity
  8
Camada 1
 62
    18
420
        0
370
    15
100
AcDbSpline
210
0.0
220
0.0
230
1.0
 70
     8
 71
     3
 72
     8
 73
     4
 74
     0
 42
0.0000000001
 43
0.0000000001
 40
0.0
 40
0.0
 40
0.0
 40
0.0
 40
1.0
 40
1.0
 40
1.0
 40
1.0
 10
40.89087551396914
 20
-58.83527069453482
 30
0.0
 10
40.28281164984643
 20
-59.68207295932428
 30
0.0
 10
39.88991844832336
 20
-60.664078502544
 30
0.0
 10
39.74639610748094
 20
-61.69646392097381
 30
0.0
  0
SPLINE
  5
120
330
79
100
AcDbEntity
  8
Camada 1
 62
    18
420
        0
370
    15
100
AcDbSpline
210
0.0
220
0.0
230
1.0
 70
     8
 71
     3
 72
     8
 73
     4
 74
     0
 42
0.0000000001
 43
0.0000000001
 40
0.0
 40
0.0
 40
0.0
 40
0.0
 40
1.0
 40
1.0
 40
1.0
 40
1.0
 10
40.94255314880858
 20
-58.67469409942128
 30
0.0
 10
40.94255314880858
 20
-58.52285269616668
 30
0.0
 10
40.8193682530404
 20
-58.39967132691974
 30
0.0
 10
40.6672940994179
 20
-58.39943857655121
 30
0.0
  0
LWPOLYLINE
  5
121
330
79
100
AcDbEntity
  8
Camada 1
 62
    18
420
        0
370
    15
100
AcDbPolyline
 90
       13
 70
     0
 43
0.0
 10
32.68794495618389
 20
-72.15437526446189
 10
32.79194557915746
 20
-72.15437526446189
 10
33.1624206883731
 20
-72.15460801483043
 10
33.53312854795664
 20
-72.15506998904628
 10
33.90360365717164
 20
-72.15576471363066
 10
34.27407876638792
 20
-72.15715063627946
 10
34.64478662597147
 20
-72.15899853314413
 10
35.01549448555501
 20
-72.16107918037732
 10
35.13035679239042
 20
-72.16200312880899
 10
35.50083190160542
 20
-72.16524047484369
 10
35.87153976118961
 20
-72.16916901894155
 10
36.02985232999172
 20
-72.17101691580619
 10
36.39362704981126
 20
-72.17887400400188
  0
LWPOLYLINE
  5
122
330
79
100
AcDbEntity
  8
Camada 1
 62
    18
420
        0
370
    15
100
AcDbPolyline
 90
       13
 70
     0
 43
0.0
 10
28.98214648737161
 20
-72.17884931835704
 10
29.34591768067118
 20
-72.17099223016136
 10
29.5044629998412
 20
-72.16891158292816
 10
29.61932530667662
 20
-72.16775841064789
 10
29.98980041589226
 20
-72.16405909039735
 10
30.36027905162786
 20
-72.16128724510102
 10
30.46427967460207
 20
-72.16059252051535
 10
30.83498753418561
 20
-72.15828264943485
 10
31.20546264340061
 20
-72.15666397641751
 10
31.5761705029848
 20
-72.15550727761729
 10
31.94664561220044
 20
-72.15481607955414
 10
32.31735347178526
 20
-72.15435410533702
 10
32.68782858100026
 20
-72.15435410533702
  0
LWPOLYLINE
  5
123
330
79
100
AcDbEntity
  8
Camada 1
 62
    18
420
        0
370
    15
100
AcDbPolyline
 90
       11
 70
     0
 43
0.0
 10
40.89087551396914
 20
-58.83527069453482
 10
40.90034774866095
 20
-58.82117519115951
 10
40.90889956144166
 20
-58.80638143667987
 10
40.91652742579004
 20
-58.79112923450305
 10
40.9232313417061
 20
-58.77518230774313
 10
40.92900778266924
 20
-58.75900615713593
 10
40.93363105135082
 20
-58.74236450579035
 10
40.93755959544931
 20
-58.72549363059746
 10
40.94033144074628
 20
-58.70862275540587
 10
40.94195011376299
 20
-58.69151912984445
 10
40.94241208797948
 20
-58.67464825465156
  0
LWPOLYLINE
  5
124
330
79
100
AcDbEntity
  8
Camada 1
 62
    18
420
        0
370
    15
100
AcDbPolyline
 90
       11
 70
     0
 43
0.0
 10
24.48503555752286
 20
-58.83527069453482
 10
24.47555979630982
 20
-58.82117519115951
 10
24.46700798352912
 20
-58.80638143667987
 10
24.45938011918073
 20
-58.79112923450305
 10
24.45267620326531
 20
-58.77518230774313
 10
24.44689976230282
 20
-58.75900615713593
 10
24.44204726977265
 20
-58.74236450579035
 10
24.43834794952211
 20
-58.72549363059746
 10
24.43557610422513
 20
-58.70862275540587
 10
24.43395743120778
 20
-58.69151912984445
 10
24.43349545699258
 20
-58.67488100502011
  0
LWPOLYLINE
  5
125
330
79
100
AcDbEntity
  8
Camada 1
 62
    18
420
        0
370
    15
100
AcDbPolyline
 90
       11
 70
     0
 43
0.0
 10
29.50501666359647
 20
-71.53082997431507
 10
29.50501666359647
 20
-71.53430007071702
 10
29.50478391322793
 20
-71.53799586444761
 10
29.50455116286003
 20
-71.54146243432832
 10
29.50408918864355
 20
-71.54492900421033
 10
29.5036272144277
 20
-71.54839557409232
 10
29.50316524021122
 20
-71.55209489434287
 10
29.50247404214744
 20
-71.55556146422487
 10
29.50177931756306
 20
-71.55902803410687
 10
29.50085536913073
 20
-71.56249460398758
 10
29.50016064454635
 20
-71.5659611738696
  0
LWPOLYLINE
  5
126
330
79
100
AcDbEntity
  8
Camada 1
 62
    18
420
        0
370
    15
100
AcDbPolyline
 90
       13
 70
     0
 43
0.0
 10
31.33962559821491
 20
-66.20958878147707
 10
31.34586401339325
 20
-66.26436622804205
 10
31.34609676376179
 20
-66.26505742610648
 10
31.36111621556942
 20
-66.31890739771853
 10
31.38399628209269
 20
-66.3704474982488
 10
31.41473696333354
 20
-66.41805552816129
 10
31.45148330938417
 20
-66.45942514289416
 10
31.49400962291854
 20
-66.49432359208013
 10
31.49562476941465
 20
-66.4952475405131
 10
31.54438949812736
 20
-66.52367482415222
 10
31.59685354709125
 20
-66.54447424344294
 10
31.65116549291914
 20
-66.55718735068939
 10
31.70617216333207
 20
-66.56157786900307
  0
LWPOLYLINE
  5
127
330
79
100
AcDbEntity
  8
Camada 1
 62
    18
420
        0
370
    15
100
AcDbPolyline
 90
       13
 70
     0
 43
0.0
 10
33.66964721862115
 20
-66.56164487289768
 10
33.67149511548581
 20
-66.56164487289768
 10
33.72649825937749
 20
-66.55702513073541
 10
33.78081020520603
 20
-66.54408279964036
 10
33.83304150380074
 20
-66.52305062998239
 10
33.88180975903468
 20
-66.4943941224947
 10
33.92433254604782
 20
-66.45926292294145
 10
33.96107889209845
 20
-66.41789330820731
 10
33.96154086631558
 20
-66.41743133399145
 10
33.99204879718659
 20
-66.36982330407899
 10
34.0149288637105
 20
-66.31828320354742
 10
34.02995184203874
 20
-66.26420400808806
 10
34.03619378373831
 20
-66.20965931189163
  0
LWPOLYLINE
  5
128
330
79
100
AcDbEntity
  8
Camada 1
 62
    18
420
        0
370
    15
100
AcDbPolyline
 90
       12
 70
     0
 43
0.0
 10
29.74084568465773
 20
-65.53046199803779
 10
29.73968898585751
 20
-65.53023277419049
 10
29.73645163982281
 20
-65.53023277419049
 10
29.73344704415729
 20
-65.52977079997337
 10
29.73021322464383
 20
-65.52977079997337
 10
29.72813257741064
 20
-65.52953804960612
 10
29.72489875789782
 20
-65.52907607538898
 10
29.72189416223166
 20
-65.52884685154168
 10
29.71888956656679
 20
-65.52861410117315
 10
29.71565222053209
 20
-65.52815212695731
 10
29.71241840101927
 20
-65.52769015274147
 10
29.70918105498585
 20
-65.52722817852433
  0
LINE
  5
129
330
79
100
AcDbEntity
  8
Camada 1
 62
    18
420
        0
370
    15
100
AcDbLine
 10
66.55114736362211
 20
-28.22975597618651
 30
0.0
 11
83.97193126268165
 21
-28.2297559785332
 31
0.0
  0
LINE
  5
12A
330
79
100
AcDbEntity
  8
Camada 1
 62
    18
420
        0
370
    15
100
AcDbLine
 10
83.97174870141549
 20
-44.50991429369224
 30
0.0
 11
66.55096480235593
 21
-44.50991429134555
 31
0.0
  0
LINE
  5
12B
330
79
100
AcDbEntity
  8
Camada 1
 62
    18
420
        0
370
    15
100
AcDbLine
 10
83.97174870360753
 20
-28.2297559785332
 30
0.0
 11
83.97174870141549
 21
-44.50979843889509
 31
0.0
  0
SPLINE
  5
12C
330
79
100
AcDbEntity
  8
Camada 1
 62
    18
420
        0
370
    15
100
AcDbSpline
210
0.0
220
0.0
230
1.0
 70
     8
 71
     3
 72
     8
 73
     4
 74
     0
 42
0.0000000001
 43
0.0000000001
 40
0.0
 40
0.0
 40
0.0
 40
0.0
 40
1.0
 40
1.0
 40
1.0
 40
1.0
 10
66.55114736362211
 20
-28.22975597618651
 30
0.0
 10
62.05560207918012
 20
-28.22975597558074
 30
0.0
 10
58.41111911144729
 20
-31.87423192082945
 30
0.0
 10
58.41111911084151
 20
-36.36977720527144
 30
0.0
  0
SPLINE
  5
12D
330
79
100
AcDbEntity
  8
Camada 1
 62
    18
420
        0
370
    15
100
AcDbSpline
210
0.0
220
0.0
230
1.0
 70
     8
 71
     3
 72
     8
 73
     4
 74
     0
 42
0.0000000001
 43
0.0000000001
 40
0.0
 40
0.0
 40
0.0
 40
0.0
 40
1.0
 40
1.0
 40
1.0
 40
1.0
 10
58.41111911084151
 20
-36.36977720527144
 30
0.0
 10
58.4111191102364
 20
-40.86555068855623
 30
0.0
 10
62.05560207698744
 20
-44.50979843594327
 30
0.0
 10
66.55114736143007
 20
-44.50979843654905
 30
0.0
  0
SPLINE
  5
12E
330
79
100
AcDbEntity
  8
Camada 1
 62
    18
420
        0
370
    15
100
AcDbSpline
210
0.0
220
0.0
230
1.0
 70
     8
 71
     3
 72
     8
 73
     4
 74
     0
 42
0.0000000001
 43
0.0000000001
 40
0.0
 40
0.0
 40
0.0
 40
0.0
 40
1.0
 40
1.0
 40
1.0
 40
1.0
 10
67.12928386450879
 20
-32.77631247889699
 30
0.0
 10
68.39264882894649
 20
-32.75284310579759
 30
0.0
 10
70.46130995501958
 20
-32.73328470989339
 30
0.0
 10
71.72445023136724
 20
-32.70521625242859
 30
0.0
  0
SPLINE
  5
12F
330
79
100
AcDbEntity
  8
Camada 1
 62
    18
420
        0
370
    15
100
AcDbSpline
210
0.0
220
0.0
230
1.0
 70
     8
 71
     3
 72
     8
 73
     4
 74
     0
 42
0.0000000001
 43
0.0000000001
 40
0.0
 40
0.0
 40
0.0
 40
0.0
 40
1.0
 40
1.0
 40
1.0
 40
1.0
 10
71.72446427338562
 20
-40.03454880678547
 30
0.0
 10
70.46130995404034
 20
-40.0062486393869
 30
0.0
 10
68.3926628709777
 20
-39.98669024292507
 30
0.0
 10
67.12928386354047
 20
-39.96345257907923
 30
0.0
  0
LWPOLYLINE
  5
130
330
79
100
AcDbEntity
  8
Camada 1
 62
    18
420
        0
370
    15
100
AcDbPolyline
 90
       11
 70
     0
 43
0.0
 10
66.57393916152343
 20
-30.77592142494192
 10
67.09552447908478
 20
-30.77592142501186
 10
67.52599877568953
 20
-30.77592142507025
 10
67.95602369611227
 20
-30.77592142512801
 10
68.38627330462633
 20
-30.7759214251864
 10
68.81676164423703
 20
-30.77592142524415
 10
69.24677252165444
 20
-30.77592142530191
 10
69.67703617317318
 20
-30.7759214253603
 10
70.10728578168789
 20
-30.77592142541806
 10
70.53753539020259
 20
-30.77592142547581
 10
71.66975272444149
 20
-30.77592142562853
  0
LWPOLYLINE
  5
131
330
79
100
AcDbEntity
  8
Camada 1
 62
    18
420
        0
370
    15
100
AcDbPolyline
 90
       12
 70
     0
 43
0.0
 10
71.66972463870873
 20
-28.70508012292234
 10
71.66972463870873
 20
-28.70508012292234
 10
71.16928808772616
 20
-28.70438850482482
 10
70.66886557974953
 20
-28.70438850475744
 10
70.1684430717729
 20
-28.70461670353224
 10
69.66802056379563
 20
-28.70484841305916
 10
69.16759805581901
 20
-28.70508012258544
 10
68.66716150483644
 20
-28.70530832136088
 10
68.16673899685916
 20
-28.7053083212935
 10
67.66631648888254
 20
-28.70530832122613
 10
67.16589398090592
 20
-28.70508012231625
 10
66.573897032786
 20
-28.70484841264206
  0
LINE
  5
132
330
79
100
AcDbEntity
  8
Camada 1
 62
    18
420
        0
370
    15
100
AcDbLine
 10
71.66972463692288
 20
-41.9638436335714
 30
0.0
 11
66.5738970309995
 21
-41.96384363288511
 31
0.0
  0
LWPOLYLINE
  5
133
330
79
100
AcDbEntity
  8
Camada 1
 62
    18
420
        0
370
    15
100
AcDbPolyline
 90
       11
 70
     0
 43
0.0
 10
66.57393915973758
 20
-44.03493770969292
 10
67.16593610785877
 20
-44.03470600017883
 10
67.66635861583475
 20
-44.03470600024685
 10
68.16678112381203
 20
-44.03447429071993
 10
68.66720363178865
 20
-44.0344742907873
 10
69.16762613976527
 20
-44.03470600044835
 10
69.66806269074786
 20
-44.03493771011002
 10
70.16848519872448
 20
-44.03516590901958
 10
70.66868301861042
 20
-44.03539761868127
 10
71.16933021467836
 20
-44.03516590915433
 10
71.669752722655
 20
-44.03470600078588
  0
LWPOLYLINE
  5
134
330
79
100
AcDbEntity
  8
Camada 1
 62
    18
420
        0
370
    15
100
AcDbPolyline
 90
       49
 70
     0
 43
0.0
 10
71.66972463664375
 20
-44.03493771037954
 10
71.88070675422132
 20
-44.02964349726075
 10
72.14253859542456
 20
-44.01514760466607
 10
72.39424542952298
 20
-43.99190994102429
 10
72.6171921879564
 20
-43.96360977382594
 10
72.86475633537698
 20
-43.92265685849821
 10
73.10979274177299
 20
-43.87273046253036
 10
73.35252609523642
 20
-43.81336716673507
 10
73.59618628707643
 20
-43.74388237458388
 10
73.80808120003361
 20
-43.67554910889546
 10
74.00572246220767
 20
-43.60491630102273
 10
74.24616680574768
 20
-43.50989079226188
 10
74.4817663123233
 20
-43.40612702320606
 10
74.71344782031113
 20
-43.29384617119447
 10
74.94215221109238
 20
-43.17236363970057
 10
75.16717733438247
 20
-43.04190762756655
 10
75.38782103989679
 20
-42.90293804322952
 10
75.60409737064128
 20
-42.75545839743841
 10
75.72718431557766
 20
-42.66595530065202
 10
75.93472589678059
 20
-42.50581939597684
 10
76.13695922183119
 20
-42.33762982753449
 10
76.33368768865001
 20
-42.16185001451295
 10
76.52441979203787
 20
-41.97824473656639
 10
76.70870615581207
 20
-41.78750912247647
 10
76.79797754303497
 20
-41.6899558726699
 10
76.97192825461835
 20
-41.48909525147195
 10
77.13941918358276
 20
-41.28110078337979
 10
77.30001499675087
 20
-41.06666759717504
 10
77.45349100603201
 20
-40.84578867135471
 10
77.59913101813561
 20
-40.61869922626461
 10
77.65687585757039
 20
-40.52321731979374
 10
77.79147806719857
 20
-40.28876231821448
 10
77.91824427964856
 20
-40.04856021655276
 10
78.03673916174367
 20
-39.80306390174337
 10
78.14694867047987
 20
-39.55296499181516
 10
78.24840938666792
 20
-39.29849519636308
 10
78.27969720337094
 20
-39.21474622114799
 10
78.36943200980234
 20
-38.95567734132857
 10
78.4511201739721
 20
-38.69016272189423
 10
78.49781316793386
 20
-38.52289648105516
 10
78.54130435659643
 20
-38.35217566081495
 10
78.6022790873654
 20
-38.08229015585482
 10
78.65335349911768
 20
-37.8144759942336
 10
78.69500505404781
 20
-37.54505390845821
 10
78.72789377342513
 20
-37.2691860830679
 10
78.74400110098195
 20
-37.09478599533139
 10
78.76287490067662
 20
-36.80902487242608
 10
78.77368801510371
 20
-36.49772654366131
 10
78.77621575614624
 20
-36.37002998211663
  0
LWPOLYLINE
  5
135
330
79
100
AcDbEntity
  8
Camada 1
 62
    18
420
        0
370
    15
100
AcDbPolyline
 90
       49
 70
     0
 43
0.0
 10
71.66972463870873
 20
-28.70485192408017
 10
71.88000460599979
 20
-28.71014262650458
 10
72.1425385974844
 20
-28.72486671801202
 10
72.39424543157642
 20
-28.747876182879
 10
72.61765560919011
 20
-28.77640454898049
 10
72.86498102550314
 20
-28.81712926553246
 10
73.1097927437937
 20
-28.86705566156544
 10
73.35230140914977
 20
-28.92618724783253
 10
73.59572286987582
 20
-28.99567204004917
 10
73.80808120200106
 20
-29.06423701538837
 10
74.0057224641565
 20
-29.13486982331436
 10
74.24616680767148
 20
-29.22989533214066
 10
74.48176631421887
 20
-29.33343090241783
 10
74.71344782217655
 20
-29.44593995333353
 10
74.94215221292444
 20
-29.5674224848887
 10
75.16717733617987
 20
-29.69764678748938
 10
75.38782104165632
 20
-29.83684808148103
 10
75.6040973723604
 20
-29.98432772732925
 10
75.7271843172743
 20
-30.07383082414902
 10
75.93472589843361
 20
-30.23396672888002
 10
76.13695922343929
 20
-30.40215629737691
 10
76.33368769021
 20
-30.57793611045172
 10
76.52441979354843
 20
-30.76154138844961
 10
76.70870615727193
 20
-30.95227700258894
 10
76.79797754446788
 20
-31.04983025241926
 10
76.97192825599671
 20
-31.25069087366405
 10
77.13941918490594
 20
-31.45868534180177
 10
77.30001499801566
 20
-31.67311852804952
 10
77.45349100723776
 20
-31.89399745391091
 10
77.59913101928105
 20
-32.1210868990408
 10
77.65687585868953
 20
-32.21656880552706
 10
77.79147806825417
 20
-32.4510238071429
 10
77.91824428063934
 20
-32.69122590883799
 10
78.03673916266899
 20
-32.93672222368011
 10
78.14694867133782
 20
-33.18682113363848
 10
78.24840938745656
 20
-33.44129092911752
 10
78.27969720413584
 20
-33.52503990434094
 10
78.36943201049859
 20
-33.7841087841841
 10
78.45112017459648
 20
-34.0493916940466
 10
78.49781316851331
 20
-34.21666144564936
 10
78.54130435713031
 20
-34.38761046474457
 10
78.60227908782743
 20
-34.65749596972076
 10
78.65335349950655
 20
-34.92531013135609
 10
78.69500505436481
 20
-35.19473572789387
 10
78.7278937736677
 20
-35.47060004254167
 10
78.74400110117766
 20
-35.64500013028267
 10
78.76263616969741
 20
-35.93053305435062
 10
78.77368801513836
 20
-36.24205958196045
 10
78.77621575614624
 20
-36.36975614350577
  0
LWPOLYLINE
  5
136
330
79
100
AcDbEntity
  8
Camada 1
 62
    18
420
        0
370
    15
100
AcDbPolyline
 90
       41
 70
     0
 43
0.0
 10
77.31887475403254
 20
-36.36987199810656
 10
77.31402991709832
 20
-36.14209093496515
 10
77.29977626634919
 20
-35.91293014651302
 10
77.27560825357745
 20
-35.68330944962313
 10
77.24179269589157
 20
-35.45392046232626
 10
77.19830150728163
 20
-35.22544778114926
 10
77.15389752329656
 20
-35.03126109837921
 10
77.09316152369161
 20
-34.80693110388038
 10
77.02343800044058
 20
-34.58582397918708
 10
76.94499377065264
 20
-34.3686278315799
 10
76.85801139340002
 20
-34.15603427908768
 10
76.76230830960985
 20
-33.94735170368093
 10
76.65784239026493
 20
-33.74234839576535
 10
76.54395361409789
 20
-33.54102786609179
 10
76.422018195666
 20
-33.3440817326923
 10
76.291558672776
 20
-33.15196288249911
 10
76.15327719571249
 20
-32.96536644429512
 10
76.06125337940195
 20
-32.84963803434174
 10
75.91076853038787
 20
-32.67270669480609
 10
75.75316387748426
 20
-32.50267398181823
 10
75.58935221606233
 20
-32.33954691687984
 10
75.41863139583881
 20
-32.18355369883439
 10
75.24124014790583
 20
-32.03423090849327
 10
75.05717847226788
 20
-31.8915820566086
 10
74.86667105701371
 20
-31.75698335773834
 10
74.67109411670256
 20
-31.62975021535467
 10
74.5993203145965
 20
-31.58603433861361
 10
74.39684825848712
 20
-31.47007421905181
 10
74.18977009650808
 20
-31.36262767169269
 10
73.97925139813323
 20
-31.26415109422092
 10
73.76527812035533
 20
-31.17465150813981
 10
73.54761153207838
 20
-31.09412189194669
 10
73.32535288093708
 20
-31.02210584795657
 10
73.09941496230269
 20
-30.95883508576248
 10
72.87026119536315
 20
-30.90476600305068
 10
72.63880437548784
 20
-30.85989859982055
 10
72.40526919076804
 20
-30.8244680964185
 10
72.37236642842264
 20
-30.82032540973359
 10
72.13791844833159
 20
-30.79593621955974
 10
71.90323173714197
 20
-30.78098392921334
 10
71.66969655241833
 20
-30.77592142562853
  0
LWPOLYLINE
  5
137
330
79
100
AcDbEntity
  8
Camada 1
 62
    18
420
        0
370
    15
100
AcDbPolyline
 90
       41
 70
     0
 43
0.0
 10
71.66972463692288
 20
-41.9638436335714
 10
71.90348450973913
 20
-41.95878113004948
 10
72.13770780174463
 20
-41.94382532901448
 10
72.37215578184209
 20
-41.91943613890352
 10
72.40528323227947
 20
-41.91529345222759
 10
72.63881841700889
 20
-41.87986294888843
 10
72.87051396799367
 20
-41.83499554572118
 10
73.09966773494797
 20
-41.78092646307034
 10
73.32560565359905
 20
-41.71765570093786
 10
73.54763961666828
 20
-41.64563965700678
 10
73.76529216196174
 20
-41.56511355162418
 10
73.97904075167206
 20
-41.47561045484933
 10
74.19002286926247
 20
-41.37690567859219
 10
74.39686230017246
 20
-41.26968733013138
 10
74.59933435631327
 20
-41.15372721062413
 10
74.67088347034084
 20
-41.11001133390168
 10
74.86692382987397
 20
-40.98277819157063
 10
75.0569678259761
 20
-40.84795129390953
 10
75.24102950165256
 20
-40.70576235051075
 10
75.41888416881265
 20
-40.55620785062409
 10
75.58936625798253
 20
-40.4002146326242
 10
75.75341665054536
 20
-40.23708756773042
 10
75.91079661540321
 20
-40.06682665594209
 10
76.06149210955078
 20
-39.89012702604085
 10
76.15330528080676
 20
-39.77439510536101
 10
76.29181144601165
 20
-39.58779866719424
 10
76.42203223785699
 20
-39.39568332778718
 10
76.5439816993468
 20
-39.19873368366894
 10
76.65763174447175
 20
-38.99741315402682
 10
76.76254704005387
 20
-38.79218164729698
 10
76.85826416690582
 20
-38.58349907191558
 10
76.94500781311956
 20
-38.37090200869562
 10
77.02346608597247
 20
-38.15393757070327
 10
77.09341429737323
 20
-37.93283044602922
 10
77.15392560894717
 20
-37.70850045154643
 10
77.19855428107554
 20
-37.51431376878826
 10
77.24180673865046
 20
-37.28584459837461
 10
77.27563633940261
 20
-37.05622390149243
 10
77.29979030923066
 20
-36.82683140345112
 10
77.31405800304798
 20
-36.59767061500349
 10
77.31888879703848
 20
-36.36989306261484
  0
LWPOLYLINE
  5
138
330
79
100
AcDbEntity
  8
Camada 1
 62
    18
420
        0
370
    15
100
AcDbPolyline
 90
       35
 70
     0
 43
0.0
 10
71.72446427338562
 20
-40.03454880678547
 10
71.90875063713415
 20
-40.03569682252627
 10
72.09489067763583
 20
-40.02718325034765
 10
72.28194351350876
 20
-40.00900809025089
 10
72.46923508048026
 20
-39.98116783148452
 10
72.65536107797983
 20
-39.94389418364091
 10
72.65788881900502
 20
-39.94320607636161
 10
72.84241391385662
 20
-39.89626732984774
 10
73.023723160405
 20
-39.84013041460242
 10
73.20111440836557
 20
-39.77547641640195
 10
73.37389955045904
 20
-39.70208064715502
 10
73.54255604887935
 20
-39.62017130570445
 10
73.70751923680252
 20
-39.52906028477094
 10
73.86835378105252
 20
-39.4296638904766
 10
74.02456817642883
 20
-39.32175743472945
 10
74.17574113276197
 20
-39.20556560562147
 10
74.32091772566413
 20
-39.08178353193365
 10
74.36762476261387
 20
-39.03944738051741
 10
74.50406660597447
 20
-38.90646362734664
 10
74.63336055943618
 20
-38.76703413455967
 10
74.7555347090109
 20
-38.62116241290957
 10
74.87057501169399
 20
-38.46908017198842
 10
74.97779336020355
 20
-38.31101209988849
 10
75.00356227566115
 20
-38.27051909296772
 10
75.10065561706525
 20
-38.1060123027552
 10
75.18947762811513
 20
-37.93736282586098
 10
75.26907338442358
 20
-37.76457066228505
 10
75.33970970309785
 20
-37.58879084924682
 10
75.40137254113327
 20
-37.41001636524201
 10
75.45430062962586
 20
-37.22710270530763
 10
75.49777777528632
 20
-37.04119788515817
 10
75.51849120870125
 20
-36.93559097157543
 10
75.54725128439255
 20
-36.747154899648
 10
75.56634977216443
 20
-36.55825891928217
 10
75.57601136010823
 20
-36.36982284735216
  0
LWPOLYLINE
  5
139
330
79
100
AcDbEntity
  8
Camada 1
 62
    18
420
        0
370
    15
100
AcDbPolyline
 90
       35
 70
     0
 43
0.0
 10
75.57612370415454
 20
-36.3698719978717
 10
75.56644807325485
 20
-36.18166412478131
 10
75.5473636285396
 20
-35.99276814441034
 10
75.51836482180299
 20
-35.80433207247457
 10
75.4978901195123
 20
-35.69849344929304
 10
75.45417424280525
 20
-35.51258862913138
 10
75.40126019736803
 20
-35.32967496918288
 10
75.33959735938073
 20
-35.15067228631922
 10
75.26918572884463
 20
-34.9751206721039
 10
75.18935124148575
 20
-34.80256021810111
 10
75.10076796157936
 20
-34.63368254234033
 10
75.00344993212692
 20
-34.4691757521015
 10
74.97768101668086
 20
-34.42867923442218
 10
74.87046266821301
 20
-34.27061467304487
 10
74.75542236557228
 20
-34.11853243209323
 10
74.63347290412738
 20
-33.97266071040944
 10
74.50416490769824
 20
-33.83323121758877
 10
74.36749837628224
 20
-33.70024395362899
 10
74.32103007044005
 20
-33.65791131295205
 10
74.17561474647462
 20
-33.53412572847359
 10
74.02468052126955
 20
-33.41793741007603
 10
73.86845208291681
 20
-33.31002744353569
 10
73.70740689360776
 20
-33.21040285035489
 10
73.54242966270366
 20
-33.11952002821992
 10
73.37378720731177
 20
-33.03784239631744
 10
73.2012267533295
 20
-32.9642184281815
 10
73.02359677428897
 20
-32.89956442993356
 10
72.8423015707613
 20
-32.84342400388797
 10
72.65800116401324
 20
-32.79648876807585
 10
72.65524873489671
 20
-32.79602885963905
 10
72.46910869440146
 20
-32.75852350215108
 10
72.28181712743766
 20
-32.73068675408551
 10
72.09476429156921
 20
-32.71250808318657
 10
71.90863829407671
 20
-32.70399451095789
 10
71.72433788732158
 20
-32.70514603740012
  0
LWPOLYLINE
  5
13A
330
79
100
AcDbEntity
  8
Camada 1
 62
    18
420
        0
370
    15
100
AcDbPolyline
 90
       49
 70
     0
 43
0.0
 10
58.83945887058121
 20
-36.36987199561741
 10
58.84428966450435
 20
-36.63952579099223
 10
58.85878204634561
 20
-36.90963949480546
 10
58.87189821364433
 20
-37.06931549107367
 10
58.90134639655268
 20
-37.33850937801586
 10
58.94068085547114
 20
-37.60632353964927
 10
58.98946625722299
 20
-37.87183815910158
 10
59.04744982770692
 20
-38.13550963405714
 10
59.11485625501171
 20
-38.39734147526871
 10
59.19169958214588
 20
-38.65687026354642
 10
59.24117309119178
 20
-38.80849610680409
 10
59.33250880020443
 20
-39.06342229996747
 10
59.43283203286251
 20
-39.31467273639053
 10
59.54211470315605
 20
-39.56224039457157
 10
59.66014616599774
 20
-39.80635347335213
 10
59.78692642138886
 20
-40.04632737620505
 10
59.8639944366304
 20
-40.18276570880646
 10
60.00389085934207
 20
-40.41514936708273
 10
60.15183392431858
 20
-40.64223881221262
 10
60.3078236315612
 20
-40.8638058453533
 10
60.47187402407206
 20
-41.08031037494287
 10
60.64350763966042
 20
-41.29106429369913
 10
60.7440555604278
 20
-41.40748432168392
 10
60.92720444068743
 20
-41.6085766525243
 10
61.11747312483662
 20
-41.80276333531391
 10
61.31420159160668
 20
-41.99004788080489
 10
61.51782517417369
 20
-42.17089370818584
 10
61.72811918444823
 20
-42.34437397907956
 10
61.84660002349311
 20
-42.43686472536036
 10
62.0661062455057
 20
-42.59861206499638
 10
62.29066794956931
 20
-42.75253745046081
 10
62.52074855487258
 20
-42.89817746256505
 10
62.75634806141613
 20
-43.03622723009072
 10
62.99700305001071
 20
-43.16599162425749
 10
63.24203945638426
 20
-43.28724244622125
 10
63.37480203222546
 20
-43.34867708540745
 10
63.62604544711795
 20
-43.45635183161547
 10
63.88074344141349
 20
-43.55528831752917
 10
64.13935943429876
 20
-43.64524781205254
 10
64.2760259657263
 20
-43.68873548996042
 10
64.5392340214753
 20
-43.76489070988523
 10
64.80474513016071
 20
-43.83161605148559
 10
65.07210991559927
 20
-43.88890449325848
 10
65.34130029177906
 20
-43.93676305670627
 10
65.61256903280332
 20
-43.97541642992092
 10
65.88543867647878
 20
-44.00440470446596
 10
66.02717473296717
 20
-44.0156777273077
 10
66.30073248392256
 20
-44.03017361997425
 10
66.5738408586985
 20
-44.03477621512773
  0
LWPOLYLINE
  5
13B
330
79
100
AcDbEntity
  8
Camada 1
 62
    18
420
        0
370
    15
100
AcDbPolyline
 90
       49
 70
     0
 43
0.0
 10
66.57393916180255
 20
-28.70485192339355
 10
66.30059205592934
 20
-28.70968271731604
 10
66.02703430496946
 20
-28.72394690031513
 10
65.88553697957514
 20
-28.73521992311838
 10
65.61265329288668
 20
-28.76443990718391
 10
65.34115986376082
 20
-28.80286508148259
 10
65.07196948756754
 20
-28.85072013410702
 10
64.80461874511954
 20
-28.90801208655954
 10
64.53909359341084
 20
-28.97496562693083
 10
64.27588553764003
 20
-29.05089264794161
 10
64.13944369429228
 20
-29.09437681506142
 10
63.88084174438858
 20
-29.18456801910915
 10
63.62614375006672
 20
-29.28327279536052
 10
63.3748862921394
 20
-29.39117925109483
 10
63.24213775928812
 20
-29.45238218065143
 10
62.99710135288183
 20
-29.5736330025491
 10
62.75620763315533
 20
-29.7034009074019
 10
62.52083281466525
 20
-29.8414471641132
 10
62.29075220932219
 20
-29.98709068690669
 10
62.06596581712682
 20
-30.14101256155867
 10
61.8464595950706
 20
-30.30275990113565
 10
61.72797875600068
 20
-30.39548235697866
 10
61.51790943377127
 20
-30.56896262781591
 10
61.31406116306353
 20
-30.74957674554802
 10
61.11734673924872
 20
-30.93686129098573
 10
60.92728870013357
 20
-31.13105148447614
 10
60.74391513172742
 20
-31.33214030451497
 10
60.64360594202525
 20
-31.44879204206713
 10
60.47173359528377
 20
-31.65931425118384
 10
60.30792193381053
 20
-31.87582229147965
 10
60.1519181835042
 20
-32.09738932457927
 10
60.00397511846609
 20
-32.32447876966873
 10
59.86409273869748
 20
-32.55709062674996
 10
59.78701068041342
 20
-32.69329724973653
 10
59.66000573686614
 20
-32.93327115255544
 10
59.54197427395836
 20
-33.1773877420554
 10
59.43291629169006
 20
-33.42495540020693
 10
59.3326071019699
 20
-33.6762023258522
 10
59.24125734988329
 20
-33.93113202974204
 10
59.19157319571031
 20
-34.08275436223474
 10
59.1149545565988
 20
-34.34228666124404
 10
59.04753408621619
 20
-34.60411850243636
 10
58.98932582757097
 20
-34.86778997737653
 10
58.94055446875256
 20
-35.13330108606451
 10
58.90143065484826
 20
-35.40111524768765
 10
58.87175778377607
 20
-35.6703091346215
 10
58.85864161643436
 20
-35.83021684048017
 10
58.84437392261062
 20
-36.10033054428889
 10
58.83954312861562
 20
-36.36975614082091
  0
LWPOLYLINE
  5
13C
330
79
100
AcDbEntity
  8
Camada 1
 62
    18
420
        0
370
    15
100
AcDbPolyline
 90
       41
 70
     0
 43
0.0
 10
66.57393916152343
 20
-30.77592142494192
 10
66.33832561195595
 20
-30.7773011502199
 10
66.10181331002253
 20
-30.78834246341666
 10
65.86482354589456
 20
-30.80882067644087
 10
65.75898141196155
 20
-30.82124522571587
 10
65.52315721730422
 20
-30.85598762177638
 10
65.28893392529487
 20
-30.89993169731919
 10
65.05723837430945
 20
-30.95308096309579
 10
64.82853398353653
 20
-31.01566361794898
 10
64.60398632244741
 20
-31.08675984500582
 10
64.38332857393548
 20
-31.16659784310977
 10
64.16660286701731
 20
-31.2554093218532
 10
63.9530789653964
 20
-31.35319077048591
 10
63.74348710536923
 20
-31.45971750091593
 10
63.62614374976512
 20
-31.52414330028192
 10
63.42367169362431
 20
-31.6442425957181
 10
63.22649385062923
 20
-31.77193915723647
 10
63.03529832805985
 20
-31.90745767292899
 10
62.85007108291083
 20
-32.0505664332004
 10
62.67176703956871
 20
-32.20034913192955
 10
62.50035811202163
 20
-32.35657405952311
 10
62.33561961218015
 20
-32.51992932326003
 10
62.17732685195231
 20
-32.69042194464201
 10
62.07033319153794
 20
-32.81420401833498
 10
61.92446849134878
 20
-32.99550624335343
 10
61.78618701423522
 20
-33.1823343911145
 10
61.65619091048185
 20
-33.37444973052092
 10
61.53448018008738
 20
-33.5711676650455
 10
61.42150419923641
 20
-33.77225999584545
 10
61.31751574202958
 20
-33.97679988454483
 10
61.22248672245757
 20
-34.18456264305295
 10
61.13643118352376
 20
-34.39623637864848
 10
61.05867506095544
 20
-34.61274441895648
 10
60.98963964492467
 20
-34.83293172675693
 10
60.92983048363596
 20
-35.05657010320959
 10
60.88979387437259
 20
-35.23051028250577
 10
60.84654141679831
 20
-35.45805963604646
 10
60.81271181604617
 20
-35.68652880646204
 10
60.78855784621875
 20
-35.91500148762974
 10
60.77406546430883
 20
-36.14301074961076
 10
60.76923467031896
 20
-36.36986848512581
  0
LWPOLYLINE
  5
13D
330
79
100
AcDbEntity
  8
Camada 1
 62
    18
420
        0
370
    15
100
AcDbPolyline
 90
       41
 70
     0
 43
0.0
 10
60.76930488534743
 20
-36.3698719958773
 10
60.77413567927633
 20
-36.59672973139428
 10
60.78862806112401
 20
-36.82473899337915
 10
60.81278203088983
 20
-37.05320816380178
 10
60.84637290048437
 20
-37.28168084497718
 10
60.88986408909431
 20
-37.50899848893578
 10
60.92966196721357
 20
-37.68317037783717
 10
60.98970985953923
 20
-37.90657704471092
 10
61.05850654441433
 20
-38.12699606212492
 10
61.13627670992957
 20
-38.3432723928598
 10
61.22255693689695
 20
-38.5551743273206
 10
61.31758595641378
 20
-38.76293708585439
 10
61.42157441356541
 20
-38.9674804853335
 10
61.53455039436249
 20
-39.16856930541275
 10
61.65626112470369
 20
-39.36529075072091
 10
61.78625722840508
 20
-39.55740609016262
 10
61.92429997437195
 20
-39.74423423796091
 10
62.07040340560897
 20
-39.9255364630185
 10
62.17739706598935
 20
-40.04909033789817
 10
62.33545109507499
 20
-40.21957944857166
 10
62.50042832596946
 20
-40.38316642194653
 10
62.67183725347356
 20
-40.53939134958564
 10
62.85014129677524
 20
-40.68917404836323
 10
63.03512981078976
 20
-40.8320546098422
 10
63.22656406441922
 20
-40.96780132442823
 10
63.42374190737899
 20
-41.09549437524838
 10
63.62621396348773
 20
-41.21536898264841
 10
63.74354327606984
 20
-41.27979127129436
 10
63.95314917907344
 20
-41.38654971137515
 10
64.16667308066805
 20
-41.4841029612228
 10
64.38339878756247
 20
-41.57314263886776
 10
64.60381780495595
 20
-41.65298063703042
 10
64.82860419712245
 20
-41.72407686414759
 10
65.05730858787868
 20
-41.78642780946872
 10
65.28876540775335
 20
-41.83980527415037
 10
65.52322743084714
 20
-41.88375286050756
 10
65.75905162549614
 20
-41.91849525663161
 10
65.86489375942466
 20
-41.93068809634119
 10
66.10164479245151
 20
-41.95116630942956
 10
66.3383958254777
 20
-41.96243933228351
 10
66.57399533203921
 20
-41.9635908587822
  0
LWPOLYLINE
  5
13E
330
79
100
AcDbEntity
  8
Camada 1
 62
    18
420
        0
370
    15
100
AcDbPolyline
 90
       33
 70
     0
 43
0.0
 10
63.67737263389173
 20
-36.36987199626874
 10
63.67874884842464
 20
-36.55117422130709
 10
63.68956196278693
 20
-36.73362797281462
 10
63.71026135315804
 20
-36.91631343391581
 10
63.74041168636253
 20
-37.0985354758316
 10
63.76179918402384
 20
-37.20253095451637
 10
63.80690531829479
 20
-37.38153363737747
 10
63.86097089020054
 20
-37.55708525159022
 10
63.92354652355911
 20
-37.72872588871814
 10
63.9951096805631
 20
-37.89645554876058
 10
64.07587100629919
 20
-38.06119404859115
 10
64.1651423934868
 20
-38.22178986174259
 10
64.26314853021789
 20
-38.37824298821489
 10
64.32665100196264
 20
-38.47050553564645
 10
64.43732392983291
 20
-38.61821689107422
 10
64.55535539268872
 20
-38.75971772723477
 10
64.68005728325143
 20
-38.8943164260967
 10
64.81166833261702
 20
-39.02224118650151
 10
64.95039918587089
 20
-39.14349200845116
 10
65.09581450983759
 20
-39.25784069310153
 10
65.18001637198297
 20
-39.31881191309334
 10
65.33440517659109
 20
-39.42119946764417
 10
65.49338604406229
 20
-39.51530164883415
 10
65.65697301740378
 20
-39.60066205897928
 10
65.8237898820557
 20
-39.67704898848493
 10
65.99451070229335
 20
-39.74492234578821
 10
66.16982358539406
 20
-39.80405393204631
 10
66.34882977899446
 20
-39.85421203766493
 10
66.53058840171202
 20
-39.89562486148689
 10
66.57660733137667
 20
-39.90437014329062
 10
66.76066900702939
 20
-39.93359012741711
 10
66.94519410187329
 20
-39.95337672246765
 10
67.12926982053516
 20
-39.96327002000511
  0
LWPOLYLINE
  5
13F
330
79
100
AcDbEntity
  8
Camada 1
 62
    18
420
        0
370
    15
100
AcDbPolyline
 90
       33
 70
     0
 43
0.0
 10
67.12928386450879
 20
-32.77631247889699
 10
66.94520814584371
 20
-32.78620577638504
 10
66.76068305099533
 20
-32.80622057022834
 10
66.57662137533491
 20
-32.83544055430542
 10
66.53060244566704
 20
-32.84418583609696
 10
66.34884382293856
 20
-32.88537046102733
 10
66.16961294123401
 20
-32.93552505584634
 10
65.99452474620794
 20
-32.99488835165126
 10
65.82380392595233
 20
-33.06252999931403
 10
65.65676237318918
 20
-33.1389169287754
 10
65.49340008791528
 20
-33.22450904847055
 10
65.33419453232709
 20
-33.31861122961786
 10
65.17980572769203
 20
-33.42076707453235
 10
65.09582855362193
 20
-33.48173829450171
 10
64.95041322962378
 20
-33.59608697911294
 10
64.81166833333123
 20
-33.71756951061902
 10
64.67983259583966
 20
-33.84549427098856
 10
64.5553694363383
 20
-33.9800929698171
 10
64.43709924234735
 20
-34.12136209635127
 10
64.32666504553458
 20
-34.26907345174952
 10
64.2631625737648
 20
-34.36156770875806
 10
64.16514239398541
 20
-34.51778912560975
 10
64.07587100675479
 20
-34.6786166483311
 10
63.99512372398039
 20
-34.84312343854619
 10
63.92356056693082
 20
-35.01108480816305
 10
63.8609849335267
 20
-35.18272544527428
 10
63.80691936157345
 20
-35.35827705947291
 10
63.7618132272531
 20
-35.53727974232181
 10
63.7404257295642
 20
-35.64127522100082
 10
63.71027539631093
 20
-35.82326906406545
 10
63.68957600589041
 20
-36.00618272400433
 10
63.67876289147936
 20
-36.18863647550801
 10
63.67737263389173
 20
-36.36971050170354
  0
SPLINE
  5
140
330
79
100
AcDbEntity
  8
Camada 1
 62
    18
420
        0
370
    15
100
AcDbSpline
210
0.0
220
0.0
230
1.0
 70
     9
 71
     3
 72
    17
 73
    13
 74
     0
 42
0.0000000001
 43
0.0000000001
 40
0.0
 40
0.0
 40
0.0
 40
0.0
 40
1.0
 40
1.0
 40
1.0
 40
2.0
 40
2.0
 40
2.0
 40
3.0
 40
3.0
 40
3.0
 40
4.0
 40
4.0
 40
4.0
 40
4.0
 10
80.41058288795548
 20
-37.16880316782834
 30
0.0
 10
80.8518702989469
 20
-37.16880316788737
 30
0.0
 10
81.20941926702069
 20
-36.81102600106767
 30
0.0
 10
81.20941926707972
 20
-36.36996327816758
 30
0.0
 10
81.20941926713939
 20
-35.92866533492233
 30
0.0
 10
80.85187029916188
 20
-35.57089167875722
 30
0.0
 10
80.4105828881711
 20
-35.57089167869818
 30
0.0
 10
79.969281434175
 20
-35.5708916786385
 30
0.0
 10
79.61173246609994
 20
-35.92866533470672
 30
0.0
 10
79.61173246604089
 20
-36.36996327795196
 30
0.0
 10
79.61173246598185
 20
-36.81102600085206
 30
0.0
 10
79.9692814339594
 20
-37.16880316776866
 30
0.0
 10
80.41058288795548
 20
-37.16880316782834
 30
0.0
  0
LINE
  5
141
330
79
100
AcDbEntity
  8
Camada 1
 62
    18
420
        0
370
    15
100
AcDbLine
 10
80.41058288821728
 20
-35.22848809231542
 30
0.0
 11
80.41058288790992
 21
-37.51111547467371
 31
0.0
  0
LINE
  5
142
330
79
100
AcDbEntity
  8
Camada 1
 62
    18
420
        0
370
    15
100
AcDbLine
 10
81.5520264770449
 20
-36.36980178364793
 30
0.0
 11
79.26939207318362
 21
-36.37002998218338
 31
0.0
  0
SPLINE
  5
143
330
79
100
AcDbEntity
  8
Camada 1
 62
    18
420
        0
370
    15
100
AcDbSpline
210
0.0
220
0.0
230
1.0
 70
     9
 71
     3
 72
    17
 73
    13
 74
     0
 42
0.0000000001
 43
0.0000000001
 40
0.0
 40
0.0
 40
0.0
 40
0.0
 40
1.0
 40
1.0
 40
1.0
 40
2.0
 40
2.0
 40
2.0
 40
3.0
 40
3.0
 40
3.0
 40
4.0
 40
4.0
 40
4.0
 40
4.0
 10
80.41058288857023
 20
-32.60338339779443
 30
0.0
 10
80.85187029956165
 20
-32.60338339785346
 30
0.0
 10
81.20941926763544
 20
-32.24583794062741
 30
0.0
 10
81.20941926769511
 20
-31.80454350813366
 30
0.0
 10
81.20941926775479
 20
-31.36324556488842
 30
0.0
 10
80.85187029977726
 20
-31.0054719087233
 30
0.0
 10
80.41058288878648
 20
-31.00547190866427
 30
0.0
 10
79.96928143478911
 20
-31.00547190860459
 30
0.0
 10
79.61173246671532
 20
-31.36324556467281
 30
0.0
 10
79.61173246665629
 20
-31.80454350791805
 30
0.0
 10
79.61173246659661
 20
-32.24583794041244
 30
0.0
 10
79.96928143457414
 20
-32.60338339773475
 30
0.0
 10
80.41058288857023
 20
-32.60338339779443
 30
0.0
  0
LINE
  5
144
330
79
100
AcDbEntity
  8
Camada 1
 62
    18
420
        0
370
    15
100
AcDbLine
 10
80.41058288883268
 20
-30.66315960181825
 30
0.0
 11
80.41058288852466
 21
-32.94578698417654
 31
0.0
  0
LINE
  5
145
330
79
100
AcDbEntity
  8
Camada 1
 62
    18
420
        0
370
    15
100
AcDbLine
 10
81.55202647766028
 20
-31.8044732931514
 30
0.0
 11
79.26939207379901
 21
-31.8047014916862
 31
0.0
  0
SPLINE
  5
146
330
79
100
AcDbEntity
  8
Camada 1
 62
    18
420
        0
370
    15
100
AcDbSpline
210
0.0
220
0.0
230
1.0
 70
     9
 71
     3
 72
    17
 73
    13
 74
     0
 42
0.0000000001
 43
0.0000000001
 40
0.0
 40
0.0
 40
0.0
 40
0.0
 40
1.0
 40
1.0
 40
1.0
 40
2.0
 40
2.0
 40
2.0
 40
3.0
 40
3.0
 40
3.0
 40
4.0
 40
4.0
 40
4.0
 40
4.0
 10
80.41058288734074
 20
-41.73420187335332
 30
0.0
 10
80.85187029833216
 20
-41.73420187341299
 30
0.0
 10
81.20941926640595
 20
-41.37642470659264
 30
0.0
 10
81.20941926646498
 20
-40.93536198369256
 30
0.0
 10
81.20941926652465
 20
-40.49406404044732
 30
0.0
 10
80.85187029854713
 20
-40.13629038428284
 30
0.0
 10
80.41058288755634
 20
-40.13629038422316
 30
0.0
 10
79.96928143355962
 20
-40.13629038416349
 30
0.0
 10
79.61173246548518
 20
-40.49406404023235
 30
0.0
 10
79.61173246542614
 20
-40.93536198347758
 30
0.0
 10
79.61173246536711
 20
-41.37642470637704
 30
0.0
 10
79.969281433344
 20
-41.73420187329364
 30
0.0
 10
80.41058288734074
 20
-41.73420187335332
 30
0.0
  0
LINE
  5
147
330
79
100
AcDbEntity
  8
Camada 1
 62
    18
420
        0
370
    15
100
AcDbLine
 10
80.41058288760254
 20
-39.79390786234933
 30
0.0
 11
80.41058288729452
 21
-42.07653524470762
 31
0.0
  0
LINE
  5
148
330
79
100
AcDbEntity
  8
Camada 1
 62
    18
420
        0
370
    15
100
AcDbLine
 10
81.55202647643013
 20
-40.93522155368184
 30
0.0
 11
79.26939207256888
 21
-40.93544975221727
 31
0.0
  0
SPLINE
  5
149
330
79
100
AcDbEntity
  8
Camada 1
 62
    18
420
        0
370
    15
100
AcDbSpline
210
0.0
220
0.0
230
1.0
 70
     9
 71
     3
 72
    17
 73
    13
 74
     0
 42
0.0000000001
 43
0.0000000001
 40
0.0
 40
0.0
 40
0.0
 40
0.0
 40
1.0
 40
1.0
 40
1.0
 40
2.0
 40
2.0
 40
2.0
 40
3.0
 40
3.0
 40
3.0
 40
4.0
 40
4.0
 40
4.0
 40
4.0
 10
73.01510075523379
 20
-37.4198218936477
 30
0.0
 10
73.59513306250171
 20
-37.41982189372599
 30
0.0
 10
74.06518054922101
 20
-36.94976387487864
 30
0.0
 10
74.0651805492993
 20
-36.37019147604784
 30
0.0
 10
74.06518054937695
 20
-35.79015916877992
 30
0.0
 10
73.59513306278405
 20
-35.31987295096398
 30
0.0
 10
73.01510075551679
 20
-35.3198729508857
 30
0.0
 10
72.43505440524356
 20
-35.31987295080741
 30
0.0
 10
71.96500691852361
 20
-35.79015916849757
 30
0.0
 10
71.96500691844661
 20
-36.37019147576485
 30
0.0
 10
71.96500691836767
 20
-36.94976387459629
 30
0.0
 10
72.43505440496121
 20
-37.41982189356941
 30
0.0
 10
73.01510075523379
 20
-37.4198218936477
 30
0.0
  0
SPLINE
  5
14A
330
79
100
AcDbEntity
  8
Camada 1
 62
    18
420
        0
370
    15
100
AcDbSpline
210
0.0
220
0.0
230
1.0
 70
     9
 71
     3
 72
    17
 73
    13
 74
     0
 42
0.0000000001
 43
0.0000000001
 40
0.0
 40
0.0
 40
0.0
 40
0.0
 40
1.0
 40
1.0
 40
1.0
 40
2.0
 40
2.0
 40
2.0
 40
3.0
 40
3.0
 40
3.0
 40
4.0
 40
4.0
 40
4.0
 40
4.0
 10
73.01503054011615
 20
-38.0818091821567
 30
0.0
 10
73.96065845767328
 20
-38.0818091822844
 30
0.0
 10
74.72728018172691
 20
-37.31518043693506
 30
0.0
 10
74.72728018185396
 20
-36.37000891706291
 30
0.0
 10
74.72728018198165
 20
-35.42414577916063
 30
0.0
 10
73.96065845813464
 20
-34.65774874319832
 30
0.0
 10
73.01503054057817
 20
-34.65774874307063
 30
0.0
 10
72.06938858001507
 20
-34.65774874294389
 30
0.0
 10
71.30299154405277
 20
-35.42414577869925
 30
0.0
 10
71.30299154392571
 20
-36.37000891660153
 30
0.0
 10
71.30299154379802
 20
-37.31518043647368
 30
0.0
 10
72.0693885795537
 20
-38.08180918202964
 30
0.0
 10
73.01503054011615
 20
-38.0818091821567
 30
0.0
  0
LINE
  5
14B
330
79
100
AcDbEntity
  8
Camada 1
 62
    18
420
        0
370
    15
100
AcDbLine
 10
74.84112682903139
 20
-36.36980178274442
 30
0.0
 11
71.1885972195259
 21
-36.36980178225224
 31
0.0
  0
LINE
  5
14C
330
79
100
AcDbEntity
  8
Camada 1
 62
    18
420
        0
370
    15
100
AcDbLine
 10
73.01503054059292
 20
-34.54369847231078
 30
0.0
 11
73.01503054010137
 21
-38.19599637222262
 31
0.0
  0
ENDBLK
  5
7C
330
79
100
AcDbEntity
  8
0
100
AcDbBlockEnd
  0
BLOCK
  5
8F
330
8D
100
AcDbEntity
  8
0
100
AcDbBlockBegin
  2
Block_1
 70
     0
 10
0.0
 20
0.0
 30
0.0
  3
Block_1
  1

  0
SPLINE
  5
91
330
8D
100
AcDbEntity
  8
Camada 1
 62
    18
420
        0
370
    15
100
AcDbSpline
210
0.0
220
0.0
230
1.0
 70
     8
 71
     3
 72
    26
 73
    22
 74
     0
 42
0.0000000001
 43
0.0000000001
 40
0.0
 40
0.0
 40
0.0
 40
0.0
 40
1.0
 40
1.0
 40
1.0
 40
2.0
 40
2.0
 40
2.0
 40
3.0
 40
3.0
 40
3.0
 40
4.0
 40
4.0
 40
4.0
 40
5.0
 40
5.0
 40
5.0
 40
6.0
 40
6.0
 40
6.0
 40
7.0
 40
7.0
 40
7.0
 40
7.0
 10
75.99811951223331
 20
-65.18302564877946
 30
0.0
 10
76.58352900715883
 20
-64.89436582059849
 30
0.0
 10
77.00461674195182
 20
-64.32374655363204
 30
0.0
 10
77.08342742732098
 20
-63.64057132439071
 30
0.0
 10
77.08342742732098
 20
-63.64057132439071
 30
0.0
 10
77.49411897898986
 20
-60.0825693395509
 30
0.0
 10
77.49411897898986
 20
-60.0825693395509
 30
0.0
 10
77.55305419350126
 20
-59.56972858829306
 30
0.0
 10
77.92005920631367
 20
-59.03469896857701
 30
0.0
 10
78.39754306068901
 20
-58.90458093304483
 30
0.0
 10
78.39754306068901
 20
-58.90458093304483
 30
0.0
 10
78.39754306068901
 20
-59.03030845026204
 30
0.0
 10
78.39754306068901
 20
-59.03030845026204
 30
0.0
 10
78.39754306068901
 20
-59.03030845026204
 30
0.0
 10
77.72823763749499
 20
-64.85438212851317
 30
0.0
 10
77.72823763749499
 20
-64.85438212851317
 30
0.0
 10
77.63648462103143
 20
-65.64987704314089
 30
0.0
 10
77.01617667691929
 20
-66.26348459785885
 30
0.0
 10
76.21998703770718
 20
-66.34760974997337
 30
0.0
 10
76.21998703770718
 20
-66.34760974997337
 30
0.0
 10
73.99181838914737
 20
-66.5937467911412
 30
0.0
 10
73.99181838914737
 20
-66.5937467911412
 30
0.0
  0
SPLINE
  5
92
330
8D
100
AcDbEntity
  8
Camada 1
 62
    18
420
        0
370
    15
100
AcDbSpline
210
0.0
220
0.0
230
1.0
 70
     8
 71
     3
 72
    17
 73
    13
 74
     0
 42
0.0000000001
 43
0.0000000001
 40
0.0
 40
0.0
 40
0.0
 40
0.0
 40
1.0
 40
1.0
 40
1.0
 40
2.0
 40
2.0
 40
2.0
 40
3.0
 40
3.0
 40
3.0
 40
4.0
 40
4.0
 40
4.0
 40
4.0
 10
75.22257412539914
 20
-65.01639401756645
 30
0.0
 10
75.99911399107956
 20
-64.96762928885248
 30
0.0
 10
76.62982517135829
 20
-64.30479503120597
 30
0.0
 10
76.71903203985157
 20
-63.51115153996413
 30
0.0
 10
76.71903203985157
 20
-63.51115153996413
 30
0.0
 10
77.12972359152046
 20
-59.8586246933638
 30
0.0
 10
77.12972359152046
 20
-59.8586246933638
 30
0.0
 10
77.22286605715343
 20
-59.02707463074858
 30
0.0
 10
77.90880960517114
 20
-58.39960079650519
 30
0.0
 10
78.72417646413602
 20
-58.39960079650519
 30
0.0
 10
78.72417646413602
 20
-58.39960079650519
 30
0.0
 10
79.79307900476853
 20
-58.39960079650519
 30
0.0
 10
79.79307900476853
 20
-58.39960079650519
 30
0.0
  0
SPLINE
  5
93
330
8D
100
AcDbEntity
  8
Camada 1
 62
    18
420
        0
370
    15
100
AcDbSpline
210
0.0
220
0.0
230
1.0
 70
     8
 71
     3
 72
     8
 73
     4
 74
     0
 42
0.0000000001
 43
0.0000000001
 40
0.0
 40
0.0
 40
0.0
 40
0.0
 40
1.0
 40
1.0
 40
1.0
 40
1.0
 10
74.80737568023167
 20
-66.8647740156503
 30
0.0
 10
74.70105813313577
 20
-66.87586844988068
 30
0.0
 10
74.61670375717265
 20
-66.95884042971623
 30
0.0
 10
74.60376142607889
 20
-67.06492169992301
 30
0.0
  0
SPLINE
  5
94
330
8D
100
AcDbEntity
  8
Camada 1
 62
    18
420
        0
370
    15
100
AcDbSpline
210
0.0
220
0.0
230
1.0
 70
     8
 71
     3
 72
     8
 73
     4
 74
     0
 42
0.0000000001
 43
0.0000000001
 40
0.0
 40
0.0
 40
0.0
 40
0.0
 40
1.0
 40
1.0
 40
1.0
 40
1.0
 10
74.93051473123078
 20
-65.03425937160558
 30
0.0
 10
74.87527531044867
 20
-65.03772946800754
 30
0.0
 10
74.82766728053684
 20
-65.0737810894738
 30
0.0
 10
74.809174205806
 20
-65.1257831642212
 30
0.0
  0
SPLINE
  5
95
330
8D
100
AcDbEntity
  8
Camada 1
 62
    18
420
        0
370
    15
100
AcDbSpline
210
0.0
220
0.0
230
1.0
 70
     8
 71
     3
 72
     8
 73
     4
 74
     0
 42
0.0000000001
 43
0.0000000001
 40
0.0
 40
0.0
 40
0.0
 40
0.0
 40
1.0
 40
1.0
 40
1.0
 40
1.0
 10
74.50671862851288
 20
-67.19357975587058
 30
0.0
 10
74.55293720925595
 20
-67.19357975587058
 30
0.0
 10
74.59222970327687
 20
-67.15914680742169
 30
0.0
 10
74.59777339387146
 20
-67.11292117363678
 30
0.0
  0
ENDBLK
  5
90
330
8D
100
AcDbEntity
  8
0
100
AcDbBlockEnd
  0
BLOCK
  5
B1
330
AF
100
AcDbEntity
  8
0
100
AcDbBlockBegin
  2
Block_2
 70
     0
 10
0.0
 20
0.0
 30
0.0
  3
Block_2
  1

  0
SPLINE
  5
B3
330
AF
100
AcDbEntity
  8
Camada 1
 62
    18
420
        0
370
    15
100
AcDbSpline
210
0.0
220
0.0
230
1.0
 70
     8
 71
     3
 72
     8
 73
     4
 74
     0
 42
0.0000000001
 43
0.0000000001
 40
0.0
 40
0.0
 40
0.0
 40
0.0
 40
1.0
 40
1.0
 40
1.0
 40
1.0
 10
63.39715562462687
 20
-63.82363654222558
 30
0.0
 10
63.71331526149401
 20
-64.31475392575973
 30
0.0
 10
64.24464908748141
 20
-64.62583537276872
 30
0.0
 10
64.82751948747848
 20
-64.66142502001912
 30
0.0
  0
SPLINE
  5
B4
330
AF
100
AcDbEntity
  8
Camada 1
 62
    18
420
        0
370
    15
100
AcDbSpline
210
0.0
220
0.0
230
1.0
 70
     8
 71
     3
 72
     8
 73
     4
 74
     0
 42
0.0000000001
 43
0.0000000001
 40
0.0
 40
0.0
 40
0.0
 40
0.0
 40
1.0
 40
1.0
 40
1.0
 40
1.0
 10
64.80226254598012
 20
-65.07364002864469
 30
0.0
 10
64.0908927834682
 20
-65.02996054283133
 30
0.0
 10
63.43591208749743
 20
-64.64631035215146
 30
0.0
 10
63.04995555225768
 20
-64.04703457769859
 30
0.0
  0
SPLINE
  5
B5
330
AF
100
AcDbEntity
  8
Camada 1
 62
    18
420
        0
370
    15
100
AcDbSpline
210
0.0
220
0.0
230
1.0
 70
     8
 71
     3
 72
     8
 73
     4
 74
     0
 42
0.0000000001
 43
0.0000000001
 40
0.0
 40
0.0
 40
0.0
 40
0.0
 40
1.0
 40
1.0
 40
1.0
 40
1.0
 10
60.40783684687069
 20
-61.78382289260309
 30
0.0
 10
60.45405542761375
 20
-61.91671629995285
 30
0.0
 10
60.5589835255409
 20
-62.0294979595538
 30
0.0
 10
60.69210263021672
 20
-62.07525809260163
 30
0.0
  0
SPLINE
  5
B6
330
AF
100
AcDbEntity
  8
Camada 1
 62
    18
420
        0
370
    15
100
AcDbSpline
210
0.0
220
0.0
230
1.0
 70
     8
 71
     3
 72
     8
 73
     4
 74
     0
 42
0.0000000001
 43
0.0000000001
 40
0.0
 40
0.0
 40
0.0
 40
0.0
 40
1.0
 40
1.0
 40
1.0
 40
1.0
 10
60.79758791842038
 20
-61.6479284161084
 30
0.0
 10
60.8026661082766
 20
-61.66226019637221
 30
0.0
 10
60.81075594684147
 20
-61.67982226962951
 30
0.0
 10
60.82532047747381
 20
-61.68490751252758
 30
0.0
  0
SPLINE
  5
B7
330
AF
100
AcDbEntity
  8
Camada 1
 62
    18
420
        0
370
    15
100
AcDbSpline
210
0.0
220
0.0
230
1.0
 70
     8
 71
     3
 72
     8
 73
     4
 74
     0
 42
0.0000000001
 43
0.0000000001
 40
0.0
 40
0.0
 40
0.0
 40
0.0
 40
1.0
 40
1.0
 40
1.0
 40
1.0
 10
64.45320752370442
 20
-71.92284507217488
 30
0.0
 10
64.51953432567444
 20
-72.10126586220393
 30
0.0
 10
64.68917407907483
 20
-72.22028946350573
 30
0.0
 10
64.87938050139614
 20
-72.2216789126745
 30
0.0
  0
SPLINE
  5
B8
330
AF
100
AcDbEntity
  8
Camada 1
 62
    18
420
        0
370
    15
100
AcDbSpline
210
0.0
220
0.0
230
1.0
 70
     8
 71
     3
 72
     8
 73
     4
 74
     0
 42
0.0000000001
 43
0.0000000001
 40
0.0
 40
0.0
 40
0.0
 40
0.0
 40
1.0
 40
1.0
 40
1.0
 40
1.0
 10
65.50605028891336
 20
-71.86030575347361
 30
0.0
 10
65.34195422610754
 20
-71.85891983082608
 30
0.0
 10
65.19704948913755
 20
-71.96685252441746
 30
0.0
 10
65.15105660572118
 20
-72.12424114478725
 30
0.0
  0
SPLINE
  5
B9
330
AF
100
AcDbEntity
  8
Camada 1
 62
    18
420
        0
370
    15
100
AcDbSpline
210
0.0
220
0.0
230
1.0
 70
     8
 71
     3
 72
    17
 73
    13
 74
     0
 42
0.0000000001
 43
0.0000000001
 40
0.0
 40
0.0
 40
0.0
 40
0.0
 40
1.0
 40
1.0
 40
1.0
 40
2.0
 40
2.0
 40
2.0
 40
3.0
 40
3.0
 40
3.0
 40
4.0
 40
4.0
 40
4.0
 40
4.0
 10
65.50972492351842
 20
-71.44764992975709
 30
0.0
 10
65.50972492351842
 20
-71.44764992975709
 30
0.0
 10
65.50301748108239
 20
-71.44764992975709
 30
0.0
 10
65.50301748108239
 20
-71.44764992975709
 30
0.0
 10
65.26335513198269
 20
-71.44764992975709
 30
0.0
 10
65.04287000263639
 20
-71.55720129636581
 30
0.0
 10
64.8979652656664
 20
-71.73585131024217
 30
0.0
 10
64.86699536057762
 20
-71.77398357894161
 30
0.0
 10
64.80713619763452
 20
-71.76427859388127
 30
0.0
 10
64.79003257207374
 20
-71.71828571046491
 30
0.0
 10
64.79003257207374
 20
-71.71828571046491
 30
0.0
 10
61.2477482901459
 20
-62.09585297368988
 30
0.0
 10
61.2477482901459
 20
-62.09585297368988
 30
0.0
  0
SPLINE
  5
BA
330
AF
100
AcDbEntity
  8
Camada 1
 62
    18
420
        0
370
    15
100
AcDbSpline
210
0.0
220
0.0
230
1.0
 70
     8
 71
     3
 72
     8
 73
     4
 74
     0
 42
0.0000000001
 43
0.0000000001
 40
0.0
 40
0.0
 40
0.0
 40
0.0
 40
1.0
 40
1.0
 40
1.0
 40
1.0
 10
67.90649652838263
 20
-65.35631535113944
 30
0.0
 10
67.71351120772123
 20
-65.35909072295702
 30
0.0
 10
67.55566413965685
 20
-65.51116487658143
 30
0.0
 10
67.54549365385944
 20
-65.70391392035176
 30
0.0
  0
SPLINE
  5
BB
330
AF
100
AcDbEntity
  8
Camada 1
 62
    18
420
        0
370
    15
100
AcDbSpline
210
0.0
220
0.0
230
1.0
 70
     8
 71
     3
 72
    14
 73
    10
 74
     0
 42
0.0000000001
 43
0.0000000001
 40
0.0
 40
0.0
 40
0.0
 40
0.0
 40
1.0
 40
1.0
 40
1.0
 40
2.0
 40
2.0
 40
2.0
 40
3.0
 40
3.0
 40
3.0
 40
3.0
 10
67.13322927394291
 20
-65.68234924606212
 30
0.0
 10
67.13784901610519
 20
-65.59406632600115
 30
0.0
 10
67.15725898622586
 20
-65.5097084235168
 30
0.0
 10
67.18892714241963
 20
-65.43159246273202
 30
0.0
 10
67.23006048026398
 20
-65.33036368505605
 30
0.0
 10
67.16650552359159
 20
-65.21804399967095
 30
0.0
 10
67.05742318423991
 20
-65.21134008375425
 30
0.0
 10
67.05742318423991
 20
-65.21134008375425
 30
0.0
 10
64.8022061216486
 20
-65.0735977103962
 30
0.0
 10
64.8022061216486
 20
-65.0735977103962
 30
0.0
  0
SPLINE
  5
BC
330
AF
100
AcDbEntity
  8
Camada 1
 62
    18
420
        0
370
    15
100
AcDbSpline
210
0.0
220
0.0
230
1.0
 70
     8
 71
     3
 72
     8
 73
     4
 74
     0
 42
0.0000000001
 43
0.0000000001
 40
0.0
 40
0.0
 40
0.0
 40
0.0
 40
1.0
 40
1.0
 40
1.0
 40
1.0
 10
67.92142076412959
 20
-65.356385881554
 30
0.0
 10
67.91633552123087
 20
-65.35615665770669
 30
0.0
 10
67.91147597565887
 20
-65.35615665770669
 30
0.0
 10
67.90662348312871
 20
-65.356385881554
 30
0.0
  0
SPLINE
  5
BD
330
AF
100
AcDbEntity
  8
Camada 1
 62
    18
420
        0
370
    15
100
AcDbSpline
210
0.0
220
0.0
230
1.0
 70
     8
 71
     3
 72
     8
 73
     4
 74
     0
 42
0.0000000001
 43
0.0000000001
 40
0.0
 40
0.0
 40
0.0
 40
0.0
 40
1.0
 40
1.0
 40
1.0
 40
1.0
 10
60.86088896559935
 20
-62.2398584478724
 30
0.0
 10
60.8319997077444
 20
-62.16243721167328
 30
0.0
 10
60.77028559489481
 20
-62.10211607451306
 30
0.0
 10
60.69217316063191
 20
-62.07530746389259
 30
0.0
  0
SPLINE
  5
BE
330
AF
100
AcDbEntity
  8
Camada 1
 62
    18
420
        0
370
    15
100
AcDbSpline
210
0.0
220
0.0
230
1.0
 70
     8
 71
     3
 72
     8
 73
     4
 74
     0
 42
0.0000000001
 43
0.0000000001
 40
0.0
 40
0.0
 40
0.0
 40
0.0
 40
1.0
 40
1.0
 40
1.0
 40
1.0
 10
60.82539100788902
 20
-61.68479113734331
 30
0.0
 10
61.02137387117345
 20
-61.75158344005041
 30
0.0
 10
61.17552514550918
 20
-61.90157796196245
 30
0.0
 10
61.24763544148287
 20
-62.09594466322804
 30
0.0
  0
ENDBLK
  5
B2
330
AF
100
AcDbEntity
  8
0
100
AcDbBlockEnd
  0
BLOCK
  5
C3
330
C1
100
AcDbEntity
  8
0
100
AcDbBlockBegin
  2
Block_3
 70
     0
 10
0.0
 20
0.0
 30
0.0
  3
Block_3
  1

  0
SPLINE
  5
C5
330
C1
100
AcDbEntity
  8
Camada 1
 62
    18
420
        0
370
    15
100
AcDbSpline
210
0.0
220
0.0
230
1.0
 70
     8
 71
     3
 72
     8
 73
     4
 74
     0
 42
0.0000000001
 43
0.0000000001
 40
0.0
 40
0.0
 40
0.0
 40
0.0
 40
1.0
 40
1.0
 40
1.0
 40
1.0
 10
60.40783684687069
 20
-61.78382289260309
 30
0.0
 10
60.01147002242442
 20
-60.64628015239819
 30
0.0
 10
59.30310485557867
 20
-59.64324596604045
 30
0.0
 10
58.36363267893387
 20
-58.88935341651413
 30
0.0
  0
SPLINE
  5
C6
330
C1
100
AcDbEntity
  8
Camada 1
 62
    18
420
        0
370
    15
100
AcDbSpline
210
0.0
220
0.0
230
1.0
 70
     8
 71
     3
 72
     8
 73
     4
 74
     0
 42
0.0000000001
 43
0.0000000001
 40
0.0
 40
0.0
 40
0.0
 40
0.0
 40
1.0
 40
1.0
 40
1.0
 40
1.0
 10
60.58819722330318
 20
-59.45243650867292
 30
0.0
 10
60.16987428076532
 20
-58.80277733248871
 30
0.0
 10
59.45272807729092
 20
-58.40757073336391
 30
0.0
 10
58.68034950607626
 20
-58.40087034396972
 30
0.0
  0
SPLINE
  5
C7
330
C1
100
AcDbEntity
  8
Camada 1
 62
    18
420
        0
370
    15
100
AcDbSpline
210
0.0
220
0.0
230
1.0
 70
     8
 71
     3
 72
    14
 73
    10
 74
     0
 42
0.0000000001
 43
0.0000000001
 40
0.0
 40
0.0
 40
0.0
 40
0.0
 40
1.0
 40
1.0
 40
1.0
 40
2.0
 40
2.0
 40
2.0
 40
3.0
 40
3.0
 40
3.0
 40
3.0
 10
60.24132159084196
 20
-59.6757640137301
 30
0.0
 10
59.99703244653878
 20
-59.29650786788645
 30
0.0
 10
59.63164258022185
 20
-59.02402419031399
 30
0.0
 10
59.2126284396202
 20
-58.89575405164773
 30
0.0
 10
59.13474170268401
 20
-58.87195003669085
 30
0.0
 10
59.07835263614352
 20
-58.96694039918847
 30
0.0
 10
59.13658959954865
 20
-59.02379143994544
 30
0.0
 10
59.88748460645002
 20
-59.75781204513397
 30
0.0
 10
60.44885733605138
 20
-60.64736984730511
 30
0.0
 10
60.79760907754462
 20
-61.6478614122151
 30
0.0
  0
SPLINE
  5
C8
330
C1
100
AcDbEntity
  8
Camada 1
 62
    18
420
        0
370
    15
100
AcDbSpline
210
0.0
220
0.0
230
1.0
 70
     8
 71
     3
 72
     8
 73
     4
 74
     0
 42
0.0000000001
 43
0.0000000001
 40
0.0
 40
0.0
 40
0.0
 40
0.0
 40
1.0
 40
1.0
 40
1.0
 40
1.0
 10
58.53823777352747
 20
-58.39962195563007
 30
0.0
 10
58.42082579220182
 20
-58.39869800719711
 30
0.0
 10
58.31590474731653
 20
-58.47196147545107
 30
0.0
 10
58.27661225329562
 20
-58.58243326397152
 30
0.0
  0
SPLINE
  5
C9
330
C1
100
AcDbEntity
  8
Camada 1
 62
    18
420
        0
370
    15
100
AcDbSpline
210
0.0
220
0.0
230
1.0
 70
     8
 71
     3
 72
     8
 73
     4
 74
     0
 42
0.0000000001
 43
0.0000000001
 40
0.0
 40
0.0
 40
0.0
 40
0.0
 40
1.0
 40
1.0
 40
1.0
 40
1.0
 10
58.27661225329562
 20
-58.58243326397152
 30
0.0
 10
58.2373268123159
 20
-58.69267582864467
 30
0.0
 10
58.27222526150253
 20
-58.81608994826144
 30
0.0
 10
58.36374552759755
 20
-58.88935341651413
 30
0.0
  0
SPLINE
  5
CA
330
C1
100
AcDbEntity
  8
Camada 1
 62
    18
420
        0
370
    15
100
AcDbSpline
210
0.0
220
0.0
230
1.0
 70
     8
 71
     3
 72
     8
 73
     4
 74
     0
 42
0.0000000001
 43
0.0000000001
 40
0.0
 40
0.0
 40
0.0
 40
0.0
 40
1.0
 40
1.0
 40
1.0
 40
1.0
 10
58.53823777352747
 20
-58.39962195563007
 30
0.0
 10
58.42082579220182
 20
-58.39869800719711
 30
0.0
 10
58.31590474731653
 20
-58.47196147545107
 30
0.0
 10
58.27661225329562
 20
-58.58243326397152
 30
0.0
  0
SPLINE
  5
CB
330
C1
100
AcDbEntity
  8
Camada 1
 62
    18
420
        0
370
    15
100
AcDbSpline
210
0.0
220
0.0
230
1.0
 70
     8
 71
     3
 72
     8
 73
     4
 74
     0
 42
0.0000000001
 43
0.0000000001
 40
0.0
 40
0.0
 40
0.0
 40
0.0
 40
1.0
 40
1.0
 40
1.0
 40
1.0
 10
58.27661225329562
 20
-58.58243326397152
 30
0.0
 10
58.2373268123159
 20
-58.69267582864467
 30
0.0
 10
58.27222526150253
 20
-58.81608994826144
 30
0.0
 10
58.36374552759755
 20
-58.88935341651413
 30
0.0
  0
SPLINE
  5
CC
330
C1
100
AcDbEntity
  8
Camada 1
 62
    18
420
        0
370
    15
100
AcDbSpline
210
0.0
220
0.0
230
1.0
 70
     8
 71
     3
 72
     8
 73
     4
 74
     0
 42
0.0000000001
 43
0.0000000001
 40
0.0
 40
0.0
 40
0.0
 40
0.0
 40
1.0
 40
1.0
 40
1.0
 40
1.0
 10
65.01757074288891
 20
-72.2229237744942
 30
0.0
 10
65.07927780269665
 20
-72.22361849907859
 30
0.0
 10
65.13358622200332
 20
-72.18317283277741
 30
0.0
 10
65.15092259793327
 20
-72.12400839441871
 30
0.0
  0
SPLINE
  5
CD
330
C1
100
AcDbEntity
  8
Camada 1
 62
    18
420
        0
370
    15
100
AcDbSpline
210
0.0
220
0.0
230
1.0
 70
     8
 71
     3
 72
     8
 73
     4
 74
     0
 42
0.0000000001
 43
0.0000000001
 40
0.0
 40
0.0
 40
0.0
 40
0.0
 40
1.0
 40
1.0
 40
1.0
 40
1.0
 10
67.0903397287727
 20
-71.8741261882319
 30
0.0
 10
67.16383242087525
 20
-71.87482091281627
 30
0.0
 10
67.22507397994592
 20
-71.81727514747492
 30
0.0
 10
67.22900252404375
 20
-71.74377892885241
 30
0.0
  0
SPLINE
  5
CE
330
C1
100
AcDbEntity
  8
Camada 1
 62
    18
420
        0
370
    15
100
AcDbSpline
210
0.0
220
0.0
230
1.0
 70
     8
 71
     3
 72
     8
 73
     4
 74
     0
 42
0.0000000001
 43
0.0000000001
 40
0.0
 40
0.0
 40
0.0
 40
0.0
 40
1.0
 40
1.0
 40
1.0
 40
1.0
 10
70.8360055144854
 20
-65.63906120404876
 30
0.0
 10
70.88915723499248
 20
-65.71510004412158
 30
0.0
 10
70.95433439120282
 20
-65.78165959645886
 30
0.0
 10
71.02944222980084
 20
-65.83620429265529
 30
0.0
  0
SPLINE
  5
CF
330
C1
100
AcDbEntity
  8
Camada 1
 62
    18
420
        0
370
    15
100
AcDbSpline
210
0.0
220
0.0
230
1.0
 70
     8
 71
     3
 72
     8
 73
     4
 74
     0
 42
0.0000000001
 43
0.0000000001
 40
0.0
 40
0.0
 40
0.0
 40
0.0
 40
1.0
 40
1.0
 40
1.0
 40
1.0
 10
78.63721246282991
 20
-65.01218687833035
 30
0.0
 10
78.63767091052515
 20
-65.16148918665589
 30
0.0
 10
78.75669803834755
 20
-65.28328463325529
 30
0.0
 10
78.90599682015248
 20
-65.28721317735186
 30
0.0
  0
SPLINE
  5
D0
330
C1
100
AcDbEntity
  8
Camada 1
 62
    18
420
        0
370
    15
100
AcDbSpline
210
0.0
220
0.0
230
1.0
 70
     8
 71
     3
 72
     8
 73
     4
 74
     0
 42
0.0000000001
 43
0.0000000001
 40
0.0
 40
0.0
 40
0.0
 40
0.0
 40
1.0
 40
1.0
 40
1.0
 40
1.0
 10
71.14137399790526
 20
-66.02555377043952
 30
0.0
 10
71.13189471017226
 20
-65.94975120725647
 30
0.0
 10
71.09145257039168
 20
-65.88110748116476
 30
0.0
 10
71.02951276021539
 20
-65.83604207270259
 30
0.0
  0
SPLINE
  5
D1
330
C1
100
AcDbEntity
  8
Camada 1
 62
    18
420
        0
370
    15
100
AcDbSpline
210
0.0
220
0.0
230
1.0
 70
     8
 71
     3
 72
     8
 73
     4
 74
     0
 42
0.0000000001
 43
0.0000000001
 40
0.0
 40
0.0
 40
0.0
 40
0.0
 40
1.0
 40
1.0
 40
1.0
 40
1.0
 10
70.8360055144854
 20
-65.63906120404876
 30
0.0
 10
70.78793198383649
 20
-65.56995903026117
 30
0.0
 10
70.7109691953326
 20
-65.52674151866366
 30
0.0
 10
70.62707326706538
 20
-65.52165627576432
 30
0.0
  0
SPLINE
  5
D2
330
C1
100
AcDbEntity
  8
Camada 1
 62
    18
420
        0
370
    15
100
AcDbSpline
210
0.0
220
0.0
230
1.0
 70
     8
 71
     3
 72
     8
 73
     4
 74
     0
 42
0.0000000001
 43
0.0000000001
 40
0.0
 40
0.0
 40
0.0
 40
0.0
 40
1.0
 40
1.0
 40
1.0
 40
1.0
 10
81.82635801147078
 20
-65.36375630988899
 30
0.0
 10
81.92296352046517
 20
-65.36629893133803
 30
0.0
 10
82.01378553545518
 20
-65.31799617684118
 30
0.0
 10
82.06555485983342
 20
-65.23641364617567
 30
0.0
  0
SPLINE
  5
D3
330
C1
100
AcDbEntity
  8
Camada 1
 62
    18
420
        0
370
    15
100
AcDbSpline
210
0.0
220
0.0
230
1.0
 70
     8
 71
     3
 72
     8
 73
     4
 74
     0
 42
0.0000000001
 43
0.0000000001
 40
0.0
 40
0.0
 40
0.0
 40
0.0
 40
1.0
 40
1.0
 40
1.0
 40
1.0
 10
82.4020343091718
 20
-59.16999393654542
 30
0.0
 10
82.39694906627244
 20
-59.02277580197433
 30
0.0
 10
82.27653248928064
 20
-58.90583284790572
 30
0.0
 10
82.12931435470954
 20
-58.90444692525691
 30
0.0
  0
SPLINE
  5
D4
330
C1
100
AcDbEntity
  8
Camada 1
 62
    18
420
        0
370
    15
100
AcDbSpline
210
0.0
220
0.0
230
1.0
 70
     8
 71
     3
 72
     8
 73
     4
 74
     0
 42
0.0000000001
 43
0.0000000001
 40
0.0
 40
0.0
 40
0.0
 40
0.0
 40
1.0
 40
1.0
 40
1.0
 40
1.0
 10
83.94308155178752
 20
-65.55320100373261
 30
0.0
 10
83.94308155178752
 20
-65.47855161282983
 30
0.0
 10
83.88368083653965
 20
-65.41753927760774
 30
0.0
 10
83.80903144563687
 20
-65.41569138074182
 30
0.0
  0
SPLINE
  5
D5
330
C1
100
AcDbEntity
  8
Camada 1
 62
    18
420
        0
370
    15
100
AcDbSpline
210
0.0
220
0.0
230
1.0
 70
     8
 71
     3
 72
     8
 73
     4
 74
     0
 42
0.0000000001
 43
0.0000000001
 40
0.0
 40
0.0
 40
0.0
 40
0.0
 40
1.0
 40
1.0
 40
1.0
 40
1.0
 10
83.80910902909327
 20
-60.97005002101008
 30
0.0
 10
83.88375841999542
 20
-60.96820212414543
 30
0.0
 10
83.94315208220206
 20
-60.90718978892208
 30
0.0
 10
83.94315208220206
 20
-60.83254039801929
 30
0.0
  0
SPLINE
  5
D6
330
C1
100
AcDbEntity
  8
Camada 1
 62
    18
420
        0
370
    15
100
AcDbSpline
210
0.0
220
0.0
230
1.0
 70
     8
 71
     3
 72
     8
 73
     4
 74
     0
 42
0.0000000001
 43
0.0000000001
 40
0.0
 40
0.0
 40
0.0
 40
0.0
 40
1.0
 40
1.0
 40
1.0
 40
1.0
 10
71.06147714415041
 20
-65.12693633650146
 30
0.0
 10
71.04298406942023
 20
-65.07493778827529
 30
0.0
 10
70.99537603950776
 20
-65.03865341644051
 30
0.0
 10
70.94013661872692
 20
-65.0354160704058
 30
0.0
  0
SPLINE
  5
D7
330
C1
100
AcDbEntity
  8
Camada 1
 62
    18
420
        0
370
    15
100
AcDbSpline
210
0.0
220
0.0
230
1.0
 70
     8
 71
     3
 72
     8
 73
     4
 74
     0
 42
0.0000000001
 43
0.0000000001
 40
0.0
 40
0.0
 40
0.0
 40
0.0
 40
1.0
 40
1.0
 40
1.0
 40
1.0
 10
71.27123459742342
 20
-67.08308328170402
 30
0.0
 10
71.279550133315
 20
-67.1519562316443
 30
0.0
 10
71.33825259745723
 20
-67.20395830639171
 30
0.0
 10
71.40781674546065
 20
-67.20395830639171
 30
0.0
  0
SPLINE
  5
D8
330
C1
100
AcDbEntity
  8
Camada 1
 62
    18
420
        0
370
    15
100
AcDbSpline
210
0.0
220
0.0
230
1.0
 70
     8
 71
     3
 72
     8
 73
     4
 74
     0
 42
0.0000000001
 43
0.0000000001
 40
0.0
 40
0.0
 40
0.0
 40
0.0
 40
1.0
 40
1.0
 40
1.0
 40
1.0
 10
81.48971634218098
 20
-58.39962195563007
 30
0.0
 10
81.46429012768614
 20
-58.39939273178149
 30
0.0
 10
81.44349070839608
 20
-58.41973017685637
 30
0.0
 10
81.44349070839608
 20
-58.44515286482931
 30
0.0
  0
SPLINE
  5
D9
330
C1
100
AcDbEntity
  8
Camada 1
 62
    18
420
        0
370
    15
100
AcDbSpline
210
0.0
220
0.0
230
1.0
 70
     8
 71
     3
 72
     8
 73
     4
 74
     0
 42
0.0000000001
 43
0.0000000001
 40
0.0
 40
0.0
 40
0.0
 40
0.0
 40
1.0
 40
1.0
 40
1.0
 40
1.0
 10
79.82529729819761
 20
-58.41332601520281
 30
0.0
 10
79.83384558445644
 20
-58.4221105783527
 30
0.0
 10
79.83846532661935
 20
-58.43366698679765
 30
0.0
 10
79.83846532661935
 20
-58.44591459330829
 30
0.0
  0
SPLINE
  5
DA
330
C1
100
AcDbEntity
  8
Camada 1
 62
    18
420
        0
370
    15
100
AcDbSpline
210
0.0
220
0.0
230
1.0
 70
     8
 71
     3
 72
     8
 73
     4
 74
     0
 42
0.0000000001
 43
0.0000000001
 40
0.0
 40
0.0
 40
0.0
 40
0.0
 40
1.0
 40
1.0
 40
1.0
 40
1.0
 10
79.79293794393942
 20
-58.39969248604334
 30
0.0
 10
79.8049563266015
 20
-58.39969248604334
 30
0.0
 10
79.8167419588963
 20
-58.40454497857415
 30
0.0
 10
79.82529729819761
 20
-58.41332601520281
 30
0.0
  0
ENDBLK
  5
C4
330
C1
100
AcDbEntity
  8
0
100
AcDbBlockEnd
  0
ENDSEC
  0
SECTION
  2
ENTITIES
  0
INSERT
  5
7A
330
70
100
AcDbEntity
  8
Camada 1
100
AcDbBlockReference
  2
Block_0
 10
0.0
 20
0.0
 30
0.0
  0
ENDSEC
  0
SECTION
  2
OBJECTS
  0
DICTIONARY
  5
C
330
0
100
AcDbDictionary
281
     1
  3
ACAD_COLOR
350
63
  3
ACAD_DETAILVIEWSTYLE
350
6A
  3
ACAD_GROUP
350
D
  3
ACAD_LAYOUT
350
62
  3
ACAD_MATERIAL
350
10
  3
ACAD_MLEADERSTYLE
350
66
  3
ACAD_MLINESTYLE
350
5F
  3
ACAD_PLOTSETTINGS
350
61
  3
ACAD_PLOTSTYLENAME
350
E
  3
ACAD_SCALELIST
350
42
  3
ACAD_SECTIONVIEWSTYLE
350
68
  3
ACAD_TABLESTYLE
350
64
  3
ACAD_VISUALSTYLE
350
29
  3
ACDB_RECOMPOSE_DATA
350
155
  3
AcDbVariableDictionary
350
14D
  0
DICTIONARY
  5
63
102
{ACAD_REACTORS
330
C
102
}
330
C
100
AcDbDictionary
281
     1
  0
DICTIONARY
  5
6A
102
{ACAD_REACTORS
330
C
102
}
330
C
100
AcDbDictionary
281
     1
  3
Imperial24
350
6B
  0
DICTIONARY
  5
D
102
{ACAD_REACTORS
330
C
102
}
330
C
100
AcDbDictionary
281
     1
  0
DICTIONARY
  5
62
102
{ACAD_REACTORS
330
C
102
}
330
C
100
AcDbDictionary
281
     1
  3
Layout1
350
6F
  3
Layout2
350
77
  3
Model
350
73
  0
DICTIONARY
  5
10
102
{ACAD_REACTORS
330
C
102
}
330
C
100
AcDbDictionary
281
     1
  3
ByBlock
350
19
  3
ByLayer
350
11
  3
Global
350
21
  0
DICTIONARY
  5
66
102
{ACAD_REACTORS
330
C
102
}
330
C
100
AcDbDictionary
281
     1
  3
Standard
350
67
  0
DICTIONARY
  5
5F
102
{ACAD_REACTORS
330
C
102
}
330
C
100
AcDbDictionary
281
     1
  3
Standard
350
60
  0
DICTIONARY
  5
61
102
{ACAD_REACTORS
330
C
102
}
330
C
100
AcDbDictionary
281
     1
  0
ACDBDICTIONARYWDFLT
  5
E
102
{ACAD_REACTORS
330
C
102
}
330
C
100
AcDbDictionary
281
     1
  3
Normal
350
F
100
AcDbDictionaryWithDefault
340
F
  0
DICTIONARY
  5
42
102
{ACAD_REACTORS
330
C
102
}
330
C
100
AcDbDictionary
281
     1
  3
A0
350
43
  3
A1
350
44
  3
A2
350
45
  3
A3
350
46
  3
A4
350
47
  3
A5
350
48
  3
A6
350
49
  3
A7
350
4A
  3
A8
350
4B
  3
A9
350
4C
  3
B0
350
4D
  3
B1
350
4E
  3
B2
350
4F
  3
B3
350
50
  3
B4
350
51
  3
B5
350
52
  3
B6
350
53
  0
DICTIONARY
  5
68
102
{ACAD_REACTORS
330
C
102
}
330
C
100
AcDbDictionary
281
     1
  3
Imperial24
350
69
  0
DICTIONARY
  5
64
102
{ACAD_REACTORS
330
C
102
}
330
C
100
AcDbDictionary
281
     1
  3
Standard
350
65
  0
DICTIONARY
  5
29
102
{ACAD_REACTORS
330
C
102
}
330
C
100
AcDbDictionary
281
     1
  3
2dWireframe
350
2F
  3
Basic
350
2E
  3
Brighten
350
35
  3
ColorChange
350
39
  3
Conceptual
350
32
  3
Dim
350
34
  3
EdgeColorOff
350
41
  3
Facepattern
350
38
  3
Flat
350
2A
  3
FlatWithEdges
350
2B
  3
Gouraud
350
2C
  3
GouraudWithEdges
350
2D
  3
Hidden
350
31
  3
JitterOff
350
3F
  3
Linepattern
350
37
  3
OverhangOff
350
40
  3
Realistic
350
33
  3
Shaded
350
3E
  3
Shaded with edges
350
3D
  3
Shades of Gray
350
3A
  3
Sketchy
350
3B
  3
Thicken
350
36
  3
Wireframe
350
30
  3
X-Ray
350
3C
  0
XRECORD
  5
155
102
{ACAD_REACTORS
330
C
102
}
330
C
100
AcDbXrecord
280
     1
 90
        1
330
65
  0
DICTIONARY
  5
14D
102
{ACAD_REACTORS
330
C
102
}
330
C
100
AcDbDictionary
281
     1
  3
CANNOSCALE
350
152
  3
CMLEADERSTYLE
350
14F
  3
CTABLESTYLE
350
14E
  3
CVIEWDETAILSTYLE
350
150
  3
CVIEWSECTIONSTYLE
350
151
  0
ACDBDETAILVIEWSTYLE
  5
6B
102
{ACAD_REACTORS
330
6A
102
}
330
6A
100
AcDbModelDocViewStyle
 70
     0
  3
Imperial24
290
     1
300
Imperial24
 90
        0
100
AcDbDetailViewStyle
 70
     0
 71
     0
 90
        3
 71
     1
340
55
 62
   256
 40
0.24
340
0
 62
   256
 40
0.24
300

 40
0.36
280
     3
 71
     2
340
5D
 90
       25
 62
   256
 71
     3
340
55
 62
   256
 40
0.24
 90
        1
 40
0.75
 90
        1
300
%<\AcVar ViewType \f "%tc1">% %<\AcVar ViewDetailId>%\PSCALE %<\AcVar ViewScale \f "%sn">%
 71
     4
340
5D
 90
       25
 62
   256
340
5D
 90
       25
 62
   256
280
     0
  0
LAYOUT
  5
6F
102
{ACAD_REACTORS
330
62
102
}
330
62
100
AcDbPlotSettings
  1

  2

  4

  6

 40
0.0
 41
0.0
 42
0.0
 43
0.0
 44
0.0
 45
0.0
 46
0.0
 47
0.0
 48
0.0
 49
0.0
140
0.0
141
0.0
142
1.0
143
1.0
 70
   688
 72
     0
 73
     0
 74
     5
  7

 75
    16
147
1.0
 76
     0
 77
     2
 78
   300
148
0.0
149
0.0
100
AcDbLayout
  1
Layout1
 70
     1
 71
     1
 10
0.0
 20
0.0
 11
12.0
 21
9.0
 12
0.0
 22
0.0
 32
0.0
 14
0.0
 24
0.0
 34
0.0
 15
0.0
 25
0.0
 35
0.0
146
0.0
 13
0.0
 23
0.0
 33
0.0
 16
1.0
 26
0.0
 36
0.0
 17
0.0
 27
1.0
 37
0.0
 76
     0
330
6C
  0
LAYOUT
  5
77
102
{ACAD_REACTORS
330
62
102
}
330
62
100
AcDbPlotSettings
  1

  2

  4

  6

 40
0.0
 41
0.0
 42
0.0
 43
0.0
 44
0.0
 45
0.0
 46
0.0
 47
0.0
 48
0.0
 49
0.0
140
0.0
141
0.0
142
1.0
143
1.0
 70
   688
 72
     0
 73
     0
 74
     5
  7

 75
    16
147
1.0
 76
     0
 77
     2
 78
   300
148
0.0
149
0.0
100
AcDbLayout
  1
Layout2
 70
     1
 71
     2
 10
0.0
 20
0.0
 11
12.0
 21
9.0
 12
0.0
 22
0.0
 32
0.0
 14
0.0
 24
0.0
 34
0.0
 15
0.0
 25
0.0
 35
0.0
146
0.0
 13
0.0
 23
0.0
 33
0.0
 16
1.0
 26
0.0
 36
0.0
 17
0.0
 27
1.0
 37
0.0
 76
     0
330
74
  0
LAYOUT
  5
73
102
{ACAD_REACTORS
330
62
102
}
330
62
100
AcDbPlotSettings
  1

  2

  4

  6

 40
0.0
 41
0.0
 42
0.0
 43
0.0
 44
0.0
 45
0.0
 46
0.0
 47
0.0
 48
0.0
 49
0.0
140
0.0
141
0.0
142
1.0
143
1.0
 70
  1712
 72
     0
 73
     0
 74
     0
  7

 75
     0
147
1.0
 76
     0
 77
     2
 78
   300
148
0.0
149
0.0
100
AcDbLayout
  1
Model
 70
     1
 71
     0
 10
0.0
 20
0.0
 11
12.0
 21
9.0
 12
0.0
 22
0.0
 32
0.0
 14
0.0
 24
0.0
 34
0.0
 15
0.0
 25
0.0
 35
0.0
146
0.0
 13
0.0
 23
0.0
 33
0.0
 16
1.0
 26
0.0
 36
0.0
 17
0.0
 27
1.0
 37
0.0
 76
     0
330
70
  0
MATERIAL
  5
19
102
{ACAD_XDICTIONARY
360
1A
102
}
102
{ACAD_REACTORS
330
10
102
}
330
10
100
AcDbMaterial
  1
ByBlock
 72
     0
 43
0.0208333333333333
 43
0.0
 43
0.0
 43
0.0
 43
0.0
 43
0.0208333333333333
 43
0.0
 43
0.0
 43
0.0
 43
0.0
 43
1.0
 43
0.0
 43
0.0
 43
0.0
 43
0.0
 43
1.0
 77
     0
 47
0.0208333333333333
 47
0.0
 47
0.0
 47
0.0
 47
0.0
 47
0.0208333333333333
 47
0.0
 47
0.0
 47
0.0
 47
0.0
 47
1.0
 47
0.0
 47
0.0
 47
0.0
 47
0.0
 47
1.0
171
     0
 49
0.0208333333333333
 49
0.0
 49
0.0
 49
0.0
 49
0.0
 49
0.0208333333333333
 49
0.0
 49
0.0
 49
0.0
 49
0.0
 49
1.0
 49
0.0
 49
0.0
 49
0.0
 49
0.0
 49
1.0
175
     0
142
0.0208333333333333
142
0.0
142
0.0
142
0.0
142
0.0
142
0.0208333333333333
142
0.0
142
0.0
142
0.0
142
0.0
142
1.0
142
0.0
142
0.0
142
0.0
142
0.0
142
1.0
179
     0
144
0.0208333333333333
144
0.0
144
0.0
144
0.0
144
0.0
144
0.0208333333333333
144
0.0
144
0.0
144
0.0
144
0.0
144
1.0
144
0.0
144
0.0
144
0.0
144
0.0
144
1.0
147
0.0208333333333333
147
0.0
147
0.0
147
0.0
147
0.0
147
0.0208333333333333
147
0.0
147
0.0
147
0.0
147
0.0
147
1.0
147
0.0
147
0.0
147
0.0
147
0.0
147
1.0
  0
MATERIAL
  5
11
102
{ACAD_XDICTIONARY
360
12
102
}
102
{ACAD_REACTORS
330
10
102
}
330
10
100
AcDbMaterial
  1
ByLayer
 72
     0
 43
0.0208333333333333
 43
0.0
 43
0.0
 43
0.0
 43
0.0
 43
0.0208333333333333
 43
0.0
 43
0.0
 43
0.0
 43
0.0
 43
1.0
 43
0.0
 43
0.0
 43
0.0
 43
0.0
 43
1.0
 77
     0
 47
0.0208333333333333
 47
0.0
 47
0.0
 47
0.0
 47
0.0
 47
0.0208333333333333
 47
0.0
 47
0.0
 47
0.0
 47
0.0
 47
1.0
 47
0.0
 47
0.0
 47
0.0
 47
0.0
 47
1.0
171
     0
 49
0.0208333333333333
 49
0.0
 49
0.0
 49
0.0
 49
0.0
 49
0.0208333333333333
 49
0.0
 49
0.0
 49
0.0
 49
0.0
 49
1.0
 49
0.0
 49
0.0
 49
0.0
 49
0.0
 49
1.0
175
     0
142
0.0208333333333333
142
0.0
142
0.0
142
0.0
142
0.0
142
0.0208333333333333
142
0.0
142
0.0
142
0.0
142
0.0
142
1.0
142
0.0
142
0.0
142
0.0
142
0.0
142
1.0
179
     0
144
0.0208333333333333
144
0.0
144
0.0
144
0.0
144
0.0
144
0.0208333333333333
144
0.0
144
0.0
144
0.0
144
0.0
144
1.0
144
0.0
144
0.0
144
0.0
144
0.0
144
1.0
147
0.0208333333333333
147
0.0
147
0.0
147
0.0
147
0.0
147
0.0208333333333333
147
0.0
147
0.0
147
0.0
147
0.0
147
1.0
147
0.0
147
0.0
147
0.0
147
0.0
147
1.0
  0
MATERIAL
  5
21
102
{ACAD_XDICTIONARY
360
22
102
}
102
{ACAD_REACTORS
330
10
102
}
330
10
100
AcDbMaterial
  1
Global
 72
     0
 43
0.0208333333333333
 43
0.0
 43
0.0
 43
0.0
 43
0.0
 43
0.0208333333333333
 43
0.0
 43
0.0
 43
0.0
 43
0.0
 43
1.0
 43
0.0
 43
0.0
 43
0.0
 43
0.0
 43
1.0
 77
     0
 47
0.0208333333333333
 47
0.0
 47
0.0
 47
0.0
 47
0.0
 47
0.0208333333333333
 47
0.0
 47
0.0
 47
0.0
 47
0.0
 47
1.0
 47
0.0
 47
0.0
 47
0.0
 47
0.0
 47
1.0
171
     0
 49
0.0208333333333333
 49
0.0
 49
0.0
 49
0.0
 49
0.0
 49
0.0208333333333333
 49
0.0
 49
0.0
 49
0.0
 49
0.0
 49
1.0
 49
0.0
 49
0.0
 49
0.0
 49
0.0
 49
1.0
175
     0
142
0.0208333333333333
142
0.0
142
0.0
142
0.0
142
0.0
142
0.0208333333333333
142
0.0
142
0.0
142
0.0
142
0.0
142
1.0
142
0.0
142
0.0
142
0.0
142
0.0
142
1.0
179
     0
144
0.0208333333333333
144
0.0
144
0.0
144
0.0
144
0.0
144
0.0208333333333333
144
0.0
144
0.0
144
0.0
144
0.0
144
1.0
144
0.0
144
0.0
144
0.0
144
0.0
144
1.0
147
0.0208333333333333
147
0.0
147
0.0
147
0.0
147
0.0
147
0.0208333333333333
147
0.0
147
0.0
147
0.0
147
0.0
147
1.0
147
0.0
147
0.0
147
0.0
147
0.0
147
1.0
  0
MLEADERSTYLE
  5
67
102
{ACAD_REACTORS
330
66
102
}
330
66
100
AcDbMLeaderStyle
179
     2
170
     2
171
     1
172
     0
 90
        2
 40
0.0
 41
0.0
173
     1
 91
-1056964608
340
5B
 92
       -2
290
     1
 42
0.09
291
     1
 43
0.36
  3
Standard
 44
0.18
300

342
55
174
     1
178
     6
175
     1
176
     0
 93
-1056964608
 45
0.18
292
     0
297
     0
 46
0.18
 94
-1056964608
 47
1.0
 49
1.0
140
1.0
293
     1
141
0.0
294
     1
177
     0
142
1.0
295
     1
296
     0
143
0.125
271
     0
272
     9
273
     9
298
     1
  0
MLINESTYLE
  5
60
102
{ACAD_REACTORS
330
5F
102
}
330
5F
100
AcDbMlineStyle
  2
STANDARD
 70
     0
  3

 62
   256
 51
90.0
 52
90.0
 71
     2
 49
0.5
 62
   256
  6
BYLAYER
 49
-0.5
 62
   256
  6
BYLAYER
  0
ACDBPLACEHOLDER
  5
F
102
{ACAD_REACTORS
330
E
102
}
330
E
  0
SCALE
  5
43
102
{ACAD_REACTORS
330
42
102
}
330
42
100
AcDbScale
 70
     0
300
1:1
140
1.0
141
1.0
290
     1
  0
SCALE
  5
44
102
{ACAD_REACTORS
330
42
102
}
330
42
100
AcDbScale
 70
     0
300
1/128" = 1'-0"
140
0.0078125
141
12.0
290
     0
  0
SCALE
  5
45
102
{ACAD_REACTORS
330
42
102
}
330
42
100
AcDbScale
 70
     0
300
1/64" = 1'-0"
140
0.015625
141
12.0
290
     0
  0
SCALE
  5
46
102
{ACAD_REACTORS
330
42
102
}
330
42
100
AcDbScale
 70
     0
300
1/32" = 1'-0"
140
0.03125
141
12.0
290
     0
  0
SCALE
  5
47
102
{ACAD_REACTORS
330
42
102
}
330
42
100
AcDbScale
 70
     0
300
1/16" = 1'-0"
140
0.0625
141
12.0
290
     0
  0
SCALE
  5
48
102
{ACAD_REACTORS
330
42
102
}
330
42
100
AcDbScale
 70
     0
300
3/32" = 1'-0"
140
0.09375
141
12.0
290
     0
  0
SCALE
  5
49
102
{ACAD_REACTORS
330
42
102
}
330
42
100
AcDbScale
 70
     0
300
1/8" = 1'-0"
140
0.125
141
12.0
290
     0
  0
SCALE
  5
4A
102
{ACAD_REACTORS
330
42
102
}
330
42
100
AcDbScale
 70
     0
300
3/16" = 1'-0"
140
0.1875
141
12.0
290
     0
  0
SCALE
  5
4B
102
{ACAD_REACTORS
330
42
102
}
330
42
100
AcDbScale
 70
     0
300
1/4" = 1'-0"
140
0.25
141
12.0
290
     0
  0
SCALE
  5
4C
102
{ACAD_REACTORS
330
42
102
}
330
42
100
AcDbScale
 70
     0
300
3/8" = 1'-0"
140
0.375
141
12.0
290
     0
  0
SCALE
  5
4D
102
{ACAD_REACTORS
330
42
102
}
330
42
100
AcDbScale
 70
     0
300
1/2" = 1'-0"
140
0.5
141
12.0
290
     0
  0
SCALE
  5
4E
102
{ACAD_REACTORS
330
42
102
}
330
42
100
AcDbScale
 70
     0
300
3/4" = 1'-0"
140
0.75
141
12.0
290
     0
  0
SCALE
  5
4F
102
{ACAD_REACTORS
330
42
102
}
330
42
100
AcDbScale
 70
     0
300
1" = 1'-0"
140
1.0
141
12.0
290
     0
  0
SCALE
  5
50
102
{ACAD_REACTORS
330
42
102
}
330
42
100
AcDbScale
 70
     0
300
1-1/2" = 1'-0"
140
1.5
141
12.0
290
     0
  0
SCALE
  5
51
102
{ACAD_REACTORS
330
42
102
}
330
42
100
AcDbScale
 70
     0
300
3" = 1'-0"
140
3.0
141
12.0
290
     0
  0
SCALE
  5
52
102
{ACAD_REACTORS
330
42
102
}
330
42
100
AcDbScale
 70
     0
300
6" = 1'-0"
140
6.0
141
12.0
290
     0
  0
SCALE
  5
53
102
{ACAD_REACTORS
330
42
102
}
330
42
100
AcDbScale
 70
     0
300
1'-0" = 1'-0"
140
12.0
141
12.0
290
     0
  0
ACDBSECTIONVIEWSTYLE
  5
69
102
{ACAD_REACTORS
330
68
102
}
330
68
100
AcDbModelDocViewStyle
 70
     0
  3
Imperial24
290
     1
300
Imperial24
 90
        0
100
AcDbSectionViewStyle
 70
     0
 71
     0
 90
       78
 71
     1
340
55
 62
   256
 40
0.24
340
0
340
0
 62
   256
 40
0.24
300
I, O, Q, S, X, Z
 40
0.48
 90
        3
 40
0.18
 90
        1
 71
     2
340
5D
 90
       25
 62
   256
340
5D
 90
       50
 62
   256
 40
0.24
 40
0.0
 40
0.24
 71
     3
340
55
 62
   256
 40
0.24
 90
        1
 40
0.75
 90
        1
300
%<\AcVar ViewType \f "%tc1">% %<\AcVar ViewSectionStartId>%-%<\AcVar ViewSectionEndId>%\PSCALE %<\AcVar ViewScale \f "%sn">%
 71
     4
 62
   256
 62
   257
300
ANSI31
 40
1.0
 90
        0
290
     0
290
     0
 90
        6
 40
0.0
 40
1.570796326794896
 40
0.2617993877991494
 40
1.308996938995747
 40
-0.2617993877991494
 40
1.832595714594046
  0
TABLESTYLE
  5
65
102
{ACAD_XDICTIONARY
360
153
102
}
102
{ACAD_REACTORS
330
64
102
}
330
64
100
AcDbTableStyle
280
     0
  3
Standard
 70
     0
 71
     0
 40
0.06
 41
0.06
280
     0
281
     0
  7
Standard
140
0.18
170
     2
 62
     0
 63
     7
283
     0
 90
      512
 91
        0
  1

274
    -2
284
     1
 64
     0
275
    -2
285
     1
 65
     0
276
    -2
286
     1
 66
     0
277
    -2
287
     1
 67
     0
278
    -2
288
     1
 68
     0
279
    -2
289
     1
 69
     0
  7
Standard
140
0.25
170
     5
 62
     0
 63
     7
283
     0
 90
      512
 91
        0
  1

274
    -2
284
     1
 64
     0
275
    -2
285
     1
 65
     0
276
    -2
286
     1
 66
     0
277
    -2
287
     1
 67
     0
278
    -2
288
     1
 68
     0
279
    -2
289
     1
 69
     0
  7
Standard
140
0.18
170
     5
 62
     0
 63
     7
283
     0
 90
      512
 91
        0
  1

274
    -2
284
     1
 64
     0
275
    -2
285
     1
 65
     0
276
    -2
286
     1
 66
     0
277
    -2
287
     1
 67
     0
278
    -2
288
     1
 68
     0
279
    -2
289
     1
 69
     0
  0
VISUALSTYLE
  5
2F
102
{ACAD_REACTORS
330
29
102
}
330
29
100
AcDbVisualStyle
  2
2dWireframe
 70
     4
177
     3
291
     0
 70
    58
 90
        0
176
     1
 90
        2
176
     1
 90
        0
176
     1
 90
        0
176
     1
 40
0.6
176
     1
 40
30.0
176
     1
 62
     7
420
 16777215
176
     1
 90
        1
176
     1
 90
        4
176
     1
 62
     7
176
     1
 62
   257
176
     1
 90
        1
176
     1
 90
        1
176
     1
 40
1.0
176
     1
 90
        0
176
     1
 62
   257
176
     1
 40
1.0
176
     1
 90
        1
176
     1
 90
        6
176
     1
 90
        2
176
     1
 62
     7
176
     1
 90
        5
176
     1
 90
        0
176
     1
 90
        0
176
     1
290
     0
176
     1
 90
        1
176
     1
 40
0.0
176
     1
 90
        0
176
     1
290
     1
176
     1
290
     1
176
     1
290
     0
176
     1
290
     0
176
     1
290
     0
176
     1
290
     0
176
     1
290
     0
176
     1
290
     0
176
     1
290
     0
176
     1
 90
       50
176
     1
 40
0.0
176
     1
 40
1.0
176
     1
 90
        0
176
     1
 62
    18
420
        0
176
     1
 90
       50
176
     1
 90
        3
176
     1
 62
     5
420
      255
176
     1
290
     0
176
     1
 90
       50
176
     1
 90
       50
176
     1
 90
       50
176
     1
290
     0
176
     1
 90
       50
176
     1
 62
   256
176
     0
 40
1.0
176
     0
 90
        2
176
     1
  1
strokes_ogs.tif
176
     1
290
     0
176
     1
 40
1.0
176
     1
 40
1.0
176
     1
  0
VISUALSTYLE
  5
2E
102
{ACAD_REACTORS
330
29
102
}
330
29
100
AcDbVisualStyle
  2
Basic
 70
     7
177
     3
291
     1
 70
    58
 90
        1
176
     1
 90
        0
176
     1
 90
        1
176
     1
 90
        0
176
     1
 40
0.6
176
     1
 40
30.0
176
     1
 62
     7
420
 16777215
176
     1
 90
        0
176
     1
 90
        4
176
     1
 62
     7
176
     1
 62
   257
176
     1
 90
        1
176
     1
 90
        1
176
     1
 40
1.0
176
     1
 90
        8
176
     1
 62
     7
176
     1
 40
1.0
176
     1
 90
        1
176
     1
 90
        6
176
     1
 90
        2
176
     1
 62
     7
176
     1
 90
        5
176
     1
 90
        0
176
     1
 90
        0
176
     1
290
     0
176
     1
 90
        1
176
     1
 40
0.0
176
     1
 90
        0
176
     1
290
     0
176
     1
290
     1
176
     1
290
     1
176
     1
290
     0
176
     1
290
     0
176
     1
290
     0
176
     1
290
     0
176
     1
290
     0
176
     1
290
     0
176
     1
 90
       50
176
     1
 40
0.0
176
     1
 40
1.0
176
     1
 90
        0
176
     1
 62
    18
420
        0
176
     1
 90
       50
176
     1
 90
        3
176
     1
 62
     5
420
      255
176
     1
290
     0
176
     1
 90
       50
176
     1
 90
       50
176
     1
 90
       50
176
     1
290
     0
176
     1
 90
       50
176
     1
 62
   256
176
     0
 40
1.0
176
     0
 90
        2
176
     1
  1
strokes_ogs.tif
176
     1
290
     0
176
     1
 40
1.0
176
     1
 40
1.0
176
     1
  0
VISUALSTYLE
  5
35
102
{ACAD_REACTORS
330
29
102
}
330
29
100
AcDbVisualStyle
  2
Brighten
 70
    12
177
     3
291
     1
 70
    58
 90
        2
176
     1
 90
        2
176
     1
 90
        0
176
     1
 90
        0
176
     1
 40
0.6
176
     1
 40
30.0
176
     1
 62
     7
420
 16777215
176
     1
 90
        1
176
     1
 90
        4
176
     1
 62
     7
176
     1
 62
   257
176
     1
 90
        1
176
     1
 90
        1
176
     1
 40
1.0
176
     1
 90
        8
176
     1
 62
     7
176
     1
 40
1.0
176
     1
 90
        1
176
     1
 90
        6
176
     1
 90
        2
176
     1
 62
     7
176
     1
 90
        5
176
     1
 90
        0
176
     1
 90
        0
176
     1
290
     0
176
     1
 90
        1
176
     1
 40
50.0
176
     1
 90
        0
176
     1
290
     0
176
     1
290
     1
176
     1
290
     1
176
     1
290
     0
176
     1
290
     0
176
     1
290
     0
176
     1
290
     0
176
     1
290
     0
176
     1
290
     0
176
     1
 90
       50
176
     1
 40
0.0
176
     1
 40
1.0
176
     1
 90
        0
176
     1
 62
    18
420
        0
176
     1
 90
       50
176
     1
 90
        3
176
     1
 62
     5
420
      255
176
     1
290
     0
176
     1
 90
       50
176
     1
 90
       50
176
     1
 90
       50
176
     1
290
     0
176
     1
 90
       50
176
     1
 62
   256
176
     0
 40
1.0
176
     0
 90
        2
176
     1
  1
strokes_ogs.tif
176
     1
290
     0
176
     1
 40
1.0
176
     1
 40
1.0
176
     1
  0
VISUALSTYLE
  5
39
102
{ACAD_REACTORS
330
29
102
}
330
29
100
AcDbVisualStyle
  2
ColorChange
 70
    16
177
     3
291
     1
 70
    58
 90
        2
176
     1
 90
        2
176
     1
 90
        3
176
     1
 90
        0
176
     1
 40
0.6
176
     1
 40
30.0
176
     1
 62
     8
420
  8421504
176
     1
 90
        1
176
     1
 90
        4
176
     1
 62
     7
176
     1
 62
   257
176
     1
 90
        1
176
     1
 90
        1
176
     1
 40
1.0
176
     1
 90
        8
176
     1
 62
     8
420
  8421504
176
     1
 40
1.0
176
     1
 90
        1
176
     1
 90
        6
176
     1
 90
        2
176
     1
 62
     7
176
     1
 90
        5
176
     1
 90
        0
176
     1
 90
        0
176
     1
290
     0
176
     1
 90
        1
176
     1
 40
0.0
176
     1
 90
        0
176
     1
290
     0
176
     1
290
     1
176
     1
290
     1
176
     1
290
     0
176
     1
290
     0
176
     1
290
     0
176
     1
290
     0
176
     1
290
     0
176
     1
290
     0
176
     1
 90
       50
176
     1
 40
0.0
176
     1
 40
1.0
176
     1
 90
        0
176
     1
 62
    18
420
        0
176
     1
 90
       50
176
     1
 90
        3
176
     1
 62
     5
420
      255
176
     1
290
     0
176
     1
 90
       50
176
     1
 90
       50
176
     1
 90
       50
176
     1
290
     0
176
     1
 90
       50
176
     1
 62
   256
176
     0
 40
1.0
176
     0
 90
        2
176
     1
  1
strokes_ogs.tif
176
     1
290
     0
176
     1
 40
1.0
176
     1
 40
1.0
176
     1
  0
VISUALSTYLE
  5
32
102
{ACAD_REACTORS
330
29
102
}
330
29
100
AcDbVisualStyle
  2
Conceptual
 70
     9
177
     3
291
     0
 70
    58
 90
        3
176
     1
 90
        2
176
     1
 90
        0
176
     1
 90
        0
176
     1
 40
0.6
176
     1
 40
30.0
176
     1
 62
     7
420
 16777215
176
     1
 90
        2
176
     1
 90
        2
176
     1
 62
     7
176
     1
 62
   257
176
     1
 90
        1
176
     1
 90
        1
176
     1
 40
179.0
176
     1
 90
        8
176
     1
 62
     7
176
     1
 40
1.0
176
     1
 90
        1
176
     1
 90
        6
176
     1
 90
        2
176
     1
 62
     7
176
     1
 90
        3
176
     1
 90
        0
176
     1
 90
        0
176
     1
290
     0
176
     1
 90
        1
176
     1
 40
0.0
176
     1
 90
        0
176
     1
290
     0
176
     1
290
     1
176
     1
290
     1
176
     1
290
     0
176
     1
290
     0
176
     1
290
     0
176
     1
290
     0
176
     1
290
     0
176
     1
290
     0
176
     1
 90
       50
176
     1
 40
0.0
176
     1
 40
1.0
176
     1
 90
        0
176
     1
 62
    18
420
        0
176
     1
 90
       50
176
     1
 90
        3
176
     1
 62
     5
420
      255
176
     1
290
     0
176
     1
 90
       50
176
     1
 90
       50
176
     1
 90
       50
176
     1
290
     0
176
     1
 90
       50
176
     1
 62
   256
176
     0
 40
1.0
176
     0
 90
        2
176
     1
  1
strokes_ogs.tif
176
     1
290
     0
176
     1
 40
1.0
176
     1
 40
1.0
176
     1
  0
VISUALSTYLE
  5
34
102
{ACAD_REACTORS
330
29
102
}
330
29
100
AcDbVisualStyle
  2
Dim
 70
    11
177
     3
291
     1
 70
    58
 90
        2
176
     1
 90
        2
176
     1
 90
        0
176
     1
 90
        0
176
     1
 40
0.6
176
     1
 40
30.0
176
     1
 62
     7
420
 16777215
176
     1
 90
        1
176
     1
 90
        4
176
     1
 62
     7
176
     1
 62
   257
176
     1
 90
        1
176
     1
 90
        1
176
     1
 40
1.0
176
     1
 90
        8
176
     1
 62
     7
176
     1
 40
1.0
176
     1
 90
        1
176
     1
 90
        6
176
     1
 90
        2
176
     1
 62
     7
176
     1
 90
        5
176
     1
 90
        0
176
     1
 90
        0
176
     1
290
     0
176
     1
 90
        1
176
     1
 40
-50.0
176
     1
 90
        0
176
     1
290
     0
176
     1
290
     1
176
     1
290
     1
176
     1
290
     0
176
     1
290
     0
176
     1
290
     0
176
     1
290
     0
176
     1
290
     0
176
     1
290
     0
176
     1
 90
       50
176
     1
 40
0.0
176
     1
 40
1.0
176
     1
 90
        0
176
     1
 62
    18
420
        0
176
     1
 90
       50
176
     1
 90
        3
176
     1
 62
     5
420
      255
176
     1
290
     0
176
     1
 90
       50
176
     1
 90
       50
176
     1
 90
       50
176
     1
290
     0
176
     1
 90
       50
176
     1
 62
   256
176
     0
 40
1.0
176
     0
 90
        2
176
     1
  1
strokes_ogs.tif
176
     1
290
     0
176
     1
 40
1.0
176
     1
 40
1.0
176
     1
  0
VISUALSTYLE
  5
41
102
{ACAD_REACTORS
330
29
102
}
330
29
100
AcDbVisualStyle
  2
EdgeColorOff
 70
    22
177
     3
291
     1
 70
    58
 90
        2
176
     0
 90
        2
176
     0
 90
        0
176
     0
 90
        0
176
     0
 40
0.6
176
     0
 40
30.0
176
     0
 62
     7
420
 16777215
176
     0
 90
        1
176
     0
 90
        4
176
     0
 62
     7
176
     0
 62
   257
176
     0
 90
        1
176
     0
 90
        1
176
     0
 40
1.0
176
     0
 90
        8
176
     2
 62
     7
176
     0
 40
1.0
176
     0
 90
        1
176
     0
 90
        6
176
     0
 90
        2
176
     0
 62
     7
176
     0
 90
        5
176
     0
 90
        0
176
     0
 90
        0
176
     0
290
     0
176
     0
 90
        1
176
     0
 40
0.0
176
     0
 90
        0
176
     0
290
     0
176
     0
290
     1
176
     0
290
     1
176
     0
290
     0
176
     0
290
     0
176
     0
290
     0
176
     0
290
     0
176
     0
290
     0
176
     0
290
     0
176
     0
 90
       50
176
     0
 40
0.0
176
     0
 40
1.0
176
     0
 90
        0
176
     0
 62
    18
420
        0
176
     0
 90
       50
176
     0
 90
        3
176
     0
 62
     5
420
      255
176
     0
290
     0
176
     0
 90
       50
176
     0
 90
       50
176
     0
 90
       50
176
     0
290
     0
176
     0
 90
       50
176
     0
 62
   256
176
     0
 40
1.0
176
     0
 90
        2
176
     0
  1
strokes_ogs.tif
176
     0
290
     0
176
     0
 40
1.0
176
     0
 40
1.0
176
     0
  0
VISUALSTYLE
  5
38
102
{ACAD_REACTORS
330
29
102
}
330
29
100
AcDbVisualStyle
  2
Facepattern
 70
    15
177
     3
291
     1
 70
    58
 90
        2
176
     1
 90
        2
176
     1
 90
        0
176
     1
 90
        0
176
     1
 40
0.6
176
     1
 40
30.0
176
     1
 62
     7
420
 16777215
176
     1
 90
        1
176
     1
 90
        4
176
     1
 62
     7
176
     1
 62
   257
176
     1
 90
        1
176
     1
 90
        1
176
     1
 40
1.0
176
     1
 90
        8
176
     1
 62
     7
176
     1
 40
1.0
176
     1
 90
        1
176
     1
 90
        6
176
     1
 90
        2
176
     1
 62
     7
176
     1
 90
        5
176
     1
 90
        0
176
     1
 90
        0
176
     1
290
     0
176
     1
 90
        1
176
     1
 40
0.0
176
     1
 90
        0
176
     1
290
     0
176
     1
290
     1
176
     1
290
     1
176
     1
290
     0
176
     1
290
     0
176
     1
290
     0
176
     1
290
     0
176
     1
290
     0
176
     1
290
     0
176
     1
 90
       50
176
     1
 40
0.0
176
     1
 40
1.0
176
     1
 90
        0
176
     1
 62
    18
420
        0
176
     1
 90
       50
176
     1
 90
        3
176
     1
 62
     5
420
      255
176
     1
290
     0
176
     1
 90
       50
176
     1
 90
       50
176
     1
 90
       50
176
     1
290
     0
176
     1
 90
       50
176
     1
 62
   256
176
     0
 40
1.0
176
     0
 90
        2
176
     1
  1
strokes_ogs.tif
176
     1
290
     0
176
     1
 40
1.0
176
     1
 40
1.0
176
     1
  0
VISUALSTYLE
  5
2A
102
{ACAD_REACTORS
330
29
102
}
330
29
100
AcDbVisualStyle
  2
Flat
 70
     0
177
     3
291
     1
 70
    58
 90
        2
176
     1
 90
        1
176
     1
 90
        1
176
     1
 90
        2
176
     1
 40
0.6
176
     1
 40
30.0
176
     1
 62
     7
420
 16777215
176
     1
 90
        0
176
     1
 90
        0
176
     1
 62
     7
176
     1
 62
   257
176
     1
 90
        1
176
     1
 90
        1
176
     1
 40
1.0
176
     1
 90
        8
176
     1
 62
     7
176
     1
 40
1.0
176
     1
 90
        1
176
     1
 90
        6
176
     1
 90
        2
176
     1
 62
     7
176
     1
 90
        5
176
     1
 90
        0
176
     1
 90
        0
176
     1
290
     0
176
     1
 90
       13
176
     1
 40
0.0
176
     1
 90
        0
176
     1
290
     0
176
     1
290
     1
176
     1
290
     1
176
     1
290
     0
176
     1
290
     0
176
     1
290
     0
176
     1
290
     0
176
     1
290
     0
176
     1
290
     0
176
     1
 90
       50
176
     1
 40
0.0
176
     1
 40
1.0
176
     1
 90
        0
176
     1
 62
    18
420
        0
176
     1
 90
       50
176
     1
 90
        3
176
     1
 62
     5
420
      255
176
     1
290
     0
176
     1
 90
       50
176
     1
 90
       50
176
     1
 90
       50
176
     1
290
     0
176
     1
 90
       50
176
     1
 62
   256
176
     0
 40
1.0
176
     0
 90
        2
176
     1
  1
strokes_ogs.tif
176
     1
290
     0
176
     1
 40
1.0
176
     1
 40
1.0
176
     1
  0
VISUALSTYLE
  5
2B
102
{ACAD_REACTORS
330
29
102
}
330
29
100
AcDbVisualStyle
  2
FlatWithEdges
 70
     1
177
     3
291
     1
 70
    58
 90
        2
176
     1
 90
        1
176
     1
 90
        1
176
     1
 90
        2
176
     1
 40
0.6
176
     1
 40
30.0
176
     1
 62
     7
420
 16777215
176
     1
 90
        1
176
     1
 90
        0
176
     1
 62
     7
176
     1
 62
   257
176
     1
 90
        1
176
     1
 90
        1
176
     1
 40
1.0
176
     1
 90
        0
176
     1
 62
   257
176
     1
 40
1.0
176
     1
 90
        1
176
     1
 90
        6
176
     1
 90
        2
176
     1
 62
     7
176
     1
 90
        5
176
     1
 90
        0
176
     1
 90
        0
176
     1
290
     0
176
     1
 90
       13
176
     1
 40
0.0
176
     1
 90
        0
176
     1
290
     0
176
     1
290
     1
176
     1
290
     1
176
     1
290
     0
176
     1
290
     0
176
     1
290
     0
176
     1
290
     0
176
     1
290
     0
176
     1
290
     0
176
     1
 90
       50
176
     1
 40
0.0
176
     1
 40
1.0
176
     1
 90
        0
176
     1
 62
    18
420
        0
176
     1
 90
       50
176
     1
 90
        3
176
     1
 62
     5
420
      255
176
     1
290
     0
176
     1
 90
       50
176
     1
 90
       50
176
     1
 90
       50
176
     1
290
     0
176
     1
 90
       50
176
     1
 62
   256
176
     0
 40
1.0
176
     0
 90
        2
176
     1
  1
strokes_ogs.tif
176
     1
290
     0
176
     1
 40
1.0
176
     1
 40
1.0
176
     1
  0
VISUALSTYLE
  5
2C
102
{ACAD_REACTORS
330
29
102
}
330
29
100
AcDbVisualStyle
  2
Gouraud
 70
     2
177
     3
291
     1
 70
    58
 90
        2
176
     1
 90
        2
176
     1
 90
        1
176
     1
 90
        2
176
     1
 40
0.6
176
     1
 40
30.0
176
     1
 62
     7
420
 16777215
176
     1
 90
        0
176
     1
 90
        0
176
     1
 62
     7
176
     1
 62
   257
176
     1
 90
        1
176
     1
 90
        1
176
     1
 40
1.0
176
     1
 90
        0
176
     1
 62
     7
176
     1
 40
1.0
176
     1
 90
        1
176
     1
 90
        6
176
     1
 90
        2
176
     1
 62
     7
176
     1
 90
        5
176
     1
 90
        0
176
     1
 90
        0
176
     1
290
     0
176
     1
 90
       13
176
     1
 40
0.0
176
     1
 90
        0
176
     1
290
     0
176
     1
290
     1
176
     1
290
     1
176
     1
290
     0
176
     1
290
     0
176
     1
290
     0
176
     1
290
     0
176
     1
290
     0
176
     1
290
     0
176
     1
 90
       50
176
     1
 40
0.0
176
     1
 40
1.0
176
     1
 90
        0
176
     1
 62
    18
420
        0
176
     1
 90
       50
176
     1
 90
        3
176
     1
 62
     5
420
      255
176
     1
290
     0
176
     1
 90
       50
176
     1
 90
       50
176
     1
 90
       50
176
     1
290
     0
176
     1
 90
       50
176
     1
 62
   256
176
     0
 40
1.0
176
     0
 90
        2
176
     1
  1
strokes_ogs.tif
176
     1
290
     0
176
     1
 40
1.0
176
     1
 40
1.0
176
     1
  0
VISUALSTYLE
  5
2D
102
{ACAD_REACTORS
330
29
102
}
330
29
100
AcDbVisualStyle
  2
GouraudWithEdges
 70
     3
177
     3
291
     1
 70
    58
 90
        2
176
     1
 90
        2
176
     1
 90
        1
176
     1
 90
        2
176
     1
 40
0.6
176
     1
 40
30.0
176
     1
 62
     7
420
 16777215
176
     1
 90
        1
176
     1
 90
        0
176
     1
 62
     7
176
     1
 62
   257
176
     1
 90
        1
176
     1
 90
        1
176
     1
 40
1.0
176
     1
 90
        0
176
     1
 62
   257
176
     1
 40
1.0
176
     1
 90
        1
176
     1
 90
        6
176
     1
 90
        2
176
     1
 62
     7
176
     1
 90
        5
176
     1
 90
        0
176
     1
 90
        0
176
     1
290
     0
176
     1
 90
       13
176
     1
 40
0.0
176
     1
 90
        0
176
     1
290
     0
176
     1
290
     1
176
     1
290
     1
176
     1
290
     0
176
     1
290
     0
176
     1
290
     0
176
     1
290
     0
176
     1
290
     0
176
     1
290
     0
176
     1
 90
       50
176
     1
 40
0.0
176
     1
 40
1.0
176
     1
 90
        0
176
     1
 62
    18
420
        0
176
     1
 90
       50
176
     1
 90
        3
176
     1
 62
     5
420
      255
176
     1
290
     0
176
     1
 90
       50
176
     1
 90
       50
176
     1
 90
       50
176
     1
290
     0
176
     1
 90
       50
176
     1
 62
   256
176
     0
 40
1.0
176
     0
 90
        2
176
     1
  1
strokes_ogs.tif
176
     1
290
     0
176
     1
 40
1.0
176
     1
 40
1.0
176
     1
  0
VISUALSTYLE
  5
31
102
{ACAD_REACTORS
330
29
102
}
330
29
100
AcDbVisualStyle
  2
Hidden
 70
     6
177
     3
291
     0
 70
    58
 90
        1
176
     1
 90
        2
176
     1
 90
        2
176
     1
 90
        0
176
     1
 40
0.6
176
     1
 40
30.0
176
     1
 62
     7
420
 16777215
176
     1
 90
        2
176
     1
 90
        2
176
     1
 62
     7
176
     1
 62
   257
176
     1
 90
        2
176
     1
 90
        1
176
     1
 40
40.0
176
     1
 90
        0
176
     1
 62
   257
176
     1
 40
1.0
176
     1
 90
        1
176
     1
 90
        6
176
     1
 90
        2
176
     1
 62
     7
176
     1
 90
        3
176
     1
 90
        0
176
     1
 90
        0
176
     1
290
     0
176
     1
 90
        1
176
     1
 40
0.0
176
     1
 90
        0
176
     1
290
     0
176
     1
290
     1
176
     1
290
     1
176
     1
290
     0
176
     1
290
     0
176
     1
290
     0
176
     1
290
     0
176
     1
290
     0
176
     1
290
     0
176
     1
 90
       50
176
     1
 40
0.0
176
     1
 40
1.0
176
     1
 90
        0
176
     1
 62
    18
420
        0
176
     1
 90
       50
176
     1
 90
        3
176
     1
 62
     5
420
      255
176
     1
290
     0
176
     1
 90
       50
176
     1
 90
       50
176
     1
 90
       50
176
     1
290
     0
176
     1
 90
       50
176
     1
 62
   256
176
     0
 40
1.0
176
     0
 90
        2
176
     1
  1
strokes_ogs.tif
176
     1
290
     0
176
     1
 40
1.0
176
     1
 40
1.0
176
     1
  0
VISUALSTYLE
  5
3F
102
{ACAD_REACTORS
330
29
102
}
330
29
100
AcDbVisualStyle
  2
JitterOff
 70
    20
177
     3
291
     1
 70
    58
 90
        2
176
     0
 90
        2
176
     0
 90
        0
176
     0
 90
        0
176
     0
 40
0.6
176
     0
 40
30.0
176
     0
 62
     7
420
 16777215
176
     0
 90
        1
176
     0
 90
        4
176
     0
 62
     7
176
     0
 62
   257
176
     0
 90
        1
176
     0
 90
        1
176
     0
 40
1.0
176
     0
 90
       10
176
     2
 62
     7
176
     0
 40
1.0
176
     0
 90
        1
176
     0
 90
        6
176
     0
 90
        2
176
     0
 62
     7
176
     0
 90
        5
176
     0
 90
        0
176
     0
 90
        0
176
     0
290
     0
176
     0
 90
        1
176
     0
 40
0.0
176
     0
 90
        0
176
     0
290
     0
176
     0
290
     1
176
     0
290
     1
176
     0
290
     0
176
     0
290
     0
176
     0
290
     0
176
     0
290
     0
176
     0
290
     0
176
     0
290
     0
176
     0
 90
       50
176
     0
 40
0.0
176
     0
 40
1.0
176
     0
 90
        0
176
     0
 62
    18
420
        0
176
     0
 90
       50
176
     0
 90
        3
176
     0
 62
     5
420
      255
176
     0
290
     0
176
     0
 90
       50
176
     0
 90
       50
176
     0
 90
       50
176
     0
290
     0
176
     0
 90
       50
176
     0
 62
   256
176
     0
 40
1.0
176
     0
 90
        2
176
     0
  1
strokes_ogs.tif
176
     0
290
     0
176
     0
 40
1.0
176
     0
 40
1.0
176
     0
  0
VISUALSTYLE
  5
37
102
{ACAD_REACTORS
330
29
102
}
330
29
100
AcDbVisualStyle
  2
Linepattern
 70
    14
177
     3
291
     1
 70
    58
 90
        2
176
     1
 90
        2
176
     1
 90
        0
176
     1
 90
        0
176
     1
 40
0.6
176
     1
 40
30.0
176
     1
 62
     7
420
 16777215
176
     1
 90
        1
176
     1
 90
        4
176
     1
 62
     7
176
     1
 62
   257
176
     1
 90
        7
176
     1
 90
        7
176
     1
 40
1.0
176
     1
 90
        8
176
     1
 62
     7
176
     1
 40
1.0
176
     1
 90
        1
176
     1
 90
        6
176
     1
 90
        2
176
     1
 62
     7
176
     1
 90
        5
176
     1
 90
        0
176
     1
 90
        0
176
     1
290
     0
176
     1
 90
        1
176
     1
 40
0.0
176
     1
 90
        0
176
     1
290
     0
176
     1
290
     1
176
     1
290
     1
176
     1
290
     0
176
     1
290
     0
176
     1
290
     0
176
     1
290
     0
176
     1
290
     0
176
     1
290
     0
176
     1
 90
       50
176
     1
 40
0.0
176
     1
 40
1.0
176
     1
 90
        0
176
     1
 62
    18
420
        0
176
     1
 90
       50
176
     1
 90
        3
176
     1
 62
     5
420
      255
176
     1
290
     0
176
     1
 90
       50
176
     1
 90
       50
176
     1
 90
       50
176
     1
290
     0
176
     1
 90
       50
176
     1
 62
   256
176
     0
 40
1.0
176
     0
 90
        2
176
     1
  1
strokes_ogs.tif
176
     1
290
     0
176
     1
 40
1.0
176
     1
 40
1.0
176
     1
  0
VISUALSTYLE
  5
40
102
{ACAD_REACTORS
330
29
102
}
330
29
100
AcDbVisualStyle
  2
OverhangOff
 70
    21
177
     3
291
     1
 70
    58
 90
        2
176
     0
 90
        2
176
     0
 90
        0
176
     0
 90
        0
176
     0
 40
0.6
176
     0
 40
30.0
176
     0
 62
     7
420
 16777215
176
     0
 90
        1
176
     0
 90
        4
176
     0
 62
     7
176
     0
 62
   257
176
     0
 90
        1
176
     0
 90
        1
176
     0
 40
1.0
176
     0
 90
        9
176
     2
 62
     7
176
     0
 40
1.0
176
     0
 90
        1
176
     0
 90
        6
176
     0
 90
        2
176
     0
 62
     7
176
     0
 90
        5
176
     0
 90
        0
176
     0
 90
        0
176
     0
290
     0
176
     0
 90
        1
176
     0
 40
0.0
176
     0
 90
        0
176
     0
290
     0
176
     0
290
     1
176
     0
290
     1
176
     0
290
     0
176
     0
290
     0
176
     0
290
     0
176
     0
290
     0
176
     0
290
     0
176
     0
290
     0
176
     0
 90
       50
176
     0
 40
0.0
176
     0
 40
1.0
176
     0
 90
        0
176
     0
 62
    18
420
        0
176
     0
 90
       50
176
     0
 90
        3
176
     0
 62
     5
420
      255
176
     0
290
     0
176
     0
 90
       50
176
     0
 90
       50
176
     0
 90
       50
176
     0
290
     0
176
     0
 90
       50
176
     0
 62
   256
176
     0
 40
1.0
176
     0
 90
        2
176
     0
  1
strokes_ogs.tif
176
     0
290
     0
176
     0
 40
1.0
176
     0
 40
1.0
176
     0
  0
VISUALSTYLE
  5
33
102
{ACAD_REACTORS
330
29
102
}
330
29
100
AcDbVisualStyle
  2
Realistic
 70
     8
177
     3
291
     0
 70
    58
 90
        2
176
     1
 90
        3
176
     1
 90
        0
176
     1
 90
        2
176
     1
 40
0.6
176
     1
 40
30.0
176
     1
 62
     7
420
 16777215
176
     1
 90
        0
176
     1
 90
        0
176
     1
 62
     7
176
     1
 62
   257
176
     1
 90
        1
176
     1
 90
        1
176
     1
 40
1.0
176
     1
 90
        8
176
     1
 62
   257
176
     1
 40
1.0
176
     1
 90
        1
176
     1
 90
        6
176
     1
 90
        2
176
     1
 62
     7
176
     1
 90
        3
176
     1
 90
        0
176
     1
 90
        0
176
     1
290
     0
176
     1
 90
       13
176
     1
 40
0.0
176
     1
 90
        0
176
     1
290
     0
176
     1
290
     1
176
     1
290
     1
176
     1
290
     0
176
     1
290
     0
176
     1
290
     0
176
     1
290
     0
176
     1
290
     0
176
     1
290
     0
176
     1
 90
       50
176
     1
 40
0.0
176
     1
 40
1.0
176
     1
 90
        0
176
     1
 62
    18
420
        0
176
     1
 90
       50
176
     1
 90
        3
176
     1
 62
     5
420
      255
176
     1
290
     0
176
     1
 90
       50
176
     1
 90
       50
176
     1
 90
       50
176
     1
290
     0
176
     1
 90
       50
176
     1
 62
   256
176
     0
 40
1.0
176
     0
 90
        2
176
     1
  1
strokes_ogs.tif
176
     1
290
     0
176
     1
 40
1.0
176
     1
 40
1.0
176
     1
  0
VISUALSTYLE
  5
3E
102
{ACAD_REACTORS
330
29
102
}
330
29
100
AcDbVisualStyle
  2
Shaded
 70
    27
177
     3
291
     0
 70
    58
 90
        2
176
     1
 90
        2
176
     1
 90
        1
176
     1
 90
        2
176
     1
 40
0.6
176
     1
 40
30.0
176
     1
 62
     7
420
 16777215
176
     1
 90
        0
176
     1
 90
        4
176
     1
 62
     7
176
     1
 62
   257
176
     1
 90
        1
176
     1
 90
        1
176
     1
 40
1.0
176
     1
 90
        8
176
     1
 62
   257
176
     1
 40
1.0
176
     1
 90
        1
176
     1
 90
        6
176
     1
 90
        2
176
     1
 62
     8
420
  7895160
176
     1
 90
        3
176
     1
 90
        0
176
     1
 90
        0
176
     1
290
     0
176
     1
 90
        5
176
     1
 40
0.0
176
     1
 90
        0
176
     1
290
     0
176
     1
290
     1
176
     1
290
     1
176
     1
290
     0
176
     1
290
     0
176
     1
290
     0
176
     1
290
     0
176
     1
290
     0
176
     1
290
     0
176
     1
 90
       50
176
     1
 40
0.0
176
     1
 40
1.0
176
     1
 90
        0
176
     1
 62
    18
420
        0
176
     1
 90
       50
176
     1
 90
        3
176
     1
 62
     5
420
      255
176
     1
290
     0
176
     1
 90
       50
176
     1
 90
       50
176
     1
 90
       50
176
     1
290
     0
176
     1
 90
       50
176
     1
 62
   256
176
     0
 40
1.0
176
     0
 90
        2
176
     1
  1
strokes_ogs.tif
176
     1
290
     0
176
     1
 40
1.0
176
     1
 40
1.0
176
     1
  0
VISUALSTYLE
  5
3D
102
{ACAD_REACTORS
330
29
102
}
330
29
100
AcDbVisualStyle
  2
Shaded with edges
 70
    26
177
     3
291
     0
 70
    58
 90
        2
176
     1
 90
        2
176
     1
 90
        1
176
     1
 90
        2
176
     1
 40
0.6
176
     1
 40
30.0
176
     1
 62
     7
420
 16777215
176
     1
 90
        1
176
     1
 90
        2
176
     1
 62
     7
176
     1
 62
   257
176
     1
 90
        2
176
     1
 90
        1
176
     1
 40
1.0
176
     1
 90
        8
176
     1
 62
   257
176
     1
 40
1.0
176
     1
 90
        1
176
     1
 90
        6
176
     1
 90
        2
176
     1
 62
     7
176
     1
 90
        3
176
     1
 90
        0
176
     1
 90
        0
176
     1
290
     0
176
     1
 90
        5
176
     1
 40
0.0
176
     1
 90
        0
176
     1
290
     0
176
     1
290
     1
176
     1
290
     1
176
     1
290
     0
176
     1
290
     0
176
     1
290
     0
176
     1
290
     0
176
     1
290
     0
176
     1
290
     0
176
     1
 90
       50
176
     1
 40
0.0
176
     1
 40
1.0
176
     1
 90
        0
176
     1
 62
    18
420
        0
176
     1
 90
       50
176
     1
 90
        3
176
     1
 62
     5
420
      255
176
     1
290
     0
176
     1
 90
       50
176
     1
 90
       50
176
     1
 90
       50
176
     1
290
     0
176
     1
 90
       50
176
     1
 62
   256
176
     0
 40
1.0
176
     0
 90
        2
176
     1
  1
strokes_ogs.tif
176
     1
290
     0
176
     1
 40
1.0
176
     1
 40
1.0
176
     1
  0
VISUALSTYLE
  5
3A
102
{ACAD_REACTORS
330
29
102
}
330
29
100
AcDbVisualStyle
  2
Shades of Gray
 70
    23
177
     3
291
     0
 70
    58
 90
        2
176
     1
 90
        2
176
     1
 90
        3
176
     1
 90
        0
176
     1
 40
0.6
176
     1
 40
30.0
176
     1
 62
     7
420
 16777215
176
     1
 90
        2
176
     1
 90
        2
176
     1
 62
     7
176
     1
 62
     7
176
     1
 90
        1
176
     1
 90
        1
176
     1
 40
40.0
176
     1
 90
        8
176
     1
 62
     7
176
     1
 40
1.0
176
     1
 90
        1
176
     1
 90
        6
176
     1
 90
        2
176
     1
 62
     7
176
     1
 90
        3
176
     1
 90
        0
176
     1
 90
        0
176
     1
290
     0
176
     1
 90
        1
176
     1
 40
0.0
176
     1
 90
        0
176
     1
290
     0
176
     1
290
     1
176
     1
290
     1
176
     1
290
     0
176
     1
290
     0
176
     1
290
     0
176
     1
290
     0
176
     1
290
     0
176
     1
290
     0
176
     1
 90
       50
176
     1
 40
0.0
176
     1
 40
1.0
176
     1
 90
        0
176
     1
 62
    18
420
        0
176
     1
 90
       50
176
     1
 90
        3
176
     1
 62
     5
420
      255
176
     1
290
     0
176
     1
 90
       50
176
     1
 90
       50
176
     1
 90
       50
176
     1
290
     0
176
     1
 90
       50
176
     1
 62
   256
176
     0
 40
1.0
176
     0
 90
        2
176
     1
  1
strokes_ogs.tif
176
     1
290
     0
176
     1
 40
1.0
176
     1
 40
1.0
176
     1
  0
VISUALSTYLE
  5
3B
102
{ACAD_REACTORS
330
29
102
}
330
29
100
AcDbVisualStyle
  2
Sketchy
 70
    24
177
     3
291
     0
 70
    58
 90
        1
176
     1
 90
        2
176
     1
 90
        2
176
     1
 90
        0
176
     1
 40
0.6
176
     1
 40
30.0
176
     1
 62
     7
420
 16777215
176
     1
 90
        2
176
     1
 90
        2
176
     1
 62
     7
176
     1
 62
     7
176
     1
 90
        1
176
     1
 90
        1
176
     1
 40
40.0
176
     1
 90
       11
176
     1
 62
     7
176
     1
 40
1.0
176
     1
 90
        1
176
     1
 90
        6
176
     1
 90
        2
176
     1
 62
     7
176
     1
 90
        6
176
     1
 90
        0
176
     1
 90
        0
176
     1
290
     0
176
     1
 90
        1
176
     1
 40
0.0
176
     1
 90
        0
176
     1
290
     0
176
     1
290
     1
176
     1
290
     1
176
     1
290
     0
176
     1
290
     0
176
     1
290
     0
176
     1
290
     0
176
     1
290
     0
176
     1
290
     0
176
     1
 90
       50
176
     1
 40
0.0
176
     1
 40
1.0
176
     1
 90
        0
176
     1
 62
    18
420
        0
176
     1
 90
       50
176
     1
 90
        3
176
     1
 62
     5
420
      255
176
     1
290
     0
176
     1
 90
       50
176
     1
 90
       50
176
     1
 90
       50
176
     1
290
     0
176
     1
 90
       50
176
     1
 62
   256
176
     0
 40
1.0
176
     0
 90
        2
176
     1
  1
strokes_ogs.tif
176
     1
290
     0
176
     1
 40
1.0
176
     1
 40
1.0
176
     1
  0
VISUALSTYLE
  5
36
102
{ACAD_REACTORS
330
29
102
}
330
29
100
AcDbVisualStyle
  2
Thicken
 70
    13
177
     3
291
     1
 70
    58
 90
        2
176
     1
 90
        2
176
     1
 90
        0
176
     1
 90
        0
176
     1
 40
0.6
176
     1
 40
30.0
176
     1
 62
     7
420
 16777215
176
     1
 90
        1
176
     1
 90
        4
176
     1
 62
     7
176
     1
 62
   257
176
     1
 90
        1
176
     1
 90
        1
176
     1
 40
1.0
176
     1
 90
       12
176
     1
 62
     7
176
     1
 40
1.0
176
     1
 90
        1
176
     1
 90
        6
176
     1
 90
        2
176
     1
 62
     7
176
     1
 90
        5
176
     1
 90
        0
176
     1
 90
        0
176
     1
290
     0
176
     1
 90
        1
176
     1
 40
0.0
176
     1
 90
        0
176
     1
290
     0
176
     1
290
     1
176
     1
290
     1
176
     1
290
     0
176
     1
290
     0
176
     1
290
     0
176
     1
290
     0
176
     1
290
     0
176
     1
290
     0
176
     1
 90
       50
176
     1
 40
0.0
176
     1
 40
1.0
176
     1
 90
        0
176
     1
 62
    18
420
        0
176
     1
 90
       50
176
     1
 90
        3
176
     1
 62
     5
420
      255
176
     1
290
     0
176
     1
 90
       50
176
     1
 90
       50
176
     1
 90
       50
176
     1
290
     0
176
     1
 90
       50
176
     1
 62
   256
176
     0
 40
1.0
176
     0
 90
        2
176
     1
  1
strokes_ogs.tif
176
     1
290
     0
176
     1
 40
1.0
176
     1
 40
1.0
176
     1
  0
VISUALSTYLE
  5
30
102
{ACAD_REACTORS
330
29
102
}
330
29
100
AcDbVisualStyle
  2
Wireframe
 70
     5
177
     3
291
     0
 70
    58
 90
        0
176
     1
 90
        2
176
     1
 90
        0
176
     1
 90
        0
176
     1
 40
0.6
176
     1
 40
30.0
176
     1
 62
     7
420
 16777215
176
     1
 90
        1
176
     1
 90
        4
176
     1
 62
     7
176
     1
 62
   257
176
     1
 90
        1
176
     1
 90
        1
176
     1
 40
1.0
176
     1
 90
        0
176
     1
 62
   257
176
     1
 40
1.0
176
     1
 90
        1
176
     1
 90
        6
176
     1
 90
        2
176
     1
 62
     7
176
     1
 90
        3
176
     1
 90
        0
176
     1
 90
        0
176
     1
290
     0
176
     1
 90
        1
176
     1
 40
0.0
176
     1
 90
        0
176
     1
290
     0
176
     1
290
     1
176
     1
290
     1
176
     1
290
     0
176
     1
290
     0
176
     1
290
     0
176
     1
290
     0
176
     1
290
     0
176
     1
290
     0
176
     1
 90
       50
176
     1
 40
0.0
176
     1
 40
1.0
176
     1
 90
        0
176
     1
 62
    18
420
        0
176
     1
 90
       50
176
     1
 90
        3
176
     1
 62
     5
420
      255
176
     1
290
     0
176
     1
 90
       50
176
     1
 90
       50
176
     1
 90
       50
176
     1
290
     0
176
     1
 90
       50
176
     1
 62
   256
176
     0
 40
1.0
176
     0
 90
        2
176
     1
  1
strokes_ogs.tif
176
     1
290
     0
176
     1
 40
1.0
176
     1
 40
1.0
176
     1
  0
VISUALSTYLE
  5
3C
102
{ACAD_REACTORS
330
29
102
}
330
29
100
AcDbVisualStyle
  2
X-Ray
 70
    25
177
     3
291
     0
 70
    58
 90
        2
176
     1
 90
        2
176
     1
 90
        1
176
     1
 90
        1
176
     1
 40
0.5
176
     1
 40
30.0
176
     1
 62
     7
420
 16777215
176
     1
 90
        1
176
     1
 90
        0
176
     1
 62
     7
176
     1
 62
   257
176
     1
 90
        1
176
     1
 90
        1
176
     1
 40
1.0
176
     1
 90
        8
176
     1
 62
     7
176
     1
 40
1.0
176
     1
 90
        1
176
     1
 90
        6
176
     1
 90
        2
176
     1
 62
     7
176
     1
 90
        3
176
     1
 90
        0
176
     1
 90
        0
176
     1
290
     0
176
     1
 90
       13
176
     1
 40
0.0
176
     1
 90
        0
176
     1
290
     0
176
     1
290
     1
176
     1
290
     1
176
     1
290
     0
176
     1
290
     0
176
     1
290
     0
176
     1
290
     0
176
     1
290
     0
176
     1
290
     0
176
     1
 90
       50
176
     1
 40
0.0
176
     1
 40
1.0
176
     1
 90
        0
176
     1
 62
    18
420
        0
176
     1
 90
       50
176
     1
 90
        3
176
     1
 62
     5
420
      255
176
     1
290
     0
176
     1
 90
       50
176
     1
 90
       50
176
     1
 90
       50
176
     1
290
     0
176
     1
 90
       50
176
     1
 62
   256
176
     0
 40
1.0
176
     0
 90
        2
176
     1
  1
strokes_ogs.tif
176
     1
290
     0
176
     1
 40
1.0
176
     1
 40
1.0
176
     1
  0
DICTIONARYVAR
  5
152
102
{ACAD_REACTORS
330
14D
102
}
330
14D
100
DictionaryVariables
280
     0
  1
1:1
  0
DICTIONARYVAR
  5
14F
102
{ACAD_REACTORS
330
14D
102
}
330
14D
100
DictionaryVariables
280
     0
  1
STANDARD
  0
DICTIONARYVAR
  5
14E
102
{ACAD_REACTORS
330
14D
102
}
330
14D
100
DictionaryVariables
280
     0
  1
STANDARD
  0
DICTIONARYVAR
  5
150
102
{ACAD_REACTORS
330
14D
102
}
330
14D
100
DictionaryVariables
280
     0
  1
Imperial24
  0
DICTIONARYVAR
  5
151
102
{ACAD_REACTORS
330
14D
102
}
330
14D
100
DictionaryVariables
280
     0
  1
Imperial24
  0
DICTIONARY
  5
1A
330
19
100
AcDbDictionary
280
     1
281
     1
  3
BUMPTILE
360
1C
  3
DIFFUSETILE
360
1B
  3
OPACITYTILE
360
1F
  3
REFLECTIONTILE
360
1E
  3
REFRACTIONTILE
360
20
  3
SPECULARTILE
360
1D
  0
DICTIONARY
  5
12
330
11
100
AcDbDictionary
280
     1
281
     1
  3
BUMPTILE
360
14
  3
DIFFUSETILE
360
13
  3
OPACITYTILE
360
17
  3
REFLECTIONTILE
360
16
  3
REFRACTIONTILE
360
18
  3
SPECULARTILE
360
15
  0
DICTIONARY
  5
22
330
21
100
AcDbDictionary
280
     1
281
     1
  3
BUMPTILE
360
24
  3
DIFFUSETILE
360
23
  3
OPACITYTILE
360
27
  3
REFLECTIONTILE
360
26
  3
REFRACTIONTILE
360
28
  3
SPECULARTILE
360
25
  0
DICTIONARY
  5
153
330
65
100
AcDbDictionary
280
     1
281
     1
  3
ACAD_ROUNDTRIP_2008_TABLESTYLE_CELLSTYLEMAP
360
154
  0
XRECORD
  5
1C
102
{ACAD_REACTORS
330
1A
102
}
330
1A
100
AcDbXrecord
280
     1
270
     1
271
     1
  0
XRECORD
  5
1B
102
{ACAD_REACTORS
330
1A
102
}
330
1A
100
AcDbXrecord
280
     1
270
     1
271
     1
  0
XRECORD
  5
1F
102
{ACAD_REACTORS
330
1A
102
}
330
1A
100
AcDbXrecord
280
     1
270
     1
271
     1
  0
XRECORD
  5
1E
102
{ACAD_REACTORS
330
1A
102
}
330
1A
100
AcDbXrecord
280
     1
270
     1
271
     1
  0
XRECORD
  5
20
102
{ACAD_REACTORS
330
1A
102
}
330
1A
100
AcDbXrecord
280
     1
270
     1
271
     1
  0
XRECORD
  5
1D
102
{ACAD_REACTORS
330
1A
102
}
330
1A
100
AcDbXrecord
280
     1
270
     1
271
     1
  0
XRECORD
  5
14
102
{ACAD_REACTORS
330
12
102
}
330
12
100
AcDbXrecord
280
     1
270
     1
271
     1
  0
XRECORD
  5
13
102
{ACAD_REACTORS
330
12
102
}
330
12
100
AcDbXrecord
280
     1
270
     1
271
     1
  0
XRECORD
  5
17
102
{ACAD_REACTORS
330
12
102
}
330
12
100
AcDbXrecord
280
     1
270
     1
271
     1
  0
XRECORD
  5
16
102
{ACAD_REACTORS
330
12
102
}
330
12
100
AcDbXrecord
280
     1
270
     1
271
     1
  0
XRECORD
  5
18
102
{ACAD_REACTORS
330
12
102
}
330
12
100
AcDbXrecord
280
     1
270
     1
271
     1
  0
XRECORD
  5
15
102
{ACAD_REACTORS
330
12
102
}
330
12
100
AcDbXrecord
280
     1
270
     1
271
     1
  0
XRECORD
  5
24
102
{ACAD_REACTORS
330
22
102
}
330
22
100
AcDbXrecord
280
     1
270
     1
271
     1
  0
XRECORD
  5
23
102
{ACAD_REACTORS
330
22
102
}
330
22
100
AcDbXrecord
280
     1
270
     1
271
     1
  0
XRECORD
  5
27
102
{ACAD_REACTORS
330
22
102
}
330
22
100
AcDbXrecord
280
     1
270
     1
271
     1
  0
XRECORD
  5
26
102
{ACAD_REACTORS
330
22
102
}
330
22
100
AcDbXrecord
280
     1
270
     1
271
     1
  0
XRECORD
  5
28
102
{ACAD_REACTORS
330
22
102
}
330
22
100
AcDbXrecord
280
     1
270
     1
271
     1
  0
XRECORD
  5
25
102
{ACAD_REACTORS
330
22
102
}
330
22
100
AcDbXrecord
280
     1
270
     1
271
     1
  0
CELLSTYLEMAP
  5
154
102
{ACAD_REACTORS
330
153
102
}
330
153
100
AcDbCellStyleMap
 90
        3
300
CELLSTYLE
  1
TABLEFORMAT_BEGIN
 90
        5
170
     1
 91
        0
 92
    32768
 62
   257
 93
        1
300
CONTENTFORMAT
  1
CONTENTFORMAT_BEGIN
 90
        0
 91
        0
 92
      512
 93
        0
300

 40
0.0
140
1.0
 94
        5
 62
     0
340
55
144
0.25
309
CONTENTFORMAT_END
171
     0
 94
        0
309
TABLEFORMAT_END
  1
CELLSTYLE_BEGIN
 90
        1
 91
        1
300
_TITLE
309
CELLSTYLE_END
300
CELLSTYLE
  1
TABLEFORMAT_BEGIN
 90
        5
170
     1
 91
        0
 92
        0
 62
   257
 93
        1
300
CONTENTFORMAT
  1
CONTENTFORMAT_BEGIN
 90
        0
 91
        0
 92
      512
 93
        0
300

 40
0.0
140
1.0
 94
        5
 62
     0
340
55
144
0.18
309
CONTENTFORMAT_END
171
     0
 94
        0
309
TABLEFORMAT_END
  1
CELLSTYLE_BEGIN
 90
        2
 91
        1
300
_HEADER
309
CELLSTYLE_END
300
CELLSTYLE
  1
TABLEFORMAT_BEGIN
 90
        5
170
     1
 91
        0
 92
        0
 62
   257
 93
        1
300
CONTENTFORMAT
  1
CONTENTFORMAT_BEGIN
 90
        0
 91
        0
 92
      512
 93
        0
300

 40
0.0
140
1.0
 94
        2
 62
     0
340
55
144
0.18
309
CONTENTFORMAT_END
171
     0
 94
        0
309
TABLEFORMAT_END
  1
CELLSTYLE_BEGIN
 90
        3
 91
        2
300
_DATA
309
CELLSTYLE_END
  0
ENDSEC
  0
EOF
