  0
SECTION
  2
HEADER
  9
$ACADVER
  1
AC1032
  9
$ACADMAINTVER
 90
      228
  9
$DWGCODEPAGE
  3
ANSI_1252
  9
$REQUIREDVERSIONS
160
                 0
  9
$INSBASE
 10
0.0
 20
0.0
 30
0.0
  9
$EXTMIN
 10
1.000000000000000E+20
 20
1.000000000000000E+20
 30
1.000000000000000E+20
  9
$EXTMAX
 10
-1.000000000000000E+20
 20
-1.000000000000000E+20
 30
-1.000000000000000E+20
  9
$LIMMIN
 10
0.0
 20
0.0
  9
$LIMMAX
 10
12.0
 20
9.0
  9
$ORTHOMODE
 70
     0
  9
$REGENMODE
 70
     1
  9
$FILLMODE
 70
     1
  9
$QTEXTMODE
 70
     0
  9
$MIRRTEXT
 70
     0
  9
$LTSCALE
 40
1.0
  9
$ATTMODE
 70
     1
  9
$TEXTSIZE
 40
0.2
  9
$TRACEWID
 40
0.05
  9
$TEXTSTYLE
  7
Standard
  9
$CLAYER
  8
0
  9
$CELTYPE
  6
ByLayer
  9
$CECOLOR
 62
   256
  9
$CELTSCALE
 40
1.0
  9
$DISPSILH
 70
     0
  9
$DIMSCALE
 40
1.0
  9
$DIMASZ
 40
0.18
  9
$DIMEXO
 40
0.0625
  9
$DIMDLI
 40
0.38
  9
$DIMRND
 40
0.0
  9
$DIMDLE
 40
0.0
  9
$DIMEXE
 40
0.18
  9
$DIMTP
 40
0.0
  9
$DIMTM
 40
0.0
  9
$DIMTXT
 40
0.18
  9
$DIMCEN
 40
0.09
  9
$DIMTSZ
 40
0.0
  9
$DIMTOL
 70
     0
  9
$DIMLIM
 70
     0
  9
$DIMTIH
 70
     1
  9
$DIMTOH
 70
     1
  9
$DIMSE1
 70
     0
  9
$DIMSE2
 70
     0
  9
$DIMTAD
 70
     0
  9
$DIMZIN
 70
     0
  9
$DIMBLK
  1

  9
$DIMASO
 70
     1
  9
$DIMSHO
 70
     1
  9
$DIMPOST
  1

  9
$DIMAPOST
  1

  9
$DIMALT
 70
     0
  9
$DIMALTD
 70
     2
  9
$DIMALTF
 40
25.4
  9
$DIMLFAC
 40
1.0
  9
$DIMTOFL
 70
     0
  9
$DIMTVP
 40
0.0
  9
$DIMTIX
 70
     0
  9
$DIMSOXD
 70
     0
  9
$DIMSAH
 70
     0
  9
$DIMBLK1
  1

  9
$DIMBLK2
  1

  9
$DIMSTYLE
  2
Standard
  9
$DIMCLRD
 70
     0
  9
$DIMCLRE
 70
     0
  9
$DIMCLRT
 70
     0
  9
$DIMTFAC
 40
1.0
  9
$DIMGAP
 40
0.09
  9
$DIMJUST
 70
     0
  9
$DIMSD1
 70
     0
  9
$DIMSD2
 70
     0
  9
$DIMTOLJ
 70
     1
  9
$DIMTZIN
 70
     0
  9
$DIMALTZ
 70
     0
  9
$DIMALTTZ
 70
     0
  9
$DIMUPT
 70
     0
  9
$DIMDEC
 70
     4
  9
$DIMTDEC
 70
     4
  9
$DIMALTU
 70
     2
  9
$DIMALTTD
 70
     2
  9
$DIMTXSTY
  7
Standard
  9
$DIMAUNIT
 70
     0
  9
$DIMADEC
 70
     0
  9
$DIMALTRND
 40
0.0
  9
$DIMAZIN
 70
     0
  9
$DIMDSEP
 70
    46
  9
$DIMATFIT
 70
     3
  9
$DIMFRAC
 70
     0
  9
$DIMLDRBLK
  1

  9
$DIMLUNIT
 70
     2
  9
$DIMLWD
 70
    -2
  9
$DIMLWE
 70
    -2
  9
$DIMTMOVE
 70
     0
  9
$DIMFXL
 40
1.0
  9
$DIMFXLON
 70
     0
  9
$DIMJOGANG
 40
0.7853981633974483
  9
$DIMTFILL
 70
     0
  9
$DIMTFILLCLR
 70
     0
  9
$DIMARCSYM
 70
     0
  9
$DIMLTYPE
  6

  9
$DIMLTEX1
  6

  9
$DIMLTEX2
  6

  9
$DIMTXTDIRECTION
 70
     0
  9
$LUNITS
 70
     2
  9
$LUPREC
 70
     4
  9
$SKETCHINC
 40
0.1
  9
$FILLETRAD
 40
0.0
  9
$AUNITS
 70
     0
  9
$AUPREC
 70
     0
  9
$MENU
  1
.
  9
$ELEVATION
 40
0.0
  9
$PELEVATION
 40
0.0
  9
$THICKNESS
 40
0.0
  9
$LIMCHECK
 70
     0
  9
$CHAMFERA
 40
0.0
  9
$CHAMFERB
 40
0.0
  9
$CHAMFERC
 40
0.0
  9
$CHAMFERD
 40
0.0
  9
$SKPOLY
 70
     0
  9
$TDCREATE
 40
2460255.748275463
  9
$TDUCREATE
 40
2460255.748275463
  9
$TDUPDATE
 40
2460255.748275463
  9
$TDUUPDATE
 40
2460255.748275463
  9
$TDINDWG
 40
0.0000000000
  9
$TDUSRTIMER
 40
0.0000000000
  9
$USRTIMER
 70
     1
  9
$ANGBASE
 50
0.0
  9
$ANGDIR
 70
     0
  9
$PDMODE
 70
     0
  9
$PDSIZE
 40
0.0
  9
$PLINEWID
 40
0.0
  9
$SPLFRAME
 70
     0
  9
$SPLINETYPE
 70
     6
  9
$SPLINESEGS
 70
     8
  9
$HANDSEED
  5
305
  9
$SURFTAB1
 70
     6
  9
$SURFTAB2
 70
     6
  9
$SURFTYPE
 70
     6
  9
$SURFU
 70
     6
  9
$SURFV
 70
     6
  9
$UCSBASE
  2

  9
$UCSNAME
  2

  9
$UCSORG
 10
0.0
 20
0.0
 30
0.0
  9
$UCSXDIR
 10
1.0
 20
0.0
 30
0.0
  9
$UCSYDIR
 10
0.0
 20
1.0
 30
0.0
  9
$UCSORTHOREF
  2

  9
$UCSORTHOVIEW
 70
     0
  9
$UCSORGTOP
 10
0.0
 20
0.0
 30
0.0
  9
$UCSORGBOTTOM
 10
0.0
 20
0.0
 30
0.0
  9
$UCSORGLEFT
 10
0.0
 20
0.0
 30
0.0
  9
$UCSORGRIGHT
 10
0.0
 20
0.0
 30
0.0
  9
$UCSORGFRONT
 10
0.0
 20
0.0
 30
0.0
  9
$UCSORGBACK
 10
0.0
 20
0.0
 30
0.0
  9
$PUCSBASE
  2

  9
$PUCSNAME
  2

  9
$PUCSORG
 10
0.0
 20
0.0
 30
0.0
  9
$PUCSXDIR
 10
1.0
 20
0.0
 30
0.0
  9
$PUCSYDIR
 10
0.0
 20
1.0
 30
0.0
  9
$PUCSORTHOREF
  2

  9
$PUCSORTHOVIEW
 70
     0
  9
$PUCSORGTOP
 10
0.0
 20
0.0
 30
0.0
  9
$PUCSORGBOTTOM
 10
0.0
 20
0.0
 30
0.0
  9
$PUCSORGLEFT
 10
0.0
 20
0.0
 30
0.0
  9
$PUCSORGRIGHT
 10
0.0
 20
0.0
 30
0.0
  9
$PUCSORGFRONT
 10
0.0
 20
0.0
 30
0.0
  9
$PUCSORGBACK
 10
0.0
 20
0.0
 30
0.0
  9
$USERI1
 70
     0
  9
$USERI2
 70
     0
  9
$USERI3
 70
     0
  9
$USERI4
 70
     0
  9
$USERI5
 70
     0
  9
$USERR1
 40
0.0
  9
$USERR2
 40
0.0
  9
$USERR3
 40
0.0
  9
$USERR4
 40
0.0
  9
$USERR5
 40
0.0
  9
$WORLDVIEW
 70
     1
  9
$SHADEDGE
 70
     3
  9
$SHADEDIF
 70
    70
  9
$TILEMODE
 70
     1
  9
$MAXACTVP
 70
    64
  9
$PINSBASE
 10
0.0
 20
0.0
 30
0.0
  9
$PLIMCHECK
 70
     0
  9
$PEXTMIN
 10
1.000000000000000E+20
 20
1.000000000000000E+20
 30
1.000000000000000E+20
  9
$PEXTMAX
 10
-1.000000000000000E+20
 20
-1.000000000000000E+20
 30
-1.000000000000000E+20
  9
$PLIMMIN
 10
0.0
 20
0.0
  9
$PLIMMAX
 10
12.0
 20
9.0
  9
$UNITMODE
 70
     0
  9
$VISRETAIN
 70
     1
  9
$PLINEGEN
 70
     0
  9
$PSLTSCALE
 70
     1
  9
$TREEDEPTH
 70
  3020
  9
$CMLSTYLE
  2
Standard
  9
$CMLJUST
 70
     0
  9
$CMLSCALE
 40
1.0
  9
$PROXYGRAPHICS
 70
     1
  9
$MEASUREMENT
 70
     0
  9
$CELWEIGHT
370
    -1
  9
$ENDCAPS
280
     0
  9
$JOINSTYLE
280
     0
  9
$LWDISPLAY
290
     1
  9
$INSUNITS
 70
     4
  9
$HYPERLINKBASE
  1

  9
$STYLESHEET
  1

  9
$XEDIT
290
     1
  9
$CEPSNTYPE
380
     0
  9
$PSTYLEMODE
290
     1
  9
$FINGERPRINTGUID
  2
{ACDFE079-CFA0-4B4A-909A-862F61624F04}
  9
$VERSIONGUID
  2
{9C0B5D68-6BC7-6247-A5E5-9FAE532F2E52}
  9
$EXTNAMES
290
     1
  9
$PSVPSCALE
 40
0.0
  9
$OLESTARTUP
290
     0
  9
$SORTENTS
280
   127
  9
$INDEXCTL
280
     0
  9
$HIDETEXT
280
     1
  9
$XCLIPFRAME
280
     2
  9
$HALOGAP
280
     0
  9
$OBSCOLOR
 70
   257
  9
$OBSLTYPE
280
     0
  9
$INTERSECTIONDISPLAY
280
     0
  9
$INTERSECTIONCOLOR
 70
   257
  9
$DIMASSOC
280
     2
  9
$PROJECTNAME
  1

  9
$CAMERADISPLAY
290
     0
  9
$LENSLENGTH
 40
50.0
  9
$CAMERAHEIGHT
 40
0.0
  9
$STEPSPERSEC
 40
2.0
  9
$STEPSIZE
 40
6.0
  9
$3DDWFPREC
 40
2.0
  9
$PSOLWIDTH
 40
0.25
  9
$PSOLHEIGHT
 40
4.0
  9
$LOFTANG1
 40
1.570796326794896
  9
$LOFTANG2
 40
1.570796326794896
  9
$LOFTMAG1
 40
0.0
  9
$LOFTMAG2
 40
0.0
  9
$LOFTPARAM
 70
     7
  9
$LOFTNORMALS
280
     1
  9
$LATITUDE
 40
37.795
  9
$LONGITUDE
 40
-122.394
  9
$NORTHDIRECTION
 40
0.0
  9
$TIMEZONE
 70
 -8000
  9
$LIGHTGLYPHDISPLAY
280
     1
  9
$TILEMODELIGHTSYNCH
280
     1
  9
$CMATERIAL
347
11
  9
$SOLIDHIST
280
     0
  9
$SHOWHIST
280
     1
  9
$DWFFRAME
280
     2
  9
$DGNFRAME
280
     0
  9
$REALWORLDSCALE
290
     1
  9
$INTERFERECOLOR
 62
     1
  9
$INTERFEREOBJVS
345
33
  9
$INTERFEREVPVS
346
30
  9
$CSHADOW
280
     0
  9
$SHADOWPLANELOCATION
 40
0.0
  0
ENDSEC
  0
SECTION
  2
CLASSES
  0
CLASS
  1
ACDBDICTIONARYWDFLT
  2
AcDbDictionaryWithDefault
  3
ObjectDBX Classes
 90
        0
 91
        1
280
     0
281
     0
  0
CLASS
  1
MATERIAL
  2
AcDbMaterial
  3
ObjectDBX Classes
 90
     1153
 91
        3
280
     0
281
     0
  0
CLASS
  1
VISUALSTYLE
  2
AcDbVisualStyle
  3
ObjectDBX Classes
 90
     4095
 91
       24
280
     0
281
     0
  0
CLASS
  1
SCALE
  2
AcDbScale
  3
ObjectDBX Classes
 90
     1153
 91
       17
280
     0
281
     0
  0
CLASS
  1
TABLESTYLE
  2
AcDbTableStyle
  3
ObjectDBX Classes
 90
     4095
 91
        1
280
     0
281
     0
  0
CLASS
  1
MLEADERSTYLE
  2
AcDbMLeaderStyle
  3
ACDB_MLEADERSTYLE_CLASS
 90
     4095
 91
        1
280
     0
281
     0
  0
CLASS
  1
ACDBSECTIONVIEWSTYLE
  2
AcDbSectionViewStyle
  3
ObjectDBX Classes
 90
     1025
 91
        1
280
     0
281
     0
  0
CLASS
  1
ACDBDETAILVIEWSTYLE
  2
AcDbDetailViewStyle
  3
ObjectDBX Classes
 90
     1025
 91
        1
280
     0
281
     0
  0
CLASS
  1
DICTIONARYVAR
  2
AcDbDictionaryVar
  3
ObjectDBX Classes
 90
        0
 91
        5
280
     0
281
     0
  0
CLASS
  1
CELLSTYLEMAP
  2
AcDbCellStyleMap
  3
ObjectDBX Classes
 90
     1152
 91
        1
280
     0
281
     0
  0
ENDSEC
  0
SECTION
  2
TABLES
  0
TABLE
  2
VPORT
  5
8
330
0
100
AcDbSymbolTable
 70
     1
  0
VPORT
  5
57
330
8
100
AcDbSymbolTableRecord
100
AcDbViewportTableRecord
  2
*Active
 70
     0
 10
0.0
 20
0.0
 11
1.0
 21
1.0
 12
0.0
 22
0.0
 13
0.0
 23
0.0
 14
1.0
 24
1.0
 15
0.0
 25
0.0
 16
0.0
 26
0.0
 36
1.0
 17
49.99999998749986
 27
-49.99999998749986
 37
0.0
 40
101.9999999744997
 41
1.0
 42
50.0
 43
0.0
 44
0.0
 50
0.0
 51
0.0
 71
     0
 72
   100
 73
     1
 74
     1
 75
     0
 76
     0
 77
     0
 78
     0
281
     0
 65
     1
110
0.0
120
0.0
130
0.0
111
1.0
121
0.0
131
0.0
112
0.0
122
1.0
132
0.0
 79
     0
146
0.0
 60
     3
 61
     5
292
     1
282
     1
141
0.0
142
0.0
 63
   250
421
  3355443
  0
ENDTAB
  0
TABLE
  2
LTYPE
  5
5
330
0
100
AcDbSymbolTable
 70
     9
  0
LTYPE
  5
5B
330
5
100
AcDbSymbolTableRecord
100
AcDbLinetypeTableRecord
  2
ByBlock
 70
     0
  3

 72
    65
 73
     0
 40
0.0
  0
LTYPE
  5
5C
330
5
100
AcDbSymbolTableRecord
100
AcDbLinetypeTableRecord
  2
ByLayer
 70
     0
  3

 72
    65
 73
     0
 40
0.0
  0
LTYPE
  5
5D
330
5
100
AcDbSymbolTableRecord
100
AcDbLinetypeTableRecord
  2
Continuous
 70
     0
  3
Solid line
 72
    65
 73
     0
 40
0.0
  0
LTYPE
  5
24D
330
5
100
AcDbSymbolTableRecord
100
AcDbLinetypeTableRecord
  2
AI-Linetype-0
 70
     0
  3
Adobe Illustrator Linetype No. 0
 72
    65
 73
     2
 40
0.4198055546095164
 49
0.2469444401772695
 74
     0
 49
-0.1728611144322469
 74
     0
  0
LTYPE
  5
24F
330
5
100
AcDbSymbolTableRecord
100
AcDbLinetypeTableRecord
  2
AI-Linetype-1
 70
     0
  3
Adobe Illustrator Linetype No. 1
 72
    65
 73
     2
 40
0.4198055546095164
 49
0.2469444401772695
 74
     0
 49
-0.1728611144322469
 74
     0
  0
LTYPE
  5
251
330
5
100
AcDbSymbolTableRecord
100
AcDbLinetypeTableRecord
  2
AI-Linetype-2
 70
     0
  3
Adobe Illustrator Linetype No. 2
 72
    65
 73
     2
 40
0.4198055546095164
 49
0.2469444401772695
 74
     0
 49
-0.1728611144322469
 74
     0
  0
LTYPE
  5
253
330
5
100
AcDbSymbolTableRecord
100
AcDbLinetypeTableRecord
  2
AI-Linetype-3
 70
     0
  3
Adobe Illustrator Linetype No. 3
 72
    65
 73
     2
 40
0.4198055546095164
 49
0.2469444401772695
 74
     0
 49
-0.1728611144322469
 74
     0
  0
LTYPE
  5
255
330
5
100
AcDbSymbolTableRecord
100
AcDbLinetypeTableRecord
  2
AI-Linetype-4
 70
     0
  3
Adobe Illustrator Linetype No. 4
 72
    65
 73
     2
 40
1.234722200886347
 49
0.9877777607090781
 74
     0
 49
-0.2469444401772695
 74
     0
  0
LTYPE
  5
257
330
5
100
AcDbSymbolTableRecord
100
AcDbLinetypeTableRecord
  2
AI-Linetype-5
 70
     0
  3
Adobe Illustrator Linetype No. 5
 72
    65
 73
     2
 40
1.234722200886347
 49
0.9877777607090781
 74
     0
 49
-0.2469444401772695
 74
     0
  0
LTYPE
  5
259
330
5
100
AcDbSymbolTableRecord
100
AcDbLinetypeTableRecord
  2
AI-Linetype-6
 70
     0
  3
Adobe Illustrator Linetype No. 6
 72
    65
 73
     2
 40
0.9877777817362721
 49
0.6914444577289876
 74
     0
 49
-0.2963333240072847
 74
     0
  0
LTYPE
  5
25B
330
5
100
AcDbSymbolTableRecord
100
AcDbLinetypeTableRecord
  2
AI-Linetype-7
 70
     0
  3
Adobe Illustrator Linetype No. 7
 72
    65
 73
     2
 40
0.9877777817362721
 49
0.6914444577289876
 74
     0
 49
-0.2963333240072847
 74
     0
  0
ENDTAB
  0
TABLE
  2
LAYER
  5
2
330
0
100
AcDbSymbolTable
 70
     2
  0
LAYER
  5
54
330
2
100
AcDbSymbolTableRecord
100
AcDbLayerTableRecord
  2
0
 70
     0
 62
     7
  6
Continuous
370
    -3
390
F
347
21
348
0
  0
LAYER
  5
78
330
2
100
AcDbSymbolTableRecord
100
AcDbLayerTableRecord
  2
Camada 1
 70
     0
 62
     7
  6
Continuous
370
     0
390
F
347
21
348
0
  0
ENDTAB
  0
TABLE
  2
STYLE
  5
3
330
0
100
AcDbSymbolTable
 70
     2
  0
STYLE
  5
55
330
3
100
AcDbSymbolTableRecord
100
AcDbTextStyleTableRecord
  2
Standard
 70
     0
 40
0.0
 41
1.0
 50
0.0
 71
     0
 42
0.2
  3
txt
  4

  0
STYLE
  5
5A
330
3
100
AcDbSymbolTableRecord
100
AcDbTextStyleTableRecord
  2
Annotative
 70
     0
 40
0.0
 41
1.0
 50
0.0
 71
     0
 42
0.2
  3
txt
  4

1001
AcadAnnotative
1000
AnnotativeData
1002
{
1070
     1
1070
     1
1002
}
  0
ENDTAB
  0
TABLE
  2
VIEW
  5
6
330
0
100
AcDbSymbolTable
 70
     0
  0
ENDTAB
  0
TABLE
  2
UCS
  5
7
330
0
100
AcDbSymbolTable
 70
     0
  0
ENDTAB
  0
TABLE
  2
APPID
  5
9
330
0
100
AcDbSymbolTable
 70
     2
  0
APPID
  5
56
330
9
100
AcDbSymbolTableRecord
100
AcDbRegAppTableRecord
  2
ACAD
 70
     0
  0
APPID
  5
5E
330
9
100
AcDbSymbolTableRecord
100
AcDbRegAppTableRecord
  2
AcadAnnotative
 70
     0
  0
ENDTAB
  0
TABLE
  2
DIMSTYLE
  5
A
330
0
100
AcDbSymbolTable
 70
     2
100
AcDbDimStyleTable
 71
     0
  0
DIMSTYLE
105
58
330
A
100
AcDbSymbolTableRecord
100
AcDbDimStyleTableRecord
  2
Standard
 70
     0
340
55
  0
DIMSTYLE
105
59
330
A
100
AcDbSymbolTableRecord
100
AcDbDimStyleTableRecord
  2
Annotative
 70
     0
340
55
1001
AcadAnnotative
1000
AnnotativeData
1002
{
1070
     1
1070
     1
1002
}
  0
ENDTAB
  0
TABLE
  2
BLOCK_RECORD
  5
1
330
0
100
AcDbSymbolTable
 70
     5
  0
BLOCK_RECORD
  5
70
330
1
100
AcDbSymbolTableRecord
100
AcDbBlockTableRecord
  2
*Model_Space
340
73
 70
     0
280
     1
281
     0
  0
BLOCK_RECORD
  5
6C
330
1
100
AcDbSymbolTableRecord
100
AcDbBlockTableRecord
  2
*Paper_Space
340
6F
 70
     0
280
     1
281
     0
  0
BLOCK_RECORD
  5
74
330
1
100
AcDbSymbolTableRecord
100
AcDbBlockTableRecord
  2
*Paper_Space0
340
77
 70
     0
280
     1
281
     0
  0
BLOCK_RECORD
  5
79
330
1
100
AcDbSymbolTableRecord
100
AcDbBlockTableRecord
  2
Block_0
340
0
102
{BLKREFS
331
7A
102
}
 70
     0
280
     1
281
     0
  0
BLOCK_RECORD
  5
7F
330
1
100
AcDbSymbolTableRecord
100
AcDbBlockTableRecord
  2
Block_1
340
0
102
{BLKREFS
331
80
102
}
 70
     0
280
     1
281
     0
  0
BLOCK_RECORD
  5
A7
330
1
100
AcDbSymbolTableRecord
100
AcDbBlockTableRecord
  2
Block_2
340
0
102
{BLKREFS
331
A8
102
}
 70
     0
280
     1
281
     0
  0
BLOCK_RECORD
  5
25C
330
1
100
AcDbSymbolTableRecord
100
AcDbBlockTableRecord
  2
Block_3
340
0
102
{BLKREFS
331
25D
102
}
 70
     0
280
     1
281
     0
  0
ENDTAB
  0
ENDSEC
  0
SECTION
  2
BLOCKS
  0
BLOCK
  5
71
330
70
100
AcDbEntity
  8
0
100
AcDbBlockBegin
  2
*Model_Space
 70
     0
 10
0.0
 20
0.0
 30
0.0
  3
*Model_Space
  1

  0
ENDBLK
  5
72
330
70
100
AcDbEntity
  8
0
100
AcDbBlockEnd
  0
BLOCK
  5
6D
330
6C
100
AcDbEntity
 67
     1
  8
0
100
AcDbBlockBegin
  2
*Paper_Space
 70
     0
 10
0.0
 20
0.0
 30
0.0
  3
*Paper_Space
  1

  0
ENDBLK
  5
6E
330
6C
100
AcDbEntity
 67
     1
  8
0
100
AcDbBlockEnd
  0
BLOCK
  5
75
330
74
100
AcDbEntity
 67
     1
  8
0
100
AcDbBlockBegin
  2
*Paper_Space0
 70
     0
 10
0.0
 20
0.0
 30
0.0
  3
*Paper_Space0
  1

  0
ENDBLK
  5
76
330
74
100
AcDbEntity
 67
     1
  8
0
100
AcDbBlockEnd
  0
BLOCK
  5
7B
330
79
100
AcDbEntity
  8
0
100
AcDbBlockBegin
  2
Block_0
 70
     0
 10
0.0
 20
0.0
 30
0.0
  3
Block_0
  1

  0
LINE
  5
7D
330
79
100
AcDbEntity
  8
Camada 1
 62
    18
420
        0
370
    15
100
AcDbLine
 10
79.91713697127804
 20
-77.44691723623347
 30
0.0
 11
11.97284331144188
 21
-77.44691723623347
 31
0.0
  0
LINE
  5
7E
330
79
100
AcDbEntity
  8
Camada 1
 62
    18
420
        0
370
    15
100
AcDbLine
 10
79.91713697127804
 20
-77.44691723623347
 30
0.0
 11
79.91713697127804
 21
-55.15488022099235
 31
0.0
  0
INSERT
  5
80
330
79
100
AcDbEntity
  8
Camada 1
100
AcDbBlockReference
  2
Block_1
 10
0.0
 20
0.0
 30
0.0
  0
INSERT
  5
A8
330
79
100
AcDbEntity
  8
Camada 1
100
AcDbBlockReference
  2
Block_2
 10
0.0
 20
0.0
 30
0.0
  0
INSERT
  5
25D
330
79
100
AcDbEntity
  8
Camada 1
100
AcDbBlockReference
  2
Block_3
 10
0.0
 20
0.0
 30
0.0
  0
ENDBLK
  5
7C
330
79
100
AcDbEntity
  8
0
100
AcDbBlockEnd
  0
BLOCK
  5
81
330
7F
100
AcDbEntity
  8
0
100
AcDbBlockBegin
  2
Block_1
 70
     0
 10
0.0
 20
0.0
 30
0.0
  3
Block_1
  1

  0
LINE
  5
83
330
7F
100
AcDbEntity
  8
Camada 1
 62
    18
420
        0
370
    15
100
AcDbLine
 10
79.85861461356434
 20
-42.11808784491528
 30
0.0
 11
79.85861461356434
 21
-30.18340638571586
 31
0.0
  0
SPLINE
  5
84
330
7F
100
AcDbEntity
  8
Camada 1
 62
    18
420
        0
370
    15
100
AcDbSpline
210
0.0
220
0.0
230
1.0
 70
     8
 71
     3
 72
     8
 73
     4
 74
     0
 42
0.0000000001
 43
0.0000000001
 40
0.0
 40
0.0
 40
0.0
 40
0.0
 40
1.0
 40
1.0
 40
1.0
 40
1.0
 10
65.46361359334835
 20
-37.23917157000447
 30
0.0
 10
65.46383732709076
 20
-36.51336882209342
 30
0.0
 10
65.46269069166064
 20
-35.78756957002204
 30
0.0
 10
65.46017368705864
 20
-35.06200104337276
 30
0.0
  0
SPLINE
  5
85
330
7F
100
AcDbEntity
  8
Camada 1
 62
    18
420
        0
370
    15
100
AcDbSpline
210
0.0
220
0.0
230
1.0
 70
     8
 71
     3
 72
     8
 73
     4
 74
     0
 42
0.0000000001
 43
0.0000000001
 40
0.0
 40
0.0
 40
0.0
 40
0.0
 40
1.0
 40
1.0
 40
1.0
 40
1.0
 10
67.58444866280843
 20
-41.94669731070764
 30
0.0
 10
68.08664002269487
 20
-41.94715526571053
 30
0.0
 10
68.5888313825826
 20
-41.94005171938935
 30
0.0
 10
69.09102973414904
 20
-41.92470148715591
 30
0.0
  0
SPLINE
  5
86
330
7F
100
AcDbEntity
  8
Camada 1
 62
    18
420
        0
370
    15
100
AcDbSpline
210
0.0
220
0.0
230
1.0
 70
     8
 71
     3
 72
     8
 73
     4
 74
     0
 42
0.0000000001
 43
0.0000000001
 40
0.0
 40
0.0
 40
0.0
 40
0.0
 40
1.0
 40
1.0
 40
1.0
 40
1.0
 10
71.93007608276272
 20
-32.96025325881196
 30
0.0
 10
71.74816856753468
 20
-31.51781735058917
 30
0.0
 10
70.54422933288609
 20
-30.4220149261606
 30
0.0
 10
69.09079900872729
 20
-30.37642568030382
 30
0.0
  0
SPLINE
  5
87
330
7F
100
AcDbEntity
  8
Camada 1
 62
    18
420
        0
370
    15
100
AcDbSpline
210
0.0
220
0.0
230
1.0
 70
     9
 71
     3
 72
    17
 73
    13
 74
     0
 42
0.0000000001
 43
0.0000000001
 40
0.0
 40
0.0
 40
0.0
 40
0.0
 40
1.0
 40
1.0
 40
1.0
 40
2.0
 40
2.0
 40
2.0
 40
3.0
 40
3.0
 40
3.0
 40
4.0
 40
4.0
 40
4.0
 40
4.0
 10
75.63082995003298
 20
-32.62743533361219
 30
0.0
 10
75.81915083603057
 20
-32.62743533361219
 30
0.0
 10
75.9717302566779
 20
-32.78001475425888
 30
0.0
 10
75.9717302566779
 20
-32.96833913609678
 30
0.0
 10
75.9717302566779
 20
-33.15666351793404
 30
0.0
 10
75.81915083603057
 20
-33.30924643442106
 30
0.0
 10
75.63082995003298
 20
-33.30924643442106
 30
0.0
 10
75.44250207235605
 20
-33.30924643442106
 30
0.0
 10
75.28992265170872
 20
-33.15666351793404
 30
0.0
 10
75.28992265170872
 20
-32.96833913609678
 30
0.0
 10
75.28992265170872
 20
-32.78001475425888
 30
0.0
 10
75.44250207235605
 20
-32.62743533361219
 30
0.0
 10
75.63082995003298
 20
-32.62743533361219
 30
0.0
  0
SPLINE
  5
88
330
7F
100
AcDbEntity
  8
Camada 1
 62
    18
420
        0
370
    15
100
AcDbSpline
210
0.0
220
0.0
230
1.0
 70
     8
 71
     3
 72
     8
 73
     4
 74
     0
 42
0.0000000001
 43
0.0000000001
 40
0.0
 40
0.0
 40
0.0
 40
0.0
 40
1.0
 40
1.0
 40
1.0
 40
1.0
 10
79.85861461356434
 20
-30.18306379342289
 30
0.0
 10
79.85861461356434
 20
-30.08752598957221
 30
0.0
 10
79.78460768658057
 20
-30.00825782380237
 30
0.0
 10
79.68930410399263
 20
-30.00161223248504
 30
0.0
  0
SPLINE
  5
89
330
7F
100
AcDbEntity
  8
Camada 1
 62
    18
420
        0
370
    15
100
AcDbSpline
210
0.0
220
0.0
230
1.0
 70
     8
 71
     3
 72
     8
 73
     4
 74
     0
 42
0.0000000001
 43
0.0000000001
 40
0.0
 40
0.0
 40
0.0
 40
0.0
 40
1.0
 40
1.0
 40
1.0
 40
1.0
 10
70.5017548802251
 20
-37.69746916630184
 30
0.0
 10
70.55192717196075
 20
-36.66673131083851
 30
0.0
 10
70.55192717196075
 20
-35.63416163535977
 30
0.0
 10
70.5017548802251
 20
-34.60365450531885
 30
0.0
  0
SPLINE
  5
8A
330
7F
100
AcDbEntity
  8
Camada 1
 62
    18
420
        0
370
    15
100
AcDbSpline
210
0.0
220
0.0
230
1.0
 70
     8
 71
     3
 72
     8
 73
     4
 74
     0
 42
0.0000000001
 43
0.0000000001
 40
0.0
 40
0.0
 40
0.0
 40
0.0
 40
1.0
 40
1.0
 40
1.0
 40
1.0
 10
71.93007608276272
 20
-39.34091935456432
 30
0.0
 10
72.1972091802393
 20
-37.22239853100261
 30
0.0
 10
72.1972091802393
 20
-35.07867969470154
 30
0.0
 10
71.93007608276272
 20
-32.96015887113982
 30
0.0
  0
SPLINE
  5
8B
330
7F
100
AcDbEntity
  8
Camada 1
 62
    18
420
        0
370
    15
100
AcDbSpline
210
0.0
220
0.0
230
1.0
 70
     8
 71
     3
 72
     8
 73
     4
 74
     0
 42
0.0000000001
 43
0.0000000001
 40
0.0
 40
0.0
 40
0.0
 40
0.0
 40
1.0
 40
1.0
 40
1.0
 40
1.0
 10
69.09091786727849
 20
-41.92470148715591
 30
0.0
 10
70.54411746601488
 20
-41.87910874545944
 30
0.0
 10
71.74828742608653
 20
-40.78330632103087
 30
0.0
 10
71.93018995034822
 20
-39.34087390864778
 30
0.0
  0
SPLINE
  5
8C
330
7F
100
AcDbEntity
  8
Camada 1
 62
    18
420
        0
370
    15
100
AcDbSpline
210
0.0
220
0.0
230
1.0
 70
     9
 71
     3
 72
    17
 73
    13
 74
     0
 42
0.0000000001
 43
0.0000000001
 40
0.0
 40
0.0
 40
0.0
 40
0.0
 40
1.0
 40
1.0
 40
1.0
 40
2.0
 40
2.0
 40
2.0
 40
3.0
 40
3.0
 40
3.0
 40
4.0
 40
4.0
 40
4.0
 40
4.0
 10
75.63082995003298
 20
-38.99181081624497
 30
0.0
 10
75.81915083603057
 20
-38.99181081624497
 30
0.0
 10
75.9717302566779
 20
-39.14439023689167
 30
0.0
 10
75.9717302566779
 20
-39.33271461872892
 30
0.0
 10
75.9717302566779
 20
-39.52103900056683
 30
0.0
 10
75.81915083603057
 20
-39.67362191705385
 30
0.0
 10
75.63082995003298
 20
-39.67362191705385
 30
0.0
 10
75.44250207235605
 20
-39.67362191705385
 30
0.0
 10
75.28992265170872
 20
-39.52103900056683
 30
0.0
 10
75.28992265170872
 20
-39.33271461872892
 30
0.0
 10
75.28992265170872
 20
-39.14439023689167
 30
0.0
 10
75.44250207235605
 20
-38.99181081624497
 30
0.0
 10
75.63082995003298
 20
-38.99181081624497
 30
0.0
  0
SPLINE
  5
8D
330
7F
100
AcDbEntity
  8
Camada 1
 62
    18
420
        0
370
    15
100
AcDbSpline
210
0.0
220
0.0
230
1.0
 70
     8
 71
     3
 72
     8
 73
     4
 74
     0
 42
0.0000000001
 43
0.0000000001
 40
0.0
 40
0.0
 40
0.0
 40
0.0
 40
1.0
 40
1.0
 40
1.0
 40
1.0
 10
79.6894439375813
 20
-42.29949046409688
 30
0.0
 10
79.78474752017053
 20
-42.29284487277892
 30
0.0
 10
79.85851673005187
 20
-42.21357670700972
 30
0.0
 10
79.85851673005187
 20
-42.11803890316001
 30
0.0
  0
SPLINE
  5
8E
330
7F
100
AcDbEntity
  8
Camada 1
 62
    18
420
        0
370
    15
100
AcDbSpline
210
0.0
220
0.0
230
1.0
 70
     8
 71
     3
 72
     8
 73
     4
 74
     0
 42
0.0000000001
 43
0.0000000001
 40
0.0
 40
0.0
 40
0.0
 40
0.0
 40
1.0
 40
1.0
 40
1.0
 40
1.0
 10
69.09091786727849
 20
-30.37642568030382
 30
0.0
 10
68.5889502411338
 20
-30.3613026776531
 30
0.0
 10
68.08675188956671
 20
-30.35397190174919
 30
0.0
 10
67.58432980425721
 20
-30.35442985675305
 30
0.0
  0
SPLINE
  5
8F
330
7F
100
AcDbEntity
  8
Camada 1
 62
    18
420
        0
370
    15
100
AcDbSpline
210
0.0
220
0.0
230
1.0
 70
     8
 71
     3
 72
    47
 73
    43
 74
     0
 42
0.0000000001
 43
0.0000000001
 40
0.0
 40
0.0
 40
0.0
 40
0.0
 40
1.0
 40
1.0
 40
1.0
 40
2.0
 40
2.0
 40
2.0
 40
3.0
 40
3.0
 40
3.0
 40
4.0
 40
4.0
 40
4.0
 40
5.0
 40
5.0
 40
5.0
 40
6.0
 40
6.0
 40
6.0
 40
7.0
 40
7.0
 40
7.0
 40
8.0
 40
8.0
 40
8.0
 40
9.0
 40
9.0
 40
9.0
 40
10.0
 40
10.0
 40
10.0
 40
11.0
 40
11.0
 40
11.0
 40
12.0
 40
12.0
 40
12.0
 40
13.0
 40
13.0
 40
13.0
 40
14.0
 40
14.0
 40
14.0
 40
14.0
 10
67.58444866280843
 20
-30.35445432763085
 30
0.0
 10
66.99588209499063
 20
-30.35445432763085
 30
0.0
 10
66.40731552717219
 20
-30.36018051310078
 30
0.0
 10
65.81897269309679
 20
-30.37438410990475
 30
0.0
 10
65.230406125279
 20
-30.38858770670807
 30
0.0
 10
64.6423010083041
 20
-30.41104148526333
 30
0.0
 10
64.05464854873081
 20
-30.44632149977068
 30
0.0
 10
63.46699969268457
 20
-30.48160501011706
 30
0.0
 10
62.88026494488283
 20
-30.52948752683344
 30
0.0
 10
62.29559274251828
 20
-30.59867718667498
 30
0.0
 10
62.00348736675842
 20
-30.63327201659574
 30
0.0
 10
61.71183645016271
 20
-30.67313507698258
 30
0.0
 10
61.42133916067586
 20
-30.72079036411688
 30
0.0
 10
61.13083487951028
 20
-30.76821492582876
 30
0.0
 10
60.84170795919659
 20
-30.82319749302728
 30
0.0
 10
60.55486731806119
 20
-30.88895074241943
 30
0.0
 10
60.26802667692837
 20
-30.95493122139301
 30
0.0
 10
59.98348629833259
 20
-31.03145165713844
 30
0.0
 10
59.7039799289427
 20
-31.12378028012118
 30
0.0
 10
59.42469729329459
 20
-31.21588167352183
 30
0.0
 10
59.15023192478808
 20
-31.32332980331623
 30
0.0
 10
58.88859628807332
 20
-31.45987730298387
 30
0.0
 10
58.62742210220083
 20
-31.59596335180669
 30
0.0
 10
58.3788469226996
 20
-31.76091804508162
 30
0.0
 10
58.16944612315896
 20
-31.96642447916838
 30
0.0
 10
58.06451499796655
 20
-32.06952028850504
 30
0.0
 10
57.9692044236986
 20
-32.18292532919115
 30
0.0
 10
57.88558393747038
 20
-32.30366464162086
 30
0.0
 10
57.80173272582168
 20
-32.42485841321537
 30
0.0
 10
57.72933388511221
 20
-32.55338645655284
 30
0.0
 10
57.66587740241934
 20
-32.68626682034804
 30
0.0
 10
57.53941190451971
 20
-32.95156959293459
 30
0.0
 10
57.44914233113512
 20
-33.23382369234951
 30
0.0
 10
57.37926748670766
 20
-33.51974492763559
 30
0.0
 10
57.30961637602194
 20
-33.80612411792551
 30
0.0
 10
57.26059071971513
 20
-34.09662839909174
 30
0.0
 10
57.22461852894312
 20
-34.38850304943048
 30
0.0
 10
57.1881918790063
 20
-34.68038119560826
 30
0.0
 10
57.16505641170478
 20
-34.9740911618021
 30
0.0
 10
57.15016413447584
 20
-35.26803185341834
 30
0.0
 10
57.13527185724625
 20
-35.56197254503395
 30
0.0
 10
57.12862976176796
 20
-35.85637119165406
 30
0.0
 10
57.12862976176796
 20
-36.15053911285175
 30
0.0
  0
SPLINE
  5
90
330
7F
100
AcDbEntity
  8
Camada 1
 62
    18
420
        0
370
    15
100
AcDbSpline
210
0.0
220
0.0
230
1.0
 70
     8
 71
     3
 72
    47
 73
    43
 74
     0
 42
0.0000000001
 43
0.0000000001
 40
0.0
 40
0.0
 40
0.0
 40
0.0
 40
1.0
 40
1.0
 40
1.0
 40
2.0
 40
2.0
 40
2.0
 40
3.0
 40
3.0
 40
3.0
 40
4.0
 40
4.0
 40
4.0
 40
5.0
 40
5.0
 40
5.0
 40
6.0
 40
6.0
 40
6.0
 40
7.0
 40
7.0
 40
7.0
 40
8.0
 40
8.0
 40
8.0
 40
9.0
 40
9.0
 40
9.0
 40
10.0
 40
10.0
 40
10.0
 40
11.0
 40
11.0
 40
11.0
 40
12.0
 40
12.0
 40
12.0
 40
13.0
 40
13.0
 40
13.0
 40
14.0
 40
14.0
 40
14.0
 40
14.0
 10
57.12867171184482
 20
-36.15056358373018
 30
0.0
 10
57.12867171184482
 20
-36.44495873451093
 30
0.0
 10
57.13531380732247
 20
-36.7391266557083
 30
0.0
 10
57.15020608455205
 20
-37.03306734732455
 30
0.0
 10
57.16509836178165
 20
-37.3270080389408
 30
0.0
 10
57.18823382908316
 20
-37.62071800513399
 30
0.0
 10
57.22466047901998
 20
-37.91282338089386
 30
0.0
 10
57.26063266979263
 20
-38.20470152707228
 30
0.0
 10
57.30965832609944
 20
-38.49497508281673
 30
0.0
 10
57.37930943678451
 20
-38.78158499852843
 30
0.0
 10
57.44895355579021
 20
-39.06750623381451
 30
0.0
 10
57.53945385459656
 20
-39.34953310364735
 30
0.0
 10
57.66591236081684
 20
-39.61483238039421
 30
0.0
 10
57.72937583518971
 20
-39.74771274419037
 30
0.0
 10
57.80177467589791
 20
-39.87624078752752
 30
0.0
 10
57.88562588754725
 20
-39.99720732953931
 30
0.0
 10
57.96924637377482
 20
-40.1181738715511
 30
0.0
 10
58.06455694804341
 20
-40.2315789122372
 30
0.0
 10
58.1692573478147
 20
-40.33444749199243
 30
0.0
 10
58.37865814735469
 20
-40.54018115566063
 30
0.0
 10
58.62746405227769
 20
-40.70513584893556
 30
0.0
 10
58.88863823814954
 20
-40.8412253935987
 30
0.0
 10
59.15027387486429
 20
-40.97776939742634
 30
0.0
 10
59.42473924337082
 20
-41.08544825264219
 30
0.0
 10
59.70402187901957
 20
-41.17731892062106
 30
0.0
 10
59.98352824841008
 20
-41.2696475436038
 30
0.0
 10
60.26806862700523
 20
-41.34639870477037
 30
0.0
 10
60.5549092681387
 20
-41.41214845832347
 30
0.0
 10
60.8417499092728
 20
-41.47790170771496
 30
0.0
 10
61.13087682958649
 20
-41.53288777075316
 30
0.0
 10
61.42138111075272
 20
-41.58053956204714
 30
0.0
 10
61.71187840023957
 20
-41.62796412375967
 30
0.0
 10
62.00352931683527
 20
-41.66783067998619
 30
0.0
 10
62.29563469259513
 20
-41.70242201406727
 30
0.0
 10
62.88007616953792
 20
-41.7716116739088
 30
0.0
 10
63.46704164276143
 20
-41.81949419062518
 30
0.0
 10
64.05469230057088
 20
-41.85477770097221
 30
0.0
 10
64.64234295838096
 20
-41.89005771547892
 30
0.0
 10
65.23044807535523
 20
-41.91251149403417
 30
0.0
 10
65.81901464317366
 20
-41.92671509083782
 30
0.0
 10
66.40735747724905
 20
-41.94091868764114
 30
0.0
 10
66.99592404506685
 20
-41.94664836895045
 30
0.0
 10
67.58449061288529
 20
-41.94664836895045
 30
0.0
  0
LINE
  5
91
330
7F
100
AcDbEntity
  8
Camada 1
 62
    18
420
        0
370
    15
100
AcDbLine
 10
79.6894439375813
 20
-30.00165767840158
 30
0.0
 11
77.73541635645035
 21
-29.86511017873394
 31
0.0
  0
LINE
  5
92
330
7F
100
AcDbEntity
  8
Camada 1
 62
    18
420
        0
370
    15
100
AcDbLine
 10
77.73541635645035
 20
-42.43612885559698
 30
0.0
 11
79.68943694590194
 21
-42.29958135592998
 31
0.0
  0
SPLINE
  5
93
330
7F
100
AcDbEntity
  8
Camada 1
 62
    18
420
        0
370
    15
100
AcDbSpline
210
0.0
220
0.0
230
1.0
 70
     8
 71
     3
 72
     8
 73
     4
 74
     0
 42
0.0000000001
 43
0.0000000001
 40
0.0
 40
0.0
 40
0.0
 40
0.0
 40
1.0
 40
1.0
 40
1.0
 40
1.0
 10
67.15130013749417
 20
-44.21864354812909
 30
0.0
 10
67.29562937639021
 20
-44.21932873271567
 30
0.0
 10
67.44019633238609
 20
-44.21978668771953
 30
0.0
 10
67.58453256296149
 20
-44.21978668771953
 30
0.0
  0
SPLINE
  5
94
330
7F
100
AcDbEntity
  8
Camada 1
 62
    18
420
        0
370
    15
100
AcDbSpline
210
0.0
220
0.0
230
1.0
 70
     8
 71
     3
 72
     8
 73
     4
 74
     0
 42
0.0000000001
 43
0.0000000001
 40
0.0
 40
0.0
 40
0.0
 40
0.0
 40
1.0
 40
1.0
 40
1.0
 40
1.0
 10
67.58444866280843
 20
-44.21969929172613
 30
0.0
 10
67.73611217344741
 20
-44.21969929172613
 30
0.0
 10
67.88777568408704
 20
-44.2190106113005
 30
0.0
 10
68.03967691182652
 20
-44.21786397587103
 30
0.0
  0
SPLINE
  5
95
330
7F
100
AcDbEntity
  8
Camada 1
 62
    18
420
        0
370
    15
100
AcDbSpline
210
0.0
220
0.0
230
1.0
 70
     8
 71
     3
 72
     8
 73
     4
 74
     0
 42
0.0000000001
 43
0.0000000001
 40
0.0
 40
0.0
 40
0.0
 40
0.0
 40
1.0
 40
1.0
 40
1.0
 40
1.0
 10
75.05871480396158
 20
-29.14877766063897
 30
0.0
 10
74.96661341056157
 20
-29.10410082895021
 30
0.0
 10
74.87359610715256
 20
-29.06148654269991
 30
0.0
 10
74.7794321683141
 20
-29.02116552730921
 30
0.0
  0
SPLINE
  5
96
330
7F
100
AcDbEntity
  8
Camada 1
 62
    18
420
        0
370
    15
100
AcDbSpline
210
0.0
220
0.0
230
1.0
 70
     8
 71
     3
 72
     8
 73
     4
 74
     0
 42
0.0000000001
 43
0.0000000001
 40
0.0
 40
0.0
 40
0.0
 40
0.0
 40
1.0
 40
1.0
 40
1.0
 40
1.0
 10
54.85796300168496
 20
-35.82833106121817
 30
0.0
 10
54.85635491541195
 20
-35.93577919101258
 30
0.0
 10
54.85566973082601
 20
-36.04300009122426
 30
0.0
 10
54.85566973082601
 20
-36.15044822101931
 30
0.0
  0
SPLINE
  5
97
330
7F
100
AcDbEntity
  8
Camada 1
 62
    18
420
        0
370
    15
100
AcDbSpline
210
0.0
220
0.0
230
1.0
 70
     8
 71
     3
 72
     8
 73
     4
 74
     0
 42
0.0000000001
 43
0.0000000001
 40
0.0
 40
0.0
 40
0.0
 40
0.0
 40
1.0
 40
1.0
 40
1.0
 40
1.0
 10
75.05871480396158
 20
-29.14877766063897
 30
0.0
 10
75.89677246128958
 20
-29.55680857752663
 30
0.0
 10
76.80539713931165
 20
-29.80011552656305
 30
0.0
 10
77.73532546461725
 20
-29.8649528659462
 30
0.0
  0
SPLINE
  5
98
330
7F
100
AcDbEntity
  8
Camada 1
 62
    18
420
        0
370
    15
100
AcDbSpline
210
0.0
220
0.0
230
1.0
 70
     8
 71
     3
 72
     8
 73
     4
 74
     0
 42
0.0000000001
 43
0.0000000001
 40
0.0
 40
0.0
 40
0.0
 40
0.0
 40
1.0
 40
1.0
 40
1.0
 40
1.0
 10
74.77957200190214
 20
-43.27987074831806
 30
0.0
 10
74.87372894906188
 20
-43.23954623708703
 30
0.0
 10
74.96674625247152
 20
-43.19716267625915
 30
0.0
 10
75.05884764587152
 20
-43.1522586149883
 30
0.0
  0
SPLINE
  5
99
330
7F
100
AcDbEntity
  8
Camada 1
 62
    18
420
        0
370
    15
100
AcDbSpline
210
0.0
220
0.0
230
1.0
 70
     8
 71
     3
 72
     8
 73
     4
 74
     0
 42
0.0000000001
 43
0.0000000001
 40
0.0
 40
0.0
 40
0.0
 40
0.0
 40
1.0
 40
1.0
 40
1.0
 40
1.0
 10
54.85566973082601
 20
-36.15056358373018
 30
0.0
 10
54.85566973082601
 20
-36.25801171352395
 30
0.0
 10
54.85635491541195
 20
-36.36545984331899
 30
0.0
 10
54.8579560100056
 20
-36.47268074353132
 30
0.0
  0
SPLINE
  5
9A
330
7F
100
AcDbEntity
  8
Camada 1
 62
    18
420
        0
370
    15
100
AcDbSpline
210
0.0
220
0.0
230
1.0
 70
     8
 71
     3
 72
     8
 73
     4
 74
     0
 42
0.0000000001
 43
0.0000000001
 40
0.0
 40
0.0
 40
0.0
 40
0.0
 40
1.0
 40
1.0
 40
1.0
 40
1.0
 10
77.73541635645035
 20
-42.43612885559698
 30
0.0
 10
76.80548103946408
 20
-42.50096269914108
 30
0.0
 10
75.89663262770089
 20
-42.74426964817687
 30
0.0
 10
75.05879870411529
 20
-43.15230406090485
 30
0.0
  0
SPLINE
  5
9B
330
7F
100
AcDbEntity
  8
Camada 1
 62
    18
420
        0
370
    15
100
AcDbSpline
210
0.0
220
0.0
230
1.0
 70
     8
 71
     3
 72
     8
 73
     4
 74
     0
 42
0.0000000001
 43
0.0000000001
 40
0.0
 40
0.0
 40
0.0
 40
0.0
 40
1.0
 40
1.0
 40
1.0
 40
1.0
 10
67.58444866280843
 20
-28.08145234661203
 30
0.0
 10
67.44011243223302
 20
-28.08145234661203
 30
0.0
 10
67.29554547623648
 20
-28.08167957619412
 30
0.0
 10
67.15120924566109
 20
-28.08259548620183
 30
0.0
  0
SPLINE
  5
9C
330
7F
100
AcDbEntity
  8
Camada 1
 62
    18
420
        0
370
    15
100
AcDbSpline
210
0.0
220
0.0
230
1.0
 70
     8
 71
     3
 72
     8
 73
     4
 74
     0
 42
0.0000000001
 43
0.0000000001
 40
0.0
 40
0.0
 40
0.0
 40
0.0
 40
1.0
 40
1.0
 40
1.0
 40
1.0
 10
68.03953707823784
 20
-28.083193274795
 30
0.0
 10
67.88786657591884
 20
-28.08204663936488
 30
0.0
 10
67.73620306528051
 20
-28.08135795893926
 30
0.0
 10
67.58430183753974
 20
-28.08135795893926
 30
0.0
  0
SPLINE
  5
9D
330
7F
100
AcDbEntity
  8
Camada 1
 62
    18
420
        0
370
    15
100
AcDbSpline
210
0.0
220
0.0
230
1.0
 70
     8
 71
     3
 72
    38
 73
    34
 74
     0
 42
0.0000000001
 43
0.0000000001
 40
0.0
 40
0.0
 40
0.0
 40
0.0
 40
1.0
 40
1.0
 40
1.0
 40
2.0
 40
2.0
 40
2.0
 40
3.0
 40
3.0
 40
3.0
 40
4.0
 40
4.0
 40
4.0
 40
5.0
 40
5.0
 40
5.0
 40
6.0
 40
6.0
 40
6.0
 40
7.0
 40
7.0
 40
7.0
 40
8.0
 40
8.0
 40
8.0
 40
9.0
 40
9.0
 40
9.0
 40
10.0
 40
10.0
 40
10.0
 40
11.0
 40
11.0
 40
11.0
 40
11.0
 10
67.58444866280843
 20
-28.08145234661203
 30
0.0
 10
66.84742077353958
 20
-28.08145234661203
 30
0.0
 10
66.11039288427136
 20
-28.0901569875275
 30
0.0
 10
65.37382644584607
 20
-28.11283799566485
 30
0.0
 10
64.63702928199897
 20
-28.13506104879771
 30
0.0
 10
63.90046284357367
 20
-28.17126046915309
 30
0.0
 10
63.16595895058682
 20
-28.229679446801
 30
0.0
 10
62.43145505759933
 20
-28.288332645711
 30
0.0
 10
61.69855225920678
 20
-28.36943263149625
 30
0.0
 10
60.97092118711935
 20
-28.49131508351639
 30
0.0
 10
60.24351384877432
 20
-28.61320103137557
 30
0.0
 10
59.52115450299266
 20
-28.77563522420818
 30
0.0
 10
58.82627944913057
 20
-29.02077399326001
 30
0.0
 10
58.47827559616511
 20
-29.14334512570577
 30
0.0
 10
58.13759902326196
 20
-29.28630399542864
 30
0.0
 10
57.8111225513231
 20
-29.45836223502476
 30
0.0
 10
57.484883796486
 20
-29.63041697878118
 30
0.0
 10
57.17307586803496
 20
-29.83134036698844
 30
0.0
 10
56.8880670469169
 20
-30.06571544552667
 30
0.0
 10
56.60306521747822
 20
-30.30008702822457
 30
0.0
 10
56.34486249537317
 20
-30.56791030125344
 30
0.0
 10
56.12332414030607
 20
-30.86276690287675
 30
0.0
 10
55.90154806813848
 20
-31.15762000866166
 30
0.0
 10
55.71620563758644
 20
-31.47950993888006
 30
0.0
 10
55.56431140152568
 20
-31.81560696174276
 30
0.0
 10
55.41264089920669
 20
-32.15215844376962
 30
0.0
 10
55.29465630848076
 20
-32.50314424802157
 30
0.0
 10
55.20186973049353
 20
-32.85985973358314
 30
0.0
 10
55.10885242708518
 20
-33.2168024487268
 30
0.0
 10
55.04080940267312
 20
-33.57970207476281
 30
0.0
 10
54.9901756600933
 20
-33.94489147581873
 30
0.0
 10
54.88868444119124
 20
-34.67481581876575
 30
0.0
 10
54.85569070586348
 20
-35.41390275763274
 30
0.0
 10
54.85569070586348
 20
-36.15047269189709
 30
0.0
  0
SPLINE
  5
9E
330
7F
100
AcDbEntity
  8
Camada 1
 62
    18
420
        0
370
    15
100
AcDbSpline
210
0.0
220
0.0
230
1.0
 70
     8
 71
     3
 72
    17
 73
    13
 74
     0
 42
0.0000000001
 43
0.0000000001
 40
0.0
 40
0.0
 40
0.0
 40
0.0
 40
1.0
 40
1.0
 40
1.0
 40
2.0
 40
2.0
 40
2.0
 40
3.0
 40
3.0
 40
3.0
 40
4.0
 40
4.0
 40
4.0
 40
4.0
 10
75.05871480396158
 20
-29.14877766063897
 30
0.0
 10
74.48962006341382
 20
-28.87156106626837
 30
0.0
 10
73.87837248745803
 20
-28.68323668443111
 30
0.0
 10
73.25933618059576
 20
-28.54325627015376
 30
0.0
 10
72.63937697204514
 20
-28.40350308545851
 30
0.0
 10
72.01209747510967
 20
-28.31232109790525
 30
0.0
 10
71.38183253104992
 20
-28.24679507809584
 30
0.0
 10
70.7515675869889
 20
-28.18104182870369
 30
0.0
 10
70.11855491290475
 20
-28.14072081331299
 30
0.0
 10
69.48531151339884
 20
-28.11575003015573
 30
0.0
 10
68.852075105571
 20
-28.0910064765812
 30
0.0
 10
68.21814652147915
 20
-28.08138242981705
 30
0.0
 10
67.58444167112841
 20
-28.08138242981705
 30
0.0
  0
SPLINE
  5
9F
330
7F
100
AcDbEntity
  8
Camada 1
 62
    18
420
        0
370
    15
100
AcDbSpline
210
0.0
220
0.0
230
1.0
 70
     8
 71
     3
 72
    17
 73
    13
 74
     0
 42
0.0000000001
 43
0.0000000001
 40
0.0
 40
0.0
 40
0.0
 40
0.0
 40
1.0
 40
1.0
 40
1.0
 40
2.0
 40
2.0
 40
2.0
 40
3.0
 40
3.0
 40
3.0
 40
4.0
 40
4.0
 40
4.0
 40
4.0
 10
67.58444866280843
 20
-44.21969929172613
 30
0.0
 10
68.21814652147915
 20
-44.21969929172613
 30
0.0
 10
68.852075105571
 20
-44.2103059703844
 30
0.0
 10
69.48531850507755
 20
-44.18510446180536
 30
0.0
 10
70.11855491290475
 20
-44.16036090823083
 30
0.0
 10
70.7515675869889
 20
-44.12003639700045
 30
0.0
 10
71.38183253104992
 20
-44.05428664344799
 30
0.0
 10
72.01209747510967
 20
-43.98876062363857
 30
0.0
 10
72.63960769746692
 20
-43.89757863608532
 30
0.0
 10
73.25933618059576
 20
-43.75782545139005
 30
0.0
 10
73.87837248745803
 20
-43.6180722666948
 30
0.0
 10
74.48985078883559
 20
-43.42928992985369
 30
0.0
 10
75.05871480396158
 20
-43.15230406090485
 30
0.0
  0
SPLINE
  5
A0
330
7F
100
AcDbEntity
  8
Camada 1
 62
    18
420
        0
370
    15
100
AcDbSpline
210
0.0
220
0.0
230
1.0
 70
     8
 71
     3
 72
    38
 73
    34
 74
     0
 42
0.0000000001
 43
0.0000000001
 40
0.0
 40
0.0
 40
0.0
 40
0.0
 40
1.0
 40
1.0
 40
1.0
 40
2.0
 40
2.0
 40
2.0
 40
3.0
 40
3.0
 40
3.0
 40
4.0
 40
4.0
 40
4.0
 40
5.0
 40
5.0
 40
5.0
 40
6.0
 40
6.0
 40
6.0
 40
7.0
 40
7.0
 40
7.0
 40
8.0
 40
8.0
 40
8.0
 40
9.0
 40
9.0
 40
9.0
 40
10.0
 40
10.0
 40
10.0
 40
11.0
 40
11.0
 40
11.0
 40
11.0
 10
54.85566973082601
 20
-36.15056358373018
 30
0.0
 10
54.85566973082601
 20
-36.88713002215486
 30
0.0
 10
54.88842574905071
 20
-37.62621696102152
 30
0.0
 10
54.99014769337517
 20
-38.3563685335516
 30
0.0
 10
55.04101216137741
 20
-38.72156143044655
 30
0.0
 10
55.10882446036705
 20
-39.08446105648192
 30
0.0
 10
55.20184176377605
 20
-39.44117304620478
 30
0.0
 10
55.29462834176264
 20
-39.79811576134844
 30
0.0
 10
55.41261992416793
 20
-40.14887433601798
 30
0.0
 10
55.56428343480757
 20
-40.48542581804484
 30
0.0
 10
55.71594694544655
 20
-40.82152284090688
 30
0.0
 10
55.90152010142036
 20
-41.14364000070802
 30
0.0
 10
56.12329617358795
 20
-41.43826587691084
 30
0.0
 10
56.34506525407681
 20
-41.73335320395593
 30
0.0
 10
56.60303725076074
 20
-42.00117298114512
 30
0.0
 10
56.88803908019878
 20
-42.23531733426157
 30
0.0
 10
57.17304790131684
 20
-42.46969241279916
 30
0.0
 10
57.48485582976788
 20
-42.6706158010064
 30
0.0
 10
57.81110157628498
 20
-42.84267054476219
 30
0.0
 10
58.13757105654384
 20
-43.0147287843583
 30
0.0
 10
58.47847835486812
 20
-43.15791837950359
 30
0.0
 10
58.82625847409246
 20
-43.28048601610966
 30
0.0
 10
59.52112653627518
 20
-43.52517032599734
 30
0.0
 10
60.24349287373621
 20
-43.68783174841202
 30
0.0
 10
60.97089322040186
 20
-43.8097176962712
 30
0.0
 10
61.6985242924893
 20
-43.93160014829134
 30
0.0
 10
62.4314270908825
 20
-44.01270362991628
 30
0.0
 10
63.16593098386935
 20
-44.0713533329866
 30
0.0
 10
63.90043487685555
 20
-44.1297723106345
 30
0.0
 10
64.63700830696023
 20
-44.16597173098988
 30
0.0
 10
65.37357474538554
 20
-44.1884255095445
 30
0.0
 10
66.11037190923197
 20
-44.21087579225945
 30
0.0
 10
66.8473928068221
 20
-44.21958392901524
 30
0.0
 10
67.58442069609031
 20
-44.21958392901524
 30
0.0
  0
SPLINE
  5
A1
330
7F
100
AcDbEntity
  8
Camada 1
 62
    18
420
        0
370
    15
100
AcDbSpline
210
0.0
220
0.0
230
1.0
 70
     8
 71
     3
 72
     8
 73
     4
 74
     0
 42
0.0000000001
 43
0.0000000001
 40
0.0
 40
0.0
 40
0.0
 40
0.0
 40
1.0
 40
1.0
 40
1.0
 40
1.0
 10
66.23292206663963
 20
-38.03115755559277
 30
0.0
 10
67.53331151930756
 20
-38.02978019474152
 30
0.0
 10
68.8339316973979
 20
-38.03001092016329
 30
0.0
 10
70.13409042464342
 20
-38.03046887516714
 30
0.0
  0
SPLINE
  5
A2
330
7F
100
AcDbEntity
  8
Camada 1
 62
    18
420
        0
370
    15
100
AcDbSpline
210
0.0
220
0.0
230
1.0
 70
     8
 71
     3
 72
    17
 73
    13
 74
     0
 42
0.0000000001
 43
0.0000000001
 40
0.0
 40
0.0
 40
0.0
 40
0.0
 40
1.0
 40
1.0
 40
1.0
 40
2.0
 40
2.0
 40
2.0
 40
3.0
 40
3.0
 40
3.0
 40
4.0
 40
4.0
 40
4.0
 40
4.0
 10
65.4602715705711
 20
-37.23917157000447
 30
0.0
 10
65.45797829971087
 20
-37.34112074391103
 30
0.0
 10
65.47493312237957
 20
-37.44490523367332
 30
0.0
 10
65.5113597723151
 20
-37.54112822210994
 30
0.0
 10
65.54801714767498
 20
-37.63780916555104
 30
0.0
 10
65.60368489945879
 20
-37.72670137808374
 30
0.0
 10
65.67539855558168
 20
-37.801159268392
 30
0.0
 10
65.74687449460343
 20
-37.87562065453865
 30
0.0
 10
65.83416561254249
 20
-37.93564422262053
 30
0.0
 10
65.92993064597525
 20
-37.97459137299903
 30
0.0
 10
66.02569567940801
 20
-38.01353852337785
 30
0.0
 10
66.13039607917865
 20
-38.03163998147538
 30
0.0
 10
66.23303393351147
 20
-38.03003539104205
 30
0.0
  0
SPLINE
  5
A3
330
7F
100
AcDbEntity
  8
Camada 1
 62
    18
420
        0
370
    15
100
AcDbSpline
210
0.0
220
0.0
230
1.0
 70
     8
 71
     3
 72
    11
 73
     7
 74
     0
 42
0.0000000001
 43
0.0000000001
 40
0.0
 40
0.0
 40
0.0
 40
0.0
 40
1.0
 40
1.0
 40
1.0
 40
2.0
 40
2.0
 40
2.0
 40
2.0
 10
70.50164301335327
 20
-34.60377336386942
 30
0.0
 10
70.47666873435632
 20
-34.52312783724833
 30
0.0
 10
70.42649644262003
 20
-34.44958585694906
 30
0.0
 10
70.36280224282667
 20
-34.39185206388645
 30
0.0
 10
70.29773767386015
 20
-34.33274090997325
 30
0.0
 10
70.2182352868295
 20
-34.28967216455878
 30
0.0
 10
70.13416034143777
 20
-34.27042756687082
 30
0.0
  0
SPLINE
  5
A4
330
7F
100
AcDbEntity
  8
Camada 1
 62
    18
420
        0
370
    15
100
AcDbSpline
210
0.0
220
0.0
230
1.0
 70
     8
 71
     3
 72
    11
 73
     7
 74
     0
 42
0.0000000001
 43
0.0000000001
 40
0.0
 40
0.0
 40
0.0
 40
0.0
 40
1.0
 40
1.0
 40
1.0
 40
2.0
 40
2.0
 40
2.0
 40
2.0
 10
70.50164301335327
 20
-37.69737827446875
 30
0.0
 10
70.47666873435632
 20
-37.77802030525015
 30
0.0
 10
70.42649644262003
 20
-37.85156228554941
 30
0.0
 10
70.36280224282667
 20
-37.90929607861138
 30
0.0
 10
70.29773767386015
 20
-37.96840723252524
 30
0.0
 10
70.2182352868295
 20
-38.01147597794034
 30
0.0
 10
70.13416034143777
 20
-38.03072057562766
 30
0.0
  0
SPLINE
  5
A5
330
7F
100
AcDbEntity
  8
Camada 1
 62
    18
420
        0
370
    15
100
AcDbSpline
210
0.0
220
0.0
230
1.0
 70
     8
 71
     3
 72
    17
 73
    13
 74
     0
 42
0.0000000001
 43
0.0000000001
 40
0.0
 40
0.0
 40
0.0
 40
0.0
 40
1.0
 40
1.0
 40
1.0
 40
2.0
 40
2.0
 40
2.0
 40
3.0
 40
3.0
 40
3.0
 40
4.0
 40
4.0
 40
4.0
 40
4.0
 10
66.23294304167838
 20
-34.27109177641864
 30
0.0
 10
66.13029819566555
 20
-34.2697144155674
 30
0.0
 10
66.02582852131732
 20
-34.28758514824252
 30
0.0
 10
65.92983276246279
 20
-34.32653229862102
 30
0.0
 10
65.83406772903003
 20
-34.36547944899952
 30
0.0
 10
65.74678360277099
 20
-34.42527578749995
 30
0.0
 10
65.67530067206987
 20
-34.5001951286511
 30
0.0
 10
65.60382473304747
 20
-34.5744222935363
 30
0.0
 10
65.54791926416124
 20
-34.66354523149141
 30
0.0
 10
65.51149261422505
 20
-34.75999544951076
 30
0.0
 10
65.47506596428887
 20
-34.85621843794737
 30
0.0
 10
65.45788041619904
 20
-34.95977569812757
 30
0.0
 10
65.46017368705864
 20
-35.06195559745589
 30
0.0
  0
SPLINE
  5
A6
330
7F
100
AcDbEntity
  8
Camada 1
 62
    18
420
        0
370
    15
100
AcDbSpline
210
0.0
220
0.0
230
1.0
 70
     8
 71
     3
 72
     8
 73
     4
 74
     0
 42
0.0000000001
 43
0.0000000001
 40
0.0
 40
0.0
 40
0.0
 40
0.0
 40
1.0
 40
1.0
 40
1.0
 40
1.0
 10
70.13427220830895
 20
-34.27079463004222
 30
0.0
 10
68.82494039762377
 20
-34.27102185962431
 30
0.0
 10
67.51561557861861
 20
-34.27125258504607
 30
0.0
 10
66.20629075961343
 20
-34.26987522419419
 30
0.0
  0
ENDBLK
  5
82
330
7F
100
AcDbEntity
  8
0
100
AcDbBlockEnd
  0
BLOCK
  5
A9
330
A7
100
AcDbEntity
  8
0
100
AcDbBlockBegin
  2
Block_2
 70
     0
 10
0.0
 20
0.0
 30
0.0
  3
Block_2
  1

  0
LINE
  5
AB
330
A7
100
AcDbEntity
  8
Camada 1
 62
    18
420
        0
370
    15
100
AcDbLine
 10
25.45930218794178
 20
-69.67039969883732
 30
0.0
 11
25.45930218794178
 21
-63.04839830765389
 31
0.0
  0
LINE
  5
AC
330
A7
100
AcDbEntity
  8
Camada 1
 62
    18
420
        0
370
    15
100
AcDbLine
 10
37.60001795302712
 20
-71.71997906717705
 30
0.0
 11
21.94699006593298
 21
-71.71997906717705
 31
0.0
  0
LINE
  5
AD
330
A7
100
AcDbEntity
  8
Camada 1
 62
    18
420
        0
370
    15
100
AcDbLine
 10
25.91391167332892
 20
-60.30371316002964
 30
0.0
 11
25.91391167332892
 21
-58.99118265599621
 31
0.0
  0
LINE
  5
AE
330
A7
100
AcDbEntity
  8
Camada 1
 62
    18
420
        0
370
    15
100
AcDbLine
 10
36.73865702809111
 20
-71.38816794381809
 30
0.0
 11
35.88157850681818
 21
-71.38816794381809
 31
0.0
  0
LINE
  5
AF
330
A7
100
AcDbEntity
  8
Camada 1
 62
    18
420
        0
370
    15
100
AcDbLine
 10
23.66528618271324
 20
-71.38816794381809
 30
0.0
 11
22.80820766144062
 21
-71.38816794381809
 31
0.0
  0
LINE
  5
B0
330
A7
100
AcDbEntity
  8
Camada 1
 62
    18
420
        0
370
    15
100
AcDbLine
 10
35.99647627106642
 20
-71.01951766143499
 30
0.0
 11
35.85970154181766
 21
-71.01951766143499
 31
0.0
  0
LINE
  5
B1
330
A7
100
AcDbEntity
  8
Camada 1
 62
    18
420
        0
370
    15
100
AcDbLine
 10
23.55048280613681
 20
-71.01951766143499
 30
0.0
 11
23.68725403954685
 21
-71.01951766143499
 31
0.0
  0
LINE
  5
B2
330
A7
100
AcDbEntity
  8
Camada 1
 62
    18
420
        0
370
    15
100
AcDbLine
 10
35.99647627106642
 20
-70.61121057320836
 30
0.0
 11
35.85970154181766
 21
-70.61121057320836
 31
0.0
  0
LINE
  5
B3
330
A7
100
AcDbEntity
  8
Camada 1
 62
    18
420
        0
370
    15
100
AcDbLine
 10
23.55048280613681
 20
-70.61121057320836
 30
0.0
 11
23.68725403954685
 21
-70.61121057320836
 31
0.0
  0
LINE
  5
B4
330
A7
100
AcDbEntity
  8
Camada 1
 62
    18
420
        0
370
    15
100
AcDbLine
 10
35.99647627106642
 20
-70.2794693666431
 30
0.0
 11
35.85970154181766
 21
-70.2794693666431
 31
0.0
  0
LINE
  5
B5
330
A7
100
AcDbEntity
  8
Camada 1
 62
    18
420
        0
370
    15
100
AcDbLine
 10
23.55048280613681
 20
-70.2794693666431
 30
0.0
 11
23.68725403954685
 21
-70.2794693666431
 31
0.0
  0
LINE
  5
B6
330
A7
100
AcDbEntity
  8
Camada 1
 62
    18
420
        0
370
    15
100
AcDbLine
 10
33.6336871425453
 20
-70.12436594971504
 30
0.0
 11
25.91335933065197
 21
-70.12436594971504
 31
0.0
  0
LINE
  5
B7
330
A7
100
AcDbEntity
  8
Camada 1
 62
    18
420
        0
370
    15
100
AcDbLine
 10
27.72582288211005
 20
-70.12436594971504
 30
0.0
 11
27.4772442067685
 21
-66.67109156898703
 31
0.0
  0
LINE
  5
B8
330
A7
100
AcDbEntity
  8
Camada 1
 62
    18
420
        0
370
    15
100
AcDbLine
 10
35.99647627106642
 20
-69.87118325345588
 30
0.0
 11
35.85970154181766
 21
-69.87118325345588
 31
0.0
  0
LINE
  5
B9
330
A7
100
AcDbEntity
  8
Camada 1
 62
    18
420
        0
370
    15
100
AcDbLine
 10
23.55048280613681
 20
-69.87118325345588
 30
0.0
 11
23.68725403954685
 21
-69.87118325345588
 31
0.0
  0
LINE
  5
BA
330
A7
100
AcDbEntity
  8
Camada 1
 62
    18
420
        0
370
    15
100
AcDbLine
 10
35.99647627106642
 20
-69.53944204689062
 30
0.0
 11
35.85970154181766
 21
-69.53944204689062
 31
0.0
  0
LINE
  5
BB
330
A7
100
AcDbEntity
  8
Camada 1
 62
    18
420
        0
370
    15
100
AcDbLine
 10
23.55048280613681
 20
-69.53944204689062
 30
0.0
 11
23.68725403954685
 21
-69.53944204689062
 31
0.0
  0
LINE
  5
BC
330
A7
100
AcDbEntity
  8
Camada 1
 62
    18
420
        0
370
    15
100
AcDbLine
 10
35.99647627106642
 20
-69.13113495866401
 30
0.0
 11
35.85970154181766
 21
-69.13113495866401
 31
0.0
  0
LINE
  5
BD
330
A7
100
AcDbEntity
  8
Camada 1
 62
    18
420
        0
370
    15
100
AcDbLine
 10
23.55048280613681
 20
-69.13113495866401
 30
0.0
 11
23.68725403954685
 21
-69.13113495866401
 31
0.0
  0
LINE
  5
BE
330
A7
100
AcDbEntity
  8
Camada 1
 62
    18
420
        0
370
    15
100
AcDbLine
 10
35.99647627106642
 20
-68.79941472713811
 30
0.0
 11
35.85970154181766
 21
-68.79941472713811
 31
0.0
  0
LINE
  5
BF
330
A7
100
AcDbEntity
  8
Camada 1
 62
    18
420
        0
370
    15
100
AcDbLine
 10
23.55048280613681
 20
-68.79941472713811
 30
0.0
 11
23.68725403954685
 21
-68.79941472713811
 31
0.0
  0
LINE
  5
C0
330
A7
100
AcDbEntity
  8
Camada 1
 62
    18
420
        0
370
    15
100
AcDbLine
 10
35.99647627106642
 20
-68.39113210978995
 30
0.0
 11
35.85970154181766
 21
-68.39113210978995
 31
0.0
  0
LINE
  5
C1
330
A7
100
AcDbEntity
  8
Camada 1
 62
    18
420
        0
370
    15
100
AcDbLine
 10
23.55048280613681
 20
-68.39113210978995
 30
0.0
 11
23.68725403954685
 21
-68.39113210978995
 31
0.0
  0
LINE
  5
C2
330
A7
100
AcDbEntity
  8
Camada 1
 62
    18
420
        0
370
    15
100
AcDbLine
 10
35.99647627106642
 20
-68.05936643234623
 30
0.0
 11
35.85970154181766
 21
-68.05936643234623
 31
0.0
  0
LINE
  5
C3
330
A7
100
AcDbEntity
  8
Camada 1
 62
    18
420
        0
370
    15
100
AcDbLine
 10
23.55048280613681
 20
-68.05936643234623
 30
0.0
 11
23.68725403954685
 21
-68.05936643234623
 31
0.0
  0
LINE
  5
C4
330
A7
100
AcDbEntity
  8
Camada 1
 62
    18
420
        0
370
    15
100
AcDbLine
 10
35.99647627106642
 20
-67.65108031915772
 30
0.0
 11
35.85970154181766
 21
-67.65108031915772
 31
0.0
  0
LINE
  5
C5
330
A7
100
AcDbEntity
  8
Camada 1
 62
    18
420
        0
370
    15
100
AcDbLine
 10
23.55048280613681
 20
-67.65108031915772
 30
0.0
 11
23.68725403954685
 21
-67.65108031915772
 31
0.0
  0
LINE
  5
C6
330
A7
100
AcDbEntity
  8
Camada 1
 62
    18
420
        0
370
    15
100
AcDbLine
 10
35.99647627106642
 20
-67.31933911259375
 30
0.0
 11
35.85970154181766
 21
-67.31933911259375
 31
0.0
  0
LINE
  5
C7
330
A7
100
AcDbEntity
  8
Camada 1
 62
    18
420
        0
370
    15
100
AcDbLine
 10
23.55048280613681
 20
-67.31933911259375
 30
0.0
 11
23.68725403954685
 21
-67.31933911259375
 31
0.0
  0
LINE
  5
C8
330
A7
100
AcDbEntity
  8
Camada 1
 62
    18
420
        0
370
    15
100
AcDbLine
 10
35.99647627106642
 20
-66.91103202436713
 30
0.0
 11
35.85970154181766
 21
-66.91103202436713
 31
0.0
  0
LINE
  5
C9
330
A7
100
AcDbEntity
  8
Camada 1
 62
    18
420
        0
370
    15
100
AcDbLine
 10
23.55048280613681
 20
-66.91103202436713
 30
0.0
 11
23.68725403954685
 21
-66.91103202436713
 31
0.0
  0
LINE
  5
CA
330
A7
100
AcDbEntity
  8
Camada 1
 62
    18
420
        0
370
    15
100
AcDbLine
 10
35.99647627106642
 20
-66.57931179283997
 30
0.0
 11
35.85970154181766
 21
-66.57931179283997
 31
0.0
  0
LINE
  5
CB
330
A7
100
AcDbEntity
  8
Camada 1
 62
    18
420
        0
370
    15
100
AcDbLine
 10
23.55048280613681
 20
-66.57931179283997
 30
0.0
 11
23.68725403954685
 21
-66.57931179283997
 31
0.0
  0
LINE
  5
CC
330
A7
100
AcDbEntity
  8
Camada 1
 62
    18
420
        0
370
    15
100
AcDbLine
 10
35.99647627106642
 20
-66.17102917549179
 30
0.0
 11
35.85970154181766
 21
-66.17102917549179
 31
0.0
  0
LINE
  5
CD
330
A7
100
AcDbEntity
  8
Camada 1
 62
    18
420
        0
370
    15
100
AcDbLine
 10
23.55048280613681
 20
-66.17102917549179
 30
0.0
 11
23.68725403954685
 21
-66.17102917549179
 31
0.0
  0
LINE
  5
CE
330
A7
100
AcDbEntity
  8
Camada 1
 62
    18
420
        0
370
    15
100
AcDbLine
 10
35.99647627106642
 20
-65.83926349804937
 30
0.0
 11
35.85970154181766
 21
-65.83926349804937
 31
0.0
  0
LINE
  5
CF
330
A7
100
AcDbEntity
  8
Camada 1
 62
    18
420
        0
370
    15
100
AcDbLine
 10
23.55048280613681
 20
-65.83926349804937
 30
0.0
 11
23.68725403954685
 21
-65.83926349804937
 31
0.0
  0
LINE
  5
D0
330
A7
100
AcDbEntity
  8
Camada 1
 62
    18
420
        0
370
    15
100
AcDbLine
 10
35.99647627106642
 20
-65.43097738486086
 30
0.0
 11
35.85970154181766
 21
-65.43097738486086
 31
0.0
  0
LINE
  5
D1
330
A7
100
AcDbEntity
  8
Camada 1
 62
    18
420
        0
370
    15
100
AcDbLine
 10
23.55048280613681
 20
-65.43097738486086
 30
0.0
 11
23.68725403954685
 21
-65.43097738486086
 31
0.0
  0
LINE
  5
D2
330
A7
100
AcDbEntity
  8
Camada 1
 62
    18
420
        0
370
    15
100
AcDbLine
 10
35.99647627106642
 20
-65.0992361782956
 30
0.0
 11
35.85970154181766
 21
-65.0992361782956
 31
0.0
  0
LINE
  5
D3
330
A7
100
AcDbEntity
  8
Camada 1
 62
    18
420
        0
370
    15
100
AcDbLine
 10
23.55048280613681
 20
-65.0992361782956
 30
0.0
 11
23.68725403954685
 21
-65.0992361782956
 31
0.0
  0
LINE
  5
D4
330
A7
100
AcDbEntity
  8
Camada 1
 62
    18
420
        0
370
    15
100
AcDbLine
 10
35.99647627106642
 20
-64.69095006510709
 30
0.0
 11
35.85970154181766
 21
-64.69095006510709
 31
0.0
  0
LINE
  5
D5
330
A7
100
AcDbEntity
  8
Camada 1
 62
    18
420
        0
370
    15
100
AcDbLine
 10
23.55048280613681
 20
-64.69095006510709
 30
0.0
 11
23.68725403954685
 21
-64.69095006510709
 31
0.0
  0
LINE
  5
D6
330
A7
100
AcDbEntity
  8
Camada 1
 62
    18
420
        0
370
    15
100
AcDbLine
 10
35.99647627106642
 20
-64.35920885854311
 30
0.0
 11
35.85970154181766
 21
-64.35920885854311
 31
0.0
  0
LINE
  5
D7
330
A7
100
AcDbEntity
  8
Camada 1
 62
    18
420
        0
370
    15
100
AcDbLine
 10
23.55048280613681
 20
-64.35920885854311
 30
0.0
 11
23.68725403954685
 21
-64.35920885854311
 31
0.0
  0
LINE
  5
D8
330
A7
100
AcDbEntity
  8
Camada 1
 62
    18
420
        0
370
    15
100
AcDbLine
 10
35.99647627106642
 20
-63.95092624119492
 30
0.0
 11
35.85970154181766
 21
-63.95092624119492
 31
0.0
  0
LINE
  5
D9
330
A7
100
AcDbEntity
  8
Camada 1
 62
    18
420
        0
370
    15
100
AcDbLine
 10
23.55048280613681
 20
-63.95092624119492
 30
0.0
 11
23.68725403954685
 21
-63.95092624119492
 31
0.0
  0
LINE
  5
DA
330
A7
100
AcDbEntity
  8
Camada 1
 62
    18
420
        0
370
    15
100
AcDbLine
 10
35.99647627106642
 20
-63.61918153879061
 30
0.0
 11
35.85970154181766
 21
-63.61918153879061
 31
0.0
  0
LINE
  5
DB
330
A7
100
AcDbEntity
  8
Camada 1
 62
    18
420
        0
370
    15
100
AcDbLine
 10
23.55048280613681
 20
-63.61918153879061
 30
0.0
 11
23.68725403954685
 21
-63.61918153879061
 31
0.0
  0
LINE
  5
DC
330
A7
100
AcDbEntity
  8
Camada 1
 62
    18
420
        0
370
    15
100
AcDbLine
 10
35.99647627106642
 20
-63.210874450564
 30
0.0
 11
35.85970154181766
 21
-63.210874450564
 31
0.0
  0
LINE
  5
DD
330
A7
100
AcDbEntity
  8
Camada 1
 62
    18
420
        0
370
    15
100
AcDbLine
 10
23.55048280613681
 20
-63.210874450564
 30
0.0
 11
23.68725403954685
 21
-63.210874450564
 31
0.0
  0
LINE
  5
DE
330
A7
100
AcDbEntity
  8
Camada 1
 62
    18
420
        0
370
    15
100
AcDbLine
 10
35.99647627106642
 20
-62.87913324399873
 30
0.0
 11
35.85970154181766
 21
-62.87913324399873
 31
0.0
  0
LINE
  5
DF
330
A7
100
AcDbEntity
  8
Camada 1
 62
    18
420
        0
370
    15
100
AcDbLine
 10
23.55048280613681
 20
-62.87913324399873
 30
0.0
 11
23.68725403954685
 21
-62.87913324399873
 31
0.0
  0
LINE
  5
E0
330
A7
100
AcDbEntity
  8
Camada 1
 62
    18
420
        0
370
    15
100
AcDbLine
 10
35.99647627106642
 20
-62.47084713081022
 30
0.0
 11
35.85970154181766
 21
-62.47084713081022
 31
0.0
  0
LINE
  5
E1
330
A7
100
AcDbEntity
  8
Camada 1
 62
    18
420
        0
370
    15
100
AcDbLine
 10
23.55048280613681
 20
-62.47084713081022
 30
0.0
 11
23.68725403954685
 21
-62.47084713081022
 31
0.0
  0
LINE
  5
E2
330
A7
100
AcDbEntity
  8
Camada 1
 62
    18
420
        0
370
    15
100
AcDbLine
 10
35.99647627106642
 20
-62.13910592424624
 30
0.0
 11
35.85970154181766
 21
-62.13910592424624
 31
0.0
  0
LINE
  5
E3
330
A7
100
AcDbEntity
  8
Camada 1
 62
    18
420
        0
370
    15
100
AcDbLine
 10
23.55048280613681
 20
-62.13910592424624
 30
0.0
 11
23.68725403954685
 21
-62.13910592424624
 31
0.0
  0
LINE
  5
E4
330
A7
100
AcDbEntity
  8
Camada 1
 62
    18
420
        0
370
    15
100
AcDbLine
 10
35.99647627106642
 20
-61.73081981105774
 30
0.0
 11
35.85970154181766
 21
-61.73081981105774
 31
0.0
  0
LINE
  5
E5
330
A7
100
AcDbEntity
  8
Camada 1
 62
    18
420
        0
370
    15
100
AcDbLine
 10
23.55048280613681
 20
-61.73081981105774
 30
0.0
 11
23.68725403954685
 21
-61.73081981105774
 31
0.0
  0
LINE
  5
E6
330
A7
100
AcDbEntity
  8
Camada 1
 62
    18
420
        0
370
    15
100
AcDbLine
 10
35.99647627106642
 20
-61.39907860449246
 30
0.0
 11
35.85970154181766
 21
-61.39907860449246
 31
0.0
  0
LINE
  5
E7
330
A7
100
AcDbEntity
  8
Camada 1
 62
    18
420
        0
370
    15
100
AcDbLine
 10
23.55048280613681
 20
-61.39907860449246
 30
0.0
 11
23.68725403954685
 21
-61.39907860449246
 31
0.0
  0
LINE
  5
E8
330
A7
100
AcDbEntity
  8
Camada 1
 62
    18
420
        0
370
    15
100
AcDbLine
 10
35.99647627106642
 20
-60.99079598714428
 30
0.0
 11
35.85970154181766
 21
-60.99079598714428
 31
0.0
  0
LINE
  5
E9
330
A7
100
AcDbEntity
  8
Camada 1
 62
    18
420
        0
370
    15
100
AcDbLine
 10
23.55048280613681
 20
-60.99079598714428
 30
0.0
 11
23.68725403954685
 21
-60.99079598714428
 31
0.0
  0
LINE
  5
EA
330
A7
100
AcDbEntity
  8
Camada 1
 62
    18
420
        0
370
    15
100
AcDbLine
 10
35.99647627106642
 20
-60.65905128473997
 30
0.0
 11
35.85970154181766
 21
-60.65905128473997
 31
0.0
  0
LINE
  5
EB
330
A7
100
AcDbEntity
  8
Camada 1
 62
    18
420
        0
370
    15
100
AcDbLine
 10
23.55048280613681
 20
-60.65905128473997
 30
0.0
 11
23.68725403954685
 21
-60.65905128473997
 31
0.0
  0
LINE
  5
EC
330
A7
100
AcDbEntity
  8
Camada 1
 62
    18
420
        0
370
    15
100
AcDbLine
 10
35.99647627106642
 20
-60.25074419651336
 30
0.0
 11
35.85970154181766
 21
-60.25074419651336
 31
0.0
  0
LINE
  5
ED
330
A7
100
AcDbEntity
  8
Camada 1
 62
    18
420
        0
370
    15
100
AcDbLine
 10
23.55048280613681
 20
-60.25074419651336
 30
0.0
 11
23.68725403954685
 21
-60.25074419651336
 31
0.0
  0
LINE
  5
EE
330
A7
100
AcDbEntity
  8
Camada 1
 62
    18
420
        0
370
    15
100
AcDbLine
 10
35.99647627106642
 20
-59.91902746082653
 30
0.0
 11
35.85970154181766
 21
-59.91902746082653
 31
0.0
  0
LINE
  5
EF
330
A7
100
AcDbEntity
  8
Camada 1
 62
    18
420
        0
370
    15
100
AcDbLine
 10
23.55048280613681
 20
-59.91902746082653
 30
0.0
 11
23.68725403954685
 21
-59.91902746082653
 31
0.0
  0
LINE
  5
F0
330
A7
100
AcDbEntity
  8
Camada 1
 62
    18
420
        0
370
    15
100
AcDbLine
 10
35.99647627106642
 20
-59.51071687676087
 30
0.0
 11
35.85970154181766
 21
-59.51071687676087
 31
0.0
  0
LINE
  5
F1
330
A7
100
AcDbEntity
  8
Camada 1
 62
    18
420
        0
370
    15
100
AcDbLine
 10
23.55048280613681
 20
-59.51071687676087
 30
0.0
 11
23.68725403954685
 21
-59.51071687676087
 31
0.0
  0
LINE
  5
F2
330
A7
100
AcDbEntity
  8
Camada 1
 62
    18
420
        0
370
    15
100
AcDbLine
 10
35.99647627106642
 20
-59.1789756701956
 30
0.0
 11
35.85970154181766
 21
-59.1789756701956
 31
0.0
  0
LINE
  5
F3
330
A7
100
AcDbEntity
  8
Camada 1
 62
    18
420
        0
370
    15
100
AcDbLine
 10
23.55048280613681
 20
-59.1789756701956
 30
0.0
 11
23.68725403954685
 21
-59.1789756701956
 31
0.0
  0
LINE
  5
F4
330
A7
100
AcDbEntity
  8
Camada 1
 62
    18
420
        0
370
    15
100
AcDbLine
 10
35.99647627106642
 20
-58.77069305284742
 30
0.0
 11
35.85970154181766
 21
-58.77069305284742
 31
0.0
  0
LINE
  5
F5
330
A7
100
AcDbEntity
  8
Camada 1
 62
    18
420
        0
370
    15
100
AcDbLine
 10
23.55048280613681
 20
-58.77069305284742
 30
0.0
 11
23.68725403954685
 21
-58.77069305284742
 31
0.0
  0
LINE
  5
F6
330
A7
100
AcDbEntity
  8
Camada 1
 62
    18
420
        0
370
    15
100
AcDbLine
 10
26.36937064776846
 20
-58.53661512068626
 30
0.0
 11
33.17740314992922
 21
-58.53661512068626
 31
0.0
  0
LINE
  5
F7
330
A7
100
AcDbEntity
  8
Camada 1
 62
    18
420
        0
370
    15
100
AcDbLine
 10
36.00461109010748
 20
-58.42751695454134
 30
0.0
 11
35.86783636085775
 21
-58.42751695454134
 31
0.0
  0
LINE
  5
F8
330
A7
100
AcDbEntity
  8
Camada 1
 62
    18
420
        0
370
    15
100
AcDbLine
 10
23.5423514829364
 20
-58.42751695454134
 30
0.0
 11
23.6791227163458
 21
-58.42751695454134
 31
0.0
  0
LINE
  5
F9
330
A7
100
AcDbEntity
  8
Camada 1
 62
    18
420
        0
370
    15
100
AcDbLine
 10
21.97711721268513
 20
-57.99112079412262
 30
0.0
 11
35.78700905057112
 21
-57.99112079412262
 31
0.0
  0
LINE
  5
FA
330
A7
100
AcDbEntity
  8
Camada 1
 62
    18
420
        0
370
    15
100
AcDbLine
 10
36.48444305911207
 20
-57.99112079412262
 30
0.0
 11
37.56993275635119
 21
-57.99112079412262
 31
0.0
  0
SPLINE
  5
FB
330
A7
100
AcDbEntity
  8
Camada 1
 62
    18
420
        0
370
    15
100
AcDbSpline
210
0.0
220
0.0
230
1.0
 70
     8
 71
     3
 72
     8
 73
     4
 74
     0
 42
0.0000000001
 43
0.0000000001
 40
0.0
 40
0.0
 40
0.0
 40
0.0
 40
1.0
 40
1.0
 40
1.0
 40
1.0
 10
21.76707317863477
 20
-71.35123789296215
 30
0.0
 10
21.75905372230523
 20
-71.36315171474428
 30
0.0
 10
21.75172294640133
 20
-71.37552349153219
 30
0.0
 10
21.74507735508368
 20
-71.38812599374187
 30
0.0
  0
SPLINE
  5
FC
330
A7
100
AcDbEntity
  8
Camada 1
 62
    18
420
        0
370
    15
100
AcDbSpline
210
0.0
220
0.0
230
1.0
 70
     8
 71
     3
 72
    11
 73
     7
 74
     0
 42
0.0000000001
 43
0.0000000001
 40
0.0
 40
0.0
 40
0.0
 40
0.0
 40
1.0
 40
1.0
 40
1.0
 40
2.0
 40
2.0
 40
2.0
 40
2.0
 10
21.74508085092401
 20
-71.38816794381809
 30
0.0
 10
21.68734356202171
 20
-71.4995139349067
 30
0.0
 10
21.73087375828004
 20
-71.63674661916028
 30
0.0
 10
21.84244697895008
 20
-71.69448041222288
 30
0.0
 10
21.87475203385094
 20
-71.7114334869695
 30
0.0
 10
21.91049000336214
 20
-71.71991089830353
 30
0.0
 10
21.94692014913929
 20
-71.71991089830353
 30
0.0
  0
SPLINE
  5
FD
330
A7
100
AcDbEntity
  8
Camada 1
 62
    18
420
        0
370
    15
100
AcDbSpline
210
0.0
220
0.0
230
1.0
 70
     8
 71
     3
 72
     8
 73
     4
 74
     0
 42
0.0000000001
 43
0.0000000001
 40
0.0
 40
0.0
 40
0.0
 40
0.0
 40
1.0
 40
1.0
 40
1.0
 40
1.0
 10
23.68728200626401
 20
-71.35123789296215
 30
0.0
 10
23.67926254993415
 20
-71.36315171474428
 30
0.0
 10
23.67193177403088
 20
-71.37552349153219
 30
0.0
 10
23.66528618271324
 20
-71.38812599374187
 30
0.0
  0
SPLINE
  5
FE
330
A7
100
AcDbEntity
  8
Camada 1
 62
    18
420
        0
370
    15
100
AcDbSpline
210
0.0
220
0.0
230
1.0
 70
     8
 71
     3
 72
     8
 73
     4
 74
     0
 42
0.0000000001
 43
0.0000000001
 40
0.0
 40
0.0
 40
0.0
 40
0.0
 40
1.0
 40
1.0
 40
1.0
 40
1.0
 10
23.68728200626401
 20
-68.39113210978995
 30
0.0
 10
23.60365802419706
 20
-68.51439192266069
 30
0.0
 10
23.60365802419706
 20
-68.67613743506703
 30
0.0
 10
23.68728200626401
 20
-68.79939724793906
 30
0.0
  0
SPLINE
  5
FF
330
A7
100
AcDbEntity
  8
Camada 1
 62
    18
420
        0
370
    15
100
AcDbSpline
210
0.0
220
0.0
230
1.0
 70
     8
 71
     3
 72
     8
 73
     4
 74
     0
 42
0.0000000001
 43
0.0000000001
 40
0.0
 40
0.0
 40
0.0
 40
0.0
 40
1.0
 40
1.0
 40
1.0
 40
1.0
 10
23.68728200626401
 20
-69.13113495866401
 30
0.0
 10
23.60365802419706
 20
-69.25439477153602
 30
0.0
 10
23.60365802419706
 20
-69.41614028394237
 30
0.0
 10
23.68728200626401
 20
-69.53940009681438
 30
0.0
  0
SPLINE
  5
100
330
A7
100
AcDbEntity
  8
Camada 1
 62
    18
420
        0
370
    15
100
AcDbSpline
210
0.0
220
0.0
230
1.0
 70
     8
 71
     3
 72
     8
 73
     4
 74
     0
 42
0.0000000001
 43
0.0000000001
 40
0.0
 40
0.0
 40
0.0
 40
0.0
 40
1.0
 40
1.0
 40
1.0
 40
1.0
 10
23.68728200626401
 20
-69.87118325345588
 30
0.0
 10
23.60365802419706
 20
-69.99444306632662
 30
0.0
 10
23.60365802419706
 20
-70.15618857873296
 30
0.0
 10
23.68728200626401
 20
-70.27944839160499
 30
0.0
  0
SPLINE
  5
101
330
A7
100
AcDbEntity
  8
Camada 1
 62
    18
420
        0
370
    15
100
AcDbSpline
210
0.0
220
0.0
230
1.0
 70
     8
 71
     3
 72
     8
 73
     4
 74
     0
 42
0.0000000001
 43
0.0000000001
 40
0.0
 40
0.0
 40
0.0
 40
0.0
 40
1.0
 40
1.0
 40
1.0
 40
1.0
 10
23.68728200626401
 20
-70.61121057320836
 30
0.0
 10
23.60365802419706
 20
-70.73447038608041
 30
0.0
 10
23.60365802419706
 20
-70.89621589848674
 30
0.0
 10
23.68728200626401
 20
-71.01947571135877
 30
0.0
  0
SPLINE
  5
102
330
A7
100
AcDbEntity
  8
Camada 1
 62
    18
420
        0
370
    15
100
AcDbSpline
210
0.0
220
0.0
230
1.0
 70
     8
 71
     3
 72
     8
 73
     4
 74
     0
 42
0.0000000001
 43
0.0000000001
 40
0.0
 40
0.0
 40
0.0
 40
0.0
 40
1.0
 40
1.0
 40
1.0
 40
1.0
 10
23.68728200626401
 20
-69.13113495866401
 30
0.0
 10
23.75555226025814
 20
-69.03101760477287
 30
0.0
 10
23.75555226025814
 20
-68.89951460182891
 30
0.0
 10
23.68728200626401
 20
-68.79939375210001
 30
0.0
  0
SPLINE
  5
103
330
A7
100
AcDbEntity
  8
Camada 1
 62
    18
420
        0
370
    15
100
AcDbSpline
210
0.0
220
0.0
230
1.0
 70
     8
 71
     3
 72
     8
 73
     4
 74
     0
 42
0.0000000001
 43
0.0000000001
 40
0.0
 40
0.0
 40
0.0
 40
0.0
 40
1.0
 40
1.0
 40
1.0
 40
1.0
 10
23.68728200626401
 20
-69.87118325345588
 30
0.0
 10
23.75555226025814
 20
-69.77106589956474
 30
0.0
 10
23.75555226025814
 20
-69.63956289662078
 30
0.0
 10
23.68728200626401
 20
-69.53944204689062
 30
0.0
  0
SPLINE
  5
104
330
A7
100
AcDbEntity
  8
Camada 1
 62
    18
420
        0
370
    15
100
AcDbSpline
210
0.0
220
0.0
230
1.0
 70
     8
 71
     3
 72
     8
 73
     4
 74
     0
 42
0.0000000001
 43
0.0000000001
 40
0.0
 40
0.0
 40
0.0
 40
0.0
 40
1.0
 40
1.0
 40
1.0
 40
1.0
 10
23.68728200626401
 20
-70.61121057320836
 30
0.0
 10
23.75555226025814
 20
-70.51109321931723
 30
0.0
 10
23.75555226025814
 20
-70.37959021637457
 30
0.0
 10
23.68728200626401
 20
-70.2794693666431
 30
0.0
  0
SPLINE
  5
105
330
A7
100
AcDbEntity
  8
Camada 1
 62
    18
420
        0
370
    15
100
AcDbSpline
210
0.0
220
0.0
230
1.0
 70
     8
 71
     3
 72
     8
 73
     4
 74
     0
 42
0.0000000001
 43
0.0000000001
 40
0.0
 40
0.0
 40
0.0
 40
0.0
 40
1.0
 40
1.0
 40
1.0
 40
1.0
 10
23.68728200626401
 20
-71.35123789296215
 30
0.0
 10
23.75555226025814
 20
-71.25112053907101
 30
0.0
 10
23.75555226025814
 20
-71.1193868107053
 30
0.0
 10
23.68728200626401
 20
-71.01949668639687
 30
0.0
  0
SPLINE
  5
106
330
A7
100
AcDbEntity
  8
Camada 1
 62
    18
420
        0
370
    15
100
AcDbSpline
210
0.0
220
0.0
230
1.0
 70
     8
 71
     3
 72
    11
 73
     7
 74
     0
 42
0.0000000001
 43
0.0000000001
 40
0.0
 40
0.0
 40
0.0
 40
0.0
 40
1.0
 40
1.0
 40
1.0
 40
2.0
 40
2.0
 40
2.0
 40
2.0
 10
23.66528618271324
 20
-71.38816794381809
 30
0.0
 10
23.60754889381158
 20
-71.4995139349067
 30
0.0
 10
23.65107909006958
 20
-71.63674661916028
 30
0.0
 10
23.76265231073996
 20
-71.69448041222288
 30
0.0
 10
23.79495736564049
 20
-71.71120450946789
 30
0.0
 10
23.83069533515137
 20
-71.71991089830353
 30
0.0
 10
23.86689475550739
 20
-71.71991089830353
 30
0.0
  0
SPLINE
  5
107
330
A7
100
AcDbEntity
  8
Camada 1
 62
    18
420
        0
370
    15
100
AcDbSpline
210
0.0
220
0.0
230
1.0
 70
     8
 71
     3
 72
     8
 73
     4
 74
     0
 42
0.0000000001
 43
0.0000000001
 40
0.0
 40
0.0
 40
0.0
 40
0.0
 40
1.0
 40
1.0
 40
1.0
 40
1.0
 10
23.68728200626401
 20
-65.43097738486086
 30
0.0
 10
23.60365802419706
 20
-65.55423719773289
 30
0.0
 10
23.60365802419706
 20
-65.71598271013924
 30
0.0
 10
23.68728200626401
 20
-65.83924252301127
 30
0.0
  0
SPLINE
  5
108
330
A7
100
AcDbEntity
  8
Camada 1
 62
    18
420
        0
370
    15
100
AcDbSpline
210
0.0
220
0.0
230
1.0
 70
     8
 71
     3
 72
     8
 73
     4
 74
     0
 42
0.0000000001
 43
0.0000000001
 40
0.0
 40
0.0
 40
0.0
 40
0.0
 40
1.0
 40
1.0
 40
1.0
 40
1.0
 10
23.68728200626401
 20
-66.17102917549179
 30
0.0
 10
23.60365802419706
 20
-66.29428898836382
 30
0.0
 10
23.60365802419706
 20
-66.45603450077016
 30
0.0
 10
23.68728200626401
 20
-66.5792943136422
 30
0.0
  0
SPLINE
  5
109
330
A7
100
AcDbEntity
  8
Camada 1
 62
    18
420
        0
370
    15
100
AcDbSpline
210
0.0
220
0.0
230
1.0
 70
     8
 71
     3
 72
     8
 73
     4
 74
     0
 42
0.0000000001
 43
0.0000000001
 40
0.0
 40
0.0
 40
0.0
 40
0.0
 40
1.0
 40
1.0
 40
1.0
 40
1.0
 10
23.68728200626401
 20
-66.91103202436713
 30
0.0
 10
23.60365802419706
 20
-67.03429183723915
 30
0.0
 10
23.60365802419706
 20
-67.1960373496455
 30
0.0
 10
23.68728200626401
 20
-67.31929716251753
 30
0.0
  0
SPLINE
  5
10A
330
A7
100
AcDbEntity
  8
Camada 1
 62
    18
420
        0
370
    15
100
AcDbSpline
210
0.0
220
0.0
230
1.0
 70
     8
 71
     3
 72
     8
 73
     4
 74
     0
 42
0.0000000001
 43
0.0000000001
 40
0.0
 40
0.0
 40
0.0
 40
0.0
 40
1.0
 40
1.0
 40
1.0
 40
1.0
 10
23.68728200626401
 20
-67.65108031915772
 30
0.0
 10
23.60365802419706
 20
-67.77434013202976
 30
0.0
 10
23.60365802419706
 20
-67.9360856444361
 30
0.0
 10
23.68728200626401
 20
-68.05934545730813
 30
0.0
  0
SPLINE
  5
10B
330
A7
100
AcDbEntity
  8
Camada 1
 62
    18
420
        0
370
    15
100
AcDbSpline
210
0.0
220
0.0
230
1.0
 70
     8
 71
     3
 72
     8
 73
     4
 74
     0
 42
0.0000000001
 43
0.0000000001
 40
0.0
 40
0.0
 40
0.0
 40
0.0
 40
1.0
 40
1.0
 40
1.0
 40
1.0
 10
23.68728200626401
 20
-65.43097738486086
 30
0.0
 10
23.75555226025814
 20
-65.33086003096973
 30
0.0
 10
23.75555226025814
 20
-65.19935702802706
 30
0.0
 10
23.68728200626401
 20
-65.0992361782956
 30
0.0
  0
SPLINE
  5
10C
330
A7
100
AcDbEntity
  8
Camada 1
 62
    18
420
        0
370
    15
100
AcDbSpline
210
0.0
220
0.0
230
1.0
 70
     8
 71
     3
 72
     8
 73
     4
 74
     0
 42
0.0000000001
 43
0.0000000001
 40
0.0
 40
0.0
 40
0.0
 40
0.0
 40
1.0
 40
1.0
 40
1.0
 40
1.0
 10
23.68728200626401
 20
-66.17102917549179
 30
0.0
 10
23.75555226025814
 20
-66.07091182160194
 30
0.0
 10
23.75555226025814
 20
-65.93917809323622
 30
0.0
 10
23.68728200626401
 20
-65.83928796892653
 30
0.0
  0
SPLINE
  5
10D
330
A7
100
AcDbEntity
  8
Camada 1
 62
    18
420
        0
370
    15
100
AcDbSpline
210
0.0
220
0.0
230
1.0
 70
     8
 71
     3
 72
     8
 73
     4
 74
     0
 42
0.0000000001
 43
0.0000000001
 40
0.0
 40
0.0
 40
0.0
 40
0.0
 40
1.0
 40
1.0
 40
1.0
 40
1.0
 10
23.68728200626401
 20
-66.91103202436713
 30
0.0
 10
23.75555226025814
 20
-66.81091467047728
 30
0.0
 10
23.75555226025814
 20
-66.67941166753204
 30
0.0
 10
23.68728200626401
 20
-66.57929081780186
 30
0.0
  0
SPLINE
  5
10E
330
A7
100
AcDbEntity
  8
Camada 1
 62
    18
420
        0
370
    15
100
AcDbSpline
210
0.0
220
0.0
230
1.0
 70
     8
 71
     3
 72
     8
 73
     4
 74
     0
 42
0.0000000001
 43
0.0000000001
 40
0.0
 40
0.0
 40
0.0
 40
0.0
 40
1.0
 40
1.0
 40
1.0
 40
1.0
 10
23.68728200626401
 20
-67.65108031915772
 30
0.0
 10
23.75555226025814
 20
-67.55096296526788
 30
0.0
 10
23.75555226025814
 20
-67.41922923690215
 30
0.0
 10
23.68728200626401
 20
-67.31933911259375
 30
0.0
  0
SPLINE
  5
10F
330
A7
100
AcDbEntity
  8
Camada 1
 62
    18
420
        0
370
    15
100
AcDbSpline
210
0.0
220
0.0
230
1.0
 70
     8
 71
     3
 72
     8
 73
     4
 74
     0
 42
0.0000000001
 43
0.0000000001
 40
0.0
 40
0.0
 40
0.0
 40
0.0
 40
1.0
 40
1.0
 40
1.0
 40
1.0
 10
23.68728200626401
 20
-68.39113210978995
 30
0.0
 10
23.75555226025814
 20
-68.29101475589881
 30
0.0
 10
23.75555226025814
 20
-68.15928102753308
 30
0.0
 10
23.68728200626401
 20
-68.05939090322467
 30
0.0
  0
SPLINE
  5
110
330
A7
100
AcDbEntity
  8
Camada 1
 62
    18
420
        0
370
    15
100
AcDbSpline
210
0.0
220
0.0
230
1.0
 70
     8
 71
     3
 72
     8
 73
     4
 74
     0
 42
0.0000000001
 43
0.0000000001
 40
0.0
 40
0.0
 40
0.0
 40
0.0
 40
1.0
 40
1.0
 40
1.0
 40
1.0
 10
23.68728200626401
 20
-62.47084713081022
 30
0.0
 10
23.75555226025814
 20
-62.37072977692037
 30
0.0
 10
23.75555226025814
 20
-62.23899604855465
 30
0.0
 10
23.68728200626401
 20
-62.13910592424624
 30
0.0
  0
SPLINE
  5
111
330
A7
100
AcDbEntity
  8
Camada 1
 62
    18
420
        0
370
    15
100
AcDbSpline
210
0.0
220
0.0
230
1.0
 70
     8
 71
     3
 72
     8
 73
     4
 74
     0
 42
0.0000000001
 43
0.0000000001
 40
0.0
 40
0.0
 40
0.0
 40
0.0
 40
1.0
 40
1.0
 40
1.0
 40
1.0
 10
23.68728200626401
 20
-63.210874450564
 30
0.0
 10
23.75555226025814
 20
-63.11075709667287
 30
0.0
 10
23.75555226025814
 20
-62.97925409372891
 30
0.0
 10
23.68728200626401
 20
-62.87913324399873
 30
0.0
  0
SPLINE
  5
112
330
A7
100
AcDbEntity
  8
Camada 1
 62
    18
420
        0
370
    15
100
AcDbSpline
210
0.0
220
0.0
230
1.0
 70
     8
 71
     3
 72
     8
 73
     4
 74
     0
 42
0.0000000001
 43
0.0000000001
 40
0.0
 40
0.0
 40
0.0
 40
0.0
 40
1.0
 40
1.0
 40
1.0
 40
1.0
 10
23.68728200626401
 20
-63.95092624119492
 30
0.0
 10
23.75555226025814
 20
-63.85080888730379
 30
0.0
 10
23.75555226025814
 20
-63.71907515893806
 30
0.0
 10
23.68728200626401
 20
-63.61918503462966
 30
0.0
  0
SPLINE
  5
113
330
A7
100
AcDbEntity
  8
Camada 1
 62
    18
420
        0
370
    15
100
AcDbSpline
210
0.0
220
0.0
230
1.0
 70
     8
 71
     3
 72
     8
 73
     4
 74
     0
 42
0.0000000001
 43
0.0000000001
 40
0.0
 40
0.0
 40
0.0
 40
0.0
 40
1.0
 40
1.0
 40
1.0
 40
1.0
 10
23.68728200626401
 20
-64.69095006510709
 30
0.0
 10
23.75555226025814
 20
-64.59083271121724
 30
0.0
 10
23.75555226025814
 20
-64.45909898285151
 30
0.0
 10
23.68728200626401
 20
-64.35920885854311
 30
0.0
  0
SPLINE
  5
114
330
A7
100
AcDbEntity
  8
Camada 1
 62
    18
420
        0
370
    15
100
AcDbSpline
210
0.0
220
0.0
230
1.0
 70
     8
 71
     3
 72
     8
 73
     4
 74
     0
 42
0.0000000001
 43
0.0000000001
 40
0.0
 40
0.0
 40
0.0
 40
0.0
 40
1.0
 40
1.0
 40
1.0
 40
1.0
 10
23.68728200626401
 20
-58.77069305284742
 30
0.0
 10
23.75853071570432
 20
-58.66645410392096
 30
0.0
 10
23.75509430525429
 20
-58.52830201381935
 30
0.0
 10
23.67903182451238
 20
-58.42749947534356
 30
0.0
  0
SPLINE
  5
115
330
A7
100
AcDbEntity
  8
Camada 1
 62
    18
420
        0
370
    15
100
AcDbSpline
210
0.0
220
0.0
230
1.0
 70
     8
 71
     3
 72
     8
 73
     4
 74
     0
 42
0.0000000001
 43
0.0000000001
 40
0.0
 40
0.0
 40
0.0
 40
0.0
 40
1.0
 40
1.0
 40
1.0
 40
1.0
 10
23.68728200626401
 20
-59.51071687676087
 30
0.0
 10
23.75555226025814
 20
-59.41059952286973
 30
0.0
 10
23.75555226025814
 20
-59.27909651992578
 30
0.0
 10
23.68728200626401
 20
-59.1789756701956
 30
0.0
  0
SPLINE
  5
116
330
A7
100
AcDbEntity
  8
Camada 1
 62
    18
420
        0
370
    15
100
AcDbSpline
210
0.0
220
0.0
230
1.0
 70
     8
 71
     3
 72
     8
 73
     4
 74
     0
 42
0.0000000001
 43
0.0000000001
 40
0.0
 40
0.0
 40
0.0
 40
0.0
 40
1.0
 40
1.0
 40
1.0
 40
1.0
 10
23.68728200626401
 20
-60.25074419651336
 30
0.0
 10
23.75555226025814
 20
-60.15062787390702
 30
0.0
 10
23.75555226025814
 20
-60.01912383967955
 30
0.0
 10
23.68728200626401
 20
-59.91900298994809
 30
0.0
  0
SPLINE
  5
117
330
A7
100
AcDbEntity
  8
Camada 1
 62
    18
420
        0
370
    15
100
AcDbSpline
210
0.0
220
0.0
230
1.0
 70
     8
 71
     3
 72
     8
 73
     4
 74
     0
 42
0.0000000001
 43
0.0000000001
 40
0.0
 40
0.0
 40
0.0
 40
0.0
 40
1.0
 40
1.0
 40
1.0
 40
1.0
 10
23.68728200626401
 20
-60.99079598714428
 30
0.0
 10
23.75555226025814
 20
-60.89067863325315
 30
0.0
 10
23.75555226025814
 20
-60.75894490488871
 30
0.0
 10
23.68728200626401
 20
-60.65905478058031
 30
0.0
  0
SPLINE
  5
118
330
A7
100
AcDbEntity
  8
Camada 1
 62
    18
420
        0
370
    15
100
AcDbSpline
210
0.0
220
0.0
230
1.0
 70
     8
 71
     3
 72
     8
 73
     4
 74
     0
 42
0.0000000001
 43
0.0000000001
 40
0.0
 40
0.0
 40
0.0
 40
0.0
 40
1.0
 40
1.0
 40
1.0
 40
1.0
 10
23.68728200626401
 20
-61.73081981105774
 30
0.0
 10
23.75555226025814
 20
-61.6307024571666
 30
0.0
 10
23.75555226025814
 20
-61.49919945422265
 30
0.0
 10
23.68728200626401
 20
-61.39907860449246
 30
0.0
  0
SPLINE
  5
119
330
A7
100
AcDbEntity
  8
Camada 1
 62
    18
420
        0
370
    15
100
AcDbSpline
210
0.0
220
0.0
230
1.0
 70
     8
 71
     3
 72
    11
 73
     7
 74
     0
 42
0.0000000001
 43
0.0000000001
 40
0.0
 40
0.0
 40
0.0
 40
0.0
 40
1.0
 40
1.0
 40
1.0
 40
2.0
 40
2.0
 40
2.0
 40
2.0
 10
21.97711721268513
 20
-57.99112079412262
 30
0.0
 10
21.82659334579625
 20
-57.99112079412262
 30
0.0
 10
21.70425293877258
 20
-58.11323397156389
 30
0.0
 10
21.70425293877258
 20
-58.26398506803485
 30
0.0
 10
21.70425293877258
 20
-58.32286549652693
 30
0.0
 10
21.7234975364599
 20
-58.38036856416649
 30
0.0
 10
21.75878104680725
 20
-58.42756589629694
 30
0.0
  0
SPLINE
  5
11A
330
A7
100
AcDbEntity
  8
Camada 1
 62
    18
420
        0
370
    15
100
AcDbSpline
210
0.0
220
0.0
230
1.0
 70
     8
 71
     3
 72
     8
 73
     4
 74
     0
 42
0.0000000001
 43
0.0000000001
 40
0.0
 40
0.0
 40
0.0
 40
0.0
 40
1.0
 40
1.0
 40
1.0
 40
1.0
 10
23.68728200626401
 20
-61.73081981105774
 30
0.0
 10
23.60365802419706
 20
-61.85407962392976
 30
0.0
 10
23.60365802419706
 20
-62.0158251363361
 30
0.0
 10
23.68728200626401
 20
-62.13908494920684
 30
0.0
  0
SPLINE
  5
11B
330
A7
100
AcDbEntity
  8
Camada 1
 62
    18
420
        0
370
    15
100
AcDbSpline
210
0.0
220
0.0
230
1.0
 70
     8
 71
     3
 72
     8
 73
     4
 74
     0
 42
0.0000000001
 43
0.0000000001
 40
0.0
 40
0.0
 40
0.0
 40
0.0
 40
1.0
 40
1.0
 40
1.0
 40
1.0
 10
23.68728200626401
 20
-62.47084713081022
 30
0.0
 10
23.60365802419706
 20
-62.59410694368225
 30
0.0
 10
23.60365802419706
 20
-62.75585245608859
 30
0.0
 10
23.68728200626401
 20
-62.87911226896063
 30
0.0
  0
SPLINE
  5
11C
330
A7
100
AcDbEntity
  8
Camada 1
 62
    18
420
        0
370
    15
100
AcDbSpline
210
0.0
220
0.0
230
1.0
 70
     8
 71
     3
 72
     8
 73
     4
 74
     0
 42
0.0000000001
 43
0.0000000001
 40
0.0
 40
0.0
 40
0.0
 40
0.0
 40
1.0
 40
1.0
 40
1.0
 40
1.0
 10
23.68728200626401
 20
-63.210874450564
 30
0.0
 10
23.60365802419706
 20
-63.33413426343475
 30
0.0
 10
23.60365802419706
 20
-63.49587977584237
 30
0.0
 10
23.68728200626401
 20
-63.61913958871311
 30
0.0
  0
SPLINE
  5
11D
330
A7
100
AcDbEntity
  8
Camada 1
 62
    18
420
        0
370
    15
100
AcDbSpline
210
0.0
220
0.0
230
1.0
 70
     8
 71
     3
 72
     8
 73
     4
 74
     0
 42
0.0000000001
 43
0.0000000001
 40
0.0
 40
0.0
 40
0.0
 40
0.0
 40
1.0
 40
1.0
 40
1.0
 40
1.0
 10
23.68728200626401
 20
-63.95092624119492
 30
0.0
 10
23.60365802419706
 20
-64.07418605406696
 30
0.0
 10
23.60365802419706
 20
-64.2359315664733
 30
0.0
 10
23.68728200626401
 20
-64.35919137934404
 30
0.0
  0
SPLINE
  5
11E
330
A7
100
AcDbEntity
  8
Camada 1
 62
    18
420
        0
370
    15
100
AcDbSpline
210
0.0
220
0.0
230
1.0
 70
     8
 71
     3
 72
     8
 73
     4
 74
     0
 42
0.0000000001
 43
0.0000000001
 40
0.0
 40
0.0
 40
0.0
 40
0.0
 40
1.0
 40
1.0
 40
1.0
 40
1.0
 10
23.68728200626401
 20
-64.69095006510709
 30
0.0
 10
23.60365802419706
 20
-64.81420987797912
 30
0.0
 10
23.60365802419706
 20
-64.97595539038674
 30
0.0
 10
23.68728200626401
 20
-65.09921520325749
 30
0.0
  0
SPLINE
  5
11F
330
A7
100
AcDbEntity
  8
Camada 1
 62
    18
420
        0
370
    15
100
AcDbSpline
210
0.0
220
0.0
230
1.0
 70
     8
 71
     3
 72
     8
 73
     4
 74
     0
 42
0.0000000001
 43
0.0000000001
 40
0.0
 40
0.0
 40
0.0
 40
0.0
 40
1.0
 40
1.0
 40
1.0
 40
1.0
 10
25.4242494030162
 20
-62.89132323712046
 30
0.0
 10
25.41920840213284
 20
-62.88422318663896
 30
0.0
 10
25.41302076581905
 20
-62.87803555032485
 30
0.0
 10
25.40568998991482
 20
-62.87345600028502
 30
0.0
  0
SPLINE
  5
120
330
A7
100
AcDbEntity
  8
Camada 1
 62
    18
420
        0
370
    15
100
AcDbSpline
210
0.0
220
0.0
230
1.0
 70
     8
 71
     3
 72
     8
 73
     4
 74
     0
 42
0.0000000001
 43
0.0000000001
 40
0.0
 40
0.0
 40
0.0
 40
0.0
 40
1.0
 40
1.0
 40
1.0
 40
1.0
 10
25.91331738057478
 20
-60.31709173865835
 30
0.0
 10
25.91354461015783
 20
-60.31251218861854
 30
0.0
 10
25.91377533557928
 20
-60.30815986816016
 30
0.0
 10
25.91400256516104
 20
-60.30357682228129
 30
0.0
  0
SPLINE
  5
121
330
A7
100
AcDbEntity
  8
Camada 1
 62
    18
420
        0
370
    15
100
AcDbSpline
210
0.0
220
0.0
230
1.0
 70
     8
 71
     3
 72
     8
 73
     4
 74
     0
 42
0.0000000001
 43
0.0000000001
 40
0.0
 40
0.0
 40
0.0
 40
0.0
 40
1.0
 40
1.0
 40
1.0
 40
1.0
 10
23.68728200626401
 20
-58.77069305284742
 30
0.0
 10
23.60365802419706
 20
-58.89395286571945
 30
0.0
 10
23.60365802419706
 20
-59.05569837812579
 30
0.0
 10
23.68728200626401
 20
-59.17895819099653
 30
0.0
  0
SPLINE
  5
122
330
A7
100
AcDbEntity
  8
Camada 1
 62
    18
420
        0
370
    15
100
AcDbSpline
210
0.0
220
0.0
230
1.0
 70
     8
 71
     3
 72
     8
 73
     4
 74
     0
 42
0.0000000001
 43
0.0000000001
 40
0.0
 40
0.0
 40
0.0
 40
0.0
 40
1.0
 40
1.0
 40
1.0
 40
1.0
 10
23.68728200626401
 20
-59.51071687676087
 30
0.0
 10
23.60365802419706
 20
-59.63397668963161
 30
0.0
 10
23.60365802419706
 20
-59.79572220203795
 30
0.0
 10
23.68728200626401
 20
-59.91898201490998
 30
0.0
  0
SPLINE
  5
123
330
A7
100
AcDbEntity
  8
Camada 1
 62
    18
420
        0
370
    15
100
AcDbSpline
210
0.0
220
0.0
230
1.0
 70
     8
 71
     3
 72
     8
 73
     4
 74
     0
 42
0.0000000001
 43
0.0000000001
 40
0.0
 40
0.0
 40
0.0
 40
0.0
 40
1.0
 40
1.0
 40
1.0
 40
1.0
 10
23.68728200626401
 20
-60.25074419651336
 30
0.0
 10
23.60365802419706
 20
-60.37400400938539
 30
0.0
 10
23.60365802419706
 20
-60.53574952179173
 30
0.0
 10
23.68728200626401
 20
-60.65900933466376
 30
0.0
  0
SPLINE
  5
124
330
A7
100
AcDbEntity
  8
Camada 1
 62
    18
420
        0
370
    15
100
AcDbSpline
210
0.0
220
0.0
230
1.0
 70
     8
 71
     3
 72
     8
 73
     4
 74
     0
 42
0.0000000001
 43
0.0000000001
 40
0.0
 40
0.0
 40
0.0
 40
0.0
 40
1.0
 40
1.0
 40
1.0
 40
1.0
 10
23.68728200626401
 20
-60.99079598714428
 30
0.0
 10
23.60365802419706
 20
-61.11405580001632
 30
0.0
 10
23.60365802419706
 20
-61.27580131242265
 30
0.0
 10
23.68728200626401
 20
-61.39906112529469
 30
0.0
  0
SPLINE
  5
125
330
A7
100
AcDbEntity
  8
Camada 1
 62
    18
420
        0
370
    15
100
AcDbSpline
210
0.0
220
0.0
230
1.0
 70
     8
 71
     3
 72
    11
 73
     7
 74
     0
 42
0.0000000001
 43
0.0000000001
 40
0.0
 40
0.0
 40
0.0
 40
0.0
 40
1.0
 40
1.0
 40
1.0
 40
2.0
 40
2.0
 40
2.0
 40
2.0
 10
23.89711628993135
 20
-57.99109981908451
 30
0.0
 10
23.74659242304215
 20
-57.99133054450628
 30
0.0
 10
23.62448274144056
 20
-58.11344372194755
 30
0.0
 10
23.62448274144056
 20
-58.26396409299674
 30
0.0
 10
23.62470997102233
 20
-58.32307175107026
 30
0.0
 10
23.64372733912725
 20
-58.38034758912838
 30
0.0
 10
23.67923807905636
 20
-58.42754492125882
 30
0.0
  0
SPLINE
  5
126
330
A7
100
AcDbEntity
  8
Camada 1
 62
    18
420
        0
370
    15
100
AcDbSpline
210
0.0
220
0.0
230
1.0
 70
     8
 71
     3
 72
     8
 73
     4
 74
     0
 42
0.0000000001
 43
0.0000000001
 40
0.0
 40
0.0
 40
0.0
 40
0.0
 40
1.0
 40
1.0
 40
1.0
 40
1.0
 10
27.86010158179526
 20
-71.72018532172167
 30
0.0
 10
28.051400923239
 20
-72.65126203037819
 30
0.0
 10
28.7843037216322
 20
-73.31039212304908
 30
0.0
 10
29.62877624485577
 20
-73.31016314554748
 30
0.0
  0
SPLINE
  5
127
330
A7
100
AcDbEntity
  8
Camada 1
 62
    18
420
        0
370
    15
100
AcDbSpline
210
0.0
220
0.0
230
1.0
 70
     8
 71
     3
 72
    11
 73
     7
 74
     0
 42
0.0000000001
 43
0.0000000001
 40
0.0
 40
0.0
 40
0.0
 40
0.0
 40
1.0
 40
1.0
 40
1.0
 40
2.0
 40
2.0
 40
2.0
 40
2.0
 10
25.45930218794178
 20
-69.67039969883732
 30
0.0
 10
25.45907146251937
 20
-69.92081019419491
 30
0.0
 10
25.66159944116027
 20
-70.12402685326112
 30
0.0
 10
25.91200993651788
 20
-70.12448480826562
 30
0.0
 10
25.91200993651788
 20
-70.12448480826562
 30
0.0
 10
25.91338380152976
 20
-70.12448480826562
 30
0.0
 10
25.91338380152976
 20
-70.12448480826562
 30
0.0
  0
SPLINE
  5
128
330
A7
100
AcDbEntity
  8
Camada 1
 62
    18
420
        0
370
    15
100
AcDbSpline
210
0.0
220
0.0
230
1.0
 70
     8
 71
     3
 72
     8
 73
     4
 74
     0
 42
0.0000000001
 43
0.0000000001
 40
0.0
 40
0.0
 40
0.0
 40
0.0
 40
1.0
 40
1.0
 40
1.0
 40
1.0
 10
27.47729314852505
 20
-66.67102165219207
 30
0.0
 10
27.451172234098
 20
-66.57457143417336
 30
0.0
 10
27.38656562013565
 20
-66.49277927212216
 30
0.0
 10
27.29836208802889
 20
-66.44558543583077
 30
0.0
  0
SPLINE
  5
129
330
A7
100
AcDbEntity
  8
Camada 1
 62
    18
420
        0
370
    15
100
AcDbSpline
210
0.0
220
0.0
230
1.0
 70
     8
 71
     3
 72
    11
 73
     7
 74
     0
 42
0.0000000001
 43
0.0000000001
 40
0.0
 40
0.0
 40
0.0
 40
0.0
 40
1.0
 40
1.0
 40
1.0
 40
2.0
 40
2.0
 40
2.0
 40
2.0
 10
25.81626937396323
 20
-60.38037342936441
 30
0.0
 10
25.12162504552323
 20
-60.30523035447085
 30
0.0
 10
24.49754773777601
 20
-60.80742521019698
 30
0.0
 10
24.42240116704277
 20
-61.50206604279762
 30
0.0
 10
24.35390018762718
 20
-62.13416280687406
 30
0.0
 10
24.76537101080487
 20
-62.71883151339957
 30
0.0
 10
25.38349140766039
 20
-62.86797801943528
 30
0.0
  0
SPLINE
  5
12A
330
A7
100
AcDbEntity
  8
Camada 1
 62
    18
420
        0
370
    15
100
AcDbSpline
210
0.0
220
0.0
230
1.0
 70
     8
 71
     3
 72
    11
 73
     7
 74
     0
 42
0.0000000001
 43
0.0000000001
 40
0.0
 40
0.0
 40
0.0
 40
0.0
 40
1.0
 40
1.0
 40
1.0
 40
2.0
 40
2.0
 40
2.0
 40
2.0
 10
25.68966753831428
 20
-62.86458355906211
 30
0.0
 10
26.37262177871358
 20
-62.86046196402679
 30
0.0
 10
26.92292987657851
 20
-62.30328104526117
 30
0.0
 10
26.91880478570253
 20
-61.62032330902217
 30
0.0
 10
26.91559910067459
 20
-61.09109512470032
 30
0.0
 10
26.57583843778108
 20
-60.62257918888725
 30
0.0
 10
26.07364358205366
 20
-60.45487676558856
 30
0.0
  0
SPLINE
  5
12B
330
A7
100
AcDbEntity
  8
Camada 1
 62
    18
420
        0
370
    15
100
AcDbSpline
210
0.0
220
0.0
230
1.0
 70
     8
 71
     3
 72
     8
 73
     4
 74
     0
 42
0.0000000001
 43
0.0000000001
 40
0.0
 40
0.0
 40
0.0
 40
0.0
 40
1.0
 40
1.0
 40
1.0
 40
1.0
 10
26.36937064776846
 20
-58.53661512068626
 30
0.0
 10
26.11804424240347
 20
-58.53638789110354
 30
0.0
 10
25.91413890291036
 20
-58.7400590093352
 30
0.0
 10
25.91391167332892
 20
-58.99115818511778
 30
0.0
  0
SPLINE
  5
12C
330
A7
100
AcDbEntity
  8
Camada 1
 62
    18
420
        0
370
    15
100
AcDbSpline
210
0.0
220
0.0
230
1.0
 70
     8
 71
     3
 72
     8
 73
     4
 74
     0
 42
0.0000000001
 43
0.0000000001
 40
0.0
 40
0.0
 40
0.0
 40
0.0
 40
1.0
 40
1.0
 40
1.0
 40
1.0
 10
25.91331738057478
 20
-60.31709173865835
 30
0.0
 10
25.91308665515334
 20
-60.37963930302288
 30
0.0
 10
25.97769326911504
 20
-60.43508332106429
 30
0.0
 10
26.07368902796956
 20
-60.45478587375547
 30
0.0
  0
SPLINE
  5
12D
330
A7
100
AcDbEntity
  8
Camada 1
 62
    18
420
        0
370
    15
100
AcDbSpline
210
0.0
220
0.0
230
1.0
 70
     8
 71
     3
 72
     8
 73
     4
 74
     0
 42
0.0000000001
 43
0.0000000001
 40
0.0
 40
0.0
 40
0.0
 40
0.0
 40
1.0
 40
1.0
 40
1.0
 40
1.0
 10
25.68966753831428
 20
-62.86458355906211
 30
0.0
 10
25.56205540498452
 20
-62.86504500990565
 30
0.0
 10
25.45895959564817
 20
-62.94637572111332
 30
0.0
 10
25.45941755065266
 20
-63.04649307500445
 30
0.0
  0
SPLINE
  5
12E
330
A7
100
AcDbEntity
  8
Camada 1
 62
    18
420
        0
370
    15
100
AcDbSpline
210
0.0
220
0.0
230
1.0
 70
     9
 71
     3
 72
    17
 73
    13
 74
     0
 42
0.0000000001
 43
0.0000000001
 40
0.0
 40
0.0
 40
0.0
 40
0.0
 40
1.0
 40
1.0
 40
1.0
 40
2.0
 40
2.0
 40
2.0
 40
3.0
 40
3.0
 40
3.0
 40
4.0
 40
4.0
 40
4.0
 40
4.0
 10
27.47452094762254
 20
-66.17386779734928
 30
0.0
 10
27.47452094762254
 20
-64.90417880914759
 30
0.0
 10
28.50388144223334
 20
-63.8748183145368
 30
0.0
 10
29.77334320085294
 20
-63.8748183145368
 30
0.0
 10
31.04303218905335
 20
-63.8748183145368
 30
0.0
 10
32.07239617950416
 20
-64.90417880914759
 30
0.0
 10
32.07239617950416
 20
-66.17386779734928
 30
0.0
 10
32.07239617950416
 20
-67.44356028139002
 30
0.0
 10
31.04303218905335
 20
-68.47292077600082
 30
0.0
 10
29.77334320085294
 20
-68.47292077600082
 30
0.0
 10
28.50388144223334
 20
-68.47292077600082
 30
0.0
 10
27.47452094762254
 20
-67.44356028139002
 30
0.0
 10
27.47452094762254
 20
-66.17386779734928
 30
0.0
  0
SPLINE
  5
12F
330
A7
100
AcDbEntity
  8
Camada 1
 62
    18
420
        0
370
    15
100
AcDbSpline
210
0.0
220
0.0
230
1.0
 70
     9
 71
     3
 72
    17
 73
    13
 74
     0
 42
0.0000000001
 43
0.0000000001
 40
0.0
 40
0.0
 40
0.0
 40
0.0
 40
1.0
 40
1.0
 40
1.0
 40
2.0
 40
2.0
 40
2.0
 40
3.0
 40
3.0
 40
3.0
 40
4.0
 40
4.0
 40
4.0
 40
4.0
 10
28.52333229446495
 20
-60.03680929284881
 30
0.0
 10
28.52333229446495
 20
-59.34652427654559
 30
0.0
 10
29.08303021783256
 20
-58.78682285733958
 30
0.0
 10
29.7733187299745
 20
-58.78682285733958
 30
0.0
 10
30.46383447169949
 20
-58.78682285733958
 30
0.0
 10
31.02376312048855
 20
-59.34652427654559
 30
0.0
 10
31.02376312048855
 20
-60.03680929284881
 30
0.0
 10
31.02376312048855
 20
-60.72732853041284
 30
0.0
 10
30.46383447169949
 20
-61.28679922419836
 30
0.0
 10
29.7733187299745
 20
-61.28679922419836
 30
0.0
 10
29.08303021783256
 20
-61.28679922419836
 30
0.0
 10
28.52333229446495
 20
-60.72732853041284
 30
0.0
 10
28.52333229446495
 20
-60.03680929284881
 30
0.0
  0
SPLINE
  5
130
330
A7
100
AcDbEntity
  8
Camada 1
 62
    18
420
        0
370
    15
100
AcDbSpline
210
0.0
220
0.0
230
1.0
 70
     8
 71
     3
 72
     8
 73
     4
 74
     0
 42
0.0000000001
 43
0.0000000001
 40
0.0
 40
0.0
 40
0.0
 40
0.0
 40
1.0
 40
1.0
 40
1.0
 40
1.0
 10
35.88167289449064
 20
-71.38816794381809
 30
0.0
 10
35.87502730317299
 20
-71.37556893744873
 30
0.0
 10
35.86769652726875
 20
-71.36319716066082
 30
0.0
 10
35.85967707093954
 20
-71.35128333887869
 30
0.0
  0
SPLINE
  5
131
330
A7
100
AcDbEntity
  8
Camada 1
 62
    18
420
        0
370
    15
100
AcDbSpline
210
0.0
220
0.0
230
1.0
 70
     8
 71
     3
 72
     8
 73
     4
 74
     0
 42
0.0000000001
 43
0.0000000001
 40
0.0
 40
0.0
 40
0.0
 40
0.0
 40
1.0
 40
1.0
 40
1.0
 40
1.0
 10
35.85968056677891
 20
-68.79941472713811
 30
0.0
 10
35.94330105300648
 20
-68.67615841010515
 30
0.0
 10
35.94330105300648
 20
-68.51441289769879
 30
0.0
 10
35.85968056677891
 20
-68.39115308482805
 30
0.0
  0
SPLINE
  5
132
330
A7
100
AcDbEntity
  8
Camada 1
 62
    18
420
        0
370
    15
100
AcDbSpline
210
0.0
220
0.0
230
1.0
 70
     8
 71
     3
 72
     8
 73
     4
 74
     0
 42
0.0000000001
 43
0.0000000001
 40
0.0
 40
0.0
 40
0.0
 40
0.0
 40
1.0
 40
1.0
 40
1.0
 40
1.0
 10
35.85968056677891
 20
-71.01951766143499
 30
0.0
 10
35.94330105300648
 20
-70.89626134440329
 30
0.0
 10
35.94330105300648
 20
-70.73451583199695
 30
0.0
 10
35.85968056677891
 20
-70.61125601912492
 30
0.0
  0
SPLINE
  5
133
330
A7
100
AcDbEntity
  8
Camada 1
 62
    18
420
        0
370
    15
100
AcDbSpline
210
0.0
220
0.0
230
1.0
 70
     8
 71
     3
 72
     8
 73
     4
 74
     0
 42
0.0000000001
 43
0.0000000001
 40
0.0
 40
0.0
 40
0.0
 40
0.0
 40
1.0
 40
1.0
 40
1.0
 40
1.0
 10
35.85968056677891
 20
-70.2794693666431
 30
0.0
 10
35.94330105300648
 20
-70.15621304961141
 30
0.0
 10
35.94330105300648
 20
-69.99446753720505
 30
0.0
 10
35.85968056677891
 20
-69.87120772433303
 30
0.0
  0
SPLINE
  5
134
330
A7
100
AcDbEntity
  8
Camada 1
 62
    18
420
        0
370
    15
100
AcDbSpline
210
0.0
220
0.0
230
1.0
 70
     8
 71
     3
 72
     8
 73
     4
 74
     0
 42
0.0000000001
 43
0.0000000001
 40
0.0
 40
0.0
 40
0.0
 40
0.0
 40
1.0
 40
1.0
 40
1.0
 40
1.0
 10
35.85968056677891
 20
-69.53944204689062
 30
0.0
 10
35.94330105300648
 20
-69.41618572985891
 30
0.0
 10
35.94330105300648
 20
-69.25444021745256
 30
0.0
 10
35.85968056677891
 20
-69.13118040458055
 30
0.0
  0
SPLINE
  5
135
330
A7
100
AcDbEntity
  8
Camada 1
 62
    18
420
        0
370
    15
100
AcDbSpline
210
0.0
220
0.0
230
1.0
 70
     8
 71
     3
 72
     8
 73
     4
 74
     0
 42
0.0000000001
 43
0.0000000001
 40
0.0
 40
0.0
 40
0.0
 40
0.0
 40
1.0
 40
1.0
 40
1.0
 40
1.0
 10
35.85968056677891
 20
-71.01951766143499
 30
0.0
 10
35.79140681694573
 20
-71.11963851116517
 30
0.0
 10
35.79140681694573
 20
-71.25137223953089
 30
0.0
 10
35.85968056677891
 20
-71.35126236383929
 30
0.0
  0
SPLINE
  5
136
330
A7
100
AcDbEntity
  8
Camada 1
 62
    18
420
        0
370
    15
100
AcDbSpline
210
0.0
220
0.0
230
1.0
 70
     8
 71
     3
 72
     8
 73
     4
 74
     0
 42
0.0000000001
 43
0.0000000001
 40
0.0
 40
0.0
 40
0.0
 40
0.0
 40
1.0
 40
1.0
 40
1.0
 40
1.0
 10
35.85968056677891
 20
-70.2794693666431
 30
0.0
 10
35.79140681694573
 20
-70.37959021637457
 30
0.0
 10
35.79140681694573
 20
-70.511323944739
 30
0.0
 10
35.85968056677891
 20
-70.61121406904742
 30
0.0
  0
SPLINE
  5
137
330
A7
100
AcDbEntity
  8
Camada 1
 62
    18
420
        0
370
    15
100
AcDbSpline
210
0.0
220
0.0
230
1.0
 70
     8
 71
     3
 72
     8
 73
     4
 74
     0
 42
0.0000000001
 43
0.0000000001
 40
0.0
 40
0.0
 40
0.0
 40
0.0
 40
1.0
 40
1.0
 40
1.0
 40
1.0
 10
35.85968056677891
 20
-69.53944204689062
 30
0.0
 10
35.79140681694573
 20
-69.63956289662078
 30
0.0
 10
35.79140681694573
 20
-69.77129662498652
 30
0.0
 10
35.85968056677891
 20
-69.87118674929622
 30
0.0
  0
SPLINE
  5
138
330
A7
100
AcDbEntity
  8
Camada 1
 62
    18
420
        0
370
    15
100
AcDbSpline
210
0.0
220
0.0
230
1.0
 70
     8
 71
     3
 72
     8
 73
     4
 74
     0
 42
0.0000000001
 43
0.0000000001
 40
0.0
 40
0.0
 40
0.0
 40
0.0
 40
1.0
 40
1.0
 40
1.0
 40
1.0
 10
35.85968056677891
 20
-68.79941472713811
 30
0.0
 10
35.79140681694573
 20
-68.8995355768683
 30
0.0
 10
35.79140681694573
 20
-69.03126930523402
 30
0.0
 10
35.85968056677891
 20
-69.13115942954243
 30
0.0
  0
SPLINE
  5
139
330
A7
100
AcDbEntity
  8
Camada 1
 62
    18
420
        0
370
    15
100
AcDbSpline
210
0.0
220
0.0
230
1.0
 70
     8
 71
     3
 72
    11
 73
     7
 74
     0
 42
0.0000000001
 43
0.0000000001
 40
0.0
 40
0.0
 40
0.0
 40
0.0
 40
1.0
 40
1.0
 40
1.0
 40
2.0
 40
2.0
 40
2.0
 40
2.0
 10
35.68010976761335
 20
-71.71997906717705
 30
0.0
 10
35.80565585966559
 20
-71.71975008967544
 30
0.0
 10
35.90715057440798
 20
-71.6180298932705
 30
0.0
 10
35.90715057440798
 20
-71.49248030537986
 30
0.0
 10
35.90691984898557
 20
-71.45605365544239
 30
0.0
 10
35.89844243765218
 20
-71.42031219009215
 30
0.0
 10
35.8817183404075
 20
-71.38823786061306
 30
0.0
  0
SPLINE
  5
13A
330
A7
100
AcDbEntity
  8
Camada 1
 62
    18
420
        0
370
    15
100
AcDbSpline
210
0.0
220
0.0
230
1.0
 70
     8
 71
     3
 72
     8
 73
     4
 74
     0
 42
0.0000000001
 43
0.0000000001
 40
0.0
 40
0.0
 40
0.0
 40
0.0
 40
1.0
 40
1.0
 40
1.0
 40
1.0
 10
35.85968056677891
 20
-68.05936643234623
 30
0.0
 10
35.94330105300648
 20
-67.93611011531453
 30
0.0
 10
35.94330105300648
 20
-67.77436460290819
 30
0.0
 10
35.85968056677891
 20
-67.65110479003617
 30
0.0
  0
SPLINE
  5
13B
330
A7
100
AcDbEntity
  8
Camada 1
 62
    18
420
        0
370
    15
100
AcDbSpline
210
0.0
220
0.0
230
1.0
 70
     8
 71
     3
 72
     8
 73
     4
 74
     0
 42
0.0000000001
 43
0.0000000001
 40
0.0
 40
0.0
 40
0.0
 40
0.0
 40
1.0
 40
1.0
 40
1.0
 40
1.0
 10
35.85968056677891
 20
-67.31933911259375
 30
0.0
 10
35.94330105300648
 20
-67.19608279556076
 30
0.0
 10
35.94330105300648
 20
-67.0343372831557
 30
0.0
 10
35.85968056677891
 20
-66.91107747028368
 30
0.0
  0
SPLINE
  5
13C
330
A7
100
AcDbEntity
  8
Camada 1
 62
    18
420
        0
370
    15
100
AcDbSpline
210
0.0
220
0.0
230
1.0
 70
     8
 71
     3
 72
     8
 73
     4
 74
     0
 42
0.0000000001
 43
0.0000000001
 40
0.0
 40
0.0
 40
0.0
 40
0.0
 40
1.0
 40
1.0
 40
1.0
 40
1.0
 10
35.85968056677891
 20
-66.57931179283997
 30
0.0
 10
35.94330105300648
 20
-66.45605547580827
 30
0.0
 10
35.94330105300648
 20
-66.29430996340193
 30
0.0
 10
35.85968056677891
 20
-66.17105015052991
 30
0.0
  0
SPLINE
  5
13D
330
A7
100
AcDbEntity
  8
Camada 1
 62
    18
420
        0
370
    15
100
AcDbSpline
210
0.0
220
0.0
230
1.0
 70
     8
 71
     3
 72
     8
 73
     4
 74
     0
 42
0.0000000001
 43
0.0000000001
 40
0.0
 40
0.0
 40
0.0
 40
0.0
 40
1.0
 40
1.0
 40
1.0
 40
1.0
 10
35.85968056677891
 20
-65.83926349804937
 30
0.0
 10
35.94330105300648
 20
-65.71600718101767
 30
0.0
 10
35.94330105300648
 20
-65.55426166861005
 30
0.0
 10
35.85968056677891
 20
-65.43100185573931
 30
0.0
  0
SPLINE
  5
13E
330
A7
100
AcDbEntity
  8
Camada 1
 62
    18
420
        0
370
    15
100
AcDbSpline
210
0.0
220
0.0
230
1.0
 70
     8
 71
     3
 72
     8
 73
     4
 74
     0
 42
0.0000000001
 43
0.0000000001
 40
0.0
 40
0.0
 40
0.0
 40
0.0
 40
1.0
 40
1.0
 40
1.0
 40
1.0
 10
35.85968056677891
 20
-68.05936643234623
 30
0.0
 10
35.79140681694573
 20
-68.15948728207771
 30
0.0
 10
35.79140681694573
 20
-68.29099028502037
 30
0.0
 10
35.85968056677891
 20
-68.39111113475055
 30
0.0
  0
SPLINE
  5
13F
330
A7
100
AcDbEntity
  8
Camada 1
 62
    18
420
        0
370
    15
100
AcDbSpline
210
0.0
220
0.0
230
1.0
 70
     8
 71
     3
 72
     8
 73
     4
 74
     0
 42
0.0000000001
 43
0.0000000001
 40
0.0
 40
0.0
 40
0.0
 40
0.0
 40
1.0
 40
1.0
 40
1.0
 40
1.0
 10
35.85968056677891
 20
-67.31933911259375
 30
0.0
 10
35.79140681694573
 20
-67.41945996232392
 30
0.0
 10
35.79140681694573
 20
-67.55119369068966
 30
0.0
 10
35.85968056677891
 20
-67.65108381499806
 30
0.0
  0
SPLINE
  5
140
330
A7
100
AcDbEntity
  8
Camada 1
 62
    18
420
        0
370
    15
100
AcDbSpline
210
0.0
220
0.0
230
1.0
 70
     8
 71
     3
 72
     8
 73
     4
 74
     0
 42
0.0000000001
 43
0.0000000001
 40
0.0
 40
0.0
 40
0.0
 40
0.0
 40
1.0
 40
1.0
 40
1.0
 40
1.0
 10
35.85968056677891
 20
-66.57931179283997
 30
0.0
 10
35.79140681694573
 20
-66.67943264257015
 30
0.0
 10
35.79140681694573
 20
-66.81116637093715
 30
0.0
 10
35.85968056677891
 20
-66.91105649524557
 30
0.0
  0
SPLINE
  5
141
330
A7
100
AcDbEntity
  8
Camada 1
 62
    18
420
        0
370
    15
100
AcDbSpline
210
0.0
220
0.0
230
1.0
 70
     8
 71
     3
 72
     8
 73
     4
 74
     0
 42
0.0000000001
 43
0.0000000001
 40
0.0
 40
0.0
 40
0.0
 40
0.0
 40
1.0
 40
1.0
 40
1.0
 40
1.0
 10
35.85968056677891
 20
-65.83926349804937
 30
0.0
 10
35.79140681694573
 20
-65.93938434777955
 30
0.0
 10
35.79140681694573
 20
-66.07111807614528
 30
0.0
 10
35.85968056677891
 20
-66.17100820045369
 30
0.0
  0
SPLINE
  5
142
330
A7
100
AcDbEntity
  8
Camada 1
 62
    18
420
        0
370
    15
100
AcDbSpline
210
0.0
220
0.0
230
1.0
 70
     8
 71
     3
 72
     8
 73
     4
 74
     0
 42
0.0000000001
 43
0.0000000001
 40
0.0
 40
0.0
 40
0.0
 40
0.0
 40
1.0
 40
1.0
 40
1.0
 40
1.0
 10
35.85968056677891
 20
-65.0992361782956
 30
0.0
 10
35.79140681694573
 20
-65.19935702802706
 30
0.0
 10
35.79140681694573
 20
-65.3310907563915
 30
0.0
 10
35.85968056677891
 20
-65.4309808806999
 30
0.0
  0
SPLINE
  5
143
330
A7
100
AcDbEntity
  8
Camada 1
 62
    18
420
        0
370
    15
100
AcDbSpline
210
0.0
220
0.0
230
1.0
 70
     8
 71
     3
 72
     8
 73
     4
 74
     0
 42
0.0000000001
 43
0.0000000001
 40
0.0
 40
0.0
 40
0.0
 40
0.0
 40
1.0
 40
1.0
 40
1.0
 40
1.0
 10
37.80188172211987
 20
-71.38816794381809
 30
0.0
 10
37.79523613080254
 20
-71.37556893744873
 30
0.0
 10
37.78790535489799
 20
-71.36319716066082
 30
0.0
 10
37.77988589856878
 20
-71.35128333887869
 30
0.0
  0
SPLINE
  5
144
330
A7
100
AcDbEntity
  8
Camada 1
 62
    18
420
        0
370
    15
100
AcDbSpline
210
0.0
220
0.0
230
1.0
 70
     8
 71
     3
 72
    11
 73
     7
 74
     0
 42
0.0000000001
 43
0.0000000001
 40
0.0
 40
0.0
 40
0.0
 40
0.0
 40
1.0
 40
1.0
 40
1.0
 40
2.0
 40
2.0
 40
2.0
 40
2.0
 10
37.60001795302712
 20
-71.71997906717705
 30
0.0
 10
37.72556404507872
 20
-71.71997906717705
 30
0.0
 10
37.82728598940319
 20
-71.6180298932705
 30
0.0
 10
37.82728598940319
 20
-71.49271103080161
 30
0.0
 10
37.82728598940319
 20
-71.45628438086416
 30
0.0
 10
37.81858134848708
 20
-71.42031219009215
 30
0.0
 10
37.80185725124208
 20
-71.38823786061306
 30
0.0
  0
SPLINE
  5
145
330
A7
100
AcDbEntity
  8
Camada 1
 62
    18
420
        0
370
    15
100
AcDbSpline
210
0.0
220
0.0
230
1.0
 70
     8
 71
     3
 72
     8
 73
     4
 74
     0
 42
0.0000000001
 43
0.0000000001
 40
0.0
 40
0.0
 40
0.0
 40
0.0
 40
1.0
 40
1.0
 40
1.0
 40
1.0
 10
35.85968056677891
 20
-65.0992361782956
 30
0.0
 10
35.94330105300648
 20
-64.9759798612639
 30
0.0
 10
35.94330105300648
 20
-64.81423434885755
 30
0.0
 10
35.85968056677891
 20
-64.69097453598553
 30
0.0
  0
SPLINE
  5
146
330
A7
100
AcDbEntity
  8
Camada 1
 62
    18
420
        0
370
    15
100
AcDbSpline
210
0.0
220
0.0
230
1.0
 70
     8
 71
     3
 72
     8
 73
     4
 74
     0
 42
0.0000000001
 43
0.0000000001
 40
0.0
 40
0.0
 40
0.0
 40
0.0
 40
1.0
 40
1.0
 40
1.0
 40
1.0
 10
35.85968056677891
 20
-64.35920885854311
 30
0.0
 10
35.94330105300648
 20
-64.23595254151141
 30
0.0
 10
35.94330105300648
 20
-64.07420702910506
 30
0.0
 10
35.85968056677891
 20
-63.95094721623304
 30
0.0
  0
SPLINE
  5
147
330
A7
100
AcDbEntity
  8
Camada 1
 62
    18
420
        0
370
    15
100
AcDbSpline
210
0.0
220
0.0
230
1.0
 70
     8
 71
     3
 72
     8
 73
     4
 74
     0
 42
0.0000000001
 43
0.0000000001
 40
0.0
 40
0.0
 40
0.0
 40
0.0
 40
1.0
 40
1.0
 40
1.0
 40
1.0
 10
35.85968056677891
 20
-63.61918153879061
 30
0.0
 10
35.94330105300648
 20
-63.49592522175763
 30
0.0
 10
35.94330105300648
 20
-63.33417970935129
 30
0.0
 10
35.85968056677891
 20
-63.21091989647927
 30
0.0
  0
SPLINE
  5
148
330
A7
100
AcDbEntity
  8
Camada 1
 62
    18
420
        0
370
    15
100
AcDbSpline
210
0.0
220
0.0
230
1.0
 70
     8
 71
     3
 72
     8
 73
     4
 74
     0
 42
0.0000000001
 43
0.0000000001
 40
0.0
 40
0.0
 40
0.0
 40
0.0
 40
1.0
 40
1.0
 40
1.0
 40
1.0
 10
35.85968056677891
 20
-62.87913324399873
 30
0.0
 10
35.94330105300648
 20
-62.75587692696703
 30
0.0
 10
35.94330105300648
 20
-62.59413141456069
 30
0.0
 10
35.85968056677891
 20
-62.47087160168867
 30
0.0
  0
SPLINE
  5
149
330
A7
100
AcDbEntity
  8
Camada 1
 62
    18
420
        0
370
    15
100
AcDbSpline
210
0.0
220
0.0
230
1.0
 70
     8
 71
     3
 72
     8
 73
     4
 74
     0
 42
0.0000000001
 43
0.0000000001
 40
0.0
 40
0.0
 40
0.0
 40
0.0
 40
1.0
 40
1.0
 40
1.0
 40
1.0
 10
35.85968056677891
 20
-62.13910592424624
 30
0.0
 10
35.94330105300648
 20
-62.01584960721454
 30
0.0
 10
35.94330105300648
 20
-61.85410409480692
 30
0.0
 10
35.85968056677891
 20
-61.73084428193617
 30
0.0
  0
SPLINE
  5
14A
330
A7
100
AcDbEntity
  8
Camada 1
 62
    18
420
        0
370
    15
100
AcDbSpline
210
0.0
220
0.0
230
1.0
 70
     8
 71
     3
 72
     8
 73
     4
 74
     0
 42
0.0000000001
 43
0.0000000001
 40
0.0
 40
0.0
 40
0.0
 40
0.0
 40
1.0
 40
1.0
 40
1.0
 40
1.0
 10
35.85968056677891
 20
-61.39907860449246
 30
0.0
 10
35.94330105300648
 20
-61.27582228746077
 30
0.0
 10
35.94330105300648
 20
-61.11407677505442
 30
0.0
 10
35.85968056677891
 20
-60.9908169621824
 30
0.0
  0
SPLINE
  5
14B
330
A7
100
AcDbEntity
  8
Camada 1
 62
    18
420
        0
370
    15
100
AcDbSpline
210
0.0
220
0.0
230
1.0
 70
     8
 71
     3
 72
     8
 73
     4
 74
     0
 42
0.0000000001
 43
0.0000000001
 40
0.0
 40
0.0
 40
0.0
 40
0.0
 40
1.0
 40
1.0
 40
1.0
 40
1.0
 10
35.85968056677891
 20
-60.65905128473997
 30
0.0
 10
35.94330105300648
 20
-60.53579496770828
 30
0.0
 10
35.94330105300648
 20
-60.37404945530194
 30
0.0
 10
35.85968056677891
 20
-60.2507896424299
 30
0.0
  0
SPLINE
  5
14C
330
A7
100
AcDbEntity
  8
Camada 1
 62
    18
420
        0
370
    15
100
AcDbSpline
210
0.0
220
0.0
230
1.0
 70
     8
 71
     3
 72
     8
 73
     4
 74
     0
 42
0.0000000001
 43
0.0000000001
 40
0.0
 40
0.0
 40
0.0
 40
0.0
 40
1.0
 40
1.0
 40
1.0
 40
1.0
 10
35.85968056677891
 20
-59.91902746082653
 30
0.0
 10
35.94330105300648
 20
-59.79577114379483
 30
0.0
 10
35.94330105300648
 20
-59.63402563138849
 30
0.0
 10
35.85968056677891
 20
-59.51076581851646
 30
0.0
  0
SPLINE
  5
14D
330
A7
100
AcDbEntity
  8
Camada 1
 62
    18
420
        0
370
    15
100
AcDbSpline
210
0.0
220
0.0
230
1.0
 70
     8
 71
     3
 72
     8
 73
     4
 74
     0
 42
0.0000000001
 43
0.0000000001
 40
0.0
 40
0.0
 40
0.0
 40
0.0
 40
1.0
 40
1.0
 40
1.0
 40
1.0
 10
35.85968056677891
 20
-59.1789756701956
 30
0.0
 10
35.94330105300648
 20
-59.05571935316519
 30
0.0
 10
35.94330105300648
 20
-58.89397384075627
 30
0.0
 10
35.85968056677891
 20
-58.77071402788553
 30
0.0
  0
SPLINE
  5
14E
330
A7
100
AcDbEntity
  8
Camada 1
 62
    18
420
        0
370
    15
100
AcDbSpline
210
0.0
220
0.0
230
1.0
 70
     8
 71
     3
 72
    11
 73
     7
 74
     0
 42
0.0000000001
 43
0.0000000001
 40
0.0
 40
0.0
 40
0.0
 40
0.0
 40
1.0
 40
1.0
 40
1.0
 40
2.0
 40
2.0
 40
2.0
 40
2.0
 10
35.86785733589618
 20
-58.42751695454134
 30
0.0
 10
35.95835064302381
 20
-58.30701186337309
 30
0.0
 10
35.93383781486977
 20
-58.13586953378469
 30
0.0
 10
35.8133292278628
 20
-58.04560345623978
 30
0.0
 10
35.76613539157172
 20
-58.01031994589404
 30
0.0
 10
35.70885955351425
 20
-57.99107534820607
 30
0.0
 10
35.64997912502184
 20
-57.99107534820607
 30
0.0
  0
SPLINE
  5
14F
330
A7
100
AcDbEntity
  8
Camada 1
 62
    18
420
        0
370
    15
100
AcDbSpline
210
0.0
220
0.0
230
1.0
 70
     8
 71
     3
 72
     8
 73
     4
 74
     0
 42
0.0000000001
 43
0.0000000001
 40
0.0
 40
0.0
 40
0.0
 40
0.0
 40
1.0
 40
1.0
 40
1.0
 40
1.0
 10
35.85968056677891
 20
-64.35920885854311
 30
0.0
 10
35.79140681694573
 20
-64.45932970827456
 30
0.0
 10
35.79140681694573
 20
-64.59106343663901
 30
0.0
 10
35.85968056677891
 20
-64.69095356094742
 30
0.0
  0
SPLINE
  5
150
330
A7
100
AcDbEntity
  8
Camada 1
 62
    18
420
        0
370
    15
100
AcDbSpline
210
0.0
220
0.0
230
1.0
 70
     8
 71
     3
 72
     8
 73
     4
 74
     0
 42
0.0000000001
 43
0.0000000001
 40
0.0
 40
0.0
 40
0.0
 40
0.0
 40
1.0
 40
1.0
 40
1.0
 40
1.0
 10
35.85968056677891
 20
-63.61918153879061
 30
0.0
 10
35.79140681694573
 20
-63.7193023885208
 30
0.0
 10
35.79140681694573
 20
-63.85103611688652
 30
0.0
 10
35.85968056677891
 20
-63.95092624119492
 30
0.0
  0
SPLINE
  5
151
330
A7
100
AcDbEntity
  8
Camada 1
 62
    18
420
        0
370
    15
100
AcDbSpline
210
0.0
220
0.0
230
1.0
 70
     8
 71
     3
 72
     8
 73
     4
 74
     0
 42
0.0000000001
 43
0.0000000001
 40
0.0
 40
0.0
 40
0.0
 40
0.0
 40
1.0
 40
1.0
 40
1.0
 40
1.0
 10
35.85968056677891
 20
-62.87913324399873
 30
0.0
 10
35.79140681694573
 20
-62.97925409372891
 30
0.0
 10
35.79140681694573
 20
-63.11098782209463
 30
0.0
 10
35.85968056677891
 20
-63.21087794640305
 30
0.0
  0
SPLINE
  5
152
330
A7
100
AcDbEntity
  8
Camada 1
 62
    18
420
        0
370
    15
100
AcDbSpline
210
0.0
220
0.0
230
1.0
 70
     8
 71
     3
 72
     8
 73
     4
 74
     0
 42
0.0000000001
 43
0.0000000001
 40
0.0
 40
0.0
 40
0.0
 40
0.0
 40
1.0
 40
1.0
 40
1.0
 40
1.0
 10
35.85968056677891
 20
-62.13910592424624
 30
0.0
 10
35.79140681694573
 20
-62.23922677397641
 30
0.0
 10
35.79140681694573
 20
-62.37096050234214
 30
0.0
 10
35.85968056677891
 20
-62.47085062665055
 30
0.0
  0
SPLINE
  5
153
330
A7
100
AcDbEntity
  8
Camada 1
 62
    18
420
        0
370
    15
100
AcDbSpline
210
0.0
220
0.0
230
1.0
 70
     8
 71
     3
 72
     8
 73
     4
 74
     0
 42
0.0000000001
 43
0.0000000001
 40
0.0
 40
0.0
 40
0.0
 40
0.0
 40
1.0
 40
1.0
 40
1.0
 40
1.0
 10
35.86788180677526
 20
-58.42751695454134
 30
0.0
 10
35.79181932603272
 20
-58.52832298885875
 30
0.0
 10
35.78838291558301
 20
-58.6662443535373
 30
0.0
 10
35.859631625023
 20
-58.77071402788553
 30
0.0
  0
SPLINE
  5
154
330
A7
100
AcDbEntity
  8
Camada 1
 62
    18
420
        0
370
    15
100
AcDbSpline
210
0.0
220
0.0
230
1.0
 70
     8
 71
     3
 72
     8
 73
     4
 74
     0
 42
0.0000000001
 43
0.0000000001
 40
0.0
 40
0.0
 40
0.0
 40
0.0
 40
1.0
 40
1.0
 40
1.0
 40
1.0
 10
35.85968056677891
 20
-61.39907860449246
 30
0.0
 10
35.79140681694573
 20
-61.49919945422265
 30
0.0
 10
35.79140681694573
 20
-61.63093318258837
 30
0.0
 10
35.85968056677891
 20
-61.73082330689678
 30
0.0
  0
SPLINE
  5
155
330
A7
100
AcDbEntity
  8
Camada 1
 62
    18
420
        0
370
    15
100
AcDbSpline
210
0.0
220
0.0
230
1.0
 70
     8
 71
     3
 72
     8
 73
     4
 74
     0
 42
0.0000000001
 43
0.0000000001
 40
0.0
 40
0.0
 40
0.0
 40
0.0
 40
1.0
 40
1.0
 40
1.0
 40
1.0
 10
35.85968056677891
 20
-60.65905128473997
 30
0.0
 10
35.79140681694573
 20
-60.75917213447016
 30
0.0
 10
35.79140681694573
 20
-60.89090586283588
 30
0.0
 10
35.85968056677891
 20
-60.99079598714428
 30
0.0
  0
SPLINE
  5
156
330
A7
100
AcDbEntity
  8
Camada 1
 62
    18
420
        0
370
    15
100
AcDbSpline
210
0.0
220
0.0
230
1.0
 70
     8
 71
     3
 72
     8
 73
     4
 74
     0
 42
0.0000000001
 43
0.0000000001
 40
0.0
 40
0.0
 40
0.0
 40
0.0
 40
1.0
 40
1.0
 40
1.0
 40
1.0
 10
35.85968056677891
 20
-59.91902746082653
 30
0.0
 10
35.79140681694573
 20
-60.01914831055671
 30
0.0
 10
35.79140681694573
 20
-60.15088203892243
 30
0.0
 10
35.85968056677891
 20
-60.25077216323084
 30
0.0
  0
SPLINE
  5
157
330
A7
100
AcDbEntity
  8
Camada 1
 62
    18
420
        0
370
    15
100
AcDbSpline
210
0.0
220
0.0
230
1.0
 70
     8
 71
     3
 72
     8
 73
     4
 74
     0
 42
0.0000000001
 43
0.0000000001
 40
0.0
 40
0.0
 40
0.0
 40
0.0
 40
1.0
 40
1.0
 40
1.0
 40
1.0
 10
35.85968056677891
 20
-59.1789756701956
 30
0.0
 10
35.79140681694573
 20
-59.27909651992578
 30
0.0
 10
35.79140681694573
 20
-59.41083024829151
 30
0.0
 10
35.85968056677891
 20
-59.51072037259991
 30
0.0
  0
SPLINE
  5
158
330
A7
100
AcDbEntity
  8
Camada 1
 62
    18
420
        0
370
    15
100
AcDbSpline
210
0.0
220
0.0
230
1.0
 70
     8
 71
     3
 72
     8
 73
     4
 74
     0
 42
0.0000000001
 43
0.0000000001
 40
0.0
 40
0.0
 40
0.0
 40
0.0
 40
1.0
 40
1.0
 40
1.0
 40
1.0
 10
25.38344596174321
 20
-62.86801996951278
 30
0.0
 10
25.39100396722953
 20
-62.86916660494226
 30
0.0
 10
25.39856546855552
 20
-62.87099842495895
 30
0.0
 10
25.40589624445879
 20
-62.87329169581791
 30
0.0
  0
SPLINE
  5
159
330
A7
100
AcDbEntity
  8
Camada 1
 62
    18
420
        0
370
    15
100
AcDbSpline
210
0.0
220
0.0
230
1.0
 70
     8
 71
     3
 72
    11
 73
     7
 74
     0
 42
0.0000000001
 43
0.0000000001
 40
0.0
 40
0.0
 40
0.0
 40
0.0
 40
1.0
 40
1.0
 40
1.0
 40
2.0
 40
2.0
 40
2.0
 40
2.0
 10
25.91331738057478
 20
-60.31709173865835
 30
0.0
 10
25.91262870014916
 20
-60.321216829534
 30
0.0
 10
25.91148206472001
 20
-60.32488396540644
 30
0.0
 10
25.90987747428507
 20
-60.32854760543727
 30
0.0
 10
25.90346260838951
 20
-60.34298192766364
 30
0.0
 10
25.89201023744964
 20
-60.35466502402528
 30
0.0
 10
25.88032364524863
 20
-60.36474702579329
 30
0.0
  0
SPLINE
  5
15A
330
A7
100
AcDbEntity
  8
Camada 1
 62
    18
420
        0
370
    15
100
AcDbSpline
210
0.0
220
0.0
230
1.0
 70
     8
 71
     3
 72
     8
 73
     4
 74
     0
 42
0.0000000001
 43
0.0000000001
 40
0.0
 40
0.0
 40
0.0
 40
0.0
 40
1.0
 40
1.0
 40
1.0
 40
1.0
 10
25.4242494030162
 20
-62.89132323712046
 30
0.0
 10
25.43249608892814
 20
-62.90323705890387
 30
0.0
 10
25.4395961394106
 20
-62.91606679069627
 30
0.0
 10
25.44486786571573
 20
-62.92981592833543
 30
0.0
  0
SPLINE
  5
15B
330
A7
100
AcDbEntity
  8
Camada 1
 62
    18
420
        0
370
    15
100
AcDbSpline
210
0.0
220
0.0
230
1.0
 70
     8
 71
     3
 72
     8
 73
     4
 74
     0
 42
0.0000000001
 43
0.0000000001
 40
0.0
 40
0.0
 40
0.0
 40
0.0
 40
1.0
 40
1.0
 40
1.0
 40
1.0
 10
25.81626937396323
 20
-60.38037342936441
 30
0.0
 10
25.83826170167464
 20
-60.38106210979067
 30
0.0
 10
25.86140066481585
 20
-60.37579387932458
 30
0.0
 10
25.88018730749932
 20
-60.36479596754888
 30
0.0
  0
SPLINE
  5
15C
330
A7
100
AcDbEntity
  8
Camada 1
 62
    18
420
        0
370
    15
100
AcDbSpline
210
0.0
220
0.0
230
1.0
 70
     8
 71
     3
 72
    11
 73
     7
 74
     0
 42
0.0000000001
 43
0.0000000001
 40
0.0
 40
0.0
 40
0.0
 40
0.0
 40
1.0
 40
1.0
 40
1.0
 40
2.0
 40
2.0
 40
2.0
 40
2.0
 10
25.44482591563886
 20
-62.92985787841165
 30
0.0
 10
25.44619978065107
 20
-62.94017060560141
 30
0.0
 10
25.44757364566327
 20
-62.95047983695086
 30
0.0
 10
25.44894751067515
 20
-62.9607890683003
 30
0.0
 10
25.45307260155112
 20
-62.98988494233321
 30
0.0
 10
25.45834083201721
 20
-63.01898081636612
 30
0.0
 10
25.45925674202492
 20
-63.04830741582208
 30
0.0
  0
LINE
  5
15D
330
A7
100
AcDbEntity
  8
Camada 1
 62
    18
420
        0
370
    15
100
AcDbLine
 10
37.80188172211987
 20
-71.38816794381809
 30
0.0
 11
36.73861158217393
 21
-71.38816794381809
 31
0.0
  0
LINE
  5
15E
330
A7
100
AcDbEntity
  8
Camada 1
 62
    18
420
        0
370
    15
100
AcDbLine
 10
22.80830204911308
 20
-71.38816794381809
 30
0.0
 11
21.74503190916745
 21
-71.38816794381809
 31
0.0
  0
LINE
  5
15F
330
A7
100
AcDbEntity
  8
Camada 1
 62
    18
420
        0
370
    15
100
AcDbLine
 10
29.62870982390047
 20
-73.31016314554748
 30
0.0
 11
29.91829469921866
 21
-73.31016314554748
 31
0.0
  0
LINE
  5
160
330
A7
100
AcDbEntity
  8
Camada 1
 62
    18
420
        0
370
    15
100
AcDbLine
 10
36.71888455860431
 20
-71.01951766143499
 30
0.0
 11
35.9962909915612
 21
-71.01951766143499
 31
0.0
  0
LINE
  5
161
330
A7
100
AcDbEntity
  8
Camada 1
 62
    18
420
        0
370
    15
100
AcDbLine
 10
22.82807451859859
 20
-71.01951766143499
 30
0.0
 11
23.55043736022026
 21
-71.01951766143499
 31
0.0
  0
LINE
  5
162
330
A7
100
AcDbEntity
  8
Camada 1
 62
    18
420
        0
370
    15
100
AcDbLine
 10
36.71888455860431
 20
-70.61121057320836
 30
0.0
 11
35.9962909915612
 21
-70.61121057320836
 31
0.0
  0
LINE
  5
163
330
A7
100
AcDbEntity
  8
Camada 1
 62
    18
420
        0
370
    15
100
AcDbLine
 10
22.82807451859859
 20
-70.61121057320836
 30
0.0
 11
23.55043736022026
 21
-70.61121057320836
 31
0.0
  0
LINE
  5
164
330
A7
100
AcDbEntity
  8
Camada 1
 62
    18
420
        0
370
    15
100
AcDbLine
 10
36.71888455860431
 20
-70.2794693666431
 30
0.0
 11
35.9962909915612
 21
-70.2794693666431
 31
0.0
  0
LINE
  5
165
330
A7
100
AcDbEntity
  8
Camada 1
 62
    18
420
        0
370
    15
100
AcDbLine
 10
22.82807451859859
 20
-70.2794693666431
 30
0.0
 11
23.55043736022026
 21
-70.2794693666431
 31
0.0
  0
LINE
  5
166
330
A7
100
AcDbEntity
  8
Camada 1
 62
    18
420
        0
370
    15
100
AcDbLine
 10
36.71888455860431
 20
-69.87118325345588
 30
0.0
 11
35.9962909915612
 21
-69.87118325345588
 31
0.0
  0
LINE
  5
167
330
A7
100
AcDbEntity
  8
Camada 1
 62
    18
420
        0
370
    15
100
AcDbLine
 10
22.82807451859859
 20
-69.87118325345588
 30
0.0
 11
23.55043736022026
 21
-69.87118325345588
 31
0.0
  0
LINE
  5
168
330
A7
100
AcDbEntity
  8
Camada 1
 62
    18
420
        0
370
    15
100
AcDbLine
 10
36.71888455860431
 20
-69.53944204689062
 30
0.0
 11
35.9962909915612
 21
-69.53944204689062
 31
0.0
  0
LINE
  5
169
330
A7
100
AcDbEntity
  8
Camada 1
 62
    18
420
        0
370
    15
100
AcDbLine
 10
22.82807451859859
 20
-69.53944204689062
 30
0.0
 11
23.55043736022026
 21
-69.53944204689062
 31
0.0
  0
LINE
  5
16A
330
A7
100
AcDbEntity
  8
Camada 1
 62
    18
420
        0
370
    15
100
AcDbLine
 10
36.71888455860431
 20
-69.13113495866401
 30
0.0
 11
35.9962909915612
 21
-69.13113495866401
 31
0.0
  0
LINE
  5
16B
330
A7
100
AcDbEntity
  8
Camada 1
 62
    18
420
        0
370
    15
100
AcDbLine
 10
22.82807451859859
 20
-69.13113495866401
 30
0.0
 11
23.55043736022026
 21
-69.13113495866401
 31
0.0
  0
LINE
  5
16C
330
A7
100
AcDbEntity
  8
Camada 1
 62
    18
420
        0
370
    15
100
AcDbLine
 10
36.71888455860431
 20
-68.79941472713811
 30
0.0
 11
35.9962909915612
 21
-68.79941472713811
 31
0.0
  0
LINE
  5
16D
330
A7
100
AcDbEntity
  8
Camada 1
 62
    18
420
        0
370
    15
100
AcDbLine
 10
22.82807451859859
 20
-68.79941472713811
 30
0.0
 11
23.55043736022026
 21
-68.79941472713811
 31
0.0
  0
LINE
  5
16E
330
A7
100
AcDbEntity
  8
Camada 1
 62
    18
420
        0
370
    15
100
AcDbLine
 10
36.71888455860431
 20
-68.39113210978995
 30
0.0
 11
35.9962909915612
 21
-68.39113210978995
 31
0.0
  0
LINE
  5
16F
330
A7
100
AcDbEntity
  8
Camada 1
 62
    18
420
        0
370
    15
100
AcDbLine
 10
22.82807451859859
 20
-68.39113210978995
 30
0.0
 11
23.55043736022026
 21
-68.39113210978995
 31
0.0
  0
LINE
  5
170
330
A7
100
AcDbEntity
  8
Camada 1
 62
    18
420
        0
370
    15
100
AcDbLine
 10
36.71888455860431
 20
-68.05936643234623
 30
0.0
 11
35.9962909915612
 21
-68.05936643234623
 31
0.0
  0
LINE
  5
171
330
A7
100
AcDbEntity
  8
Camada 1
 62
    18
420
        0
370
    15
100
AcDbLine
 10
22.82807451859859
 20
-68.05936643234623
 30
0.0
 11
23.55043736022026
 21
-68.05936643234623
 31
0.0
  0
LINE
  5
172
330
A7
100
AcDbEntity
  8
Camada 1
 62
    18
420
        0
370
    15
100
AcDbLine
 10
36.71888455860431
 20
-67.65108031915772
 30
0.0
 11
35.9962909915612
 21
-67.65108031915772
 31
0.0
  0
LINE
  5
173
330
A7
100
AcDbEntity
  8
Camada 1
 62
    18
420
        0
370
    15
100
AcDbLine
 10
22.82807451859859
 20
-67.65108031915772
 30
0.0
 11
23.55043736022026
 21
-67.65108031915772
 31
0.0
  0
LINE
  5
174
330
A7
100
AcDbEntity
  8
Camada 1
 62
    18
420
        0
370
    15
100
AcDbLine
 10
36.71888455860431
 20
-67.31933911259375
 30
0.0
 11
35.9962909915612
 21
-67.31933911259375
 31
0.0
  0
LINE
  5
175
330
A7
100
AcDbEntity
  8
Camada 1
 62
    18
420
        0
370
    15
100
AcDbLine
 10
22.82807451859859
 20
-67.31933911259375
 30
0.0
 11
23.55043736022026
 21
-67.31933911259375
 31
0.0
  0
LINE
  5
176
330
A7
100
AcDbEntity
  8
Camada 1
 62
    18
420
        0
370
    15
100
AcDbLine
 10
36.71888455860431
 20
-66.91103202436713
 30
0.0
 11
35.9962909915612
 21
-66.91103202436713
 31
0.0
  0
LINE
  5
177
330
A7
100
AcDbEntity
  8
Camada 1
 62
    18
420
        0
370
    15
100
AcDbLine
 10
22.82807451859859
 20
-66.91103202436713
 30
0.0
 11
23.55043736022026
 21
-66.91103202436713
 31
0.0
  0
LINE
  5
178
330
A7
100
AcDbEntity
  8
Camada 1
 62
    18
420
        0
370
    15
100
AcDbLine
 10
36.71888455860431
 20
-66.57931179283997
 30
0.0
 11
35.9962909915612
 21
-66.57931179283997
 31
0.0
  0
LINE
  5
179
330
A7
100
AcDbEntity
  8
Camada 1
 62
    18
420
        0
370
    15
100
AcDbLine
 10
22.82807451859859
 20
-66.57931179283997
 30
0.0
 11
23.55043736022026
 21
-66.57931179283997
 31
0.0
  0
LINE
  5
17A
330
A7
100
AcDbEntity
  8
Camada 1
 62
    18
420
        0
370
    15
100
AcDbLine
 10
36.71888455860431
 20
-66.17102917549179
 30
0.0
 11
35.9962909915612
 21
-66.17102917549179
 31
0.0
  0
LINE
  5
17B
330
A7
100
AcDbEntity
  8
Camada 1
 62
    18
420
        0
370
    15
100
AcDbLine
 10
22.82807451859859
 20
-66.17102917549179
 30
0.0
 11
23.55043736022026
 21
-66.17102917549179
 31
0.0
  0
LINE
  5
17C
330
A7
100
AcDbEntity
  8
Camada 1
 62
    18
420
        0
370
    15
100
AcDbLine
 10
36.71888455860431
 20
-65.83926349804937
 30
0.0
 11
35.9962909915612
 21
-65.83926349804937
 31
0.0
  0
LINE
  5
17D
330
A7
100
AcDbEntity
  8
Camada 1
 62
    18
420
        0
370
    15
100
AcDbLine
 10
22.82807451859859
 20
-65.83926349804937
 30
0.0
 11
23.55043736022026
 21
-65.83926349804937
 31
0.0
  0
LINE
  5
17E
330
A7
100
AcDbEntity
  8
Camada 1
 62
    18
420
        0
370
    15
100
AcDbLine
 10
31.82070271096776
 20
-70.12436594971504
 30
0.0
 11
32.06217434414779
 21
-66.70454325931737
 31
0.0
  0
LINE
  5
17F
330
A7
100
AcDbEntity
  8
Camada 1
 62
    18
420
        0
370
    15
100
AcDbLine
 10
36.71888455860431
 20
-65.43097738486086
 30
0.0
 11
35.9962909915612
 21
-65.43097738486086
 31
0.0
  0
LINE
  5
180
330
A7
100
AcDbEntity
  8
Camada 1
 62
    18
420
        0
370
    15
100
AcDbLine
 10
22.82807451859859
 20
-65.43097738486086
 30
0.0
 11
23.55043736022026
 21
-65.43097738486086
 31
0.0
  0
LINE
  5
181
330
A7
100
AcDbEntity
  8
Camada 1
 62
    18
420
        0
370
    15
100
AcDbLine
 10
36.71888455860431
 20
-65.0992361782956
 30
0.0
 11
35.9962909915612
 21
-65.0992361782956
 31
0.0
  0
LINE
  5
182
330
A7
100
AcDbEntity
  8
Camada 1
 62
    18
420
        0
370
    15
100
AcDbLine
 10
22.82807451859859
 20
-65.0992361782956
 30
0.0
 11
23.55043736022026
 21
-65.0992361782956
 31
0.0
  0
LINE
  5
183
330
A7
100
AcDbEntity
  8
Camada 1
 62
    18
420
        0
370
    15
100
AcDbLine
 10
36.71888455860431
 20
-64.69095006510709
 30
0.0
 11
35.9962909915612
 21
-64.69095006510709
 31
0.0
  0
LINE
  5
184
330
A7
100
AcDbEntity
  8
Camada 1
 62
    18
420
        0
370
    15
100
AcDbLine
 10
22.82807451859859
 20
-64.69095006510709
 30
0.0
 11
23.55043736022026
 21
-64.69095006510709
 31
0.0
  0
LINE
  5
185
330
A7
100
AcDbEntity
  8
Camada 1
 62
    18
420
        0
370
    15
100
AcDbLine
 10
36.71888455860431
 20
-64.35920885854311
 30
0.0
 11
35.9962909915612
 21
-64.35920885854311
 31
0.0
  0
LINE
  5
186
330
A7
100
AcDbEntity
  8
Camada 1
 62
    18
420
        0
370
    15
100
AcDbLine
 10
22.82807451859859
 20
-64.35920885854311
 30
0.0
 11
23.55043736022026
 21
-64.35920885854311
 31
0.0
  0
LINE
  5
187
330
A7
100
AcDbEntity
  8
Camada 1
 62
    18
420
        0
370
    15
100
AcDbLine
 10
33.63304740387496
 20
-60.30371316002964
 30
0.0
 11
33.63304740387496
 21
-58.99118265599621
 31
0.0
  0
LINE
  5
188
330
A7
100
AcDbEntity
  8
Camada 1
 62
    18
420
        0
370
    15
100
AcDbLine
 10
36.71888455860431
 20
-63.95092624119492
 30
0.0
 11
35.9962909915612
 21
-63.95092624119492
 31
0.0
  0
LINE
  5
189
330
A7
100
AcDbEntity
  8
Camada 1
 62
    18
420
        0
370
    15
100
AcDbLine
 10
22.82807451859859
 20
-63.95092624119492
 30
0.0
 11
23.55043736022026
 21
-63.95092624119492
 31
0.0
  0
LINE
  5
18A
330
A7
100
AcDbEntity
  8
Camada 1
 62
    18
420
        0
370
    15
100
AcDbLine
 10
36.71888455860431
 20
-63.61918153879061
 30
0.0
 11
35.9962909915612
 21
-63.61918153879061
 31
0.0
  0
LINE
  5
18B
330
A7
100
AcDbEntity
  8
Camada 1
 62
    18
420
        0
370
    15
100
AcDbLine
 10
22.82807451859859
 20
-63.61918153879061
 30
0.0
 11
23.55043736022026
 21
-63.61918153879061
 31
0.0
  0
LINE
  5
18C
330
A7
100
AcDbEntity
  8
Camada 1
 62
    18
420
        0
370
    15
100
AcDbLine
 10
34.08765688926241
 20
-69.67039969883732
 30
0.0
 11
34.08765688926241
 21
-63.04839830765389
 31
0.0
  0
LINE
  5
18D
330
A7
100
AcDbEntity
  8
Camada 1
 62
    18
420
        0
370
    15
100
AcDbLine
 10
36.71888455860431
 20
-63.210874450564
 30
0.0
 11
35.9962909915612
 21
-63.210874450564
 31
0.0
  0
LINE
  5
18E
330
A7
100
AcDbEntity
  8
Camada 1
 62
    18
420
        0
370
    15
100
AcDbLine
 10
22.82807451859859
 20
-63.210874450564
 30
0.0
 11
23.55043736022026
 21
-63.210874450564
 31
0.0
  0
LINE
  5
18F
330
A7
100
AcDbEntity
  8
Camada 1
 62
    18
420
        0
370
    15
100
AcDbLine
 10
36.71888455860431
 20
-62.87913324399873
 30
0.0
 11
35.9962909915612
 21
-62.87913324399873
 31
0.0
  0
LINE
  5
190
330
A7
100
AcDbEntity
  8
Camada 1
 62
    18
420
        0
370
    15
100
AcDbLine
 10
22.82807451859859
 20
-62.87913324399873
 30
0.0
 11
23.55043736022026
 21
-62.87913324399873
 31
0.0
  0
LINE
  5
191
330
A7
100
AcDbEntity
  8
Camada 1
 62
    18
420
        0
370
    15
100
AcDbLine
 10
36.71888455860431
 20
-62.47084713081022
 30
0.0
 11
35.9962909915612
 21
-62.47084713081022
 31
0.0
  0
LINE
  5
192
330
A7
100
AcDbEntity
  8
Camada 1
 62
    18
420
        0
370
    15
100
AcDbLine
 10
22.82807451859859
 20
-62.47084713081022
 30
0.0
 11
23.55043736022026
 21
-62.47084713081022
 31
0.0
  0
LINE
  5
193
330
A7
100
AcDbEntity
  8
Camada 1
 62
    18
420
        0
370
    15
100
AcDbLine
 10
36.71888455860431
 20
-62.13910592424624
 30
0.0
 11
35.9962909915612
 21
-62.13910592424624
 31
0.0
  0
LINE
  5
194
330
A7
100
AcDbEntity
  8
Camada 1
 62
    18
420
        0
370
    15
100
AcDbLine
 10
22.82807451859859
 20
-62.13910592424624
 30
0.0
 11
23.55043736022026
 21
-62.13910592424624
 31
0.0
  0
LINE
  5
195
330
A7
100
AcDbEntity
  8
Camada 1
 62
    18
420
        0
370
    15
100
AcDbLine
 10
36.71888455860431
 20
-61.73081981105774
 30
0.0
 11
35.9962909915612
 21
-61.73081981105774
 31
0.0
  0
LINE
  5
196
330
A7
100
AcDbEntity
  8
Camada 1
 62
    18
420
        0
370
    15
100
AcDbLine
 10
22.82807451859859
 20
-61.73081981105774
 30
0.0
 11
23.55043736022026
 21
-61.73081981105774
 31
0.0
  0
LINE
  5
197
330
A7
100
AcDbEntity
  8
Camada 1
 62
    18
420
        0
370
    15
100
AcDbLine
 10
36.71888455860431
 20
-61.39907860449246
 30
0.0
 11
35.9962909915612
 21
-61.39907860449246
 31
0.0
  0
LINE
  5
198
330
A7
100
AcDbEntity
  8
Camada 1
 62
    18
420
        0
370
    15
100
AcDbLine
 10
22.82807451859859
 20
-61.39907860449246
 30
0.0
 11
23.55043736022026
 21
-61.39907860449246
 31
0.0
  0
LINE
  5
199
330
A7
100
AcDbEntity
  8
Camada 1
 62
    18
420
        0
370
    15
100
AcDbLine
 10
36.71888455860431
 20
-60.99079598714428
 30
0.0
 11
35.9962909915612
 21
-60.99079598714428
 31
0.0
  0
LINE
  5
19A
330
A7
100
AcDbEntity
  8
Camada 1
 62
    18
420
        0
370
    15
100
AcDbLine
 10
22.82807451859859
 20
-60.99079598714428
 30
0.0
 11
23.55043736022026
 21
-60.99079598714428
 31
0.0
  0
LINE
  5
19B
330
A7
100
AcDbEntity
  8
Camada 1
 62
    18
420
        0
370
    15
100
AcDbLine
 10
36.71888455860431
 20
-60.65905128473997
 30
0.0
 11
35.9962909915612
 21
-60.65905128473997
 31
0.0
  0
LINE
  5
19C
330
A7
100
AcDbEntity
  8
Camada 1
 62
    18
420
        0
370
    15
100
AcDbLine
 10
22.82807451859859
 20
-60.65905128473997
 30
0.0
 11
23.55043736022026
 21
-60.65905128473997
 31
0.0
  0
LINE
  5
19D
330
A7
100
AcDbEntity
  8
Camada 1
 62
    18
420
        0
370
    15
100
AcDbLine
 10
36.71888455860431
 20
-60.25074419651336
 30
0.0
 11
35.9962909915612
 21
-60.25074419651336
 31
0.0
  0
LINE
  5
19E
330
A7
100
AcDbEntity
  8
Camada 1
 62
    18
420
        0
370
    15
100
AcDbLine
 10
22.82807451859859
 20
-60.25074419651336
 30
0.0
 11
23.55043736022026
 21
-60.25074419651336
 31
0.0
  0
LINE
  5
19F
330
A7
100
AcDbEntity
  8
Camada 1
 62
    18
420
        0
370
    15
100
AcDbLine
 10
36.71888455860431
 20
-59.91902746082653
 30
0.0
 11
35.9962909915612
 21
-59.91902746082653
 31
0.0
  0
LINE
  5
1A0
330
A7
100
AcDbEntity
  8
Camada 1
 62
    18
420
        0
370
    15
100
AcDbLine
 10
22.82807451859859
 20
-59.91902746082653
 30
0.0
 11
23.55043736022026
 21
-59.91902746082653
 31
0.0
  0
LINE
  5
1A1
330
A7
100
AcDbEntity
  8
Camada 1
 62
    18
420
        0
370
    15
100
AcDbLine
 10
36.71888455860431
 20
-59.51071687676087
 30
0.0
 11
35.9962909915612
 21
-59.51071687676087
 31
0.0
  0
LINE
  5
1A2
330
A7
100
AcDbEntity
  8
Camada 1
 62
    18
420
        0
370
    15
100
AcDbLine
 10
22.82807451859859
 20
-59.51071687676087
 30
0.0
 11
23.55043736022026
 21
-59.51071687676087
 31
0.0
  0
LINE
  5
1A3
330
A7
100
AcDbEntity
  8
Camada 1
 62
    18
420
        0
370
    15
100
AcDbLine
 10
36.71888455860431
 20
-59.1789756701956
 30
0.0
 11
35.9962909915612
 21
-59.1789756701956
 31
0.0
  0
LINE
  5
1A4
330
A7
100
AcDbEntity
  8
Camada 1
 62
    18
420
        0
370
    15
100
AcDbLine
 10
22.82807451859859
 20
-59.1789756701956
 30
0.0
 11
23.55043736022026
 21
-59.1789756701956
 31
0.0
  0
LINE
  5
1A5
330
A7
100
AcDbEntity
  8
Camada 1
 62
    18
420
        0
370
    15
100
AcDbLine
 10
36.71888455860431
 20
-58.77069305284742
 30
0.0
 11
35.9962909915612
 21
-58.77069305284742
 31
0.0
  0
LINE
  5
1A6
330
A7
100
AcDbEntity
  8
Camada 1
 62
    18
420
        0
370
    15
100
AcDbLine
 10
22.82807451859859
 20
-58.77069305284742
 30
0.0
 11
23.55043736022026
 21
-58.77069305284742
 31
0.0
  0
LINE
  5
1A7
330
A7
100
AcDbEntity
  8
Camada 1
 62
    18
420
        0
370
    15
100
AcDbLine
 10
36.72621533450854
 20
-58.42751695454134
 30
0.0
 11
36.00453767747313
 21
-58.42751695454134
 31
0.0
  0
LINE
  5
1A8
330
A7
100
AcDbEntity
  8
Camada 1
 62
    18
420
        0
370
    15
100
AcDbLine
 10
22.820743742695
 20
-58.42751695454134
 30
0.0
 11
23.54241790389041
 21
-58.42751695454134
 31
0.0
  0
LINE
  5
1A9
330
A7
100
AcDbEntity
  8
Camada 1
 62
    18
420
        0
370
    15
100
AcDbLine
 10
37.5698453603581
 20
-57.99112079412262
 30
0.0
 11
35.78696010881554
 21
-57.99112079412262
 31
0.0
  0
SPLINE
  5
1AA
330
A7
100
AcDbEntity
  8
Camada 1
 62
    18
420
        0
370
    15
100
AcDbSpline
210
0.0
220
0.0
230
1.0
 70
     8
 71
     3
 72
     8
 73
     4
 74
     0
 42
0.0000000001
 43
0.0000000001
 40
0.0
 40
0.0
 40
0.0
 40
0.0
 40
1.0
 40
1.0
 40
1.0
 40
1.0
 10
21.76707317863477
 20
-68.39113210978995
 30
0.0
 10
21.68344919656751
 20
-68.51439192266069
 30
0.0
 10
21.68344919656751
 20
-68.67613743506703
 30
0.0
 10
21.76707317863477
 20
-68.79939724793906
 30
0.0
  0
SPLINE
  5
1AB
330
A7
100
AcDbEntity
  8
Camada 1
 62
    18
420
        0
370
    15
100
AcDbSpline
210
0.0
220
0.0
230
1.0
 70
     8
 71
     3
 72
     8
 73
     4
 74
     0
 42
0.0000000001
 43
0.0000000001
 40
0.0
 40
0.0
 40
0.0
 40
0.0
 40
1.0
 40
1.0
 40
1.0
 40
1.0
 10
21.76707317863477
 20
-69.13113495866401
 30
0.0
 10
21.68344919656751
 20
-69.25439477153602
 30
0.0
 10
21.68344919656751
 20
-69.41614028394237
 30
0.0
 10
21.76707317863477
 20
-69.53940009681438
 30
0.0
  0
SPLINE
  5
1AC
330
A7
100
AcDbEntity
  8
Camada 1
 62
    18
420
        0
370
    15
100
AcDbSpline
210
0.0
220
0.0
230
1.0
 70
     8
 71
     3
 72
     8
 73
     4
 74
     0
 42
0.0000000001
 43
0.0000000001
 40
0.0
 40
0.0
 40
0.0
 40
0.0
 40
1.0
 40
1.0
 40
1.0
 40
1.0
 10
21.76707317863477
 20
-69.87118325345588
 30
0.0
 10
21.68344919656751
 20
-69.99444306632662
 30
0.0
 10
21.68344919656751
 20
-70.15618857873296
 30
0.0
 10
21.76707317863477
 20
-70.27944839160499
 30
0.0
  0
SPLINE
  5
1AD
330
A7
100
AcDbEntity
  8
Camada 1
 62
    18
420
        0
370
    15
100
AcDbSpline
210
0.0
220
0.0
230
1.0
 70
     8
 71
     3
 72
     8
 73
     4
 74
     0
 42
0.0000000001
 43
0.0000000001
 40
0.0
 40
0.0
 40
0.0
 40
0.0
 40
1.0
 40
1.0
 40
1.0
 40
1.0
 10
21.76707317863477
 20
-70.61121057320836
 30
0.0
 10
21.68344919656751
 20
-70.73447038608041
 30
0.0
 10
21.68344919656751
 20
-70.89621589848674
 30
0.0
 10
21.76707317863477
 20
-71.01947571135877
 30
0.0
  0
SPLINE
  5
1AE
330
A7
100
AcDbEntity
  8
Camada 1
 62
    18
420
        0
370
    15
100
AcDbSpline
210
0.0
220
0.0
230
1.0
 70
     8
 71
     3
 72
     8
 73
     4
 74
     0
 42
0.0000000001
 43
0.0000000001
 40
0.0
 40
0.0
 40
0.0
 40
0.0
 40
1.0
 40
1.0
 40
1.0
 40
1.0
 10
21.76707317863477
 20
-69.13113495866401
 30
0.0
 10
21.8351162030465
 20
-69.03101760477287
 30
0.0
 10
21.8351162030465
 20
-68.89951460182891
 30
0.0
 10
21.76707317863477
 20
-68.79939375210001
 30
0.0
  0
SPLINE
  5
1AF
330
A7
100
AcDbEntity
  8
Camada 1
 62
    18
420
        0
370
    15
100
AcDbSpline
210
0.0
220
0.0
230
1.0
 70
     8
 71
     3
 72
     8
 73
     4
 74
     0
 42
0.0000000001
 43
0.0000000001
 40
0.0
 40
0.0
 40
0.0
 40
0.0
 40
1.0
 40
1.0
 40
1.0
 40
1.0
 10
21.76707317863477
 20
-69.87118325345588
 30
0.0
 10
21.8351162030465
 20
-69.77106589956474
 30
0.0
 10
21.8351162030465
 20
-69.63956289662078
 30
0.0
 10
21.76707317863477
 20
-69.53944204689062
 30
0.0
  0
SPLINE
  5
1B0
330
A7
100
AcDbEntity
  8
Camada 1
 62
    18
420
        0
370
    15
100
AcDbSpline
210
0.0
220
0.0
230
1.0
 70
     8
 71
     3
 72
     8
 73
     4
 74
     0
 42
0.0000000001
 43
0.0000000001
 40
0.0
 40
0.0
 40
0.0
 40
0.0
 40
1.0
 40
1.0
 40
1.0
 40
1.0
 10
21.76707317863477
 20
-70.61121057320836
 30
0.0
 10
21.8351162030465
 20
-70.51109321931723
 30
0.0
 10
21.8351162030465
 20
-70.37959021637457
 30
0.0
 10
21.76707317863477
 20
-70.2794693666431
 30
0.0
  0
SPLINE
  5
1B1
330
A7
100
AcDbEntity
  8
Camada 1
 62
    18
420
        0
370
    15
100
AcDbSpline
210
0.0
220
0.0
230
1.0
 70
     8
 71
     3
 72
     8
 73
     4
 74
     0
 42
0.0000000001
 43
0.0000000001
 40
0.0
 40
0.0
 40
0.0
 40
0.0
 40
1.0
 40
1.0
 40
1.0
 40
1.0
 10
21.76707317863477
 20
-71.35123789296215
 30
0.0
 10
21.8351162030465
 20
-71.25112053907101
 30
0.0
 10
21.8351162030465
 20
-71.11961753612705
 30
0.0
 10
21.76707317863477
 20
-71.01949668639687
 30
0.0
  0
SPLINE
  5
1B2
330
A7
100
AcDbEntity
  8
Camada 1
 62
    18
420
        0
370
    15
100
AcDbSpline
210
0.0
220
0.0
230
1.0
 70
     8
 71
     3
 72
     8
 73
     4
 74
     0
 42
0.0000000001
 43
0.0000000001
 40
0.0
 40
0.0
 40
0.0
 40
0.0
 40
1.0
 40
1.0
 40
1.0
 40
1.0
 10
21.76707317863477
 20
-65.43097738486086
 30
0.0
 10
21.68344919656751
 20
-65.55423719773289
 30
0.0
 10
21.68344919656751
 20
-65.71598271013924
 30
0.0
 10
21.76707317863477
 20
-65.83924252301127
 30
0.0
  0
SPLINE
  5
1B3
330
A7
100
AcDbEntity
  8
Camada 1
 62
    18
420
        0
370
    15
100
AcDbSpline
210
0.0
220
0.0
230
1.0
 70
     8
 71
     3
 72
     8
 73
     4
 74
     0
 42
0.0000000001
 43
0.0000000001
 40
0.0
 40
0.0
 40
0.0
 40
0.0
 40
1.0
 40
1.0
 40
1.0
 40
1.0
 10
21.76707317863477
 20
-66.17102917549179
 30
0.0
 10
21.68344919656751
 20
-66.29428898836382
 30
0.0
 10
21.68344919656751
 20
-66.45603450077016
 30
0.0
 10
21.76707317863477
 20
-66.5792943136422
 30
0.0
  0
SPLINE
  5
1B4
330
A7
100
AcDbEntity
  8
Camada 1
 62
    18
420
        0
370
    15
100
AcDbSpline
210
0.0
220
0.0
230
1.0
 70
     8
 71
     3
 72
     8
 73
     4
 74
     0
 42
0.0000000001
 43
0.0000000001
 40
0.0
 40
0.0
 40
0.0
 40
0.0
 40
1.0
 40
1.0
 40
1.0
 40
1.0
 10
21.76707317863477
 20
-66.91103202436713
 30
0.0
 10
21.68344919656751
 20
-67.03429183723915
 30
0.0
 10
21.68344919656751
 20
-67.1960373496455
 30
0.0
 10
21.76707317863477
 20
-67.31929716251753
 30
0.0
  0
SPLINE
  5
1B5
330
A7
100
AcDbEntity
  8
Camada 1
 62
    18
420
        0
370
    15
100
AcDbSpline
210
0.0
220
0.0
230
1.0
 70
     8
 71
     3
 72
     8
 73
     4
 74
     0
 42
0.0000000001
 43
0.0000000001
 40
0.0
 40
0.0
 40
0.0
 40
0.0
 40
1.0
 40
1.0
 40
1.0
 40
1.0
 10
21.76707317863477
 20
-67.65108031915772
 30
0.0
 10
21.68344919656751
 20
-67.77434013202976
 30
0.0
 10
21.68344919656751
 20
-67.9360856444361
 30
0.0
 10
21.76707317863477
 20
-68.05934545730813
 30
0.0
  0
SPLINE
  5
1B6
330
A7
100
AcDbEntity
  8
Camada 1
 62
    18
420
        0
370
    15
100
AcDbSpline
210
0.0
220
0.0
230
1.0
 70
     8
 71
     3
 72
     8
 73
     4
 74
     0
 42
0.0000000001
 43
0.0000000001
 40
0.0
 40
0.0
 40
0.0
 40
0.0
 40
1.0
 40
1.0
 40
1.0
 40
1.0
 10
21.76707317863477
 20
-65.43097738486086
 30
0.0
 10
21.8351162030465
 20
-65.33086003096973
 30
0.0
 10
21.8351162030465
 20
-65.19935702802706
 30
0.0
 10
21.76707317863477
 20
-65.0992361782956
 30
0.0
  0
SPLINE
  5
1B7
330
A7
100
AcDbEntity
  8
Camada 1
 62
    18
420
        0
370
    15
100
AcDbSpline
210
0.0
220
0.0
230
1.0
 70
     8
 71
     3
 72
     8
 73
     4
 74
     0
 42
0.0000000001
 43
0.0000000001
 40
0.0
 40
0.0
 40
0.0
 40
0.0
 40
1.0
 40
1.0
 40
1.0
 40
1.0
 10
21.76707317863477
 20
-66.17102917549179
 30
0.0
 10
21.8351162030465
 20
-66.07091182160194
 30
0.0
 10
21.8351162030465
 20
-65.9394088186567
 30
0.0
 10
21.76707317863477
 20
-65.83928796892653
 30
0.0
  0
SPLINE
  5
1B8
330
A7
100
AcDbEntity
  8
Camada 1
 62
    18
420
        0
370
    15
100
AcDbSpline
210
0.0
220
0.0
230
1.0
 70
     8
 71
     3
 72
     8
 73
     4
 74
     0
 42
0.0000000001
 43
0.0000000001
 40
0.0
 40
0.0
 40
0.0
 40
0.0
 40
1.0
 40
1.0
 40
1.0
 40
1.0
 10
21.76707317863477
 20
-66.91103202436713
 30
0.0
 10
21.8351162030465
 20
-66.81091467047728
 30
0.0
 10
21.8351162030465
 20
-66.67941166753204
 30
0.0
 10
21.76707317863477
 20
-66.57929081780186
 30
0.0
  0
SPLINE
  5
1B9
330
A7
100
AcDbEntity
  8
Camada 1
 62
    18
420
        0
370
    15
100
AcDbSpline
210
0.0
220
0.0
230
1.0
 70
     8
 71
     3
 72
     8
 73
     4
 74
     0
 42
0.0000000001
 43
0.0000000001
 40
0.0
 40
0.0
 40
0.0
 40
0.0
 40
1.0
 40
1.0
 40
1.0
 40
1.0
 10
21.76707317863477
 20
-67.65108031915772
 30
0.0
 10
21.8351162030465
 20
-67.55096296526788
 30
0.0
 10
21.8351162030465
 20
-67.41945996232392
 30
0.0
 10
21.76707317863477
 20
-67.31933911259375
 30
0.0
  0
SPLINE
  5
1BA
330
A7
100
AcDbEntity
  8
Camada 1
 62
    18
420
        0
370
    15
100
AcDbSpline
210
0.0
220
0.0
230
1.0
 70
     8
 71
     3
 72
     8
 73
     4
 74
     0
 42
0.0000000001
 43
0.0000000001
 40
0.0
 40
0.0
 40
0.0
 40
0.0
 40
1.0
 40
1.0
 40
1.0
 40
1.0
 10
21.76707317863477
 20
-68.39113210978995
 30
0.0
 10
21.8351162030465
 20
-68.29101475589881
 30
0.0
 10
21.8351162030465
 20
-68.15951175295485
 30
0.0
 10
21.76707317863477
 20
-68.05939090322467
 30
0.0
  0
SPLINE
  5
1BB
330
A7
100
AcDbEntity
  8
Camada 1
 62
    18
420
        0
370
    15
100
AcDbSpline
210
0.0
220
0.0
230
1.0
 70
     8
 71
     3
 72
     8
 73
     4
 74
     0
 42
0.0000000001
 43
0.0000000001
 40
0.0
 40
0.0
 40
0.0
 40
0.0
 40
1.0
 40
1.0
 40
1.0
 40
1.0
 10
21.76707317863477
 20
-61.73081981105774
 30
0.0
 10
21.68344919656751
 20
-61.85407962392976
 30
0.0
 10
21.68344919656751
 20
-62.0158251363361
 30
0.0
 10
21.76707317863477
 20
-62.13908494920684
 30
0.0
  0
SPLINE
  5
1BC
330
A7
100
AcDbEntity
  8
Camada 1
 62
    18
420
        0
370
    15
100
AcDbSpline
210
0.0
220
0.0
230
1.0
 70
     8
 71
     3
 72
     8
 73
     4
 74
     0
 42
0.0000000001
 43
0.0000000001
 40
0.0
 40
0.0
 40
0.0
 40
0.0
 40
1.0
 40
1.0
 40
1.0
 40
1.0
 10
21.76707317863477
 20
-62.47084713081022
 30
0.0
 10
21.68344919656751
 20
-62.59410694368225
 30
0.0
 10
21.68344919656751
 20
-62.75585245608859
 30
0.0
 10
21.76707317863477
 20
-62.87911226896063
 30
0.0
  0
SPLINE
  5
1BD
330
A7
100
AcDbEntity
  8
Camada 1
 62
    18
420
        0
370
    15
100
AcDbSpline
210
0.0
220
0.0
230
1.0
 70
     8
 71
     3
 72
     8
 73
     4
 74
     0
 42
0.0000000001
 43
0.0000000001
 40
0.0
 40
0.0
 40
0.0
 40
0.0
 40
1.0
 40
1.0
 40
1.0
 40
1.0
 10
21.76707317863477
 20
-63.210874450564
 30
0.0
 10
21.68344919656751
 20
-63.33413426343475
 30
0.0
 10
21.68344919656751
 20
-63.49587977584237
 30
0.0
 10
21.76707317863477
 20
-63.61913958871311
 30
0.0
  0
SPLINE
  5
1BE
330
A7
100
AcDbEntity
  8
Camada 1
 62
    18
420
        0
370
    15
100
AcDbSpline
210
0.0
220
0.0
230
1.0
 70
     8
 71
     3
 72
     8
 73
     4
 74
     0
 42
0.0000000001
 43
0.0000000001
 40
0.0
 40
0.0
 40
0.0
 40
0.0
 40
1.0
 40
1.0
 40
1.0
 40
1.0
 10
21.76707317863477
 20
-63.95092624119492
 30
0.0
 10
21.68344919656751
 20
-64.07418605406696
 30
0.0
 10
21.68344919656751
 20
-64.2359315664733
 30
0.0
 10
21.76707317863477
 20
-64.35919137934404
 30
0.0
  0
SPLINE
  5
1BF
330
A7
100
AcDbEntity
  8
Camada 1
 62
    18
420
        0
370
    15
100
AcDbSpline
210
0.0
220
0.0
230
1.0
 70
     8
 71
     3
 72
     8
 73
     4
 74
     0
 42
0.0000000001
 43
0.0000000001
 40
0.0
 40
0.0
 40
0.0
 40
0.0
 40
1.0
 40
1.0
 40
1.0
 40
1.0
 10
21.76707317863477
 20
-64.69095006510709
 30
0.0
 10
21.68344919656751
 20
-64.81420987797912
 30
0.0
 10
21.68344919656751
 20
-64.97595539038674
 30
0.0
 10
21.76707317863477
 20
-65.09921520325749
 30
0.0
  0
SPLINE
  5
1C0
330
A7
100
AcDbEntity
  8
Camada 1
 62
    18
420
        0
370
    15
100
AcDbSpline
210
0.0
220
0.0
230
1.0
 70
     8
 71
     3
 72
     8
 73
     4
 74
     0
 42
0.0000000001
 43
0.0000000001
 40
0.0
 40
0.0
 40
0.0
 40
0.0
 40
1.0
 40
1.0
 40
1.0
 40
1.0
 10
21.76707317863477
 20
-62.47084713081022
 30
0.0
 10
21.8351162030465
 20
-62.37072977692037
 30
0.0
 10
21.8351162030465
 20
-62.23922677397641
 30
0.0
 10
21.76707317863477
 20
-62.13910592424624
 30
0.0
  0
SPLINE
  5
1C1
330
A7
100
AcDbEntity
  8
Camada 1
 62
    18
420
        0
370
    15
100
AcDbSpline
210
0.0
220
0.0
230
1.0
 70
     8
 71
     3
 72
     8
 73
     4
 74
     0
 42
0.0000000001
 43
0.0000000001
 40
0.0
 40
0.0
 40
0.0
 40
0.0
 40
1.0
 40
1.0
 40
1.0
 40
1.0
 10
21.76707317863477
 20
-63.210874450564
 30
0.0
 10
21.8351162030465
 20
-63.11075709667287
 30
0.0
 10
21.8351162030465
 20
-62.97925409372891
 30
0.0
 10
21.76707317863477
 20
-62.87913324399873
 30
0.0
  0
SPLINE
  5
1C2
330
A7
100
AcDbEntity
  8
Camada 1
 62
    18
420
        0
370
    15
100
AcDbSpline
210
0.0
220
0.0
230
1.0
 70
     8
 71
     3
 72
     8
 73
     4
 74
     0
 42
0.0000000001
 43
0.0000000001
 40
0.0
 40
0.0
 40
0.0
 40
0.0
 40
1.0
 40
1.0
 40
1.0
 40
1.0
 10
21.76707317863477
 20
-63.95092624119492
 30
0.0
 10
21.8351162030465
 20
-63.85080888730379
 30
0.0
 10
21.8351162030465
 20
-63.71930588435984
 30
0.0
 10
21.76707317863477
 20
-63.61918503462966
 30
0.0
  0
SPLINE
  5
1C3
330
A7
100
AcDbEntity
  8
Camada 1
 62
    18
420
        0
370
    15
100
AcDbSpline
210
0.0
220
0.0
230
1.0
 70
     8
 71
     3
 72
     8
 73
     4
 74
     0
 42
0.0000000001
 43
0.0000000001
 40
0.0
 40
0.0
 40
0.0
 40
0.0
 40
1.0
 40
1.0
 40
1.0
 40
1.0
 10
21.76707317863477
 20
-64.69095006510709
 30
0.0
 10
21.8351162030465
 20
-64.59083271121724
 30
0.0
 10
21.8351162030465
 20
-64.45932970827456
 30
0.0
 10
21.76707317863477
 20
-64.35920885854311
 30
0.0
  0
SPLINE
  5
1C4
330
A7
100
AcDbEntity
  8
Camada 1
 62
    18
420
        0
370
    15
100
AcDbSpline
210
0.0
220
0.0
230
1.0
 70
     8
 71
     3
 72
     8
 73
     4
 74
     0
 42
0.0000000001
 43
0.0000000001
 40
0.0
 40
0.0
 40
0.0
 40
0.0
 40
1.0
 40
1.0
 40
1.0
 40
1.0
 10
21.76707317863477
 20
-58.77069305284742
 30
0.0
 10
21.68344919656751
 20
-58.89395286571945
 30
0.0
 10
21.68344919656751
 20
-59.05569837812579
 30
0.0
 10
21.76707317863477
 20
-59.17895819099653
 30
0.0
  0
SPLINE
  5
1C5
330
A7
100
AcDbEntity
  8
Camada 1
 62
    18
420
        0
370
    15
100
AcDbSpline
210
0.0
220
0.0
230
1.0
 70
     8
 71
     3
 72
     8
 73
     4
 74
     0
 42
0.0000000001
 43
0.0000000001
 40
0.0
 40
0.0
 40
0.0
 40
0.0
 40
1.0
 40
1.0
 40
1.0
 40
1.0
 10
21.76707317863477
 20
-59.51071687676087
 30
0.0
 10
21.68344919656751
 20
-59.63397668963161
 30
0.0
 10
21.68344919656751
 20
-59.79572220203795
 30
0.0
 10
21.76707317863477
 20
-59.91898201490998
 30
0.0
  0
SPLINE
  5
1C6
330
A7
100
AcDbEntity
  8
Camada 1
 62
    18
420
        0
370
    15
100
AcDbSpline
210
0.0
220
0.0
230
1.0
 70
     8
 71
     3
 72
     8
 73
     4
 74
     0
 42
0.0000000001
 43
0.0000000001
 40
0.0
 40
0.0
 40
0.0
 40
0.0
 40
1.0
 40
1.0
 40
1.0
 40
1.0
 10
21.76707317863477
 20
-60.25074419651336
 30
0.0
 10
21.68344919656751
 20
-60.37400400938539
 30
0.0
 10
21.68344919656751
 20
-60.53574952179173
 30
0.0
 10
21.76707317863477
 20
-60.65900933466376
 30
0.0
  0
SPLINE
  5
1C7
330
A7
100
AcDbEntity
  8
Camada 1
 62
    18
420
        0
370
    15
100
AcDbSpline
210
0.0
220
0.0
230
1.0
 70
     8
 71
     3
 72
     8
 73
     4
 74
     0
 42
0.0000000001
 43
0.0000000001
 40
0.0
 40
0.0
 40
0.0
 40
0.0
 40
1.0
 40
1.0
 40
1.0
 40
1.0
 10
21.76707317863477
 20
-60.99079598714428
 30
0.0
 10
21.68344919656751
 20
-61.11405580001632
 30
0.0
 10
21.68344919656751
 20
-61.27580131242265
 30
0.0
 10
21.76707317863477
 20
-61.39906112529469
 30
0.0
  0
SPLINE
  5
1C8
330
A7
100
AcDbEntity
  8
Camada 1
 62
    18
420
        0
370
    15
100
AcDbSpline
210
0.0
220
0.0
230
1.0
 70
     8
 71
     3
 72
     8
 73
     4
 74
     0
 42
0.0000000001
 43
0.0000000001
 40
0.0
 40
0.0
 40
0.0
 40
0.0
 40
1.0
 40
1.0
 40
1.0
 40
1.0
 10
21.76707317863477
 20
-58.77069305284742
 30
0.0
 10
21.8378639330709
 20
-58.6662233784992
 30
0.0
 10
21.83465824804329
 20
-58.52853273924112
 30
0.0
 10
21.75882299688347
 20
-58.42749947534356
 30
0.0
  0
SPLINE
  5
1C9
330
A7
100
AcDbEntity
  8
Camada 1
 62
    18
420
        0
370
    15
100
AcDbSpline
210
0.0
220
0.0
230
1.0
 70
     8
 71
     3
 72
     8
 73
     4
 74
     0
 42
0.0000000001
 43
0.0000000001
 40
0.0
 40
0.0
 40
0.0
 40
0.0
 40
1.0
 40
1.0
 40
1.0
 40
1.0
 10
21.76707317863477
 20
-59.51071687676087
 30
0.0
 10
21.8351162030465
 20
-59.41059952286973
 30
0.0
 10
21.8351162030465
 20
-59.27909651992578
 30
0.0
 10
21.76707317863477
 20
-59.1789756701956
 30
0.0
  0
SPLINE
  5
1CA
330
A7
100
AcDbEntity
  8
Camada 1
 62
    18
420
        0
370
    15
100
AcDbSpline
210
0.0
220
0.0
230
1.0
 70
     8
 71
     3
 72
     8
 73
     4
 74
     0
 42
0.0000000001
 43
0.0000000001
 40
0.0
 40
0.0
 40
0.0
 40
0.0
 40
1.0
 40
1.0
 40
1.0
 40
1.0
 10
21.76707317863477
 20
-60.25074419651336
 30
0.0
 10
21.8351162030465
 20
-60.15062787390702
 30
0.0
 10
21.8351162030465
 20
-60.01912383967955
 30
0.0
 10
21.76707317863477
 20
-59.91900298994809
 30
0.0
  0
SPLINE
  5
1CB
330
A7
100
AcDbEntity
  8
Camada 1
 62
    18
420
        0
370
    15
100
AcDbSpline
210
0.0
220
0.0
230
1.0
 70
     8
 71
     3
 72
     8
 73
     4
 74
     0
 42
0.0000000001
 43
0.0000000001
 40
0.0
 40
0.0
 40
0.0
 40
0.0
 40
1.0
 40
1.0
 40
1.0
 40
1.0
 10
21.76707317863477
 20
-60.99079598714428
 30
0.0
 10
21.8351162030465
 20
-60.89067863325315
 30
0.0
 10
21.8351162030465
 20
-60.7591756303092
 30
0.0
 10
21.76707317863477
 20
-60.65905478058031
 30
0.0
  0
SPLINE
  5
1CC
330
A7
100
AcDbEntity
  8
Camada 1
 62
    18
420
        0
370
    15
100
AcDbSpline
210
0.0
220
0.0
230
1.0
 70
     8
 71
     3
 72
     8
 73
     4
 74
     0
 42
0.0000000001
 43
0.0000000001
 40
0.0
 40
0.0
 40
0.0
 40
0.0
 40
1.0
 40
1.0
 40
1.0
 40
1.0
 10
21.76707317863477
 20
-61.73081981105774
 30
0.0
 10
21.8351162030465
 20
-61.6307024571666
 30
0.0
 10
21.8351162030465
 20
-61.49919945422265
 30
0.0
 10
21.76707317863477
 20
-61.39907860449246
 30
0.0
  0
SPLINE
  5
1CD
330
A7
100
AcDbEntity
  8
Camada 1
 62
    18
420
        0
370
    15
100
AcDbSpline
210
0.0
220
0.0
230
1.0
 70
     8
 71
     3
 72
     8
 73
     4
 74
     0
 42
0.0000000001
 43
0.0000000001
 40
0.0
 40
0.0
 40
0.0
 40
0.0
 40
1.0
 40
1.0
 40
1.0
 40
1.0
 10
29.91824925330276
 20
-73.31016314554748
 30
0.0
 10
30.76249454694392
 20
-73.31039387096923
 30
0.0
 10
31.49539384949711
 20
-72.65126203037819
 30
0.0
 10
31.68692391636263
 20
-71.72018706964184
 30
0.0
  0
SPLINE
  5
1CE
330
A7
100
AcDbEntity
  8
Camada 1
 62
    18
420
        0
370
    15
100
AcDbSpline
210
0.0
220
0.0
230
1.0
 70
     8
 71
     3
 72
    11
 73
     7
 74
     0
 42
0.0000000001
 43
0.0000000001
 40
0.0
 40
0.0
 40
0.0
 40
0.0
 40
1.0
 40
1.0
 40
1.0
 40
2.0
 40
2.0
 40
2.0
 40
2.0
 10
33.6336871425453
 20
-70.12436594971504
 30
0.0
 10
33.88409414206388
 20
-70.12459667513681
 30
0.0
 10
34.08731080112975
 20
-69.92206869649558
 30
0.0
 10
34.08776875613361
 20
-69.67165820113798
 30
0.0
 10
34.08776875613361
 20
-69.67165820113798
 30
0.0
 10
34.08776875613361
 20
-69.67028433612579
 30
0.0
 10
34.08776875613361
 20
-69.67028433612579
 30
0.0
  0
SPLINE
  5
1CF
330
A7
100
AcDbEntity
  8
Camada 1
 62
    18
420
        0
370
    15
100
AcDbSpline
210
0.0
220
0.0
230
1.0
 70
     8
 71
     3
 72
     8
 73
     4
 74
     0
 42
0.0000000001
 43
0.0000000001
 40
0.0
 40
0.0
 40
0.0
 40
0.0
 40
1.0
 40
1.0
 40
1.0
 40
1.0
 10
32.24857601413623
 20
-66.4455399899155
 30
0.0
 10
32.14982902941793
 20
-66.49869423293701
 30
0.0
 10
32.08110082041994
 20
-66.59422854094799
 30
0.0
 10
32.06231417773679
 20
-66.70465862202762
 30
0.0
  0
SPLINE
  5
1D0
330
A7
100
AcDbEntity
  8
Camada 1
 62
    18
420
        0
370
    15
100
AcDbSpline
210
0.0
220
0.0
230
1.0
 70
     8
 71
     3
 72
    11
 73
     7
 74
     0
 42
0.0000000001
 43
0.0000000001
 40
0.0
 40
0.0
 40
0.0
 40
0.0
 40
1.0
 40
1.0
 40
1.0
 40
2.0
 40
2.0
 40
2.0
 40
2.0
 10
34.1635131154597
 20
-62.86801996951278
 30
0.0
 10
34.84257299040481
 20
-62.70421191166796
 30
0.0
 10
35.2604586794787
 20
-62.02056899084304
 30
0.0
 10
35.09665062163421
 20
-61.34150562005793
 30
0.0
 10
34.94750411559785
 20
-60.72338624001913
 30
0.0
 10
34.3628319132333
 20
-60.31191440002536
 30
0.0
 10
33.73073514915718
 20
-60.38041887528095
 30
0.0
  0
SPLINE
  5
1D1
330
A7
100
AcDbEntity
  8
Camada 1
 62
    18
420
        0
370
    15
100
AcDbSpline
210
0.0
220
0.0
230
1.0
 70
     8
 71
     3
 72
    11
 73
     7
 74
     0
 42
0.0000000001
 43
0.0000000001
 40
0.0
 40
0.0
 40
0.0
 40
0.0
 40
1.0
 40
1.0
 40
1.0
 40
2.0
 40
2.0
 40
2.0
 40
2.0
 10
33.47317915740089
 20
-60.45487676558856
 30
0.0
 10
32.82527420608716
 20
-60.67115038602861
 30
0.0
 10
32.47543154142532
 20
-61.37175162536064
 30
0.0
 10
32.69193588728746
 20
-62.01965308083533
 30
0.0
 10
32.85941108100439
 20
-62.52162070698002
 30
0.0
 10
33.32792701681778
 20
-62.86138136987354
 30
0.0
 10
33.85715520113996
 20
-62.86458705490243
 30
0.0
  0
SPLINE
  5
1D2
330
A7
100
AcDbEntity
  8
Camada 1
 62
    18
420
        0
370
    15
100
AcDbSpline
210
0.0
220
0.0
230
1.0
 70
     8
 71
     3
 72
     8
 73
     4
 74
     0
 42
0.0000000001
 43
0.0000000001
 40
0.0
 40
0.0
 40
0.0
 40
0.0
 40
1.0
 40
1.0
 40
1.0
 40
1.0
 10
33.63304740387496
 20
-58.99122810191276
 30
0.0
 10
33.63281667845286
 20
-58.73990519238778
 30
0.0
 10
33.4289148348004
 20
-58.53646130373885
 30
0.0
 10
33.17758842943508
 20
-58.53668853332028
 30
0.0
  0
SPLINE
  5
1D3
330
A7
100
AcDbEntity
  8
Camada 1
 62
    18
420
        0
370
    15
100
AcDbSpline
210
0.0
220
0.0
230
1.0
 70
     8
 71
     3
 72
     8
 73
     4
 74
     0
 42
0.0000000001
 43
0.0000000001
 40
0.0
 40
0.0
 40
0.0
 40
0.0
 40
1.0
 40
1.0
 40
1.0
 40
1.0
 10
33.47317915740089
 20
-60.45487676558856
 30
0.0
 10
33.56894419083333
 20
-60.43425830288839
 30
0.0
 10
33.63332007937358
 20
-60.37652450982706
 30
0.0
 10
33.63332007937358
 20
-60.31168717044263
 30
0.0
  0
SPLINE
  5
1D4
330
A7
100
AcDbEntity
  8
Camada 1
 62
    18
420
        0
370
    15
100
AcDbSpline
210
0.0
220
0.0
230
1.0
 70
     8
 71
     3
 72
     8
 73
     4
 74
     0
 42
0.0000000001
 43
0.0000000001
 40
0.0
 40
0.0
 40
0.0
 40
0.0
 40
1.0
 40
1.0
 40
1.0
 40
1.0
 10
34.08765688926241
 20
-63.04837034093641
 30
0.0
 10
34.08788411884482
 20
-62.94710984745613
 30
0.0
 10
33.98478830950783
 20
-62.8650904558222
 30
0.0
 10
33.85740690160016
 20
-62.86463250081898
 30
0.0
  0
SPLINE
  5
1D5
330
A7
100
AcDbEntity
  8
Camada 1
 62
    18
420
        0
370
    15
100
AcDbSpline
210
0.0
220
0.0
230
1.0
 70
     8
 71
     3
 72
     8
 73
     4
 74
     0
 42
0.0000000001
 43
0.0000000001
 40
0.0
 40
0.0
 40
0.0
 40
0.0
 40
1.0
 40
1.0
 40
1.0
 40
1.0
 10
37.7799103694469
 20
-68.79941472713811
 30
0.0
 10
37.86353085567447
 20
-68.67615841010515
 30
0.0
 10
37.86353085567447
 20
-68.51441289769879
 30
0.0
 10
37.7799103694469
 20
-68.39115308482805
 30
0.0
  0
SPLINE
  5
1D6
330
A7
100
AcDbEntity
  8
Camada 1
 62
    18
420
        0
370
    15
100
AcDbSpline
210
0.0
220
0.0
230
1.0
 70
     8
 71
     3
 72
     8
 73
     4
 74
     0
 42
0.0000000001
 43
0.0000000001
 40
0.0
 40
0.0
 40
0.0
 40
0.0
 40
1.0
 40
1.0
 40
1.0
 40
1.0
 10
37.7799103694469
 20
-69.53944204689062
 30
0.0
 10
37.86353085567447
 20
-69.41618572985891
 30
0.0
 10
37.86353085567447
 20
-69.25444021745256
 30
0.0
 10
37.7799103694469
 20
-69.13118040458055
 30
0.0
  0
SPLINE
  5
1D7
330
A7
100
AcDbEntity
  8
Camada 1
 62
    18
420
        0
370
    15
100
AcDbSpline
210
0.0
220
0.0
230
1.0
 70
     8
 71
     3
 72
     8
 73
     4
 74
     0
 42
0.0000000001
 43
0.0000000001
 40
0.0
 40
0.0
 40
0.0
 40
0.0
 40
1.0
 40
1.0
 40
1.0
 40
1.0
 10
37.7799103694469
 20
-70.2794693666431
 30
0.0
 10
37.86353085567447
 20
-70.15621304961141
 30
0.0
 10
37.86353085567447
 20
-69.99446753720505
 30
0.0
 10
37.7799103694469
 20
-69.87120772433303
 30
0.0
  0
SPLINE
  5
1D8
330
A7
100
AcDbEntity
  8
Camada 1
 62
    18
420
        0
370
    15
100
AcDbSpline
210
0.0
220
0.0
230
1.0
 70
     8
 71
     3
 72
     8
 73
     4
 74
     0
 42
0.0000000001
 43
0.0000000001
 40
0.0
 40
0.0
 40
0.0
 40
0.0
 40
1.0
 40
1.0
 40
1.0
 40
1.0
 10
37.7799103694469
 20
-71.01951766143499
 30
0.0
 10
37.86353085567447
 20
-70.89626134440329
 30
0.0
 10
37.86353085567447
 20
-70.73451583199695
 30
0.0
 10
37.7799103694469
 20
-70.61125601912492
 30
0.0
  0
SPLINE
  5
1D9
330
A7
100
AcDbEntity
  8
Camada 1
 62
    18
420
        0
370
    15
100
AcDbSpline
210
0.0
220
0.0
230
1.0
 70
     8
 71
     3
 72
     8
 73
     4
 74
     0
 42
0.0000000001
 43
0.0000000001
 40
0.0
 40
0.0
 40
0.0
 40
0.0
 40
1.0
 40
1.0
 40
1.0
 40
1.0
 10
37.7799103694469
 20
-68.79941472713811
 30
0.0
 10
37.71186384919515
 20
-68.8995355768683
 30
0.0
 10
37.71186384919515
 20
-69.03103857981097
 30
0.0
 10
37.7799103694469
 20
-69.13115942954243
 30
0.0
  0
SPLINE
  5
1DA
330
A7
100
AcDbEntity
  8
Camada 1
 62
    18
420
        0
370
    15
100
AcDbSpline
210
0.0
220
0.0
230
1.0
 70
     8
 71
     3
 72
     8
 73
     4
 74
     0
 42
0.0000000001
 43
0.0000000001
 40
0.0
 40
0.0
 40
0.0
 40
0.0
 40
1.0
 40
1.0
 40
1.0
 40
1.0
 10
37.7799103694469
 20
-69.53944204689062
 30
0.0
 10
37.71186384919515
 20
-69.63956289662078
 30
0.0
 10
37.71186384919515
 20
-69.77106589956474
 30
0.0
 10
37.7799103694469
 20
-69.87118674929622
 30
0.0
  0
SPLINE
  5
1DB
330
A7
100
AcDbEntity
  8
Camada 1
 62
    18
420
        0
370
    15
100
AcDbSpline
210
0.0
220
0.0
230
1.0
 70
     8
 71
     3
 72
     8
 73
     4
 74
     0
 42
0.0000000001
 43
0.0000000001
 40
0.0
 40
0.0
 40
0.0
 40
0.0
 40
1.0
 40
1.0
 40
1.0
 40
1.0
 10
37.7799103694469
 20
-70.2794693666431
 30
0.0
 10
37.71186384919515
 20
-70.37959021637457
 30
0.0
 10
37.71186384919515
 20
-70.51109321931723
 30
0.0
 10
37.7799103694469
 20
-70.61121406904742
 30
0.0
  0
SPLINE
  5
1DC
330
A7
100
AcDbEntity
  8
Camada 1
 62
    18
420
        0
370
    15
100
AcDbSpline
210
0.0
220
0.0
230
1.0
 70
     8
 71
     3
 72
     8
 73
     4
 74
     0
 42
0.0000000001
 43
0.0000000001
 40
0.0
 40
0.0
 40
0.0
 40
0.0
 40
1.0
 40
1.0
 40
1.0
 40
1.0
 10
37.7799103694469
 20
-71.01951766143499
 30
0.0
 10
37.71186384919515
 20
-71.11963851116517
 30
0.0
 10
37.71186384919515
 20
-71.25114151410912
 30
0.0
 10
37.7799103694469
 20
-71.35126236383929
 30
0.0
  0
SPLINE
  5
1DD
330
A7
100
AcDbEntity
  8
Camada 1
 62
    18
420
        0
370
    15
100
AcDbSpline
210
0.0
220
0.0
230
1.0
 70
     8
 71
     3
 72
     8
 73
     4
 74
     0
 42
0.0000000001
 43
0.0000000001
 40
0.0
 40
0.0
 40
0.0
 40
0.0
 40
1.0
 40
1.0
 40
1.0
 40
1.0
 10
37.7799103694469
 20
-68.05936643234623
 30
0.0
 10
37.86353085567447
 20
-67.93611011531453
 30
0.0
 10
37.86353085567447
 20
-67.77436460290819
 30
0.0
 10
37.7799103694469
 20
-67.65110479003617
 30
0.0
  0
SPLINE
  5
1DE
330
A7
100
AcDbEntity
  8
Camada 1
 62
    18
420
        0
370
    15
100
AcDbSpline
210
0.0
220
0.0
230
1.0
 70
     8
 71
     3
 72
     8
 73
     4
 74
     0
 42
0.0000000001
 43
0.0000000001
 40
0.0
 40
0.0
 40
0.0
 40
0.0
 40
1.0
 40
1.0
 40
1.0
 40
1.0
 10
37.7799103694469
 20
-67.31933911259375
 30
0.0
 10
37.86353085567447
 20
-67.19608279556076
 30
0.0
 10
37.86353085567447
 20
-67.0343372831557
 30
0.0
 10
37.7799103694469
 20
-66.91107747028368
 30
0.0
  0
SPLINE
  5
1DF
330
A7
100
AcDbEntity
  8
Camada 1
 62
    18
420
        0
370
    15
100
AcDbSpline
210
0.0
220
0.0
230
1.0
 70
     8
 71
     3
 72
     8
 73
     4
 74
     0
 42
0.0000000001
 43
0.0000000001
 40
0.0
 40
0.0
 40
0.0
 40
0.0
 40
1.0
 40
1.0
 40
1.0
 40
1.0
 10
37.7799103694469
 20
-66.57931179283997
 30
0.0
 10
37.86353085567447
 20
-66.45605547580827
 30
0.0
 10
37.86353085567447
 20
-66.29430996340193
 30
0.0
 10
37.7799103694469
 20
-66.17105015052991
 30
0.0
  0
SPLINE
  5
1E0
330
A7
100
AcDbEntity
  8
Camada 1
 62
    18
420
        0
370
    15
100
AcDbSpline
210
0.0
220
0.0
230
1.0
 70
     8
 71
     3
 72
     8
 73
     4
 74
     0
 42
0.0000000001
 43
0.0000000001
 40
0.0
 40
0.0
 40
0.0
 40
0.0
 40
1.0
 40
1.0
 40
1.0
 40
1.0
 10
37.7799103694469
 20
-65.83926349804937
 30
0.0
 10
37.86353085567447
 20
-65.71600718101767
 30
0.0
 10
37.86353085567447
 20
-65.55426166861005
 30
0.0
 10
37.7799103694469
 20
-65.43100185573931
 30
0.0
  0
SPLINE
  5
1E1
330
A7
100
AcDbEntity
  8
Camada 1
 62
    18
420
        0
370
    15
100
AcDbSpline
210
0.0
220
0.0
230
1.0
 70
     8
 71
     3
 72
     8
 73
     4
 74
     0
 42
0.0000000001
 43
0.0000000001
 40
0.0
 40
0.0
 40
0.0
 40
0.0
 40
1.0
 40
1.0
 40
1.0
 40
1.0
 10
37.7799103694469
 20
-68.05936643234623
 30
0.0
 10
37.71186384919515
 20
-68.15948728207771
 30
0.0
 10
37.71186384919515
 20
-68.29099028502037
 30
0.0
 10
37.7799103694469
 20
-68.39111113475055
 30
0.0
  0
SPLINE
  5
1E2
330
A7
100
AcDbEntity
  8
Camada 1
 62
    18
420
        0
370
    15
100
AcDbSpline
210
0.0
220
0.0
230
1.0
 70
     8
 71
     3
 72
     8
 73
     4
 74
     0
 42
0.0000000001
 43
0.0000000001
 40
0.0
 40
0.0
 40
0.0
 40
0.0
 40
1.0
 40
1.0
 40
1.0
 40
1.0
 10
37.7799103694469
 20
-67.31933911259375
 30
0.0
 10
37.71186384919515
 20
-67.41945996232392
 30
0.0
 10
37.71186384919515
 20
-67.55096296526788
 30
0.0
 10
37.7799103694469
 20
-67.65108381499806
 30
0.0
  0
SPLINE
  5
1E3
330
A7
100
AcDbEntity
  8
Camada 1
 62
    18
420
        0
370
    15
100
AcDbSpline
210
0.0
220
0.0
230
1.0
 70
     8
 71
     3
 72
     8
 73
     4
 74
     0
 42
0.0000000001
 43
0.0000000001
 40
0.0
 40
0.0
 40
0.0
 40
0.0
 40
1.0
 40
1.0
 40
1.0
 40
1.0
 10
37.7799103694469
 20
-66.57931179283997
 30
0.0
 10
37.71186384919515
 20
-66.67943264257015
 30
0.0
 10
37.71186384919515
 20
-66.8109356455141
 30
0.0
 10
37.7799103694469
 20
-66.91105649524557
 30
0.0
  0
SPLINE
  5
1E4
330
A7
100
AcDbEntity
  8
Camada 1
 62
    18
420
        0
370
    15
100
AcDbSpline
210
0.0
220
0.0
230
1.0
 70
     8
 71
     3
 72
     8
 73
     4
 74
     0
 42
0.0000000001
 43
0.0000000001
 40
0.0
 40
0.0
 40
0.0
 40
0.0
 40
1.0
 40
1.0
 40
1.0
 40
1.0
 10
37.7799103694469
 20
-65.83926349804937
 30
0.0
 10
37.71186384919515
 20
-65.93938434777955
 30
0.0
 10
37.71186384919515
 20
-66.07088735072351
 30
0.0
 10
37.7799103694469
 20
-66.17100820045369
 30
0.0
  0
SPLINE
  5
1E5
330
A7
100
AcDbEntity
  8
Camada 1
 62
    18
420
        0
370
    15
100
AcDbSpline
210
0.0
220
0.0
230
1.0
 70
     8
 71
     3
 72
     8
 73
     4
 74
     0
 42
0.0000000001
 43
0.0000000001
 40
0.0
 40
0.0
 40
0.0
 40
0.0
 40
1.0
 40
1.0
 40
1.0
 40
1.0
 10
37.7799103694469
 20
-65.0992361782956
 30
0.0
 10
37.71186384919515
 20
-65.19935702802706
 30
0.0
 10
37.71186384919515
 20
-65.33086003096973
 30
0.0
 10
37.7799103694469
 20
-65.4309808806999
 30
0.0
  0
SPLINE
  5
1E6
330
A7
100
AcDbEntity
  8
Camada 1
 62
    18
420
        0
370
    15
100
AcDbSpline
210
0.0
220
0.0
230
1.0
 70
     8
 71
     3
 72
     8
 73
     4
 74
     0
 42
0.0000000001
 43
0.0000000001
 40
0.0
 40
0.0
 40
0.0
 40
0.0
 40
1.0
 40
1.0
 40
1.0
 40
1.0
 10
34.14108380778319
 20
-62.87331267085601
 30
0.0
 10
34.13374953603959
 20
-62.87812644215794
 30
0.0
 10
34.12756539556549
 20
-62.88431058263173
 30
0.0
 10
34.12252439468212
 20
-62.89118340353178
 30
0.0
  0
SPLINE
  5
1E7
330
A7
100
AcDbEntity
  8
Camada 1
 62
    18
420
        0
370
    15
100
AcDbSpline
210
0.0
220
0.0
230
1.0
 70
     8
 71
     3
 72
     8
 73
     4
 74
     0
 42
0.0000000001
 43
0.0000000001
 40
0.0
 40
0.0
 40
0.0
 40
0.0
 40
1.0
 40
1.0
 40
1.0
 40
1.0
 10
33.63304740387496
 20
-60.30371316002964
 30
0.0
 10
33.63327463345703
 20
-60.30829620590979
 30
0.0
 10
33.63327463345703
 20
-60.31264852636688
 30
0.0
 10
33.63373258846154
 20
-60.31723157224703
 30
0.0
  0
SPLINE
  5
1E8
330
A7
100
AcDbEntity
  8
Camada 1
 62
    18
420
        0
370
    15
100
AcDbSpline
210
0.0
220
0.0
230
1.0
 70
     8
 71
     3
 72
     8
 73
     4
 74
     0
 42
0.0000000001
 43
0.0000000001
 40
0.0
 40
0.0
 40
0.0
 40
0.0
 40
1.0
 40
1.0
 40
1.0
 40
1.0
 10
37.7799103694469
 20
-65.0992361782956
 30
0.0
 10
37.86353085567447
 20
-64.9759798612639
 30
0.0
 10
37.86353085567447
 20
-64.81423434885755
 30
0.0
 10
37.7799103694469
 20
-64.69097453598553
 30
0.0
  0
SPLINE
  5
1E9
330
A7
100
AcDbEntity
  8
Camada 1
 62
    18
420
        0
370
    15
100
AcDbSpline
210
0.0
220
0.0
230
1.0
 70
     8
 71
     3
 72
     8
 73
     4
 74
     0
 42
0.0000000001
 43
0.0000000001
 40
0.0
 40
0.0
 40
0.0
 40
0.0
 40
1.0
 40
1.0
 40
1.0
 40
1.0
 10
37.7799103694469
 20
-64.35920885854311
 30
0.0
 10
37.86353085567447
 20
-64.23595254151141
 30
0.0
 10
37.86353085567447
 20
-64.07420702910506
 30
0.0
 10
37.7799103694469
 20
-63.95094721623304
 30
0.0
  0
SPLINE
  5
1EA
330
A7
100
AcDbEntity
  8
Camada 1
 62
    18
420
        0
370
    15
100
AcDbSpline
210
0.0
220
0.0
230
1.0
 70
     8
 71
     3
 72
     8
 73
     4
 74
     0
 42
0.0000000001
 43
0.0000000001
 40
0.0
 40
0.0
 40
0.0
 40
0.0
 40
1.0
 40
1.0
 40
1.0
 40
1.0
 10
37.7799103694469
 20
-63.61918153879061
 30
0.0
 10
37.86353085567447
 20
-63.49592522175763
 30
0.0
 10
37.86353085567447
 20
-63.33417970935129
 30
0.0
 10
37.7799103694469
 20
-63.21091989647927
 30
0.0
  0
SPLINE
  5
1EB
330
A7
100
AcDbEntity
  8
Camada 1
 62
    18
420
        0
370
    15
100
AcDbSpline
210
0.0
220
0.0
230
1.0
 70
     8
 71
     3
 72
     8
 73
     4
 74
     0
 42
0.0000000001
 43
0.0000000001
 40
0.0
 40
0.0
 40
0.0
 40
0.0
 40
1.0
 40
1.0
 40
1.0
 40
1.0
 10
37.7799103694469
 20
-62.87913324399873
 30
0.0
 10
37.86353085567447
 20
-62.75587692696703
 30
0.0
 10
37.86353085567447
 20
-62.59413141456069
 30
0.0
 10
37.7799103694469
 20
-62.47087160168867
 30
0.0
  0
SPLINE
  5
1EC
330
A7
100
AcDbEntity
  8
Camada 1
 62
    18
420
        0
370
    15
100
AcDbSpline
210
0.0
220
0.0
230
1.0
 70
     8
 71
     3
 72
     8
 73
     4
 74
     0
 42
0.0000000001
 43
0.0000000001
 40
0.0
 40
0.0
 40
0.0
 40
0.0
 40
1.0
 40
1.0
 40
1.0
 40
1.0
 10
37.7799103694469
 20
-62.13910592424624
 30
0.0
 10
37.86353085567447
 20
-62.01584960721454
 30
0.0
 10
37.86353085567447
 20
-61.85410409480692
 30
0.0
 10
37.7799103694469
 20
-61.73084428193617
 30
0.0
  0
SPLINE
  5
1ED
330
A7
100
AcDbEntity
  8
Camada 1
 62
    18
420
        0
370
    15
100
AcDbSpline
210
0.0
220
0.0
230
1.0
 70
     8
 71
     3
 72
     8
 73
     4
 74
     0
 42
0.0000000001
 43
0.0000000001
 40
0.0
 40
0.0
 40
0.0
 40
0.0
 40
1.0
 40
1.0
 40
1.0
 40
1.0
 10
37.7799103694469
 20
-64.35920885854311
 30
0.0
 10
37.71186384919515
 20
-64.45932970827456
 30
0.0
 10
37.71186384919515
 20
-64.59083271121724
 30
0.0
 10
37.7799103694469
 20
-64.69095356094742
 30
0.0
  0
SPLINE
  5
1EE
330
A7
100
AcDbEntity
  8
Camada 1
 62
    18
420
        0
370
    15
100
AcDbSpline
210
0.0
220
0.0
230
1.0
 70
     8
 71
     3
 72
     8
 73
     4
 74
     0
 42
0.0000000001
 43
0.0000000001
 40
0.0
 40
0.0
 40
0.0
 40
0.0
 40
1.0
 40
1.0
 40
1.0
 40
1.0
 10
37.7799103694469
 20
-63.61918153879061
 30
0.0
 10
37.71186384919515
 20
-63.7193023885208
 30
0.0
 10
37.71186384919515
 20
-63.85080539146347
 30
0.0
 10
37.7799103694469
 20
-63.95092624119492
 30
0.0
  0
SPLINE
  5
1EF
330
A7
100
AcDbEntity
  8
Camada 1
 62
    18
420
        0
370
    15
100
AcDbSpline
210
0.0
220
0.0
230
1.0
 70
     8
 71
     3
 72
     8
 73
     4
 74
     0
 42
0.0000000001
 43
0.0000000001
 40
0.0
 40
0.0
 40
0.0
 40
0.0
 40
1.0
 40
1.0
 40
1.0
 40
1.0
 10
37.7799103694469
 20
-62.87913324399873
 30
0.0
 10
37.71186384919515
 20
-62.97925409372891
 30
0.0
 10
37.71186384919515
 20
-63.11075709667287
 30
0.0
 10
37.7799103694469
 20
-63.21087794640305
 30
0.0
  0
SPLINE
  5
1F0
330
A7
100
AcDbEntity
  8
Camada 1
 62
    18
420
        0
370
    15
100
AcDbSpline
210
0.0
220
0.0
230
1.0
 70
     8
 71
     3
 72
     8
 73
     4
 74
     0
 42
0.0000000001
 43
0.0000000001
 40
0.0
 40
0.0
 40
0.0
 40
0.0
 40
1.0
 40
1.0
 40
1.0
 40
1.0
 10
37.7799103694469
 20
-62.13910592424624
 30
0.0
 10
37.71186384919515
 20
-62.23922677397641
 30
0.0
 10
37.71186384919515
 20
-62.37072977692037
 30
0.0
 10
37.7799103694469
 20
-62.47085062665055
 30
0.0
  0
SPLINE
  5
1F1
330
A7
100
AcDbEntity
  8
Camada 1
 62
    18
420
        0
370
    15
100
AcDbSpline
210
0.0
220
0.0
230
1.0
 70
     8
 71
     3
 72
     8
 73
     4
 74
     0
 42
0.0000000001
 43
0.0000000001
 40
0.0
 40
0.0
 40
0.0
 40
0.0
 40
1.0
 40
1.0
 40
1.0
 40
1.0
 10
37.7799103694469
 20
-61.39907860449246
 30
0.0
 10
37.86353085567447
 20
-61.27582228746077
 30
0.0
 10
37.86353085567447
 20
-61.11407677505442
 30
0.0
 10
37.7799103694469
 20
-60.9908169621824
 30
0.0
  0
SPLINE
  5
1F2
330
A7
100
AcDbEntity
  8
Camada 1
 62
    18
420
        0
370
    15
100
AcDbSpline
210
0.0
220
0.0
230
1.0
 70
     8
 71
     3
 72
     8
 73
     4
 74
     0
 42
0.0000000001
 43
0.0000000001
 40
0.0
 40
0.0
 40
0.0
 40
0.0
 40
1.0
 40
1.0
 40
1.0
 40
1.0
 10
37.7799103694469
 20
-60.65905128473997
 30
0.0
 10
37.86353085567447
 20
-60.53579496770828
 30
0.0
 10
37.86353085567447
 20
-60.37404945530194
 30
0.0
 10
37.7799103694469
 20
-60.2507896424299
 30
0.0
  0
SPLINE
  5
1F3
330
A7
100
AcDbEntity
  8
Camada 1
 62
    18
420
        0
370
    15
100
AcDbSpline
210
0.0
220
0.0
230
1.0
 70
     8
 71
     3
 72
     8
 73
     4
 74
     0
 42
0.0000000001
 43
0.0000000001
 40
0.0
 40
0.0
 40
0.0
 40
0.0
 40
1.0
 40
1.0
 40
1.0
 40
1.0
 10
37.7799103694469
 20
-59.91902746082653
 30
0.0
 10
37.86353085567447
 20
-59.79577114379483
 30
0.0
 10
37.86353085567447
 20
-59.63402563138849
 30
0.0
 10
37.7799103694469
 20
-59.51076581851646
 30
0.0
  0
SPLINE
  5
1F4
330
A7
100
AcDbEntity
  8
Camada 1
 62
    18
420
        0
370
    15
100
AcDbSpline
210
0.0
220
0.0
230
1.0
 70
     8
 71
     3
 72
     8
 73
     4
 74
     0
 42
0.0000000001
 43
0.0000000001
 40
0.0
 40
0.0
 40
0.0
 40
0.0
 40
1.0
 40
1.0
 40
1.0
 40
1.0
 10
37.7799103694469
 20
-59.1789756701956
 30
0.0
 10
37.86353085567447
 20
-59.05571935316519
 30
0.0
 10
37.86353085567447
 20
-58.89397384075627
 30
0.0
 10
37.7799103694469
 20
-58.77071402788553
 30
0.0
  0
SPLINE
  5
1F5
330
A7
100
AcDbEntity
  8
Camada 1
 62
    18
420
        0
370
    15
100
AcDbSpline
210
0.0
220
0.0
230
1.0
 70
     8
 71
     3
 72
     8
 73
     4
 74
     0
 42
0.0000000001
 43
0.0000000001
 40
0.0
 40
0.0
 40
0.0
 40
0.0
 40
1.0
 40
1.0
 40
1.0
 40
1.0
 10
37.7799103694469
 20
-61.39907860449246
 30
0.0
 10
37.71186384919515
 20
-61.49919945422265
 30
0.0
 10
37.71186384919515
 20
-61.6307024571666
 30
0.0
 10
37.7799103694469
 20
-61.73082330689678
 30
0.0
  0
SPLINE
  5
1F6
330
A7
100
AcDbEntity
  8
Camada 1
 62
    18
420
        0
370
    15
100
AcDbSpline
210
0.0
220
0.0
230
1.0
 70
     8
 71
     3
 72
     8
 73
     4
 74
     0
 42
0.0000000001
 43
0.0000000001
 40
0.0
 40
0.0
 40
0.0
 40
0.0
 40
1.0
 40
1.0
 40
1.0
 40
1.0
 10
37.7799103694469
 20
-60.65905128473997
 30
0.0
 10
37.71186384919515
 20
-60.75917213447016
 30
0.0
 10
37.71186384919515
 20
-60.89067513741412
 30
0.0
 10
37.7799103694469
 20
-60.99079598714428
 30
0.0
  0
SPLINE
  5
1F7
330
A7
100
AcDbEntity
  8
Camada 1
 62
    18
420
        0
370
    15
100
AcDbSpline
210
0.0
220
0.0
230
1.0
 70
     8
 71
     3
 72
     8
 73
     4
 74
     0
 42
0.0000000001
 43
0.0000000001
 40
0.0
 40
0.0
 40
0.0
 40
0.0
 40
1.0
 40
1.0
 40
1.0
 40
1.0
 10
37.7799103694469
 20
-59.91902746082653
 30
0.0
 10
37.71186384919515
 20
-60.01914831055671
 30
0.0
 10
37.71186384919515
 20
-60.15065131350066
 30
0.0
 10
37.7799103694469
 20
-60.25077216323084
 30
0.0
  0
SPLINE
  5
1F8
330
A7
100
AcDbEntity
  8
Camada 1
 62
    18
420
        0
370
    15
100
AcDbSpline
210
0.0
220
0.0
230
1.0
 70
     8
 71
     3
 72
     8
 73
     4
 74
     0
 42
0.0000000001
 43
0.0000000001
 40
0.0
 40
0.0
 40
0.0
 40
0.0
 40
1.0
 40
1.0
 40
1.0
 40
1.0
 10
37.7799103694469
 20
-59.1789756701956
 30
0.0
 10
37.71186384919515
 20
-59.27909651992578
 30
0.0
 10
37.71186384919515
 20
-59.41059952286973
 30
0.0
 10
37.7799103694469
 20
-59.51072037259991
 30
0.0
  0
SPLINE
  5
1F9
330
A7
100
AcDbEntity
  8
Camada 1
 62
    18
420
        0
370
    15
100
AcDbSpline
210
0.0
220
0.0
230
1.0
 70
     8
 71
     3
 72
     8
 73
     4
 74
     0
 42
0.0000000001
 43
0.0000000001
 40
0.0
 40
0.0
 40
0.0
 40
0.0
 40
1.0
 40
1.0
 40
1.0
 40
1.0
 10
37.78804169264763
 20
-58.42751695454134
 30
0.0
 10
37.71243716691021
 20
-58.52832298885875
 30
0.0
 10
37.70922798604227
 20
-58.6662443535373
 30
0.0
 10
37.77979151089601
 20
-58.77071402788553
 30
0.0
  0
SPLINE
  5
1FA
330
A7
100
AcDbEntity
  8
Camada 1
 62
    18
420
        0
370
    15
100
AcDbSpline
210
0.0
220
0.0
230
1.0
 70
     8
 71
     3
 72
    11
 73
     7
 74
     0
 42
0.0000000001
 43
0.0000000001
 40
0.0
 40
0.0
 40
0.0
 40
0.0
 40
1.0
 40
1.0
 40
1.0
 40
2.0
 40
2.0
 40
2.0
 40
2.0
 10
37.78804169264763
 20
-58.42751695454134
 30
0.0
 10
37.87853499977494
 20
-58.30701186337309
 30
0.0
 10
37.85402217162153
 20
-58.13586953378469
 30
0.0
 10
37.7335135846136
 20
-58.04560345623978
 30
0.0
 10
37.68608902290107
 20
-58.01031994589404
 30
0.0
 10
37.62881318484295
 20
-57.99107534820607
 30
0.0
 10
37.56970552676879
 20
-57.99107534820607
 30
0.0
  0
SPLINE
  5
1FB
330
A7
100
AcDbEntity
  8
Camada 1
 62
    18
420
        0
370
    15
100
AcDbSpline
210
0.0
220
0.0
230
1.0
 70
     8
 71
     3
 72
    11
 73
     7
 74
     0
 42
0.0000000001
 43
0.0000000001
 40
0.0
 40
0.0
 40
0.0
 40
0.0
 40
1.0
 40
1.0
 40
1.0
 40
2.0
 40
2.0
 40
2.0
 40
2.0
 10
32.24857601413623
 20
-66.4455399899155
 30
0.0
 10
32.40299075063898
 20
-66.36191950368791
 30
0.0
 10
32.55648957713403
 20
-66.27646370160459
 30
0.0
 10
32.70884176819929
 20
-66.18871812450137
 30
0.0
 10
33.18377256990888
 20
-65.91493794058144
 30
0.0
 10
33.64725100067828
 20
-65.61985410937412
 30
0.0
 10
34.08781769789016
 20
-65.29315040785444
 30
0.0
  0
SPLINE
  5
1FC
330
A7
100
AcDbEntity
  8
Camada 1
 62
    18
420
        0
370
    15
100
AcDbSpline
210
0.0
220
0.0
230
1.0
 70
     8
 71
     3
 72
    11
 73
     7
 74
     0
 42
0.0000000001
 43
0.0000000001
 40
0.0
 40
0.0
 40
0.0
 40
0.0
 40
1.0
 40
1.0
 40
1.0
 40
2.0
 40
2.0
 40
2.0
 40
2.0
 10
25.45930218794178
 20
-65.29108786241725
 30
0.0
 10
25.60982255899001
 20
-65.40312253393086
 30
0.0
 10
25.76309066006297
 20
-65.51125934415023
 30
0.0
 10
25.91865203199616
 20
-65.61618697350296
 30
0.0
 10
26.36357104966418
 20
-65.91654253101413
 30
0.0
 10
26.82681875501309
 20
-66.1898612640918
 30
0.0
 10
27.29854387169475
 20
-66.4455399899155
 30
0.0
  0
LINE
  5
1FD
330
A7
100
AcDbEntity
  8
Camada 1
 62
    18
420
        0
370
    15
100
AcDbLine
 10
37.7799103694469
 20
-62.13910592424624
 30
0.0
 11
36.71893000452118
 21
-62.13910592424624
 31
0.0
  0
LINE
  5
1FE
330
A7
100
AcDbEntity
  8
Camada 1
 62
    18
420
        0
370
    15
100
AcDbLine
 10
37.7799103694469
 20
-61.73081981105774
 30
0.0
 11
36.71893000452118
 21
-61.73081981105774
 31
0.0
  0
LINE
  5
1FF
330
A7
100
AcDbEntity
  8
Camada 1
 62
    18
420
        0
370
    15
100
AcDbLine
 10
37.7799103694469
 20
-61.39907860449246
 30
0.0
 11
36.71893000452118
 21
-61.39907860449246
 31
0.0
  0
LINE
  5
200
330
A7
100
AcDbEntity
  8
Camada 1
 62
    18
420
        0
370
    15
100
AcDbLine
 10
37.7799103694469
 20
-60.99079598714428
 30
0.0
 11
36.71893000452118
 21
-60.99079598714428
 31
0.0
  0
LINE
  5
201
330
A7
100
AcDbEntity
  8
Camada 1
 62
    18
420
        0
370
    15
100
AcDbLine
 10
37.7799103694469
 20
-60.65905128473997
 30
0.0
 11
36.71893000452118
 21
-60.65905128473997
 31
0.0
  0
LINE
  5
202
330
A7
100
AcDbEntity
  8
Camada 1
 62
    18
420
        0
370
    15
100
AcDbLine
 10
37.7799103694469
 20
-60.25074419651336
 30
0.0
 11
36.71893000452118
 21
-60.25074419651336
 31
0.0
  0
LINE
  5
203
330
A7
100
AcDbEntity
  8
Camada 1
 62
    18
420
        0
370
    15
100
AcDbLine
 10
37.7799103694469
 20
-59.91902746082653
 30
0.0
 11
36.71893000452118
 21
-59.91902746082653
 31
0.0
  0
LINE
  5
204
330
A7
100
AcDbEntity
  8
Camada 1
 62
    18
420
        0
370
    15
100
AcDbLine
 10
37.7799103694469
 20
-59.51071687676087
 30
0.0
 11
36.71893000452118
 21
-59.51071687676087
 31
0.0
  0
LINE
  5
205
330
A7
100
AcDbEntity
  8
Camada 1
 62
    18
420
        0
370
    15
100
AcDbLine
 10
37.7799103694469
 20
-59.1789756701956
 30
0.0
 11
36.71893000452118
 21
-59.1789756701956
 31
0.0
  0
LINE
  5
206
330
A7
100
AcDbEntity
  8
Camada 1
 62
    18
420
        0
370
    15
100
AcDbLine
 10
37.7799103694469
 20
-58.77069305284742
 30
0.0
 11
36.71893000452118
 21
-58.77069305284742
 31
0.0
  0
LINE
  5
207
330
A7
100
AcDbEntity
  8
Camada 1
 62
    18
420
        0
370
    15
100
AcDbLine
 10
37.78804169264763
 20
-58.42751695454134
 30
0.0
 11
36.72614541771388
 21
-58.42751695454134
 31
0.0
  0
LINE
  5
208
330
A7
100
AcDbEntity
  8
Camada 1
 62
    18
420
        0
370
    15
100
AcDbLine
 10
21.7589173845556
 20
-58.42751695454134
 30
0.0
 11
22.82081016364966
 21
-58.42751695454134
 31
0.0
  0
LINE
  5
209
330
A7
100
AcDbEntity
  8
Camada 1
 62
    18
420
        0
370
    15
100
AcDbLine
 10
37.7799103694469
 20
-62.47084713081022
 30
0.0
 11
36.71893000452118
 21
-62.47084713081022
 31
0.0
  0
LINE
  5
20A
330
A7
100
AcDbEntity
  8
Camada 1
 62
    18
420
        0
370
    15
100
AcDbLine
 10
21.76707317863477
 20
-58.77069305284742
 30
0.0
 11
22.8280500477208
 21
-58.77069305284742
 31
0.0
  0
LINE
  5
20B
330
A7
100
AcDbEntity
  8
Camada 1
 62
    18
420
        0
370
    15
100
AcDbLine
 10
21.76707317863477
 20
-59.1789756701956
 30
0.0
 11
22.8280500477208
 21
-59.1789756701956
 31
0.0
  0
LINE
  5
20C
330
A7
100
AcDbEntity
  8
Camada 1
 62
    18
420
        0
370
    15
100
AcDbLine
 10
21.76707317863477
 20
-59.51071687676087
 30
0.0
 11
22.8280500477208
 21
-59.51071687676087
 31
0.0
  0
LINE
  5
20D
330
A7
100
AcDbEntity
  8
Camada 1
 62
    18
420
        0
370
    15
100
AcDbLine
 10
21.76707317863477
 20
-59.91902746082653
 30
0.0
 11
22.8280500477208
 21
-59.91902746082653
 31
0.0
  0
LINE
  5
20E
330
A7
100
AcDbEntity
  8
Camada 1
 62
    18
420
        0
370
    15
100
AcDbLine
 10
21.76707317863477
 20
-60.25074419651336
 30
0.0
 11
22.8280500477208
 21
-60.25074419651336
 31
0.0
  0
LINE
  5
20F
330
A7
100
AcDbEntity
  8
Camada 1
 62
    18
420
        0
370
    15
100
AcDbLine
 10
21.76707317863477
 20
-60.65905128473997
 30
0.0
 11
22.8280500477208
 21
-60.65905128473997
 31
0.0
  0
LINE
  5
210
330
A7
100
AcDbEntity
  8
Camada 1
 62
    18
420
        0
370
    15
100
AcDbLine
 10
21.76707317863477
 20
-60.99079598714428
 30
0.0
 11
22.8280500477208
 21
-60.99079598714428
 31
0.0
  0
LINE
  5
211
330
A7
100
AcDbEntity
  8
Camada 1
 62
    18
420
        0
370
    15
100
AcDbLine
 10
21.76707317863477
 20
-61.39907860449246
 30
0.0
 11
22.8280500477208
 21
-61.39907860449246
 31
0.0
  0
LINE
  5
212
330
A7
100
AcDbEntity
  8
Camada 1
 62
    18
420
        0
370
    15
100
AcDbLine
 10
21.76707317863477
 20
-61.73081981105774
 30
0.0
 11
22.8280500477208
 21
-61.73081981105774
 31
0.0
  0
LINE
  5
213
330
A7
100
AcDbEntity
  8
Camada 1
 62
    18
420
        0
370
    15
100
AcDbLine
 10
21.76707317863477
 20
-62.13910592424624
 30
0.0
 11
22.8280500477208
 21
-62.13910592424624
 31
0.0
  0
LINE
  5
214
330
A7
100
AcDbEntity
  8
Camada 1
 62
    18
420
        0
370
    15
100
AcDbLine
 10
21.76707317863477
 20
-62.47084713081022
 30
0.0
 11
22.8280500477208
 21
-62.47084713081022
 31
0.0
  0
LINE
  5
215
330
A7
100
AcDbEntity
  8
Camada 1
 62
    18
420
        0
370
    15
100
AcDbLine
 10
21.76707317863477
 20
-62.87913324399873
 30
0.0
 11
22.8280500477208
 21
-62.87913324399873
 31
0.0
  0
LINE
  5
216
330
A7
100
AcDbEntity
  8
Camada 1
 62
    18
420
        0
370
    15
100
AcDbLine
 10
21.76707317863477
 20
-63.210874450564
 30
0.0
 11
22.8280500477208
 21
-63.210874450564
 31
0.0
  0
LINE
  5
217
330
A7
100
AcDbEntity
  8
Camada 1
 62
    18
420
        0
370
    15
100
AcDbLine
 10
21.76707317863477
 20
-63.61918153879061
 30
0.0
 11
22.8280500477208
 21
-63.61918153879061
 31
0.0
  0
LINE
  5
218
330
A7
100
AcDbEntity
  8
Camada 1
 62
    18
420
        0
370
    15
100
AcDbLine
 10
21.76707317863477
 20
-63.95092624119492
 30
0.0
 11
22.8280500477208
 21
-63.95092624119492
 31
0.0
  0
LINE
  5
219
330
A7
100
AcDbEntity
  8
Camada 1
 62
    18
420
        0
370
    15
100
AcDbLine
 10
21.76707317863477
 20
-64.35920885854311
 30
0.0
 11
22.8280500477208
 21
-64.35920885854311
 31
0.0
  0
LINE
  5
21A
330
A7
100
AcDbEntity
  8
Camada 1
 62
    18
420
        0
370
    15
100
AcDbLine
 10
21.76707317863477
 20
-64.69095006510709
 30
0.0
 11
22.8280500477208
 21
-64.69095006510709
 31
0.0
  0
LINE
  5
21B
330
A7
100
AcDbEntity
  8
Camada 1
 62
    18
420
        0
370
    15
100
AcDbLine
 10
21.76707317863477
 20
-65.0992361782956
 30
0.0
 11
22.8280500477208
 21
-65.0992361782956
 31
0.0
  0
LINE
  5
21C
330
A7
100
AcDbEntity
  8
Camada 1
 62
    18
420
        0
370
    15
100
AcDbLine
 10
21.76707317863477
 20
-65.43097738486086
 30
0.0
 11
22.8280500477208
 21
-65.43097738486086
 31
0.0
  0
LINE
  5
21D
330
A7
100
AcDbEntity
  8
Camada 1
 62
    18
420
        0
370
    15
100
AcDbLine
 10
21.76707317863477
 20
-65.83926349804937
 30
0.0
 11
22.8280500477208
 21
-65.83926349804937
 31
0.0
  0
LINE
  5
21E
330
A7
100
AcDbEntity
  8
Camada 1
 62
    18
420
        0
370
    15
100
AcDbLine
 10
21.76707317863477
 20
-66.17102917549179
 30
0.0
 11
22.8280500477208
 21
-66.17102917549179
 31
0.0
  0
LINE
  5
21F
330
A7
100
AcDbEntity
  8
Camada 1
 62
    18
420
        0
370
    15
100
AcDbLine
 10
21.76707317863477
 20
-66.57931179283997
 30
0.0
 11
22.8280500477208
 21
-66.57931179283997
 31
0.0
  0
SPLINE
  5
220
330
A7
100
AcDbEntity
  8
Camada 1
 62
    18
420
        0
370
    15
100
AcDbSpline
210
0.0
220
0.0
230
1.0
 70
     8
 71
     3
 72
    11
 73
     7
 74
     0
 42
0.0000000001
 43
0.0000000001
 40
0.0
 40
0.0
 40
0.0
 40
0.0
 40
1.0
 40
1.0
 40
1.0
 40
2.0
 40
2.0
 40
2.0
 40
2.0
 10
34.10213665740469
 20
-62.92985787841165
 30
0.0
 10
34.10075929655248
 20
-62.94017060560141
 30
0.0
 10
34.09938543154028
 20
-62.95047983695086
 30
0.0
 10
34.09801156652839
 20
-62.9607890683003
 30
0.0
 10
34.09388647565243
 20
-62.98988494233321
 30
0.0
 10
34.08838751976457
 20
-63.01898081636612
 30
0.0
 10
34.08770233517831
 20
-63.04830741582208
 30
0.0
  0
LINE
  5
221
330
A7
100
AcDbEntity
  8
Camada 1
 62
    18
420
        0
370
    15
100
AcDbLine
 10
21.76707317863477
 20
-66.91103202436713
 30
0.0
 11
22.8280500477208
 21
-66.91103202436713
 31
0.0
  0
LINE
  5
222
330
A7
100
AcDbEntity
  8
Camada 1
 62
    18
420
        0
370
    15
100
AcDbLine
 10
21.76707317863477
 20
-67.31933911259375
 30
0.0
 11
22.8280500477208
 21
-67.31933911259375
 31
0.0
  0
LINE
  5
223
330
A7
100
AcDbEntity
  8
Camada 1
 62
    18
420
        0
370
    15
100
AcDbLine
 10
21.76707317863477
 20
-67.65108031915772
 30
0.0
 11
22.8280500477208
 21
-67.65108031915772
 31
0.0
  0
LINE
  5
224
330
A7
100
AcDbEntity
  8
Camada 1
 62
    18
420
        0
370
    15
100
AcDbLine
 10
21.76707317863477
 20
-68.05936643234623
 30
0.0
 11
22.8280500477208
 21
-68.05936643234623
 31
0.0
  0
LINE
  5
225
330
A7
100
AcDbEntity
  8
Camada 1
 62
    18
420
        0
370
    15
100
AcDbLine
 10
21.76707317863477
 20
-68.39113210978995
 30
0.0
 11
22.8280500477208
 21
-68.39113210978995
 31
0.0
  0
LINE
  5
226
330
A7
100
AcDbEntity
  8
Camada 1
 62
    18
420
        0
370
    15
100
AcDbLine
 10
37.7799103694469
 20
-68.39113210978995
 30
0.0
 11
36.71893000452118
 21
-68.39113210978995
 31
0.0
  0
LINE
  5
227
330
A7
100
AcDbEntity
  8
Camada 1
 62
    18
420
        0
370
    15
100
AcDbLine
 10
37.7799103694469
 20
-68.05936643234623
 30
0.0
 11
36.71893000452118
 21
-68.05936643234623
 31
0.0
  0
LINE
  5
228
330
A7
100
AcDbEntity
  8
Camada 1
 62
    18
420
        0
370
    15
100
AcDbLine
 10
37.7799103694469
 20
-67.65108031915772
 30
0.0
 11
36.71893000452118
 21
-67.65108031915772
 31
0.0
  0
LINE
  5
229
330
A7
100
AcDbEntity
  8
Camada 1
 62
    18
420
        0
370
    15
100
AcDbLine
 10
37.7799103694469
 20
-67.31933911259375
 30
0.0
 11
36.71893000452118
 21
-67.31933911259375
 31
0.0
  0
LINE
  5
22A
330
A7
100
AcDbEntity
  8
Camada 1
 62
    18
420
        0
370
    15
100
AcDbLine
 10
37.7799103694469
 20
-66.91103202436713
 30
0.0
 11
36.71893000452118
 21
-66.91103202436713
 31
0.0
  0
LINE
  5
22B
330
A7
100
AcDbEntity
  8
Camada 1
 62
    18
420
        0
370
    15
100
AcDbLine
 10
37.7799103694469
 20
-66.57931179283997
 30
0.0
 11
36.71893000452118
 21
-66.57931179283997
 31
0.0
  0
SPLINE
  5
22C
330
A7
100
AcDbEntity
  8
Camada 1
 62
    18
420
        0
370
    15
100
AcDbSpline
210
0.0
220
0.0
230
1.0
 70
     8
 71
     3
 72
     8
 73
     4
 74
     0
 42
0.0000000001
 43
0.0000000001
 40
0.0
 40
0.0
 40
0.0
 40
0.0
 40
1.0
 40
1.0
 40
1.0
 40
1.0
 10
34.12268520330955
 20
-62.89132323712046
 30
0.0
 10
34.11443502155729
 20
-62.90323705890387
 30
0.0
 10
34.1073349710758
 20
-62.91606679069627
 30
0.0
 10
34.10206324477002
 20
-62.92981592833543
 30
0.0
  0
LINE
  5
22D
330
A7
100
AcDbEntity
  8
Camada 1
 62
    18
420
        0
370
    15
100
AcDbLine
 10
37.7799103694469
 20
-66.17102917549179
 30
0.0
 11
36.71893000452118
 21
-66.17102917549179
 31
0.0
  0
LINE
  5
22E
330
A7
100
AcDbEntity
  8
Camada 1
 62
    18
420
        0
370
    15
100
AcDbLine
 10
37.7799103694469
 20
-65.83926349804937
 30
0.0
 11
36.71893000452118
 21
-65.83926349804937
 31
0.0
  0
SPLINE
  5
22F
330
A7
100
AcDbEntity
  8
Camada 1
 62
    18
420
        0
370
    15
100
AcDbSpline
210
0.0
220
0.0
230
1.0
 70
     8
 71
     3
 72
     8
 73
     4
 74
     0
 42
0.0000000001
 43
0.0000000001
 40
0.0
 40
0.0
 40
0.0
 40
0.0
 40
1.0
 40
1.0
 40
1.0
 40
1.0
 10
34.1635131154597
 20
-62.86801996951278
 30
0.0
 10
34.15595161413434
 20
-62.86916660494226
 30
0.0
 10
34.14839011280867
 20
-62.87099842495895
 30
0.0
 10
34.14105933690475
 20
-62.87329169581791
 30
0.0
  0
LINE
  5
230
330
A7
100
AcDbEntity
  8
Camada 1
 62
    18
420
        0
370
    15
100
AcDbLine
 10
37.7799103694469
 20
-68.79941472713811
 30
0.0
 11
36.71893000452118
 21
-68.79941472713811
 31
0.0
  0
LINE
  5
231
330
A7
100
AcDbEntity
  8
Camada 1
 62
    18
420
        0
370
    15
100
AcDbLine
 10
37.7799103694469
 20
-65.43097738486086
 30
0.0
 11
36.71893000452118
 21
-65.43097738486086
 31
0.0
  0
LINE
  5
232
330
A7
100
AcDbEntity
  8
Camada 1
 62
    18
420
        0
370
    15
100
AcDbLine
 10
37.7799103694469
 20
-69.13113495866401
 30
0.0
 11
36.71893000452118
 21
-69.13113495866401
 31
0.0
  0
LINE
  5
233
330
A7
100
AcDbEntity
  8
Camada 1
 62
    18
420
        0
370
    15
100
AcDbLine
 10
37.7799103694469
 20
-69.53944204689062
 30
0.0
 11
36.71893000452118
 21
-69.53944204689062
 31
0.0
  0
LINE
  5
234
330
A7
100
AcDbEntity
  8
Camada 1
 62
    18
420
        0
370
    15
100
AcDbLine
 10
37.7799103694469
 20
-65.0992361782956
 30
0.0
 11
36.71893000452118
 21
-65.0992361782956
 31
0.0
  0
LINE
  5
235
330
A7
100
AcDbEntity
  8
Camada 1
 62
    18
420
        0
370
    15
100
AcDbLine
 10
37.7799103694469
 20
-69.87118325345588
 30
0.0
 11
36.71893000452118
 21
-69.87118325345588
 31
0.0
  0
SPLINE
  5
236
330
A7
100
AcDbEntity
  8
Camada 1
 62
    18
420
        0
370
    15
100
AcDbSpline
210
0.0
220
0.0
230
1.0
 70
     8
 71
     3
 72
    11
 73
     7
 74
     0
 42
0.0000000001
 43
0.0000000001
 40
0.0
 40
0.0
 40
0.0
 40
0.0
 40
1.0
 40
1.0
 40
1.0
 40
2.0
 40
2.0
 40
2.0
 40
2.0
 10
33.63362072159065
 20
-60.31709173865835
 30
0.0
 10
33.63430590617627
 20
-60.321216829534
 30
0.0
 10
33.63545254160575
 20
-60.32488396540644
 30
0.0
 10
33.63705713203972
 20
-60.32854760543727
 30
0.0
 10
33.64347199793624
 20
-60.34298192766364
 30
0.0
 10
33.6549243688758
 20
-60.35466502402528
 30
0.0
 10
33.66661096107744
 20
-60.36474702579329
 30
0.0
  0
LINE
  5
237
330
A7
100
AcDbEntity
  8
Camada 1
 62
    18
420
        0
370
    15
100
AcDbLine
 10
37.7799103694469
 20
-70.2794693666431
 30
0.0
 11
36.71893000452118
 21
-70.2794693666431
 31
0.0
  0
LINE
  5
238
330
A7
100
AcDbEntity
  8
Camada 1
 62
    18
420
        0
370
    15
100
AcDbLine
 10
37.7799103694469
 20
-64.69095006510709
 30
0.0
 11
36.71893000452118
 21
-64.69095006510709
 31
0.0
  0
LINE
  5
239
330
A7
100
AcDbEntity
  8
Camada 1
 62
    18
420
        0
370
    15
100
AcDbLine
 10
37.7799103694469
 20
-70.61121057320836
 30
0.0
 11
36.71893000452118
 21
-70.61121057320836
 31
0.0
  0
SPLINE
  5
23A
330
A7
100
AcDbEntity
  8
Camada 1
 62
    18
420
        0
370
    15
100
AcDbSpline
210
0.0
220
0.0
230
1.0
 70
     8
 71
     3
 72
     8
 73
     4
 74
     0
 42
0.0000000001
 43
0.0000000001
 40
0.0
 40
0.0
 40
0.0
 40
0.0
 40
1.0
 40
1.0
 40
1.0
 40
1.0
 10
33.73068970324032
 20
-60.38037342936441
 30
0.0
 10
33.70869387968922
 20
-60.38106210979067
 30
0.0
 10
33.68555491654801
 20
-60.37579387932458
 30
0.0
 10
33.66676827386455
 20
-60.36479596754888
 30
0.0
  0
LINE
  5
23B
330
A7
100
AcDbEntity
  8
Camada 1
 62
    18
420
        0
370
    15
100
AcDbLine
 10
37.7799103694469
 20
-71.01951766143499
 30
0.0
 11
36.71893000452118
 21
-71.01951766143499
 31
0.0
  0
LINE
  5
23C
330
A7
100
AcDbEntity
  8
Camada 1
 62
    18
420
        0
370
    15
100
AcDbLine
 10
37.7799103694469
 20
-64.35920885854311
 30
0.0
 11
36.71893000452118
 21
-64.35920885854311
 31
0.0
  0
LINE
  5
23D
330
A7
100
AcDbEntity
  8
Camada 1
 62
    18
420
        0
370
    15
100
AcDbLine
 10
37.7799103694469
 20
-63.95092624119492
 30
0.0
 11
36.71893000452118
 21
-63.95092624119492
 31
0.0
  0
LINE
  5
23E
330
A7
100
AcDbEntity
  8
Camada 1
 62
    18
420
        0
370
    15
100
AcDbLine
 10
21.76707317863477
 20
-68.79941472713811
 30
0.0
 11
22.8280500477208
 21
-68.79941472713811
 31
0.0
  0
LINE
  5
23F
330
A7
100
AcDbEntity
  8
Camada 1
 62
    18
420
        0
370
    15
100
AcDbLine
 10
21.76707317863477
 20
-69.13113495866401
 30
0.0
 11
22.8280500477208
 21
-69.13113495866401
 31
0.0
  0
LINE
  5
240
330
A7
100
AcDbEntity
  8
Camada 1
 62
    18
420
        0
370
    15
100
AcDbLine
 10
37.7799103694469
 20
-63.61918153879061
 30
0.0
 11
36.71893000452118
 21
-63.61918153879061
 31
0.0
  0
LINE
  5
241
330
A7
100
AcDbEntity
  8
Camada 1
 62
    18
420
        0
370
    15
100
AcDbLine
 10
21.76707317863477
 20
-69.53944204689062
 30
0.0
 11
22.8280500477208
 21
-69.53944204689062
 31
0.0
  0
LINE
  5
242
330
A7
100
AcDbEntity
  8
Camada 1
 62
    18
420
        0
370
    15
100
AcDbLine
 10
21.76707317863477
 20
-69.87118325345588
 30
0.0
 11
22.8280500477208
 21
-69.87118325345588
 31
0.0
  0
LINE
  5
243
330
A7
100
AcDbEntity
  8
Camada 1
 62
    18
420
        0
370
    15
100
AcDbLine
 10
37.7799103694469
 20
-63.210874450564
 30
0.0
 11
36.71893000452118
 21
-63.210874450564
 31
0.0
  0
LINE
  5
244
330
A7
100
AcDbEntity
  8
Camada 1
 62
    18
420
        0
370
    15
100
AcDbLine
 10
21.76707317863477
 20
-70.2794693666431
 30
0.0
 11
22.8280500477208
 21
-70.2794693666431
 31
0.0
  0
LINE
  5
245
330
A7
100
AcDbEntity
  8
Camada 1
 62
    18
420
        0
370
    15
100
AcDbLine
 10
21.76707317863477
 20
-70.61121057320836
 30
0.0
 11
22.8280500477208
 21
-70.61121057320836
 31
0.0
  0
LINE
  5
246
330
A7
100
AcDbEntity
  8
Camada 1
 62
    18
420
        0
370
    15
100
AcDbLine
 10
37.7799103694469
 20
-62.87913324399873
 30
0.0
 11
36.71893000452118
 21
-62.87913324399873
 31
0.0
  0
LINE
  5
247
330
A7
100
AcDbEntity
  8
Camada 1
 62
    18
420
        0
370
    15
100
AcDbLine
 10
21.76707317863477
 20
-71.01951766143499
 30
0.0
 11
22.8280500477208
 21
-71.01951766143499
 31
0.0
  0
ELLIPSE
  5
248
330
A7
100
AcDbEntity
  8
Camada 1
 62
    18
420
        0
370
    15
100
AcDbEllipse
 10
29.77361587635093
 20
-66.17386867130905
 30
0.0
 11
1.794236137386336
 21
0.2911645749832956
 31
0.0
210
0.0
220
0.0
230
0.9999999999999998
 40
0.9999984795659347
 41
0.0
 42
6.283185307179586
  0
SPLINE
  5
249
330
A7
100
AcDbEntity
  8
Camada 1
 62
    18
420
        0
370
    15
100
AcDbSpline
210
0.0
220
0.0
230
1.0
 70
     9
 71
     3
 72
    17
 73
    13
 74
     0
 42
0.0000000001
 43
0.0000000001
 40
0.0
 40
0.0
 40
0.0
 40
0.0
 40
1.0
 40
1.0
 40
1.0
 40
2.0
 40
2.0
 40
2.0
 40
3.0
 40
3.0
 40
3.0
 40
4.0
 40
4.0
 40
4.0
 40
4.0
 10
30.687900318887
 20
-60.03247794742982
 30
0.0
 10
30.687900318887
 20
-59.52753536167801
 30
0.0
 10
30.2784920411468
 20
-59.11812708393846
 30
0.0
 10
29.77354595955627
 20
-59.11812708393846
 30
0.0
 10
29.26837264838365
 20
-59.11812708393846
 30
0.0
 10
28.85896786648379
 20
-59.52753536167801
 30
0.0
 10
28.85896786648379
 20
-60.03247794742982
 30
0.0
 10
28.85896786648379
 20
-60.53742402901939
 30
0.0
 10
29.26837264838365
 20
-60.94683230676023
 30
0.0
 10
29.77354595955627
 20
-60.94683230676023
 30
0.0
 10
30.2784920411468
 20
-60.94683230676023
 30
0.0
 10
30.687900318887
 20
-60.53742402901939
 30
0.0
 10
30.687900318887
 20
-60.03247794742982
 30
0.0
  0
SPLINE
  5
24A
330
A7
100
AcDbEntity
  8
Camada 1
 62
    18
420
        0
370
    15
100
AcDbSpline
210
0.0
220
0.0
230
1.0
 70
     9
 71
     3
 72
    17
 73
    13
 74
     0
 42
0.0000000001
 43
0.0000000001
 40
0.0
 40
0.0
 40
0.0
 40
0.0
 40
1.0
 40
1.0
 40
1.0
 40
2.0
 40
2.0
 40
2.0
 40
3.0
 40
3.0
 40
3.0
 40
4.0
 40
4.0
 40
4.0
 40
4.0
 10
25.27521825969073
 20
-61.6172539617442
 30
0.0
 10
25.27521825969073
 20
-61.84177776393555
 30
0.0
 10
25.4573550052142
 20
-62.02391450945934
 30
0.0
 10
25.68210254114923
 20
-62.02391450945934
 30
0.0
 10
25.90685357292299
 20
-62.02391450945934
 30
0.0
 10
26.08876308886469
 20
-61.84177776393555
 30
0.0
 10
26.08876308886469
 20
-61.6172539617442
 30
0.0
 10
26.08876308886469
 20
-61.39250642580916
 30
0.0
 10
25.90685357292299
 20
-61.21036968028537
 30
0.0
 10
25.68210254114923
 20
-61.21036968028537
 30
0.0
 10
25.4573550052142
 20
-61.21036968028537
 30
0.0
 10
25.27521825969073
 20
-61.39250642580916
 30
0.0
 10
25.27521825969073
 20
-61.6172539617442
 30
0.0
  0
SPLINE
  5
24B
330
A7
100
AcDbEntity
  8
Camada 1
 62
    18
420
        0
370
    15
100
AcDbSpline
210
0.0
220
0.0
230
1.0
 70
     9
 71
     3
 72
    17
 73
    13
 74
     0
 42
0.0000000001
 43
0.0000000001
 40
0.0
 40
0.0
 40
0.0
 40
0.0
 40
1.0
 40
1.0
 40
1.0
 40
2.0
 40
2.0
 40
2.0
 40
3.0
 40
3.0
 40
3.0
 40
4.0
 40
4.0
 40
4.0
 40
4.0
 10
33.45815054242199
 20
-61.62030233398407
 30
0.0
 10
33.45815054242199
 20
-61.84482613617671
 30
0.0
 10
33.64028728794642
 20
-62.02696288170049
 30
0.0
 10
33.8648075942984
 20
-62.02696288170049
 30
0.0
 10
34.08978585565489
 20
-62.02696288170049
 30
0.0
 10
34.27169537159691
 20
-61.84482613617671
 30
0.0
 10
34.27169537159691
 20
-61.62030233398407
 30
0.0
 10
34.27169537159691
 20
-61.39555479805032
 30
0.0
 10
34.08978585565489
 20
-61.21341805252654
 30
0.0
 10
33.8648075942984
 20
-61.21341805252654
 30
0.0
 10
33.64028728794642
 20
-61.21341805252654
 30
0.0
 10
33.45815054242199
 20
-61.39555479805032
 30
0.0
 10
33.45815054242199
 20
-61.62030233398407
 30
0.0
  0
LINE
  5
24C
330
A7
100
AcDbEntity
  8
Camada 1
  6
AI-Linetype-0
 62
    18
420
        0
370
    15
100
AcDbLine
 10
25.6821060369886
 20
-61.00284614667734
 30
0.0
 11
25.6821060369886
 21
-62.2528360780269
 31
0.0
  0
LINE
  5
24E
330
A7
100
AcDbEntity
  8
Camada 1
  6
AI-Linetype-1
 62
    18
420
        0
370
    15
100
AcDbLine
 10
25.057042902439
 20
-61.62790928122693
 30
0.0
 11
26.30702933794887
 21
-61.62790928122693
 31
0.0
  0
LINE
  5
250
330
A7
100
AcDbEntity
  8
Camada 1
  6
AI-Linetype-2
 62
    18
420
        0
370
    15
100
AcDbLine
 10
33.86487751109338
 20
-61.00277622988236
 30
0.0
 11
33.86487751109338
 21
-62.25299339081463
 31
0.0
  0
LINE
  5
252
330
A7
100
AcDbEntity
  8
Camada 1
  6
AI-Linetype-3
 62
    18
420
        0
370
    15
100
AcDbLine
 10
33.23983535158222
 20
-61.6277939185154
 30
0.0
 11
34.48982178709209
 21
-61.6277939185154
 31
0.0
  0
LINE
  5
254
330
A7
100
AcDbEntity
  8
Camada 1
  6
AI-Linetype-4
 62
    18
420
        0
370
    15
100
AcDbLine
 10
29.77364034722904
 20
-68.88594724785722
 30
0.0
 11
29.77364034722904
 21
-63.46192818043133
 31
0.0
  0
LINE
  5
256
330
A7
100
AcDbEntity
  8
Camada 1
  6
AI-Linetype-5
 62
    18
420
        0
370
    15
100
AcDbLine
 10
27.06142455897309
 20
-66.17370698872122
 30
0.0
 11
32.48544362639866
 21
-66.17370698872122
 31
0.0
  0
LINE
  5
258
330
A7
100
AcDbEntity
  8
Camada 1
  6
AI-Linetype-6
 62
    18
420
        0
370
    15
100
AcDbLine
 10
29.77357043043438
 20
-61.52845613688363
 30
0.0
 11
29.77357043043438
 21
-58.54507505282122
 31
0.0
  0
LINE
  5
25A
330
A7
100
AcDbEntity
  8
Camada 1
  6
AI-Linetype-7
 62
    18
420
        0
370
    15
100
AcDbLine
 10
28.28181171952932
 20
-60.03669393013857
 30
0.0
 11
31.26519280359141
 21
-60.03669393013857
 31
0.0
  0
ENDBLK
  5
AA
330
A7
100
AcDbEntity
  8
0
100
AcDbBlockEnd
  0
BLOCK
  5
25E
330
25C
100
AcDbEntity
  8
0
100
AcDbBlockBegin
  2
Block_3
 70
     0
 10
0.0
 20
0.0
 30
0.0
  3
Block_3
  1

  0
LINE
  5
260
330
25C
100
AcDbEntity
  8
Camada 1
 62
    18
420
        0
370
    15
100
AcDbLine
 10
57.07398829173701
 20
-63.85418524131463
 30
0.0
 11
56.93789525123419
 21
-71.65217662854319
 31
0.0
  0
LINE
  5
261
330
25C
100
AcDbEntity
  8
Camada 1
 62
    18
420
        0
370
    15
100
AcDbLine
 10
56.70591132706801
 20
-63.42686078498277
 30
0.0
 11
56.52881208658855
 21
-71.2429536303076
 31
0.0
  0
LINE
  5
262
330
25C
100
AcDbEntity
  8
Camada 1
 62
    18
420
        0
370
    15
100
AcDbLine
 10
55.64930775347847
 20
-59.20476035684451
 30
0.0
 11
56.9496972061464
 21
-58.65812289069043
 31
0.0
  0
LINE
  5
263
330
25C
100
AcDbEntity
  8
Camada 1
 62
    18
420
        0
370
    15
100
AcDbLine
 10
57.13337561698919
 20
-58.92603355971335
 30
0.0
 11
55.73034131830907
 21
-59.51597748838175
 31
0.0
  0
LINE
  5
264
330
25C
100
AcDbEntity
  8
Camada 1
 62
    18
420
        0
370
    15
100
AcDbLine
 10
57.03788325905506
 20
-58.35962012823278
 30
0.0
 11
57.03788325905506
 21
-58.53122041282568
 31
0.0
  0
LINE
  5
265
330
25C
100
AcDbEntity
  8
Camada 1
 62
    18
420
        0
370
    15
100
AcDbLine
 10
57.3561305242801
 20
-58.1504955000311
 30
0.0
 11
57.3561305242801
 21
-58.59083496765929
 31
0.0
  0
LINE
  5
266
330
25C
100
AcDbEntity
  8
Camada 1
 62
    18
420
        0
370
    15
100
AcDbLine
 10
79.67689237784215
 20
-71.65208224086978
 30
0.0
 11
78.28600262636722
 21
-71.65208224086978
 31
0.0
  0
LINE
  5
267
330
25C
100
AcDbEntity
  8
Camada 1
 62
    18
420
        0
370
    15
100
AcDbLine
 10
56.93788126787545
 20
-71.65208224086978
 30
0.0
 11
66.42779965283637
 21
-71.65208224086978
 31
0.0
  0
LINE
  5
268
330
25C
100
AcDbEntity
  8
Camada 1
 62
    18
420
        0
370
    15
100
AcDbLine
 10
55.36362073945385
 20
-71.24295013446854
 30
0.0
 11
56.52860932788426
 21
-71.24295013446854
 31
0.0
  0
LINE
  5
269
330
25C
100
AcDbEntity
  8
Camada 1
 62
    18
420
        0
370
    15
100
AcDbLine
 10
70.04185469420743
 20
-69.46027463330835
 30
0.0
 11
69.63267364604933
 21
-69.46027463330835
 31
0.0
  0
LINE
  5
26A
330
25C
100
AcDbEntity
  8
Camada 1
 62
    18
420
        0
370
    15
100
AcDbLine
 10
65.41553031864198
 20
-69.40675682295577
 30
0.0
 11
65.10188357849488
 21
-66.85225584390233
 31
0.0
  0
LINE
  5
26B
330
25C
100
AcDbEntity
  8
Camada 1
 62
    18
420
        0
370
    15
100
AcDbLine
 10
75.994647486791
 20
-68.40495403289857
 30
0.0
 11
74.63079455975147
 21
-68.42442935600701
 31
0.0
  0
LINE
  5
26C
330
25C
100
AcDbEntity
  8
Camada 1
 62
    18
420
        0
370
    15
100
AcDbLine
 10
74.63086447654646
 20
-68.42442935600701
 30
0.0
 11
74.54998472866264
 21
-68.42442935600701
 31
0.0
  0
LINE
  5
26D
330
25C
100
AcDbEntity
  8
Camada 1
 62
    18
420
        0
370
    15
100
AcDbLine
 10
79.77260846951804
 20
-70.05646912340776
 30
0.0
 11
78.25685431473903
 21
-69.97720095763729
 31
0.0
  0
LINE
  5
26E
330
25C
100
AcDbEntity
  8
Camada 1
 62
    18
420
        0
370
    15
100
AcDbLine
 10
65.82161405280334
 20
-69.35690265263402
 30
0.0
 11
65.463751931811
 21
-66.44248050299137
 31
0.0
  0
LINE
  5
26F
330
25C
100
AcDbEntity
  8
Camada 1
 62
    18
420
        0
370
    15
100
AcDbLine
 10
74.63086447654646
 20
-67.92438793755116
 30
0.0
 11
74.60657538213482
 21
-67.92438793755116
 31
0.0
  0
LINE
  5
270
330
25C
100
AcDbEntity
  8
Camada 1
 62
    18
420
        0
370
    15
100
AcDbLine
 10
75.994647486791
 20
-67.94383878978246
 30
0.0
 11
74.63079455975147
 21
-67.92436696251177
 31
0.0
  0
LINE
  5
271
330
25C
100
AcDbEntity
  8
Camada 1
 62
    18
420
        0
370
    15
100
AcDbLine
 10
75.994647486791
 20
-64.268103152299
 30
0.0
 11
74.63079455975147
 21
-64.28757847540873
 31
0.0
  0
LINE
  5
272
330
25C
100
AcDbEntity
  8
Camada 1
 62
    18
420
        0
370
    15
100
AcDbLine
 10
74.63086447654646
 20
-64.28757847540873
 30
0.0
 11
72.43994481227463
 21
-64.28757847540873
 31
0.0
  0
LINE
  5
273
330
25C
100
AcDbEntity
  8
Camada 1
 62
    18
420
        0
370
    15
100
AcDbLine
 10
74.63086447654646
 20
-63.78753705695288
 30
0.0
 11
72.92770534577567
 21
-63.78753705695288
 31
0.0
  0
LINE
  5
274
330
25C
100
AcDbEntity
  8
Camada 1
 62
    18
420
        0
370
    15
100
AcDbLine
 10
75.994647486791
 20
-63.80701238006261
 30
0.0
 11
74.63079455975147
 21
-63.78754055279192
 31
0.0
  0
LINE
  5
275
330
25C
100
AcDbEntity
  8
Camada 1
 62
    18
420
        0
370
    15
100
AcDbLine
 10
71.90327748101799
 20
-58.69110963433818
 30
0.0
 11
71.90327748101799
 21
-58.15042907907645
 31
0.0
  0
LINE
  5
276
330
25C
100
AcDbEntity
  8
Camada 1
 62
    18
420
        0
370
    15
100
AcDbLine
 10
72.22150377120492
 20
-58.6372247608129
 30
0.0
 11
72.22150377120492
 21
-58.33549883412986
 31
0.0
  0
LINE
  5
277
330
25C
100
AcDbEntity
  8
Camada 1
 62
    18
420
        0
370
    15
100
AcDbLine
 10
73.67449361955765
 20
-68.67241024275603
 30
0.0
 11
73.48754310273196
 21
-69.51528167138467
 31
0.0
  0
LINE
  5
278
330
25C
100
AcDbEntity
  8
Camada 1
 62
    18
420
        0
370
    15
100
AcDbLine
 10
73.40658644637506
 20
-61.81163600666139
 30
0.0
 11
77.35838854695932
 21
-61.67348741239883
 31
0.0
  0
LINE
  5
279
330
25C
100
AcDbEntity
  8
Camada 1
 62
    18
420
        0
370
    15
100
AcDbLine
 10
75.31276996502683
 20
-61.37814838489386
 30
0.0
 11
73.55852263251268
 21
-61.40884884936074
 31
0.0
  0
LINE
  5
27A
330
25C
100
AcDbEntity
  8
Camada 1
 62
    18
420
        0
370
    15
100
AcDbLine
 10
77.35845846375366
 20
-61.2190352398004
 30
0.0
 11
75.76733400449774
 21
-61.2190352398004
 31
0.0
  0
LINE
  5
27B
330
25C
100
AcDbEntity
  8
Camada 1
 62
    18
420
        0
370
    15
100
AcDbLine
 10
74.06167884416435
 20
-68.81626404744851
 30
0.0
 11
73.88709660828687
 21
-69.6039221834575
 31
0.0
  0
LINE
  5
27C
330
25C
100
AcDbEntity
  8
Camada 1
 62
    18
420
        0
370
    15
100
AcDbLine
 10
75.76735497953649
 20
-60.83262958745178
 30
0.0
 11
75.31258118968256
 21
-60.83262958745178
 31
0.0
  0
LINE
  5
27D
330
25C
100
AcDbEntity
  8
Camada 1
 62
    18
420
        0
370
    15
100
AcDbLine
 10
75.31276996502683
 20
-61.37814838489386
 30
0.0
 11
75.31276996502683
 21
-60.83265405833022
 31
0.0
  0
LINE
  5
27E
330
25C
100
AcDbEntity
  8
Camada 1
 62
    18
420
        0
370
    15
100
AcDbLine
 10
75.76735497953649
 20
-61.2190352398004
 30
0.0
 11
75.76735497953649
 21
-60.8391842869373
 31
0.0
  0
LINE
  5
27F
330
25C
100
AcDbEntity
  8
Camada 1
 62
    18
420
        0
370
    15
100
AcDbLine
 10
67.57432321583817
 20
-58.94113209148627
 30
0.0
 11
67.58348231591909
 21
-58.94113209148627
 31
0.0
  0
LINE
  5
280
330
25C
100
AcDbEntity
  8
Camada 1
 62
    18
420
        0
370
    15
100
AcDbLine
 10
75.76735497953649
 20
-59.10514640387441
 30
0.0
 11
75.31258118968256
 21
-59.10514640387441
 31
0.0
  0
LINE
  5
281
330
25C
100
AcDbEntity
  8
Camada 1
 62
    18
420
        0
370
    15
100
AcDbLine
 10
75.994647486791
 20
-67.94383878978246
 30
0.0
 11
75.994647486791
 21
-64.28208301536121
 31
0.0
  0
LINE
  5
282
330
25C
100
AcDbEntity
  8
Camada 1
 62
    18
420
        0
370
    15
100
AcDbLine
 10
77.35845846375366
 20
-58.71874075152579
 30
0.0
 11
75.76733400449774
 21
-58.71874075152579
 31
0.0
  0
LINE
  5
283
330
25C
100
AcDbEntity
  8
Camada 1
 62
    18
420
        0
370
    15
100
AcDbLine
 10
79.76784713581333
 20
-58.46871829437771
 30
0.0
 11
77.35836058024055
 21
-58.46871829437771
 31
0.0
  0
LINE
  5
284
330
25C
100
AcDbEntity
  8
Camada 1
 62
    18
420
        0
370
    15
100
AcDbLine
 10
73.69559450813882
 20
-58.24142578712383
 30
0.0
 11
72.30951503212676
 21
-58.24142578712383
 31
0.0
  0
LINE
  5
285
330
25C
100
AcDbEntity
  8
Camada 1
 62
    18
420
        0
370
    15
100
AcDbLine
 10
56.89904248852783
 20
-58.24142578712383
 30
0.0
 11
55.609874681378
 21
-58.24142578712383
 31
0.0
  0
LINE
  5
286
330
25C
100
AcDbEntity
  8
Camada 1
 62
    18
420
        0
370
    15
100
AcDbLine
 10
57.13337561698919
 20
-57.92320299277594
 30
0.0
 11
72.13047909643877
 21
-57.92320299277594
 31
0.0
  0
LINE
  5
287
330
25C
100
AcDbEntity
  8
Camada 1
 62
    18
420
        0
370
    15
100
AcDbLine
 10
72.13056998827186
 20
-57.92320299277594
 30
0.0
 11
79.67677351929094
 21
-57.92320299277594
 31
0.0
  0
LINE
  5
288
330
25C
100
AcDbEntity
  8
Camada 1
 62
    18
420
        0
370
    15
100
AcDbLine
 10
75.31276996502683
 20
-58.55965207731077
 30
0.0
 11
73.94226795082966
 21
-58.53582792958299
 31
0.0
  0
LINE
  5
289
330
25C
100
AcDbEntity
  8
Camada 1
 62
    18
420
        0
370
    15
100
AcDbLine
 10
73.13858138968065
 20
-60.18218316065826
 30
0.0
 11
71.99856008856781
 21
-58.93654904560612
 31
0.0
  0
LINE
  5
28A
330
25C
100
AcDbEntity
  8
Camada 1
 62
    18
420
        0
370
    15
100
AcDbLine
 10
73.50967875987205
 20
-60.11633901943302
 30
0.0
 11
72.27503906075786
 21
-58.76577727502945
 31
0.0
  0
LINE
  5
28B
330
25C
100
AcDbEntity
  8
Camada 1
 62
    18
420
        0
370
    15
100
AcDbLine
 10
77.35845846375366
 20
-58.71874075152579
 30
0.0
 11
77.35845846375366
 21
-58.46879170701173
 31
0.0
  0
LINE
  5
28C
330
25C
100
AcDbEntity
  8
Camada 1
 62
    18
420
        0
370
    15
100
AcDbLine
 10
78.25677041458532
 20
-69.97704014901049
 30
0.0
 11
78.28586279277918
 21
-71.65201581991512
 31
0.0
  0
LINE
  5
28D
330
25C
100
AcDbEntity
  8
Camada 1
 62
    18
420
        0
370
    15
100
AcDbLine
 10
79.85875295202763
 20
-58.10504259192331
 30
0.0
 11
79.85875295202763
 21
-58.37790686583683
 31
0.0
  0
LINE
  5
28E
330
25C
100
AcDbEntity
  8
Camada 1
 62
    18
420
        0
370
    15
100
AcDbLine
 10
79.85875295202763
 20
-58.42789387806789
 30
0.0
 11
79.85875295202763
 21
-58.99675789319386
 31
0.0
  0
LINE
  5
28F
330
25C
100
AcDbEntity
  8
Camada 1
 62
    18
420
        0
370
    15
100
AcDbLine
 10
79.85875295202763
 20
-69.90535445960573
 30
0.0
 11
79.85875295202763
 21
-70.10948702867963
 31
0.0
  0
LINE
  5
290
330
25C
100
AcDbEntity
  8
Camada 1
 62
    18
420
        0
370
    15
100
AcDbLine
 10
79.85875295202763
 20
-70.14726307275087
 30
0.0
 11
79.85875295202763
 21
-71.47010630397279
 31
0.0
  0
SPLINE
  5
291
330
25C
100
AcDbEntity
  8
Camada 1
 62
    18
420
        0
370
    15
100
AcDbSpline
210
0.0
220
0.0
230
1.0
 70
     8
 71
     3
 72
     8
 73
     4
 74
     0
 42
0.0000000001
 43
0.0000000001
 40
0.0
 40
0.0
 40
0.0
 40
0.0
 40
1.0
 40
1.0
 40
1.0
 40
1.0
 10
70.89748943367317
 20
-66.30401029147522
 30
0.0
 10
71.2125065429928
 20
-65.74706009813138
 30
0.0
 10
71.51491765426306
 20
-65.18346780931053
 30
0.0
 10
71.80473675084271
 20
-64.61345715875508
 30
0.0
  0
SPLINE
  5
292
330
25C
100
AcDbEntity
  8
Camada 1
 62
    18
420
        0
370
    15
100
AcDbSpline
210
0.0
220
0.0
230
1.0
 70
     8
 71
     3
 72
     8
 73
     4
 74
     0
 42
0.0000000001
 43
0.0000000001
 40
0.0
 40
0.0
 40
0.0
 40
0.0
 40
1.0
 40
1.0
 40
1.0
 40
1.0
 10
54.91851644227932
 20
-68.32321081260295
 30
0.0
 10
54.83488896437367
 20
-68.44647062547497
 30
0.0
 10
54.83488896437367
 20
-68.60821613788131
 30
0.0
 10
54.91851644227932
 20
-68.73147595075335
 30
0.0
  0
SPLINE
  5
293
330
25C
100
AcDbEntity
  8
Camada 1
 62
    18
420
        0
370
    15
100
AcDbSpline
210
0.0
220
0.0
230
1.0
 70
     8
 71
     3
 72
     8
 73
     4
 74
     0
 42
0.0000000001
 43
0.0000000001
 40
0.0
 40
0.0
 40
0.0
 40
0.0
 40
1.0
 40
1.0
 40
1.0
 40
1.0
 10
54.91851644227932
 20
-67.58316251781235
 30
0.0
 10
54.83488896437367
 20
-67.7064223306831
 30
0.0
 10
54.83488896437367
 20
-67.86816784309071
 30
0.0
 10
54.91851644227932
 20
-67.99142765596146
 30
0.0
  0
SPLINE
  5
294
330
25C
100
AcDbEntity
  8
Camada 1
 62
    18
420
        0
370
    15
100
AcDbSpline
210
0.0
220
0.0
230
1.0
 70
     8
 71
     3
 72
     8
 73
     4
 74
     0
 42
0.0000000001
 43
0.0000000001
 40
0.0
 40
0.0
 40
0.0
 40
0.0
 40
1.0
 40
1.0
 40
1.0
 40
1.0
 10
54.91851644227932
 20
-66.84313519805858
 30
0.0
 10
54.83488896437367
 20
-66.96639501093059
 30
0.0
 10
54.83488896437367
 20
-67.12814052333694
 30
0.0
 10
54.91851644227932
 20
-67.25140033620897
 30
0.0
  0
SPLINE
  5
295
330
25C
100
AcDbEntity
  8
Camada 1
 62
    18
420
        0
370
    15
100
AcDbSpline
210
0.0
220
0.0
230
1.0
 70
     8
 71
     3
 72
     8
 73
     4
 74
     0
 42
0.0000000001
 43
0.0000000001
 40
0.0
 40
0.0
 40
0.0
 40
0.0
 40
1.0
 40
1.0
 40
1.0
 40
1.0
 10
54.91851644227932
 20
-66.10310787830609
 30
0.0
 10
54.83488896437367
 20
-66.22636769117811
 30
0.0
 10
54.83488896437367
 20
-66.38811320358446
 30
0.0
 10
54.91851644227932
 20
-66.51137301645519
 30
0.0
  0
SPLINE
  5
296
330
25C
100
AcDbEntity
  8
Camada 1
 62
    18
420
        0
370
    15
100
AcDbSpline
210
0.0
220
0.0
230
1.0
 70
     8
 71
     3
 72
     8
 73
     4
 74
     0
 42
0.0000000001
 43
0.0000000001
 40
0.0
 40
0.0
 40
0.0
 40
0.0
 40
1.0
 40
1.0
 40
1.0
 40
1.0
 10
54.91851644227932
 20
-65.36308055855359
 30
0.0
 10
54.83488896437367
 20
-65.48634037142433
 30
0.0
 10
54.83488896437367
 20
-65.64808588383197
 30
0.0
 10
54.91851644227932
 20
-65.77134569670398
 30
0.0
  0
SPLINE
  5
297
330
25C
100
AcDbEntity
  8
Camada 1
 62
    18
420
        0
370
    15
100
AcDbSpline
210
0.0
220
0.0
230
1.0
 70
     8
 71
     3
 72
     8
 73
     4
 74
     0
 42
0.0000000001
 43
0.0000000001
 40
0.0
 40
0.0
 40
0.0
 40
0.0
 40
1.0
 40
1.0
 40
1.0
 40
1.0
 10
54.91851644227932
 20
-64.62305323879981
 30
0.0
 10
54.83488896437367
 20
-64.74631305167185
 30
0.0
 10
54.83488896437367
 20
-64.90805856407819
 30
0.0
 10
54.91851644227932
 20
-65.03131837695021
 30
0.0
  0
SPLINE
  5
298
330
25C
100
AcDbEntity
  8
Camada 1
 62
    18
420
        0
370
    15
100
AcDbSpline
210
0.0
220
0.0
230
1.0
 70
     8
 71
     3
 72
     8
 73
     4
 74
     0
 42
0.0000000001
 43
0.0000000001
 40
0.0
 40
0.0
 40
0.0
 40
0.0
 40
1.0
 40
1.0
 40
1.0
 40
1.0
 10
54.91851644227932
 20
-63.88300494400794
 30
0.0
 10
54.83488896437367
 20
-64.00626475687996
 30
0.0
 10
54.83488896437367
 20
-64.1680102692863
 30
0.0
 10
54.91851644227932
 20
-64.29127008215833
 30
0.0
  0
SPLINE
  5
299
330
25C
100
AcDbEntity
  8
Camada 1
 62
    18
420
        0
370
    15
100
AcDbSpline
210
0.0
220
0.0
230
1.0
 70
     8
 71
     3
 72
     8
 73
     4
 74
     0
 42
0.0000000001
 43
0.0000000001
 40
0.0
 40
0.0
 40
0.0
 40
0.0
 40
1.0
 40
1.0
 40
1.0
 40
1.0
 10
54.91851644227932
 20
-63.14297762425544
 30
0.0
 10
54.83488896437367
 20
-63.26623743712747
 30
0.0
 10
54.83488896437367
 20
-63.42798294953381
 30
0.0
 10
54.91851644227932
 20
-63.55124276240584
 30
0.0
  0
SPLINE
  5
29A
330
25C
100
AcDbEntity
  8
Camada 1
 62
    18
420
        0
370
    15
100
AcDbSpline
210
0.0
220
0.0
230
1.0
 70
     8
 71
     3
 72
     8
 73
     4
 74
     0
 42
0.0000000001
 43
0.0000000001
 40
0.0
 40
0.0
 40
0.0
 40
0.0
 40
1.0
 40
1.0
 40
1.0
 40
1.0
 10
54.91851644227932
 20
-62.40295030450295
 30
0.0
 10
54.83488896437367
 20
-62.52621011737498
 30
0.0
 10
54.83488896437367
 20
-62.68795562978132
 30
0.0
 10
54.91851644227932
 20
-62.81121544265206
 30
0.0
  0
SPLINE
  5
29B
330
25C
100
AcDbEntity
  8
Camada 1
 62
    18
420
        0
370
    15
100
AcDbSpline
210
0.0
220
0.0
230
1.0
 70
     8
 71
     3
 72
     8
 73
     4
 74
     0
 42
0.0000000001
 43
0.0000000001
 40
0.0
 40
0.0
 40
0.0
 40
0.0
 40
1.0
 40
1.0
 40
1.0
 40
1.0
 10
54.91851644227932
 20
-61.66290200971107
 30
0.0
 10
54.83488896437367
 20
-61.78616182258309
 30
0.0
 10
54.83488896437367
 20
-61.94790733498944
 30
0.0
 10
54.91851644227932
 20
-62.07116714786146
 30
0.0
  0
SPLINE
  5
29C
330
25C
100
AcDbEntity
  8
Camada 1
 62
    18
420
        0
370
    15
100
AcDbSpline
210
0.0
220
0.0
230
1.0
 70
     8
 71
     3
 72
     8
 73
     4
 74
     0
 42
0.0000000001
 43
0.0000000001
 40
0.0
 40
0.0
 40
0.0
 40
0.0
 40
1.0
 40
1.0
 40
1.0
 40
1.0
 10
54.91851644227932
 20
-60.92287468995857
 30
0.0
 10
54.83488896437367
 20
-61.04613450283061
 30
0.0
 10
54.83488896437367
 20
-61.20788001523695
 30
0.0
 10
54.91851644227932
 20
-61.33113982810897
 30
0.0
  0
SPLINE
  5
29D
330
25C
100
AcDbEntity
  8
Camada 1
 62
    18
420
        0
370
    15
100
AcDbSpline
210
0.0
220
0.0
230
1.0
 70
     8
 71
     3
 72
     8
 73
     4
 74
     0
 42
0.0000000001
 43
0.0000000001
 40
0.0
 40
0.0
 40
0.0
 40
0.0
 40
1.0
 40
1.0
 40
1.0
 40
1.0
 10
54.91851644227932
 20
-60.18284737020609
 30
0.0
 10
54.83488896437367
 20
-60.30610718307683
 30
0.0
 10
54.83488896437367
 20
-60.46785269548446
 30
0.0
 10
54.91851644227932
 20
-60.5911125083552
 30
0.0
  0
SPLINE
  5
29E
330
25C
100
AcDbEntity
  8
Camada 1
 62
    18
420
        0
370
    15
100
AcDbSpline
210
0.0
220
0.0
230
1.0
 70
     8
 71
     3
 72
     8
 73
     4
 74
     0
 42
0.0000000001
 43
0.0000000001
 40
0.0
 40
0.0
 40
0.0
 40
0.0
 40
1.0
 40
1.0
 40
1.0
 40
1.0
 10
54.91851644227932
 20
-69.06323813235673
 30
0.0
 10
54.83488896437367
 20
-69.18649794522747
 30
0.0
 10
54.83488896437367
 20
-69.34824345763509
 30
0.0
 10
54.91851644227932
 20
-69.47150327050583
 30
0.0
  0
SPLINE
  5
29F
330
25C
100
AcDbEntity
  8
Camada 1
 62
    18
420
        0
370
    15
100
AcDbSpline
210
0.0
220
0.0
230
1.0
 70
     8
 71
     3
 72
     8
 73
     4
 74
     0
 42
0.0000000001
 43
0.0000000001
 40
0.0
 40
0.0
 40
0.0
 40
0.0
 40
1.0
 40
1.0
 40
1.0
 40
1.0
 10
54.91851644227932
 20
-69.80326545210921
 30
0.0
 10
54.83488896437367
 20
-69.92652526497995
 30
0.0
 10
54.83488896437367
 20
-70.08827077738757
 30
0.0
 10
54.91851644227932
 20
-70.21153059025961
 30
0.0
  0
SPLINE
  5
2A0
330
25C
100
AcDbEntity
  8
Camada 1
 62
    18
420
        0
370
    15
100
AcDbSpline
210
0.0
220
0.0
230
1.0
 70
     8
 71
     3
 72
     8
 73
     4
 74
     0
 42
0.0000000001
 43
0.0000000001
 40
0.0
 40
0.0
 40
0.0
 40
0.0
 40
1.0
 40
1.0
 40
1.0
 40
1.0
 10
54.91851644227932
 20
-70.54331374689981
 30
0.0
 10
54.83488896437367
 20
-70.66657355977183
 30
0.0
 10
54.83488896437367
 20
-70.82831907217819
 30
0.0
 10
54.91851644227932
 20
-70.95157888505021
 30
0.0
  0
SPLINE
  5
2A1
330
25C
100
AcDbEntity
  8
Camada 1
 62
    18
420
        0
370
    15
100
AcDbSpline
210
0.0
220
0.0
230
1.0
 70
     8
 71
     3
 72
     8
 73
     4
 74
     0
 42
0.0000000001
 43
0.0000000001
 40
0.0
 40
0.0
 40
0.0
 40
0.0
 40
1.0
 40
1.0
 40
1.0
 40
1.0
 10
54.91851644227932
 20
-71.28334106665359
 30
0.0
 10
54.9104969859498
 20
-71.295254888437
 30
0.0
 10
54.90316271420685
 20
-71.30762666522492
 30
0.0
 10
54.8965206187292
 20
-71.32022916743459
 30
0.0
  0
SPLINE
  5
2A2
330
25C
100
AcDbEntity
  8
Camada 1
 62
    18
420
        0
370
    15
100
AcDbSpline
210
0.0
220
0.0
230
1.0
 70
     8
 71
     3
 72
     8
 73
     4
 74
     0
 42
0.0000000001
 43
0.0000000001
 40
0.0
 40
0.0
 40
0.0
 40
0.0
 40
1.0
 40
1.0
 40
1.0
 40
1.0
 10
54.91851644227932
 20
-68.32321081260295
 30
0.0
 10
54.98655946669138
 20
-68.22309345871309
 30
0.0
 10
54.98655946669138
 20
-68.09159045576913
 30
0.0
 10
54.91851644227932
 20
-67.99146960603896
 30
0.0
  0
SPLINE
  5
2A3
330
25C
100
AcDbEntity
  8
Camada 1
 62
    18
420
        0
370
    15
100
AcDbSpline
210
0.0
220
0.0
230
1.0
 70
     8
 71
     3
 72
     8
 73
     4
 74
     0
 42
0.0000000001
 43
0.0000000001
 40
0.0
 40
0.0
 40
0.0
 40
0.0
 40
1.0
 40
1.0
 40
1.0
 40
1.0
 10
54.91851644227932
 20
-67.58316251781235
 30
0.0
 10
54.98655946669138
 20
-67.48304516392122
 30
0.0
 10
54.98655946669138
 20
-67.35154216097726
 30
0.0
 10
54.91851644227932
 20
-67.25142131124837
 30
0.0
  0
SPLINE
  5
2A4
330
25C
100
AcDbEntity
  8
Camada 1
 62
    18
420
        0
370
    15
100
AcDbSpline
210
0.0
220
0.0
230
1.0
 70
     8
 71
     3
 72
     8
 73
     4
 74
     0
 42
0.0000000001
 43
0.0000000001
 40
0.0
 40
0.0
 40
0.0
 40
0.0
 40
1.0
 40
1.0
 40
1.0
 40
1.0
 10
54.91851644227932
 20
-66.84313519805858
 30
0.0
 10
54.98655946669138
 20
-66.74301784416872
 30
0.0
 10
54.98655946669138
 20
-66.61151484122476
 30
0.0
 10
54.91851644227932
 20
-66.51139399149458
 30
0.0
  0
SPLINE
  5
2A5
330
25C
100
AcDbEntity
  8
Camada 1
 62
    18
420
        0
370
    15
100
AcDbSpline
210
0.0
220
0.0
230
1.0
 70
     8
 71
     3
 72
     8
 73
     4
 74
     0
 42
0.0000000001
 43
0.0000000001
 40
0.0
 40
0.0
 40
0.0
 40
0.0
 40
1.0
 40
1.0
 40
1.0
 40
1.0
 10
54.91851644227932
 20
-66.10310787830609
 30
0.0
 10
54.98655946669138
 20
-66.00299052441496
 30
0.0
 10
54.98655946669138
 20
-65.871487521471
 30
0.0
 10
54.91851644227932
 20
-65.7713666717408
 30
0.0
  0
SPLINE
  5
2A6
330
25C
100
AcDbEntity
  8
Camada 1
 62
    18
420
        0
370
    15
100
AcDbSpline
210
0.0
220
0.0
230
1.0
 70
     8
 71
     3
 72
     8
 73
     4
 74
     0
 42
0.0000000001
 43
0.0000000001
 40
0.0
 40
0.0
 40
0.0
 40
0.0
 40
1.0
 40
1.0
 40
1.0
 40
1.0
 10
54.91851644227932
 20
-65.36308055855359
 30
0.0
 10
54.98655946669138
 20
-65.26296320466245
 30
0.0
 10
54.98655946669138
 20
-65.13146020171849
 30
0.0
 10
54.91851644227932
 20
-65.03133935198832
 30
0.0
  0
SPLINE
  5
2A7
330
25C
100
AcDbEntity
  8
Camada 1
 62
    18
420
        0
370
    15
100
AcDbSpline
210
0.0
220
0.0
230
1.0
 70
     8
 71
     3
 72
     8
 73
     4
 74
     0
 42
0.0000000001
 43
0.0000000001
 40
0.0
 40
0.0
 40
0.0
 40
0.0
 40
1.0
 40
1.0
 40
1.0
 40
1.0
 10
54.91851644227932
 20
-64.62305323879981
 30
0.0
 10
54.98655946669138
 20
-64.52293588490997
 30
0.0
 10
54.98655946669138
 20
-64.39143288196601
 30
0.0
 10
54.91851644227932
 20
-64.29131203223583
 30
0.0
  0
SPLINE
  5
2A8
330
25C
100
AcDbEntity
  8
Camada 1
 62
    18
420
        0
370
    15
100
AcDbSpline
210
0.0
220
0.0
230
1.0
 70
     8
 71
     3
 72
     8
 73
     4
 74
     0
 42
0.0000000001
 43
0.0000000001
 40
0.0
 40
0.0
 40
0.0
 40
0.0
 40
1.0
 40
1.0
 40
1.0
 40
1.0
 10
54.91851644227932
 20
-63.88300494400794
 30
0.0
 10
54.98655946669138
 20
-63.78288759011808
 30
0.0
 10
54.98655946669138
 20
-63.65138458717413
 30
0.0
 10
54.91851644227932
 20
-63.55126373744394
 30
0.0
  0
SPLINE
  5
2A9
330
25C
100
AcDbEntity
  8
Camada 1
 62
    18
420
        0
370
    15
100
AcDbSpline
210
0.0
220
0.0
230
1.0
 70
     8
 71
     3
 72
     8
 73
     4
 74
     0
 42
0.0000000001
 43
0.0000000001
 40
0.0
 40
0.0
 40
0.0
 40
0.0
 40
1.0
 40
1.0
 40
1.0
 40
1.0
 10
54.91851644227932
 20
-63.14297762425544
 30
0.0
 10
54.98655946669138
 20
-63.04286027036559
 30
0.0
 10
54.98655946669138
 20
-62.91135726742163
 30
0.0
 10
54.91851644227932
 20
-62.81123641769145
 30
0.0
  0
SPLINE
  5
2AA
330
25C
100
AcDbEntity
  8
Camada 1
 62
    18
420
        0
370
    15
100
AcDbSpline
210
0.0
220
0.0
230
1.0
 70
     8
 71
     3
 72
     8
 73
     4
 74
     0
 42
0.0000000001
 43
0.0000000001
 40
0.0
 40
0.0
 40
0.0
 40
0.0
 40
1.0
 40
1.0
 40
1.0
 40
1.0
 10
54.91851644227932
 20
-62.40295030450295
 30
0.0
 10
54.98655946669138
 20
-62.30283295061181
 30
0.0
 10
54.98655946669138
 20
-62.17132994766914
 30
0.0
 10
54.91851644227932
 20
-62.07120909793768
 30
0.0
  0
SPLINE
  5
2AB
330
25C
100
AcDbEntity
  8
Camada 1
 62
    18
420
        0
370
    15
100
AcDbSpline
210
0.0
220
0.0
230
1.0
 70
     8
 71
     3
 72
     8
 73
     4
 74
     0
 42
0.0000000001
 43
0.0000000001
 40
0.0
 40
0.0
 40
0.0
 40
0.0
 40
1.0
 40
1.0
 40
1.0
 40
1.0
 10
54.91851644227932
 20
-61.66290200971107
 30
0.0
 10
54.98655946669138
 20
-61.56278465582122
 30
0.0
 10
54.98655946669138
 20
-61.43128165287726
 30
0.0
 10
54.91851644227932
 20
-61.33116080314708
 30
0.0
  0
SPLINE
  5
2AC
330
25C
100
AcDbEntity
  8
Camada 1
 62
    18
420
        0
370
    15
100
AcDbSpline
210
0.0
220
0.0
230
1.0
 70
     8
 71
     3
 72
     8
 73
     4
 74
     0
 42
0.0000000001
 43
0.0000000001
 40
0.0
 40
0.0
 40
0.0
 40
0.0
 40
1.0
 40
1.0
 40
1.0
 40
1.0
 10
54.91851644227932
 20
-60.92287468995857
 30
0.0
 10
54.98655946669138
 20
-60.82275733606744
 30
0.0
 10
54.98655946669138
 20
-60.69125433312477
 30
0.0
 10
54.91851644227932
 20
-60.5911334833933
 30
0.0
  0
SPLINE
  5
2AD
330
25C
100
AcDbEntity
  8
Camada 1
 62
    18
420
        0
370
    15
100
AcDbSpline
210
0.0
220
0.0
230
1.0
 70
     8
 71
     3
 72
     8
 73
     4
 74
     0
 42
0.0000000001
 43
0.0000000001
 40
0.0
 40
0.0
 40
0.0
 40
0.0
 40
1.0
 40
1.0
 40
1.0
 40
1.0
 10
54.91851644227932
 20
-60.18284737020609
 30
0.0
 10
54.98655946669138
 20
-60.08273104759974
 30
0.0
 10
54.98655946669138
 20
-59.95122701337099
 30
0.0
 10
54.91851644227932
 20
-59.85110616364082
 30
0.0
  0
SPLINE
  5
2AE
330
25C
100
AcDbEntity
  8
Camada 1
 62
    18
420
        0
370
    15
100
AcDbSpline
210
0.0
220
0.0
230
1.0
 70
     8
 71
     3
 72
     8
 73
     4
 74
     0
 42
0.0000000001
 43
0.0000000001
 40
0.0
 40
0.0
 40
0.0
 40
0.0
 40
1.0
 40
1.0
 40
1.0
 40
1.0
 10
54.91851644227932
 20
-69.06323813235673
 30
0.0
 10
54.98655946669138
 20
-68.96312077846559
 30
0.0
 10
54.98655946669138
 20
-68.83161777552164
 30
0.0
 10
54.91851644227932
 20
-68.73149692579144
 30
0.0
  0
SPLINE
  5
2AF
330
25C
100
AcDbEntity
  8
Camada 1
 62
    18
420
        0
370
    15
100
AcDbSpline
210
0.0
220
0.0
230
1.0
 70
     8
 71
     3
 72
     8
 73
     4
 74
     0
 42
0.0000000001
 43
0.0000000001
 40
0.0
 40
0.0
 40
0.0
 40
0.0
 40
1.0
 40
1.0
 40
1.0
 40
1.0
 10
54.91851644227932
 20
-69.80326545210921
 30
0.0
 10
54.98655946669138
 20
-69.70314809821807
 30
0.0
 10
54.98655946669138
 20
-69.57164509527412
 30
0.0
 10
54.91851644227932
 20
-69.47152424554395
 30
0.0
  0
SPLINE
  5
2B0
330
25C
100
AcDbEntity
  8
Camada 1
 62
    18
420
        0
370
    15
100
AcDbSpline
210
0.0
220
0.0
230
1.0
 70
     8
 71
     3
 72
     8
 73
     4
 74
     0
 42
0.0000000001
 43
0.0000000001
 40
0.0
 40
0.0
 40
0.0
 40
0.0
 40
1.0
 40
1.0
 40
1.0
 40
1.0
 10
54.91851644227932
 20
-70.54331374689981
 30
0.0
 10
54.98655946669138
 20
-70.44319639300997
 30
0.0
 10
54.98655946669138
 20
-70.31169339006601
 30
0.0
 10
54.91851644227932
 20
-70.21157254033582
 30
0.0
  0
SPLINE
  5
2B1
330
25C
100
AcDbEntity
  8
Camada 1
 62
    18
420
        0
370
    15
100
AcDbSpline
210
0.0
220
0.0
230
1.0
 70
     8
 71
     3
 72
     8
 73
     4
 74
     0
 42
0.0000000001
 43
0.0000000001
 40
0.0
 40
0.0
 40
0.0
 40
0.0
 40
1.0
 40
1.0
 40
1.0
 40
1.0
 10
54.91851644227932
 20
-71.28334106665359
 30
0.0
 10
54.98655946669138
 20
-71.18322371276374
 30
0.0
 10
54.98655946669138
 20
-71.0517207098185
 30
0.0
 10
54.91851644227932
 20
-70.9515998600896
 30
0.0
  0
SPLINE
  5
2B2
330
25C
100
AcDbEntity
  8
Camada 1
 62
    18
420
        0
370
    15
100
AcDbSpline
210
0.0
220
0.0
230
1.0
 70
     8
 71
     3
 72
    11
 73
     7
 74
     0
 42
0.0000000001
 43
0.0000000001
 40
0.0
 40
0.0
 40
0.0
 40
0.0
 40
1.0
 40
1.0
 40
1.0
 40
2.0
 40
2.0
 40
2.0
 40
2.0
 10
54.89654159376731
 20
-71.32027111751082
 30
0.0
 10
54.83880430486501
 20
-71.43161710859813
 30
0.0
 10
54.88233450112366
 20
-71.56884979285172
 30
0.0
 10
54.99390772179371
 20
-71.62658358591432
 30
0.0
 10
55.02620928085552
 20
-71.64353666066222
 30
0.0
 10
55.06195074620512
 20
-71.65201407199496
 30
0.0
 10
55.09837739614258
 20
-71.65201407199496
 30
0.0
  0
SPLINE
  5
2B3
330
25C
100
AcDbEntity
  8
Camada 1
 62
    18
420
        0
370
    15
100
AcDbSpline
210
0.0
220
0.0
230
1.0
 70
     8
 71
     3
 72
     8
 73
     4
 74
     0
 42
0.0000000001
 43
0.0000000001
 40
0.0
 40
0.0
 40
0.0
 40
0.0
 40
1.0
 40
1.0
 40
1.0
 40
1.0
 10
72.59743938357603
 20
-63.27134485896676
 30
0.0
 10
72.79469563591084
 20
-62.84452729939371
 30
0.0
 10
72.98370170649436
 20
-62.41404260395079
 30
0.0
 10
73.16424085326417
 20
-61.97966354305399
 30
0.0
  0
SPLINE
  5
2B4
330
25C
100
AcDbEntity
  8
Camada 1
 62
    18
420
        0
370
    15
100
AcDbSpline
210
0.0
220
0.0
230
1.0
 70
     8
 71
     3
 72
     8
 73
     4
 74
     0
 42
0.0000000001
 43
0.0000000001
 40
0.0
 40
0.0
 40
0.0
 40
0.0
 40
1.0
 40
1.0
 40
1.0
 40
1.0
 10
73.28536470806371
 20
-61.06120856372637
 30
0.0
 10
73.42557584776283
 20
-60.7095375748872
 30
0.0
 10
73.43542712410777
 20
-60.66715401405867
 30
0.0
 10
73.55845271571834
 20
-60.30929189306633
 30
0.0
  0
SPLINE
  5
2B5
330
25C
100
AcDbEntity
  8
Camada 1
 62
    18
420
        0
370
    15
100
AcDbSpline
210
0.0
220
0.0
230
1.0
 70
     8
 71
     3
 72
     8
 73
     4
 74
     0
 42
0.0000000001
 43
0.0000000001
 40
0.0
 40
0.0
 40
0.0
 40
0.0
 40
1.0
 40
1.0
 40
1.0
 40
1.0
 10
57.13337561698919
 20
-58.92603355971335
 30
0.0
 10
57.26831503038253
 20
-58.86921917249749
 30
0.0
 10
57.35606060748576
 20
-58.73702399328823
 30
0.0
 10
57.35606060748576
 20
-58.59085594269869
 30
0.0
  0
SPLINE
  5
2B6
330
25C
100
AcDbEntity
  8
Camada 1
 62
    18
420
        0
370
    15
100
AcDbSpline
210
0.0
220
0.0
230
1.0
 70
     8
 71
     3
 72
     8
 73
     4
 74
     0
 42
0.0000000001
 43
0.0000000001
 40
0.0
 40
0.0
 40
0.0
 40
0.0
 40
1.0
 40
1.0
 40
1.0
 40
1.0
 10
54.91851644227932
 20
-59.44282005045231
 30
0.0
 10
54.83488896437367
 20
-59.56607986332434
 30
0.0
 10
54.83488896437367
 20
-59.72782537573068
 30
0.0
 10
54.91851644227932
 20
-59.85108518860271
 30
0.0
  0
SPLINE
  5
2B7
330
25C
100
AcDbEntity
  8
Camada 1
 62
    18
420
        0
370
    15
100
AcDbSpline
210
0.0
220
0.0
230
1.0
 70
     8
 71
     3
 72
     8
 73
     4
 74
     0
 42
0.0000000001
 43
0.0000000001
 40
0.0
 40
0.0
 40
0.0
 40
0.0
 40
1.0
 40
1.0
 40
1.0
 40
1.0
 10
54.91851644227932
 20
-58.70277175566172
 30
0.0
 10
54.83488896437367
 20
-58.82603156853246
 30
0.0
 10
54.83488896437367
 20
-58.9877770809388
 30
0.0
 10
54.91851644227932
 20
-59.11103689381082
 30
0.0
  0
SPLINE
  5
2B8
330
25C
100
AcDbEntity
  8
Camada 1
 62
    18
420
        0
370
    15
100
AcDbSpline
210
0.0
220
0.0
230
1.0
 70
     8
 71
     3
 72
     8
 73
     4
 74
     0
 42
0.0000000001
 43
0.0000000001
 40
0.0
 40
0.0
 40
0.0
 40
0.0
 40
1.0
 40
1.0
 40
1.0
 40
1.0
 10
54.91851644227932
 20
-59.44282005045231
 30
0.0
 10
54.98655946669138
 20
-59.34270269656246
 30
0.0
 10
54.98655946669138
 20
-59.2111996936185
 30
0.0
 10
54.91851644227932
 20
-59.11107884388832
 30
0.0
  0
SPLINE
  5
2B9
330
25C
100
AcDbEntity
  8
Camada 1
 62
    18
420
        0
370
    15
100
AcDbSpline
210
0.0
220
0.0
230
1.0
 70
     8
 71
     3
 72
     8
 73
     4
 74
     0
 42
0.0000000001
 43
0.0000000001
 40
0.0
 40
0.0
 40
0.0
 40
0.0
 40
1.0
 40
1.0
 40
1.0
 40
1.0
 10
54.91851644227932
 20
-58.70277175566172
 30
0.0
 10
54.98930719671578
 20
-58.5983020813122
 30
0.0
 10
54.98609801584784
 20
-58.46061144205541
 30
0.0
 10
54.91026626052803
 20
-58.35957817815657
 30
0.0
  0
SPLINE
  5
2BA
330
25C
100
AcDbEntity
  8
Camada 1
 62
    18
420
        0
370
    15
100
AcDbSpline
210
0.0
220
0.0
230
1.0
 70
     8
 71
     3
 72
    11
 73
     7
 74
     0
 42
0.0000000001
 43
0.0000000001
 40
0.0
 40
0.0
 40
0.0
 40
0.0
 40
1.0
 40
1.0
 40
1.0
 40
2.0
 40
2.0
 40
2.0
 40
2.0
 10
55.12858145136844
 20
-57.92320299277594
 30
0.0
 10
54.9780575844802
 20
-57.92320299277594
 30
0.0
 10
54.85571717745493
 20
-58.0453161702185
 30
0.0
 10
54.85571717745493
 20
-58.19606726668946
 30
0.0
 10
54.85571717745493
 20
-58.25494769518027
 30
0.0
 10
54.87495827930384
 20
-58.31245076282111
 30
0.0
 10
54.91024528549056
 20
-58.35964809495155
 30
0.0
  0
SPLINE
  5
2BB
330
25C
100
AcDbEntity
  8
Camada 1
 62
    18
420
        0
370
    15
100
AcDbSpline
210
0.0
220
0.0
230
1.0
 70
     8
 71
     3
 72
     8
 73
     4
 74
     0
 42
0.0000000001
 43
0.0000000001
 40
0.0
 40
0.0
 40
0.0
 40
0.0
 40
1.0
 40
1.0
 40
1.0
 40
1.0
 10
55.73048115189775
 20
-59.51583765479306
 30
0.0
 10
55.63036030216757
 20
-59.55799398604015
 30
0.0
 10
55.57400037411781
 20
-59.66521488625183
 30
0.0
 10
55.59599619766857
 20
-59.7715198764558
 30
0.0
  0
SPLINE
  5
2BC
330
25C
100
AcDbEntity
  8
Camada 1
 62
    18
420
        0
370
    15
100
AcDbSpline
210
0.0
220
0.0
230
1.0
 70
     8
 71
     3
 72
     8
 73
     4
 74
     0
 42
0.0000000001
 43
0.0000000001
 40
0.0
 40
0.0
 40
0.0
 40
0.0
 40
1.0
 40
1.0
 40
1.0
 40
1.0
 10
57.3561305242801
 20
-58.1504955000311
 30
0.0
 10
57.3561305242801
 20
-58.02494940797949
 30
0.0
 10
57.2541778545345
 20
-57.92322746365439
 30
0.0
 10
57.12885899206433
 20
-57.92322746365439
 30
0.0
  0
SPLINE
  5
2BD
330
25C
100
AcDbEntity
  8
Camada 1
 62
    18
420
        0
370
    15
100
AcDbSpline
210
0.0
220
0.0
230
1.0
 70
     8
 71
     3
 72
     8
 73
     4
 74
     0
 42
0.0000000001
 43
0.0000000001
 40
0.0
 40
0.0
 40
0.0
 40
0.0
 40
1.0
 40
1.0
 40
1.0
 40
1.0
 10
70.12037125443604
 20
-73.01588972199404
 30
0.0
 10
71.59762922216166
 20
-72.80786453538384
 30
0.0
 10
72.87877058130259
 20
-71.88824369350752
 30
0.0
 10
73.54844063074532
 20
-70.55532195635665
 30
0.0
  0
SPLINE
  5
2BE
330
25C
100
AcDbEntity
  8
Camada 1
 62
    18
420
        0
370
    15
100
AcDbSpline
210
0.0
220
0.0
230
1.0
 70
     8
 71
     3
 72
    11
 73
     7
 74
     0
 42
0.0000000001
 43
0.0000000001
 40
0.0
 40
0.0
 40
0.0
 40
0.0
 40
1.0
 40
1.0
 40
1.0
 40
2.0
 40
2.0
 40
2.0
 40
2.0
 10
65.41553031864198
 20
-69.40675682295577
 30
0.0
 10
65.69526042177489
 20
-71.68496061348538
 30
0.0
 10
67.76887368822608
 20
-73.30518094677484
 30
0.0
 10
70.04730820417873
 20
-73.02567457738432
 30
0.0
 10
70.0718210323315
 20
-73.02246714443654
 30
0.0
 10
70.09611012674314
 20
-73.01925971148877
 30
0.0
 10
70.12039222947414
 20
-73.01582330103809
 30
0.0
  0
SPLINE
  5
2BF
330
25C
100
AcDbEntity
  8
Camada 1
 62
    18
420
        0
370
    15
100
AcDbSpline
210
0.0
220
0.0
230
1.0
 70
     8
 71
     3
 72
     8
 73
     4
 74
     0
 42
0.0000000001
 43
0.0000000001
 40
0.0
 40
0.0
 40
0.0
 40
0.0
 40
1.0
 40
1.0
 40
1.0
 40
1.0
 10
70.06334711683781
 20
-72.61072014992023
 30
0.0
 10
71.40749049950677
 20
-72.42148160599477
 30
0.0
 10
72.57340198962426
 20
-71.5845670882572
 30
0.0
 10
73.18281774556334
 20
-70.37169598311042
 30
0.0
  0
SPLINE
  5
2C0
330
25C
100
AcDbEntity
  8
Camada 1
 62
    18
420
        0
370
    15
100
AcDbSpline
210
0.0
220
0.0
230
1.0
 70
     8
 71
     3
 72
     8
 73
     4
 74
     0
 42
0.0000000001
 43
0.0000000001
 40
0.0
 40
0.0
 40
0.0
 40
0.0
 40
1.0
 40
1.0
 40
1.0
 40
1.0
 10
73.54853851425715
 20
-70.55525203956166
 30
0.0
 10
73.70020202489676
 20
-70.25329538745684
 30
0.0
 10
73.81383779100464
 20
-69.93369523225772
 30
0.0
 10
73.88715254172247
 20
-69.60401657112964
 30
0.0
  0
SPLINE
  5
2C1
330
25C
100
AcDbEntity
  8
Camada 1
 62
    18
420
        0
370
    15
100
AcDbSpline
210
0.0
220
0.0
230
1.0
 70
     8
 71
     3
 72
    11
 73
     7
 74
     0
 42
0.0000000001
 43
0.0000000001
 40
0.0
 40
0.0
 40
0.0
 40
0.0
 40
1.0
 40
1.0
 40
1.0
 40
2.0
 40
2.0
 40
2.0
 40
2.0
 10
65.82161405280334
 20
-69.35690265263402
 30
0.0
 10
66.07385287233731
 20
-71.41104409181579
 30
0.0
 10
67.94333706555363
 20
-72.87157796229578
 30
0.0
 10
69.99747850473541
 20
-72.61933564692404
 30
0.0
 10
70.01924360286506
 20
-72.61681514648109
 30
0.0
 10
70.04123942641519
 20
-72.61383669103492
 30
0.0
 10
70.06322825828722
 20
-72.61062925808713
 30
0.0
  0
SPLINE
  5
2C2
330
25C
100
AcDbEntity
  8
Camada 1
 62
    18
420
        0
370
    15
100
AcDbSpline
210
0.0
220
0.0
230
1.0
 70
     8
 71
     3
 72
     8
 73
     4
 74
     0
 42
0.0000000001
 43
0.0000000001
 40
0.0
 40
0.0
 40
0.0
 40
0.0
 40
1.0
 40
1.0
 40
1.0
 40
1.0
 10
73.18292961243519
 20
-70.37155614952173
 30
0.0
 10
73.31947012042282
 20
-70.09984200687803
 30
0.0
 10
73.42165351559145
 20
-69.81208895157525
 30
0.0
 10
73.48763399456505
 20
-69.51539703409619
 30
0.0
  0
SPLINE
  5
2C3
330
25C
100
AcDbEntity
  8
Camada 1
 62
    18
420
        0
370
    15
100
AcDbSpline
210
0.0
220
0.0
230
1.0
 70
     8
 71
     3
 72
     8
 73
     4
 74
     0
 42
0.0000000001
 43
0.0000000001
 40
0.0
 40
0.0
 40
0.0
 40
0.0
 40
1.0
 40
1.0
 40
1.0
 40
1.0
 10
74.60653343205859
 20
-67.92438793755116
 30
0.0
 10
74.1588631885252
 20
-67.92438793755116
 30
0.0
 10
73.77121651307497
 20
-68.23528345183483
 30
0.0
 10
73.67453556963387
 20
-68.67241373859508
 30
0.0
  0
SPLINE
  5
2C4
330
25C
100
AcDbEntity
  8
Camada 1
 62
    18
420
        0
370
    15
100
AcDbSpline
210
0.0
220
0.0
230
1.0
 70
     8
 71
     3
 72
     8
 73
     4
 74
     0
 42
0.0000000001
 43
0.0000000001
 40
0.0
 40
0.0
 40
0.0
 40
0.0
 40
1.0
 40
1.0
 40
1.0
 40
1.0
 10
74.5499008285102
 20
-68.42442935600701
 30
0.0
 10
74.31552574997198
 20
-68.42442935600701
 30
0.0
 10
74.11231258674416
 20
-68.58732499968444
 30
0.0
 10
74.06167884416435
 20
-68.81619762649385
 30
0.0
  0
SPLINE
  5
2C5
330
25C
100
AcDbEntity
  8
Camada 1
 62
    18
420
        0
370
    15
100
AcDbSpline
210
0.0
220
0.0
230
1.0
 70
     8
 71
     3
 72
     8
 73
     4
 74
     0
 42
0.0000000001
 43
0.0000000001
 40
0.0
 40
0.0
 40
0.0
 40
0.0
 40
1.0
 40
1.0
 40
1.0
 40
1.0
 10
65.46377290684976
 20
-66.44241058619638
 30
0.0
 10
65.44108490703303
 20
-66.2575261106482
 30
0.0
 10
65.30797731365575
 20
-66.10540114916632
 30
0.0
 10
65.1276758839877
 20
-66.05797658745315
 30
0.0
  0
SPLINE
  5
2C6
330
25C
100
AcDbEntity
  8
Camada 1
 62
    18
420
        0
370
    15
100
AcDbSpline
210
0.0
220
0.0
230
1.0
 70
     8
 71
     3
 72
     8
 73
     4
 74
     0
 42
0.0000000001
 43
0.0000000001
 40
0.0
 40
0.0
 40
0.0
 40
0.0
 40
1.0
 40
1.0
 40
1.0
 40
1.0
 10
65.10186260345676
 20
-66.85211601031364
 30
0.0
 10
65.08376114535924
 20
-66.7043468651279
 30
0.0
 10
64.97745265931621
 20
-66.58292236811161
 30
0.0
 10
64.83380860500613
 20
-66.54489112774147
 30
0.0
  0
SPLINE
  5
2C7
330
25C
100
AcDbEntity
  8
Camada 1
 62
    18
420
        0
370
    15
100
AcDbSpline
210
0.0
220
0.0
230
1.0
 70
     8
 71
     3
 72
    11
 73
     7
 74
     0
 42
0.0000000001
 43
0.0000000001
 40
0.0
 40
0.0
 40
0.0
 40
0.0
 40
1.0
 40
1.0
 40
1.0
 40
2.0
 40
2.0
 40
2.0
 40
2.0
 10
72.59743938357603
 20
-63.27134485896676
 30
0.0
 10
72.51312672108314
 20
-63.45371232991103
 30
0.0
 10
72.59285284185556
 20
-63.66975872076964
 30
0.0
 10
72.77521681696142
 20
-63.75406788742349
 30
0.0
 10
72.82287210409636
 20
-63.77606021513457
 30
0.0
 10
72.87510694127047
 20
-63.78751608191477
 30
0.0
 10
72.92757250386699
 20
-63.78751608191477
 30
0.0
  0
SPLINE
  5
2C8
330
25C
100
AcDbEntity
  8
Camada 1
 62
    18
420
        0
370
    15
100
AcDbSpline
210
0.0
220
0.0
230
1.0
 70
     8
 71
     3
 72
     8
 73
     4
 74
     0
 42
0.0000000001
 43
0.0000000001
 40
0.0
 40
0.0
 40
0.0
 40
0.0
 40
1.0
 40
1.0
 40
1.0
 40
1.0
 10
73.40655847965759
 20
-61.81163600666139
 30
0.0
 10
73.29979553444911
 20
-61.81530314253254
 30
0.0
 10
73.20517014476711
 20
-61.88105639192469
 30
0.0
 10
73.16416394478982
 20
-61.97979988080234
 30
0.0
  0
SPLINE
  5
2C9
330
25C
100
AcDbEntity
  8
Camada 1
 62
    18
420
        0
370
    15
100
AcDbSpline
210
0.0
220
0.0
230
1.0
 70
     8
 71
     3
 72
     8
 73
     4
 74
     0
 42
0.0000000001
 43
0.0000000001
 40
0.0
 40
0.0
 40
0.0
 40
0.0
 40
1.0
 40
1.0
 40
1.0
 40
1.0
 10
73.18504109962924
 20
-60.41181438468891
 30
0.0
 10
73.21321756781476
 20
-60.33254621891971
 30
0.0
 10
73.19534683513899
 20
-60.24434268681199
 30
0.0
 10
73.13853244792506
 20
-60.18225307745196
 30
0.0
  0
SPLINE
  5
2CA
330
25C
100
AcDbEntity
  8
Camada 1
 62
    18
420
        0
370
    15
100
AcDbSpline
210
0.0
220
0.0
230
1.0
 70
     8
 71
     3
 72
     8
 73
     4
 74
     0
 42
0.0000000001
 43
0.0000000001
 40
0.0
 40
0.0
 40
0.0
 40
0.0
 40
1.0
 40
1.0
 40
1.0
 40
1.0
 10
73.79775692826936
 20
-58.38832796405746
 30
0.0
 10
73.80004320744895
 20
-58.37847668771123
 30
0.0
 10
73.80233647830919
 20
-58.36839818178356
 30
0.0
 10
73.80462974916878
 20
-58.35854690543733
 30
0.0
  0
SPLINE
  5
2CB
330
25C
100
AcDbEntity
  8
Camada 1
 62
    18
420
        0
370
    15
100
AcDbSpline
210
0.0
220
0.0
230
1.0
 70
     8
 71
     3
 72
     8
 73
     4
 74
     0
 42
0.0000000001
 43
0.0000000001
 40
0.0
 40
0.0
 40
0.0
 40
0.0
 40
1.0
 40
1.0
 40
1.0
 40
1.0
 10
71.90327748101799
 20
-58.69110963433818
 30
0.0
 10
71.90327748101799
 20
-58.78206439230935
 30
0.0
 10
71.9371801346728
 20
-58.86958273982985
 30
0.0
 10
71.99881178902834
 20
-58.93670985423291
 30
0.0
  0
SPLINE
  5
2CC
330
25C
100
AcDbEntity
  8
Camada 1
 62
    18
420
        0
370
    15
100
AcDbSpline
210
0.0
220
0.0
230
1.0
 70
     8
 71
     3
 72
     8
 73
     4
 74
     0
 42
0.0000000001
 43
0.0000000001
 40
0.0
 40
0.0
 40
0.0
 40
0.0
 40
1.0
 40
1.0
 40
1.0
 40
1.0
 10
72.13056998827186
 20
-57.92320299277594
 30
0.0
 10
72.00502040037992
 20
-57.92320299277594
 30
0.0
 10
71.9032984560561
 20
-58.02492493710106
 30
0.0
 10
71.9032984560561
 20
-58.15047452499171
 30
0.0
  0
SPLINE
  5
2CD
330
25C
100
AcDbEntity
  8
Camada 1
 62
    18
420
        0
370
    15
100
AcDbSpline
210
0.0
220
0.0
230
1.0
 70
     8
 71
     3
 72
     8
 73
     4
 74
     0
 42
0.0000000001
 43
0.0000000001
 40
0.0
 40
0.0
 40
0.0
 40
0.0
 40
1.0
 40
1.0
 40
1.0
 40
1.0
 10
70.53946650405404
 20
-66.10597097104073
 30
0.0
 10
69.97060248892743
 20
-67.13441905148416
 30
0.0
 10
69.65947974506232
 20
-68.28520404311124
 30
0.0
 10
69.63244292062755
 20
-69.46027463330835
 30
0.0
  0
SPLINE
  5
2CE
330
25C
100
AcDbEntity
  8
Camada 1
 62
    18
420
        0
370
    15
100
AcDbSpline
210
0.0
220
0.0
230
1.0
 70
     8
 71
     3
 72
     8
 73
     4
 74
     0
 42
0.0000000001
 43
0.0000000001
 40
0.0
 40
0.0
 40
0.0
 40
0.0
 40
1.0
 40
1.0
 40
1.0
 40
1.0
 10
70.89748943367317
 20
-66.30401029147522
 30
0.0
 10
70.36207361303784
 20
-67.2719733529913
 30
0.0
 10
70.06859087642609
 20
-68.3544880906249
 30
0.0
 10
70.04201550283486
 20
-69.46036902098177
 30
0.0
  0
SPLINE
  5
2CF
330
25C
100
AcDbEntity
  8
Camada 1
 62
    18
420
        0
370
    15
100
AcDbSpline
210
0.0
220
0.0
230
1.0
 70
     8
 71
     3
 72
     8
 73
     4
 74
     0
 42
0.0000000001
 43
0.0000000001
 40
0.0
 40
0.0
 40
0.0
 40
0.0
 40
1.0
 40
1.0
 40
1.0
 40
1.0
 10
79.85875295202763
 20
-58.10504259192331
 30
0.0
 10
79.85875295202763
 20
-58.00469800845073
 30
0.0
 10
79.77718801955785
 20
-57.9231365718213
 30
0.0
 10
79.67684343608528
 20
-57.9231365718213
 30
0.0
  0
SPLINE
  5
2D0
330
25C
100
AcDbEntity
  8
Camada 1
 62
    18
420
        0
370
    15
100
AcDbSpline
210
0.0
220
0.0
230
1.0
 70
     8
 71
     3
 72
     8
 73
     4
 74
     0
 42
0.0000000001
 43
0.0000000001
 40
0.0
 40
0.0
 40
0.0
 40
0.0
 40
1.0
 40
1.0
 40
1.0
 40
1.0
 10
79.67689237784215
 20
-71.65208224086978
 30
0.0
 10
79.77723696131473
 20
-71.65208224086978
 30
0.0
 10
79.85879490210384
 20
-71.57052430008066
 30
0.0
 10
79.85879490210384
 20
-71.47017622076777
 30
0.0
  0
SPLINE
  5
2D1
330
25C
100
AcDbEntity
  8
Camada 1
 62
    18
420
        0
370
    15
100
AcDbSpline
210
0.0
220
0.0
230
1.0
 70
     8
 71
     3
 72
     8
 73
     4
 74
     0
 42
0.0000000001
 43
0.0000000001
 40
0.0
 40
0.0
 40
0.0
 40
0.0
 40
1.0
 40
1.0
 40
1.0
 40
1.0
 10
79.85875295202763
 20
-70.14726307275087
 30
0.0
 10
79.85875295202763
 20
-70.09892260103
 30
0.0
 10
79.82094894123891
 20
-70.05905954064314
 30
0.0
 10
79.77260846951804
 20
-70.05653904020147
 30
0.0
  0
SPLINE
  5
2D2
330
25C
100
AcDbEntity
  8
Camada 1
 62
    18
420
        0
370
    15
100
AcDbSpline
210
0.0
220
0.0
230
1.0
 70
     8
 71
     3
 72
     8
 73
     4
 74
     0
 42
0.0000000001
 43
0.0000000001
 40
0.0
 40
0.0
 40
0.0
 40
0.0
 40
1.0
 40
1.0
 40
1.0
 40
1.0
 10
79.76784713581333
 20
-58.46871829437771
 30
0.0
 10
79.81801942754962
 20
-58.46871829437771
 30
0.0
 10
79.85879490210384
 20
-58.42793932398315
 30
0.0
 10
79.85879490210384
 20
-58.37776703224687
 30
0.0
  0
SPLINE
  5
2D3
330
25C
100
AcDbEntity
  8
Camada 1
 62
    18
420
        0
370
    15
100
AcDbSpline
210
0.0
220
0.0
230
1.0
 70
     8
 71
     3
 72
     8
 73
     4
 74
     0
 42
0.0000000001
 43
0.0000000001
 40
0.0
 40
0.0
 40
0.0
 40
0.0
 40
1.0
 40
1.0
 40
1.0
 40
1.0
 10
55.42393795807246
 20
-58.44161854482861
 30
0.0
 10
55.43492887816944
 20
-58.67278444249825
 30
0.0
 10
55.45532360712657
 20
-58.90372311058644
 30
0.0
 10
55.48854107619544
 20
-59.1328264628189
 30
0.0
  0
SPLINE
  5
2D4
330
25C
100
AcDbEntity
  8
Camada 1
 62
    18
420
        0
370
    15
100
AcDbSpline
210
0.0
220
0.0
230
1.0
 70
     8
 71
     3
 72
    11
 73
     7
 74
     0
 42
0.0000000001
 43
0.0000000001
 40
0.0
 40
0.0
 40
0.0
 40
0.0
 40
1.0
 40
1.0
 40
1.0
 40
2.0
 40
2.0
 40
2.0
 40
2.0
 10
70.53946650405404
 20
-66.10597097104073
 30
0.0
 10
71.04646813940336
 20
-65.18933033253074
 30
0.0
 10
71.52987984828635
 20
-64.25962923680531
 30
0.0
 10
71.97662719013202
 20
-63.31159945340218
 30
0.0
 10
72.42361224907819
 20
-62.36402762500225
 30
0.0
 10
72.8341636664088
 20
-61.39835783434512
 30
0.0
 10
73.18492224107867
 20
-60.41183885556606
 30
0.0
  0
SPLINE
  5
2D5
330
25C
100
AcDbEntity
  8
Camada 1
 62
    18
420
        0
370
    15
100
AcDbSpline
210
0.0
220
0.0
230
1.0
 70
     8
 71
     3
 72
    17
 73
    13
 74
     0
 42
0.0000000001
 43
0.0000000001
 40
0.0
 40
0.0
 40
0.0
 40
0.0
 40
1.0
 40
1.0
 40
1.0
 40
2.0
 40
2.0
 40
2.0
 40
3.0
 40
3.0
 40
3.0
 40
4.0
 40
4.0
 40
4.0
 40
4.0
 10
64.83371771317303
 20
-66.54479674006933
 30
0.0
 10
64.0229206140222
 20
-66.33791644096972
 30
0.0
 10
63.21555642948298
 20
-66.11820641007901
 30
0.0
 10
62.41507205752127
 20
-65.87535741604772
 30
0.0
 10
61.60633750380954
 20
-65.62998792157348
 30
0.0
 10
60.80424504557481
 20
-65.36102150895546
 30
0.0
 10
60.02437913631327
 20
-65.04027821416589
 30
0.0
 10
59.62756636910275
 20
-64.87692461548525
 30
0.0
 10
59.23649377072155
 20
-64.70028682584931
 30
0.0
 10
58.85640510075732
 20
-64.50303057351321
 30
0.0
 10
58.46853469156469
 20
-64.30141850488098
 30
0.0
 10
57.77068817393644
 20
-63.84275384541286
 30
0.0
 10
57.41672041839798
 20
-63.58844898460137
 30
0.0
  0
SPLINE
  5
2D6
330
25C
100
AcDbEntity
  8
Camada 1
 62
    18
420
        0
370
    15
100
AcDbSpline
210
0.0
220
0.0
230
1.0
 70
     8
 71
     3
 72
    29
 73
    25
 74
     0
 42
0.0000000001
 43
0.0000000001
 40
0.0
 40
0.0
 40
0.0
 40
0.0
 40
1.0
 40
1.0
 40
1.0
 40
2.0
 40
2.0
 40
2.0
 40
3.0
 40
3.0
 40
3.0
 40
4.0
 40
4.0
 40
4.0
 40
5.0
 40
5.0
 40
5.0
 40
6.0
 40
6.0
 40
6.0
 40
7.0
 40
7.0
 40
7.0
 40
8.0
 40
8.0
 40
8.0
 40
8.0
 10
55.59599619766857
 20
-59.77153735565487
 30
0.0
 10
55.69817260115786
 20
-60.26365370545332
 30
0.0
 10
55.85075901348456
 20
-60.75004037394344
 30
0.0
 10
56.0711507331209
 20
-61.20229016751601
 30
0.0
 10
56.18158431004084
 20
-61.42910024888823
 30
0.0
 10
56.30896571794883
 20
-61.64743641476674
 30
0.0
 10
56.45215531309411
 20
-61.85454743928811
 30
0.0
 10
56.59534490823876
 20
-62.06188569339093
 30
0.0
 10
56.75456642436374
 20
-62.25799880613659
 30
0.0
 10
56.92708611480339
 20
-62.44174014209434
 30
0.0
 10
57.27142632773801
 20
-62.80876136316503
 30
0.0
 10
57.66777764410435
 20
-63.12607174334426
 30
0.0
 10
58.08771888693701
 20
-63.40465870688674
 30
0.0
 10
58.50812857229195
 20
-63.68324916626955
 30
0.0
 10
58.95166673326904
 20
-63.92311970485594
 30
0.0
 10
59.40620979770184
 20
-64.139393325296
 30
0.0
 10
59.86120732129816
 20
-64.35566694573734
 30
0.0
 10
60.3269790229278
 20
-64.54834364803232
 30
0.0
 10
60.79824618460561
 20
-64.72635879852079
 30
0.0
 10
61.26928262086292
 20
-64.9046011785894
 30
0.0
 10
61.74558379174343
 20
-65.06817851101245
 30
0.0
 10
62.22487040975141
 20
-65.22236601793408
 30
0.0
 10
63.18343665408671
 20
-65.53119549093896
 30
0.0
 10
64.15369298646367
 20
-65.80291312942171
 30
0.0
 10
65.12783669261513
 20
-66.05790667065945
 30
0.0
  0
SPLINE
  5
2D7
330
25C
100
AcDbEntity
  8
Camada 1
 62
    18
420
        0
370
    15
100
AcDbSpline
210
0.0
220
0.0
230
1.0
 70
     8
 71
     3
 72
    11
 73
     7
 74
     0
 42
0.0000000001
 43
0.0000000001
 40
0.0
 40
0.0
 40
0.0
 40
0.0
 40
1.0
 40
1.0
 40
1.0
 40
2.0
 40
2.0
 40
2.0
 40
2.0
 10
55.75048434680696
 20
-61.68354494328839
 30
0.0
 10
55.84349465853531
 20
-61.88584569234817
 30
0.0
 10
56.00753344180124
 20
-62.14312900860583
 30
0.0
 10
56.12827275423159
 20
-62.32801348415273
 30
0.0
 10
56.24923580040434
 20
-62.51290145553997
 30
0.0
 10
56.3834900292111
 20
-62.68770742516049
 30
0.0
 10
56.5287421697942
 20
-62.85197343800851
 30
0.0
  0
LINE
  5
2D8
330
25C
100
AcDbEntity
  8
Camada 1
 62
    18
420
        0
370
    15
100
AcDbLine
 10
74.60896653650623
 20
-67.91719349939625
 30
0.0
 11
74.61010618025762
 21
-67.91375708894687
 31
0.0
  0
SPLINE
  5
2D9
330
25C
100
AcDbEntity
  8
Camada 1
 62
    18
420
        0
370
    15
100
AcDbSpline
210
0.0
220
0.0
230
1.0
 70
     8
 71
     3
 72
     8
 73
     4
 74
     0
 42
0.0000000001
 43
0.0000000001
 40
0.0
 40
0.0
 40
0.0
 40
0.0
 40
1.0
 40
1.0
 40
1.0
 40
1.0
 10
57.10280799443161
 20
-58.94113209148627
 30
0.0
 10
62.06815890654905
 20
-58.94090486190354
 30
0.0
 10
67.03329307660411
 20
-58.94113209148627
 30
0.0
 10
71.99864398872154
 20
-58.94067413648177
 30
0.0
  0
LINE
  5
2DA
330
25C
100
AcDbEntity
  8
Camada 1
 62
    18
420
        0
370
    15
100
AcDbLine
 10
72.77359474733031
 20
-71.65208224086978
 30
0.0
 11
78.28604457644408
 21
-71.65208224086978
 31
0.0
  0
LINE
  5
2DB
330
25C
100
AcDbEntity
  8
Camada 1
 62
    18
420
        0
370
    15
100
AcDbLine
 10
67.58458700127107
 20
-57.92320299277594
 30
0.0
 11
69.09116807261297
 21
-57.92320299277594
 31
0.0
  0
LINE
  5
2DC
330
25C
100
AcDbEntity
  8
Camada 1
 62
    18
420
        0
370
    15
100
AcDbLine
 10
78.25677041458532
 20
-69.97704014901049
 30
0.0
 11
78.05584353053774
 21
-58.46872179021803
 31
0.0
  0
LINE
  5
2DD
330
25C
100
AcDbEntity
  8
Camada 1
 62
    18
420
        0
370
    15
100
AcDbLine
 10
79.76784713581333
 20
-62.70587180837234
 30
0.0
 11
79.76784713581333
 21
-60.46867771365907
 31
0.0
  0
LINE
  5
2DE
330
25C
100
AcDbEntity
  8
Camada 1
 62
    18
420
        0
370
    15
100
AcDbLine
 10
79.85875295202763
 20
-70.14726307275087
 30
0.0
 11
79.85875295202763
 21
-58.37776703224687
 31
0.0
  0
SPLINE
  5
2DF
330
25C
100
AcDbEntity
  8
Camada 1
 62
    18
420
        0
370
    15
100
AcDbSpline
210
0.0
220
0.0
230
1.0
 70
     8
 71
     3
 72
     8
 73
     4
 74
     0
 42
0.0000000001
 43
0.0000000001
 40
0.0
 40
0.0
 40
0.0
 40
0.0
 40
1.0
 40
1.0
 40
1.0
 40
1.0
 10
78.13282192128703
 20
-62.87561580207011
 30
0.0
 10
78.64898964839728
 20
-62.84995633848787
 30
0.0
 10
79.16538810092673
 20
-62.82338096489663
 30
0.0
 10
79.68178655345745
 20
-62.7968055913054
 30
0.0
  0
SPLINE
  5
2E0
330
25C
100
AcDbEntity
  8
Camada 1
 62
    18
420
        0
370
    15
100
AcDbSpline
210
0.0
220
0.0
230
1.0
 70
     8
 71
     3
 72
     8
 73
     4
 74
     0
 42
0.0000000001
 43
0.0000000001
 40
0.0
 40
0.0
 40
0.0
 40
0.0
 40
1.0
 40
1.0
 40
1.0
 40
1.0
 10
79.68168167826499
 20
-60.38695546840284
 30
0.0
 10
79.1506146822477
 20
-60.36587905069946
 30
0.0
 10
78.61932395248803
 20
-60.3452605879993
 30
0.0
 10
78.08826394815011
 20
-60.32510008030364
 30
0.0
  0
LINE
  5
2E1
330
25C
100
AcDbEntity
  8
Camada 1
 62
    18
420
        0
370
    15
100
AcDbLine
 10
55.36362073945385
 20
-71.23183685998132
 30
0.0
 11
55.36362073945385
 21
-61.86425888204438
 31
0.0
  0
SPLINE
  5
2E2
330
25C
100
AcDbEntity
  8
Camada 1
 62
    18
420
        0
370
    15
100
AcDbSpline
210
0.0
220
0.0
230
1.0
 70
     8
 71
     3
 72
     8
 73
     4
 74
     0
 42
0.0000000001
 43
0.0000000001
 40
0.0
 40
0.0
 40
0.0
 40
0.0
 40
1.0
 40
1.0
 40
1.0
 40
1.0
 10
55.75048434680696
 20
-61.68354494328839
 30
0.0
 10
55.64509177076973
 20
-61.45856668193286
 30
0.0
 10
55.36375358136444
 20
-61.41595239568129
 30
0.0
 10
55.36375358136444
 20
-61.86408059421853
 30
0.0
  0
SPLINE
  5
2E3
330
25C
100
AcDbEntity
  8
Camada 1
 62
    18
420
        0
370
    15
100
AcDbSpline
210
0.0
220
0.0
230
1.0
 70
     8
 71
     3
 72
     8
 73
     4
 74
     0
 42
0.0000000001
 43
0.0000000001
 40
0.0
 40
0.0
 40
0.0
 40
0.0
 40
1.0
 40
1.0
 40
1.0
 40
1.0
 10
56.70591132706801
 20
-63.42686078498277
 30
0.0
 10
56.70591132706801
 20
-63.29947937707414
 30
0.0
 10
56.73981398072347
 20
-63.06281801935697
 30
0.0
 10
56.52881208658855
 20
-62.85181262938172
 30
0.0
  0
SPLINE
  5
2E4
330
25C
100
AcDbEntity
  8
Camada 1
 62
    18
420
        0
370
    15
100
AcDbSpline
210
0.0
220
0.0
230
1.0
 70
     8
 71
     3
 72
     8
 73
     4
 74
     0
 42
0.0000000001
 43
0.0000000001
 40
0.0
 40
0.0
 40
0.0
 40
0.0
 40
1.0
 40
1.0
 40
1.0
 40
1.0
 10
57.07398829173701
 20
-63.85418524131463
 30
0.0
 10
57.07398829173701
 20
-63.46814665213742
 30
0.0
 10
57.24535435506718
 20
-63.46814665213742
 30
0.0
 10
57.41672041839798
 20
-63.58842800956326
 30
0.0
  0
SPLINE
  5
2E5
330
25C
100
AcDbEntity
  8
Camada 1
 62
    18
420
        0
370
    15
100
AcDbSpline
210
0.0
220
0.0
230
1.0
 70
     8
 71
     3
 72
    11
 73
     7
 74
     0
 42
0.0000000001
 43
0.0000000001
 40
0.0
 40
0.0
 40
0.0
 40
0.0
 40
1.0
 40
1.0
 40
1.0
 40
2.0
 40
2.0
 40
2.0
 40
2.0
 10
79.76784713581333
 20
-60.47307548003271
 30
0.0
 10
79.76784713581333
 20
-60.45154110732612
 30
0.0
 10
79.75845031863126
 20
-60.42954877961503
 30
0.0
 10
79.74287285681573
 20
-60.41374059237646
 30
0.0
 10
79.72683394415539
 20
-60.39747445013595
 30
0.0
 10
79.70392221059691
 20
-60.3880811287955
 30
0.0
 10
79.68170265330375
 20
-60.38693449336474
 30
0.0
  0
SPLINE
  5
2E6
330
25C
100
AcDbEntity
  8
Camada 1
 62
    18
420
        0
370
    15
100
AcDbSpline
210
0.0
220
0.0
230
1.0
 70
     8
 71
     3
 72
     8
 73
     4
 74
     0
 42
0.0000000001
 43
0.0000000001
 40
0.0
 40
0.0
 40
0.0
 40
0.0
 40
1.0
 40
1.0
 40
1.0
 40
1.0
 10
79.68168167826499
 20
-62.79666575771673
 30
0.0
 10
79.73002214998522
 20
-62.7941487531141
 30
0.0
 10
79.7678191690952
 20
-62.75405496730548
 30
0.0
 10
79.7678191690952
 20
-62.70594172516733
 30
0.0
  0
SPLINE
  5
2E7
330
25C
100
AcDbEntity
  8
Camada 1
 62
    18
420
        0
370
    15
100
AcDbSpline
210
0.0
220
0.0
230
1.0
 70
     8
 71
     3
 72
     8
 73
     4
 74
     0
 42
0.0000000001
 43
0.0000000001
 40
0.0
 40
0.0
 40
0.0
 40
0.0
 40
1.0
 40
1.0
 40
1.0
 40
1.0
 10
71.80471577580395
 20
-64.61345366291475
 30
0.0
 10
71.92040709567094
 20
-64.38481176152712
 30
0.0
 10
72.08880169523493
 20
-64.28766936724183
 30
0.0
 10
72.44001472906896
 20
-64.28766936724183
 30
0.0
  0
SPLINE
  5
2E8
330
25C
100
AcDbEntity
  8
Camada 1
 62
    18
420
        0
370
    15
100
AcDbSpline
210
0.0
220
0.0
230
1.0
 70
     8
 71
     3
 72
     8
 73
     4
 74
     0
 42
0.0000000001
 43
0.0000000001
 40
0.0
 40
0.0
 40
0.0
 40
0.0
 40
1.0
 40
1.0
 40
1.0
 40
1.0
 10
73.28536470806371
 20
-61.06120856372637
 30
0.0
 10
73.20265314016511
 20
-61.26098881234191
 30
0.0
 10
73.36462937799322
 20
-61.41219786381737
 30
0.0
 10
73.55845271571834
 20
-61.40876145336798
 30
0.0
  0
SPLINE
  5
2E9
330
25C
100
AcDbEntity
  8
Camada 1
 62
    18
420
        0
370
    15
100
AcDbSpline
210
0.0
220
0.0
230
1.0
 70
     8
 71
     3
 72
     8
 73
     4
 74
     0
 42
0.0000000001
 43
0.0000000001
 40
0.0
 40
0.0
 40
0.0
 40
0.0
 40
1.0
 40
1.0
 40
1.0
 40
1.0
 10
73.55850165747456
 20
-60.30938278489943
 30
0.0
 10
73.58163712477609
 20
-60.24615353178929
 30
0.0
 10
73.55850165747456
 20
-60.17444337150609
 30
0.0
 10
73.50946900948838
 20
-60.11625162344026
 30
0.0
  0
SPLINE
  5
2EA
330
25C
100
AcDbEntity
  8
Camada 1
 62
    18
420
        0
370
    15
100
AcDbSpline
210
0.0
220
0.0
230
1.0
 70
     8
 71
     3
 72
     8
 73
     4
 74
     0
 42
0.0000000001
 43
0.0000000001
 40
0.0
 40
0.0
 40
0.0
 40
0.0
 40
1.0
 40
1.0
 40
1.0
 40
1.0
 10
72.22150377120492
 20
-58.3353590005399
 30
0.0
 10
72.22150377120492
 20
-58.2833548887882
 30
0.0
 10
72.26090887658663
 20
-58.24142928296288
 30
0.0
 10
72.30947308204926
 20
-58.24142928296288
 30
0.0
  0
SPLINE
  5
2EB
330
25C
100
AcDbEntity
  8
Camada 1
 62
    18
420
        0
370
    15
100
AcDbSpline
210
0.0
220
0.0
230
1.0
 70
     8
 71
     3
 72
     8
 73
     4
 74
     0
 42
0.0000000001
 43
0.0000000001
 40
0.0
 40
0.0
 40
0.0
 40
0.0
 40
1.0
 40
1.0
 40
1.0
 40
1.0
 10
72.22150377120492
 20
-58.6372247608129
 30
0.0
 10
72.22150377120492
 20
-58.69312673386009
 30
0.0
 10
72.2446392385058
 20
-58.73551029468734
 30
0.0
 10
72.27487825212914
 20
-58.76575280415101
 30
0.0
  0
SPLINE
  5
2EC
330
25C
100
AcDbEntity
  8
Camada 1
 62
    18
420
        0
370
    15
100
AcDbSpline
210
0.0
220
0.0
230
1.0
 70
     8
 71
     3
 72
     8
 73
     4
 74
     0
 42
0.0000000001
 43
0.0000000001
 40
0.0
 40
0.0
 40
0.0
 40
0.0
 40
1.0
 40
1.0
 40
1.0
 40
1.0
 10
73.79775692826936
 20
-58.38699954496181
 30
0.0
 10
73.7748451947096
 20
-58.47383270789637
 30
0.0
 10
73.86236004639106
 20
-58.5356880959943
 30
0.0
 10
73.94208616716476
 20
-58.5356880959943
 30
0.0
  0
SPLINE
  5
2ED
330
25C
100
AcDbEntity
  8
Camada 1
 62
    18
420
        0
370
    15
100
AcDbSpline
210
0.0
220
0.0
230
1.0
 70
     8
 71
     3
 72
     8
 73
     4
 74
     0
 42
0.0000000001
 43
0.0000000001
 40
0.0
 40
0.0
 40
0.0
 40
0.0
 40
1.0
 40
1.0
 40
1.0
 40
1.0
 10
73.80465072420689
 20
-58.35852243456018
 30
0.0
 10
73.81999746060064
 20
-58.29460450102377
 30
0.0
 10
73.75584880164311
 20
-58.24145375384132
 30
0.0
 10
73.69559450813882
 20
-58.24145375384132
 30
0.0
  0
LINE
  5
2EE
330
25C
100
AcDbEntity
  8
Camada 1
 62
    18
420
        0
370
    15
100
AcDbLine
 10
75.31276996502683
 20
-58.55965207731077
 30
0.0
 11
75.31276996502683
 21
-59.10514989971345
 31
0.0
  0
LINE
  5
2EF
330
25C
100
AcDbEntity
  8
Camada 1
 62
    18
420
        0
370
    15
100
AcDbLine
 10
75.76735497953649
 20
-58.71874075152579
 30
0.0
 11
75.76735497953649
 21
-59.10501006612477
 31
0.0
  0
LINE
  5
2F0
330
25C
100
AcDbEntity
  8
Camada 1
 62
    18
420
        0
370
    15
100
AcDbLine
 10
75.31276996502683
 20
-59.10514640387441
 30
0.0
 11
75.31276996502683
 21
-60.83258763737556
 31
0.0
  0
LINE
  5
2F1
330
25C
100
AcDbEntity
  8
Camada 1
 62
    18
420
        0
370
    15
100
AcDbLine
 10
75.76735497953649
 20
-59.10514640387441
 30
0.0
 11
75.76735497953649
 21
-60.83258763737556
 31
0.0
  0
LINE
  5
2F2
330
25C
100
AcDbEntity
  8
Camada 1
 62
    18
420
        0
370
    15
100
AcDbLine
 10
77.35845846375366
 20
-58.71874075152579
 30
0.0
 11
77.35845846375366
 21
-61.21917507338907
 31
0.0
  0
LINE
  5
2F3
330
25C
100
AcDbEntity
  8
Camada 1
 62
    18
420
        0
370
    15
100
AcDbLine
 10
77.35845846375366
 20
-61.67364822102689
 30
0.0
 11
77.35845846375366
 21
-61.21888142285298
 31
0.0
  0
LINE
  5
2F4
330
25C
100
AcDbEntity
  8
Camada 1
 62
    18
420
        0
370
    15
100
AcDbLine
 10
55.09838438782131
 20
-71.65208224086978
 30
0.0
 11
56.93785330115797
 21
-71.65208224086978
 31
0.0
  0
LINE
  5
2F5
330
25C
100
AcDbEntity
  8
Camada 1
 62
    18
420
        0
370
    15
100
AcDbLine
 10
55.12858145136844
 20
-57.92320299277594
 30
0.0
 11
57.13345951714227
 21
-57.92320299277594
 31
0.0
  0
SPLINE
  5
2F6
330
25C
100
AcDbEntity
  8
Camada 1
 62
    18
420
        0
370
    15
100
AcDbSpline
210
0.0
220
0.0
230
1.0
 70
     8
 71
     3
 72
     8
 73
     4
 74
     0
 42
0.0000000001
 43
0.0000000001
 40
0.0
 40
0.0
 40
0.0
 40
0.0
 40
1.0
 40
1.0
 40
1.0
 40
1.0
 10
55.42393795807246
 20
-58.44161854482861
 30
0.0
 10
55.42393795807246
 20
-58.33096473000658
 30
0.0
 10
55.50709699345651
 20
-58.24138383704762
 30
0.0
 10
55.60996557321109
 20
-58.24138383704762
 30
0.0
  0
SPLINE
  5
2F7
330
25C
100
AcDbEntity
  8
Camada 1
 62
    18
420
        0
370
    15
100
AcDbSpline
210
0.0
220
0.0
230
1.0
 70
     8
 71
     3
 72
     8
 73
     4
 74
     0
 42
0.0000000001
 43
0.0000000001
 40
0.0
 40
0.0
 40
0.0
 40
0.0
 40
1.0
 40
1.0
 40
1.0
 40
1.0
 10
55.48948495292063
 20
-59.13286841289512
 30
0.0
 10
55.50116804928228
 20
-59.18831243093653
 30
0.0
 10
55.58043271921179
 20
-59.23596771807147
 30
0.0
 10
55.64939864531156
 20
-59.20480929860009
 30
0.0
  0
SPLINE
  5
2F8
330
25C
100
AcDbEntity
  8
Camada 1
 62
    18
420
        0
370
    15
100
AcDbSpline
210
0.0
220
0.0
230
1.0
 70
     8
 71
     3
 72
     8
 73
     4
 74
     0
 42
0.0000000001
 43
0.0000000001
 40
0.0
 40
0.0
 40
0.0
 40
0.0
 40
1.0
 40
1.0
 40
1.0
 40
1.0
 10
57.03788325905506
 20
-58.35962012823278
 30
0.0
 10
57.03788325905506
 20
-58.2764575970097
 30
0.0
 10
56.97533569469181
 20
-58.24140481208573
 30
0.0
 10
56.89812657851947
 20
-58.24140481208573
 30
0.0
  0
SPLINE
  5
2F9
330
25C
100
AcDbEntity
  8
Camada 1
 62
    18
420
        0
370
    15
100
AcDbSpline
210
0.0
220
0.0
230
1.0
 70
     8
 71
     3
 72
     8
 73
     4
 74
     0
 42
0.0000000001
 43
0.0000000001
 40
0.0
 40
0.0
 40
0.0
 40
0.0
 40
1.0
 40
1.0
 40
1.0
 40
1.0
 10
57.03788325905506
 20
-58.53119594194725
 30
0.0
 10
57.03788325905506
 20
-58.58801382500087
 30
0.0
 10
57.0053439828921
 20
-58.6342952471236
 30
0.0
 10
56.94967623110829
 20
-58.65811939485139
 30
0.0
  0
LINE
  5
2FA
330
25C
100
AcDbEntity
  8
Camada 1
 62
    18
420
        0
370
    15
100
AcDbLine
 10
75.994647486791
 20
-63.80701238006261
 30
0.0
 11
75.994647486791
 21
-64.28194667761157
 31
0.0
  0
LINE
  5
2FB
330
25C
100
AcDbEntity
  8
Camada 1
 62
    18
420
        0
370
    15
100
AcDbLine
 10
75.994647486791
 20
-67.94383878978246
 30
0.0
 11
75.994647486791
 21
-68.40502394969226
 31
0.0
  0
ENDBLK
  5
25F
330
25C
100
AcDbEntity
  8
0
100
AcDbBlockEnd
  0
ENDSEC
  0
SECTION
  2
ENTITIES
  0
INSERT
  5
7A
330
70
100
AcDbEntity
  8
Camada 1
100
AcDbBlockReference
  2
Block_0
 10
0.0
 20
0.0
 30
0.0
  0
ENDSEC
  0
SECTION
  2
OBJECTS
  0
DICTIONARY
  5
C
330
0
100
AcDbDictionary
281
     1
  3
ACAD_COLOR
350
63
  3
ACAD_DETAILVIEWSTYLE
350
6A
  3
ACAD_GROUP
350
D
  3
ACAD_LAYOUT
350
62
  3
ACAD_MATERIAL
350
10
  3
ACAD_MLEADERSTYLE
350
66
  3
ACAD_MLINESTYLE
350
5F
  3
ACAD_PLOTSETTINGS
350
61
  3
ACAD_PLOTSTYLENAME
350
E
  3
ACAD_SCALELIST
350
42
  3
ACAD_SECTIONVIEWSTYLE
350
68
  3
ACAD_TABLESTYLE
350
64
  3
ACAD_VISUALSTYLE
350
29
  3
ACDB_RECOMPOSE_DATA
350
304
  3
AcDbVariableDictionary
350
2FC
  0
DICTIONARY
  5
63
102
{ACAD_REACTORS
330
C
102
}
330
C
100
AcDbDictionary
281
     1
  0
DICTIONARY
  5
6A
102
{ACAD_REACTORS
330
C
102
}
330
C
100
AcDbDictionary
281
     1
  3
Imperial24
350
6B
  0
DICTIONARY
  5
D
102
{ACAD_REACTORS
330
C
102
}
330
C
100
AcDbDictionary
281
     1
  0
DICTIONARY
  5
62
102
{ACAD_REACTORS
330
C
102
}
330
C
100
AcDbDictionary
281
     1
  3
Layout1
350
6F
  3
Layout2
350
77
  3
Model
350
73
  0
DICTIONARY
  5
10
102
{ACAD_REACTORS
330
C
102
}
330
C
100
AcDbDictionary
281
     1
  3
ByBlock
350
19
  3
ByLayer
350
11
  3
Global
350
21
  0
DICTIONARY
  5
66
102
{ACAD_REACTORS
330
C
102
}
330
C
100
AcDbDictionary
281
     1
  3
Standard
350
67
  0
DICTIONARY
  5
5F
102
{ACAD_REACTORS
330
C
102
}
330
C
100
AcDbDictionary
281
     1
  3
Standard
350
60
  0
DICTIONARY
  5
61
102
{ACAD_REACTORS
330
C
102
}
330
C
100
AcDbDictionary
281
     1
  0
ACDBDICTIONARYWDFLT
  5
E
102
{ACAD_REACTORS
330
C
102
}
330
C
100
AcDbDictionary
281
     1
  3
Normal
350
F
100
AcDbDictionaryWithDefault
340
F
  0
DICTIONARY
  5
42
102
{ACAD_REACTORS
330
C
102
}
330
C
100
AcDbDictionary
281
     1
  3
A0
350
43
  3
A1
350
44
  3
A2
350
45
  3
A3
350
46
  3
A4
350
47
  3
A5
350
48
  3
A6
350
49
  3
A7
350
4A
  3
A8
350
4B
  3
A9
350
4C
  3
B0
350
4D
  3
B1
350
4E
  3
B2
350
4F
  3
B3
350
50
  3
B4
350
51
  3
B5
350
52
  3
B6
350
53
  0
DICTIONARY
  5
68
102
{ACAD_REACTORS
330
C
102
}
330
C
100
AcDbDictionary
281
     1
  3
Imperial24
350
69
  0
DICTIONARY
  5
64
102
{ACAD_REACTORS
330
C
102
}
330
C
100
AcDbDictionary
281
     1
  3
Standard
350
65
  0
DICTIONARY
  5
29
102
{ACAD_REACTORS
330
C
102
}
330
C
100
AcDbDictionary
281
     1
  3
2dWireframe
350
2F
  3
Basic
350
2E
  3
Brighten
350
35
  3
ColorChange
350
39
  3
Conceptual
350
32
  3
Dim
350
34
  3
EdgeColorOff
350
41
  3
Facepattern
350
38
  3
Flat
350
2A
  3
FlatWithEdges
350
2B
  3
Gouraud
350
2C
  3
GouraudWithEdges
350
2D
  3
Hidden
350
31
  3
JitterOff
350
3F
  3
Linepattern
350
37
  3
OverhangOff
350
40
  3
Realistic
350
33
  3
Shaded
350
3E
  3
Shaded with edges
350
3D
  3
Shades of Gray
350
3A
  3
Sketchy
350
3B
  3
Thicken
350
36
  3
Wireframe
350
30
  3
X-Ray
350
3C
  0
XRECORD
  5
304
102
{ACAD_REACTORS
330
C
102
}
330
C
100
AcDbXrecord
280
     1
 90
        1
330
65
  0
DICTIONARY
  5
2FC
102
{ACAD_REACTORS
330
C
102
}
330
C
100
AcDbDictionary
281
     1
  3
CANNOSCALE
350
301
  3
CMLEADERSTYLE
350
2FE
  3
CTABLESTYLE
350
2FD
  3
CVIEWDETAILSTYLE
350
2FF
  3
CVIEWSECTIONSTYLE
350
300
  0
ACDBDETAILVIEWSTYLE
  5
6B
102
{ACAD_REACTORS
330
6A
102
}
330
6A
100
AcDbModelDocViewStyle
 70
     0
  3
Imperial24
290
     1
300
Imperial24
 90
        0
100
AcDbDetailViewStyle
 70
     0
 71
     0
 90
        3
 71
     1
340
55
 62
   256
 40
0.24
340
0
 62
   256
 40
0.24
300

 40
0.36
280
     3
 71
     2
340
5D
 90
       25
 62
   256
 71
     3
340
55
 62
   256
 40
0.24
 90
        1
 40
0.75
 90
        1
300
%<\AcVar ViewType \f "%tc1">% %<\AcVar ViewDetailId>%\PSCALE %<\AcVar ViewScale \f "%sn">%
 71
     4
340
5D
 90
       25
 62
   256
340
5D
 90
       25
 62
   256
280
     0
  0
LAYOUT
  5
6F
102
{ACAD_REACTORS
330
62
102
}
330
62
100
AcDbPlotSettings
  1

  2

  4

  6

 40
0.0
 41
0.0
 42
0.0
 43
0.0
 44
0.0
 45
0.0
 46
0.0
 47
0.0
 48
0.0
 49
0.0
140
0.0
141
0.0
142
1.0
143
1.0
 70
   688
 72
     0
 73
     0
 74
     5
  7

 75
    16
147
1.0
 76
     0
 77
     2
 78
   300
148
0.0
149
0.0
100
AcDbLayout
  1
Layout1
 70
     1
 71
     1
 10
0.0
 20
0.0
 11
12.0
 21
9.0
 12
0.0
 22
0.0
 32
0.0
 14
0.0
 24
0.0
 34
0.0
 15
0.0
 25
0.0
 35
0.0
146
0.0
 13
0.0
 23
0.0
 33
0.0
 16
1.0
 26
0.0
 36
0.0
 17
0.0
 27
1.0
 37
0.0
 76
     0
330
6C
  0
LAYOUT
  5
77
102
{ACAD_REACTORS
330
62
102
}
330
62
100
AcDbPlotSettings
  1

  2

  4

  6

 40
0.0
 41
0.0
 42
0.0
 43
0.0
 44
0.0
 45
0.0
 46
0.0
 47
0.0
 48
0.0
 49
0.0
140
0.0
141
0.0
142
1.0
143
1.0
 70
   688
 72
     0
 73
     0
 74
     5
  7

 75
    16
147
1.0
 76
     0
 77
     2
 78
   300
148
0.0
149
0.0
100
AcDbLayout
  1
Layout2
 70
     1
 71
     2
 10
0.0
 20
0.0
 11
12.0
 21
9.0
 12
0.0
 22
0.0
 32
0.0
 14
0.0
 24
0.0
 34
0.0
 15
0.0
 25
0.0
 35
0.0
146
0.0
 13
0.0
 23
0.0
 33
0.0
 16
1.0
 26
0.0
 36
0.0
 17
0.0
 27
1.0
 37
0.0
 76
     0
330
74
  0
LAYOUT
  5
73
102
{ACAD_REACTORS
330
62
102
}
330
62
100
AcDbPlotSettings
  1

  2

  4

  6

 40
0.0
 41
0.0
 42
0.0
 43
0.0
 44
0.0
 45
0.0
 46
0.0
 47
0.0
 48
0.0
 49
0.0
140
0.0
141
0.0
142
1.0
143
1.0
 70
  1712
 72
     0
 73
     0
 74
     0
  7

 75
     0
147
1.0
 76
     0
 77
     2
 78
   300
148
0.0
149
0.0
100
AcDbLayout
  1
Model
 70
     1
 71
     0
 10
0.0
 20
0.0
 11
12.0
 21
9.0
 12
0.0
 22
0.0
 32
0.0
 14
0.0
 24
0.0
 34
0.0
 15
0.0
 25
0.0
 35
0.0
146
0.0
 13
0.0
 23
0.0
 33
0.0
 16
1.0
 26
0.0
 36
0.0
 17
0.0
 27
1.0
 37
0.0
 76
     0
330
70
  0
MATERIAL
  5
19
102
{ACAD_XDICTIONARY
360
1A
102
}
102
{ACAD_REACTORS
330
10
102
}
330
10
100
AcDbMaterial
  1
ByBlock
 72
     0
 43
0.0208333333333333
 43
0.0
 43
0.0
 43
0.0
 43
0.0
 43
0.0208333333333333
 43
0.0
 43
0.0
 43
0.0
 43
0.0
 43
1.0
 43
0.0
 43
0.0
 43
0.0
 43
0.0
 43
1.0
 77
     0
 47
0.0208333333333333
 47
0.0
 47
0.0
 47
0.0
 47
0.0
 47
0.0208333333333333
 47
0.0
 47
0.0
 47
0.0
 47
0.0
 47
1.0
 47
0.0
 47
0.0
 47
0.0
 47
0.0
 47
1.0
171
     0
 49
0.0208333333333333
 49
0.0
 49
0.0
 49
0.0
 49
0.0
 49
0.0208333333333333
 49
0.0
 49
0.0
 49
0.0
 49
0.0
 49
1.0
 49
0.0
 49
0.0
 49
0.0
 49
0.0
 49
1.0
175
     0
142
0.0208333333333333
142
0.0
142
0.0
142
0.0
142
0.0
142
0.0208333333333333
142
0.0
142
0.0
142
0.0
142
0.0
142
1.0
142
0.0
142
0.0
142
0.0
142
0.0
142
1.0
179
     0
144
0.0208333333333333
144
0.0
144
0.0
144
0.0
144
0.0
144
0.0208333333333333
144
0.0
144
0.0
144
0.0
144
0.0
144
1.0
144
0.0
144
0.0
144
0.0
144
0.0
144
1.0
147
0.0208333333333333
147
0.0
147
0.0
147
0.0
147
0.0
147
0.0208333333333333
147
0.0
147
0.0
147
0.0
147
0.0
147
1.0
147
0.0
147
0.0
147
0.0
147
0.0
147
1.0
  0
MATERIAL
  5
11
102
{ACAD_XDICTIONARY
360
12
102
}
102
{ACAD_REACTORS
330
10
102
}
330
10
100
AcDbMaterial
  1
ByLayer
 72
     0
 43
0.0208333333333333
 43
0.0
 43
0.0
 43
0.0
 43
0.0
 43
0.0208333333333333
 43
0.0
 43
0.0
 43
0.0
 43
0.0
 43
1.0
 43
0.0
 43
0.0
 43
0.0
 43
0.0
 43
1.0
 77
     0
 47
0.0208333333333333
 47
0.0
 47
0.0
 47
0.0
 47
0.0
 47
0.0208333333333333
 47
0.0
 47
0.0
 47
0.0
 47
0.0
 47
1.0
 47
0.0
 47
0.0
 47
0.0
 47
0.0
 47
1.0
171
     0
 49
0.0208333333333333
 49
0.0
 49
0.0
 49
0.0
 49
0.0
 49
0.0208333333333333
 49
0.0
 49
0.0
 49
0.0
 49
0.0
 49
1.0
 49
0.0
 49
0.0
 49
0.0
 49
0.0
 49
1.0
175
     0
142
0.0208333333333333
142
0.0
142
0.0
142
0.0
142
0.0
142
0.0208333333333333
142
0.0
142
0.0
142
0.0
142
0.0
142
1.0
142
0.0
142
0.0
142
0.0
142
0.0
142
1.0
179
     0
144
0.0208333333333333
144
0.0
144
0.0
144
0.0
144
0.0
144
0.0208333333333333
144
0.0
144
0.0
144
0.0
144
0.0
144
1.0
144
0.0
144
0.0
144
0.0
144
0.0
144
1.0
147
0.0208333333333333
147
0.0
147
0.0
147
0.0
147
0.0
147
0.0208333333333333
147
0.0
147
0.0
147
0.0
147
0.0
147
1.0
147
0.0
147
0.0
147
0.0
147
0.0
147
1.0
  0
MATERIAL
  5
21
102
{ACAD_XDICTIONARY
360
22
102
}
102
{ACAD_REACTORS
330
10
102
}
330
10
100
AcDbMaterial
  1
Global
 72
     0
 43
0.0208333333333333
 43
0.0
 43
0.0
 43
0.0
 43
0.0
 43
0.0208333333333333
 43
0.0
 43
0.0
 43
0.0
 43
0.0
 43
1.0
 43
0.0
 43
0.0
 43
0.0
 43
0.0
 43
1.0
 77
     0
 47
0.0208333333333333
 47
0.0
 47
0.0
 47
0.0
 47
0.0
 47
0.0208333333333333
 47
0.0
 47
0.0
 47
0.0
 47
0.0
 47
1.0
 47
0.0
 47
0.0
 47
0.0
 47
0.0
 47
1.0
171
     0
 49
0.0208333333333333
 49
0.0
 49
0.0
 49
0.0
 49
0.0
 49
0.0208333333333333
 49
0.0
 49
0.0
 49
0.0
 49
0.0
 49
1.0
 49
0.0
 49
0.0
 49
0.0
 49
0.0
 49
1.0
175
     0
142
0.0208333333333333
142
0.0
142
0.0
142
0.0
142
0.0
142
0.0208333333333333
142
0.0
142
0.0
142
0.0
142
0.0
142
1.0
142
0.0
142
0.0
142
0.0
142
0.0
142
1.0
179
     0
144
0.0208333333333333
144
0.0
144
0.0
144
0.0
144
0.0
144
0.0208333333333333
144
0.0
144
0.0
144
0.0
144
0.0
144
1.0
144
0.0
144
0.0
144
0.0
144
0.0
144
1.0
147
0.0208333333333333
147
0.0
147
0.0
147
0.0
147
0.0
147
0.0208333333333333
147
0.0
147
0.0
147
0.0
147
0.0
147
1.0
147
0.0
147
0.0
147
0.0
147
0.0
147
1.0
  0
MLEADERSTYLE
  5
67
102
{ACAD_REACTORS
330
66
102
}
330
66
100
AcDbMLeaderStyle
179
     2
170
     2
171
     1
172
     0
 90
        2
 40
0.0
 41
0.0
173
     1
 91
-1056964608
340
5B
 92
       -2
290
     1
 42
0.09
291
     1
 43
0.36
  3
Standard
 44
0.18
300

342
55
174
     1
178
     6
175
     1
176
     0
 93
-1056964608
 45
0.18
292
     0
297
     0
 46
0.18
 94
-1056964608
 47
1.0
 49
1.0
140
1.0
293
     1
141
0.0
294
     1
177
     0
142
1.0
295
     1
296
     0
143
0.125
271
     0
272
     9
273
     9
298
     1
  0
MLINESTYLE
  5
60
102
{ACAD_REACTORS
330
5F
102
}
330
5F
100
AcDbMlineStyle
  2
STANDARD
 70
     0
  3

 62
   256
 51
90.0
 52
90.0
 71
     2
 49
0.5
 62
   256
  6
BYLAYER
 49
-0.5
 62
   256
  6
BYLAYER
  0
ACDBPLACEHOLDER
  5
F
102
{ACAD_REACTORS
330
E
102
}
330
E
  0
SCALE
  5
43
102
{ACAD_REACTORS
330
42
102
}
330
42
100
AcDbScale
 70
     0
300
1:1
140
1.0
141
1.0
290
     1
  0
SCALE
  5
44
102
{ACAD_REACTORS
330
42
102
}
330
42
100
AcDbScale
 70
     0
300
1/128" = 1'-0"
140
0.0078125
141
12.0
290
     0
  0
SCALE
  5
45
102
{ACAD_REACTORS
330
42
102
}
330
42
100
AcDbScale
 70
     0
300
1/64" = 1'-0"
140
0.015625
141
12.0
290
     0
  0
SCALE
  5
46
102
{ACAD_REACTORS
330
42
102
}
330
42
100
AcDbScale
 70
     0
300
1/32" = 1'-0"
140
0.03125
141
12.0
290
     0
  0
SCALE
  5
47
102
{ACAD_REACTORS
330
42
102
}
330
42
100
AcDbScale
 70
     0
300
1/16" = 1'-0"
140
0.0625
141
12.0
290
     0
  0
SCALE
  5
48
102
{ACAD_REACTORS
330
42
102
}
330
42
100
AcDbScale
 70
     0
300
3/32" = 1'-0"
140
0.09375
141
12.0
290
     0
  0
SCALE
  5
49
102
{ACAD_REACTORS
330
42
102
}
330
42
100
AcDbScale
 70
     0
300
1/8" = 1'-0"
140
0.125
141
12.0
290
     0
  0
SCALE
  5
4A
102
{ACAD_REACTORS
330
42
102
}
330
42
100
AcDbScale
 70
     0
300
3/16" = 1'-0"
140
0.1875
141
12.0
290
     0
  0
SCALE
  5
4B
102
{ACAD_REACTORS
330
42
102
}
330
42
100
AcDbScale
 70
     0
300
1/4" = 1'-0"
140
0.25
141
12.0
290
     0
  0
SCALE
  5
4C
102
{ACAD_REACTORS
330
42
102
}
330
42
100
AcDbScale
 70
     0
300
3/8" = 1'-0"
140
0.375
141
12.0
290
     0
  0
SCALE
  5
4D
102
{ACAD_REACTORS
330
42
102
}
330
42
100
AcDbScale
 70
     0
300
1/2" = 1'-0"
140
0.5
141
12.0
290
     0
  0
SCALE
  5
4E
102
{ACAD_REACTORS
330
42
102
}
330
42
100
AcDbScale
 70
     0
300
3/4" = 1'-0"
140
0.75
141
12.0
290
     0
  0
SCALE
  5
4F
102
{ACAD_REACTORS
330
42
102
}
330
42
100
AcDbScale
 70
     0
300
1" = 1'-0"
140
1.0
141
12.0
290
     0
  0
SCALE
  5
50
102
{ACAD_REACTORS
330
42
102
}
330
42
100
AcDbScale
 70
     0
300
1-1/2" = 1'-0"
140
1.5
141
12.0
290
     0
  0
SCALE
  5
51
102
{ACAD_REACTORS
330
42
102
}
330
42
100
AcDbScale
 70
     0
300
3" = 1'-0"
140
3.0
141
12.0
290
     0
  0
SCALE
  5
52
102
{ACAD_REACTORS
330
42
102
}
330
42
100
AcDbScale
 70
     0
300
6" = 1'-0"
140
6.0
141
12.0
290
     0
  0
SCALE
  5
53
102
{ACAD_REACTORS
330
42
102
}
330
42
100
AcDbScale
 70
     0
300
1'-0" = 1'-0"
140
12.0
141
12.0
290
     0
  0
ACDBSECTIONVIEWSTYLE
  5
69
102
{ACAD_REACTORS
330
68
102
}
330
68
100
AcDbModelDocViewStyle
 70
     0
  3
Imperial24
290
     1
300
Imperial24
 90
        0
100
AcDbSectionViewStyle
 70
     0
 71
     0
 90
       78
 71
     1
340
55
 62
   256
 40
0.24
340
0
340
0
 62
   256
 40
0.24
300
I, O, Q, S, X, Z
 40
0.48
 90
        3
 40
0.18
 90
        1
 71
     2
340
5D
 90
       25
 62
   256
340
5D
 90
       50
 62
   256
 40
0.24
 40
0.0
 40
0.24
 71
     3
340
55
 62
   256
 40
0.24
 90
        1
 40
0.75
 90
        1
300
%<\AcVar ViewType \f "%tc1">% %<\AcVar ViewSectionStartId>%-%<\AcVar ViewSectionEndId>%\PSCALE %<\AcVar ViewScale \f "%sn">%
 71
     4
 62
   256
 62
   257
300
ANSI31
 40
1.0
 90
        0
290
     0
290
     0
 90
        6
 40
0.0
 40
1.570796326794896
 40
0.2617993877991494
 40
1.308996938995747
 40
-0.2617993877991494
 40
1.832595714594046
  0
TABLESTYLE
  5
65
102
{ACAD_XDICTIONARY
360
302
102
}
102
{ACAD_REACTORS
330
64
102
}
330
64
100
AcDbTableStyle
280
     0
  3
Standard
 70
     0
 71
     0
 40
0.06
 41
0.06
280
     0
281
     0
  7
Standard
140
0.18
170
     2
 62
     0
 63
     7
283
     0
 90
      512
 91
        0
  1

274
    -2
284
     1
 64
     0
275
    -2
285
     1
 65
     0
276
    -2
286
     1
 66
     0
277
    -2
287
     1
 67
     0
278
    -2
288
     1
 68
     0
279
    -2
289
     1
 69
     0
  7
Standard
140
0.25
170
     5
 62
     0
 63
     7
283
     0
 90
      512
 91
        0
  1

274
    -2
284
     1
 64
     0
275
    -2
285
     1
 65
     0
276
    -2
286
     1
 66
     0
277
    -2
287
     1
 67
     0
278
    -2
288
     1
 68
     0
279
    -2
289
     1
 69
     0
  7
Standard
140
0.18
170
     5
 62
     0
 63
     7
283
     0
 90
      512
 91
        0
  1

274
    -2
284
     1
 64
     0
275
    -2
285
     1
 65
     0
276
    -2
286
     1
 66
     0
277
    -2
287
     1
 67
     0
278
    -2
288
     1
 68
     0
279
    -2
289
     1
 69
     0
  0
VISUALSTYLE
  5
2F
102
{ACAD_REACTORS
330
29
102
}
330
29
100
AcDbVisualStyle
  2
2dWireframe
 70
     4
177
     3
291
     0
 70
    58
 90
        0
176
     1
 90
        2
176
     1
 90
        0
176
     1
 90
        0
176
     1
 40
0.6
176
     1
 40
30.0
176
     1
 62
     7
420
 16777215
176
     1
 90
        1
176
     1
 90
        4
176
     1
 62
     7
176
     1
 62
   257
176
     1
 90
        1
176
     1
 90
        1
176
     1
 40
1.0
176
     1
 90
        0
176
     1
 62
   257
176
     1
 40
1.0
176
     1
 90
        1
176
     1
 90
        6
176
     1
 90
        2
176
     1
 62
     7
176
     1
 90
        5
176
     1
 90
        0
176
     1
 90
        0
176
     1
290
     0
176
     1
 90
        1
176
     1
 40
0.0
176
     1
 90
        0
176
     1
290
     1
176
     1
290
     1
176
     1
290
     0
176
     1
290
     0
176
     1
290
     0
176
     1
290
     0
176
     1
290
     0
176
     1
290
     0
176
     1
290
     0
176
     1
 90
       50
176
     1
 40
0.0
176
     1
 40
1.0
176
     1
 90
        0
176
     1
 62
    18
420
        0
176
     1
 90
       50
176
     1
 90
        3
176
     1
 62
     5
420
      255
176
     1
290
     0
176
     1
 90
       50
176
     1
 90
       50
176
     1
 90
       50
176
     1
290
     0
176
     1
 90
       50
176
     1
 62
   256
176
     0
 40
1.0
176
     0
 90
        2
176
     1
  1
strokes_ogs.tif
176
     1
290
     0
176
     1
 40
1.0
176
     1
 40
1.0
176
     1
  0
VISUALSTYLE
  5
2E
102
{ACAD_REACTORS
330
29
102
}
330
29
100
AcDbVisualStyle
  2
Basic
 70
     7
177
     3
291
     1
 70
    58
 90
        1
176
     1
 90
        0
176
     1
 90
        1
176
     1
 90
        0
176
     1
 40
0.6
176
     1
 40
30.0
176
     1
 62
     7
420
 16777215
176
     1
 90
        0
176
     1
 90
        4
176
     1
 62
     7
176
     1
 62
   257
176
     1
 90
        1
176
     1
 90
        1
176
     1
 40
1.0
176
     1
 90
        8
176
     1
 62
     7
176
     1
 40
1.0
176
     1
 90
        1
176
     1
 90
        6
176
     1
 90
        2
176
     1
 62
     7
176
     1
 90
        5
176
     1
 90
        0
176
     1
 90
        0
176
     1
290
     0
176
     1
 90
        1
176
     1
 40
0.0
176
     1
 90
        0
176
     1
290
     0
176
     1
290
     1
176
     1
290
     1
176
     1
290
     0
176
     1
290
     0
176
     1
290
     0
176
     1
290
     0
176
     1
290
     0
176
     1
290
     0
176
     1
 90
       50
176
     1
 40
0.0
176
     1
 40
1.0
176
     1
 90
        0
176
     1
 62
    18
420
        0
176
     1
 90
       50
176
     1
 90
        3
176
     1
 62
     5
420
      255
176
     1
290
     0
176
     1
 90
       50
176
     1
 90
       50
176
     1
 90
       50
176
     1
290
     0
176
     1
 90
       50
176
     1
 62
   256
176
     0
 40
1.0
176
     0
 90
        2
176
     1
  1
strokes_ogs.tif
176
     1
290
     0
176
     1
 40
1.0
176
     1
 40
1.0
176
     1
  0
VISUALSTYLE
  5
35
102
{ACAD_REACTORS
330
29
102
}
330
29
100
AcDbVisualStyle
  2
Brighten
 70
    12
177
     3
291
     1
 70
    58
 90
        2
176
     1
 90
        2
176
     1
 90
        0
176
     1
 90
        0
176
     1
 40
0.6
176
     1
 40
30.0
176
     1
 62
     7
420
 16777215
176
     1
 90
        1
176
     1
 90
        4
176
     1
 62
     7
176
     1
 62
   257
176
     1
 90
        1
176
     1
 90
        1
176
     1
 40
1.0
176
     1
 90
        8
176
     1
 62
     7
176
     1
 40
1.0
176
     1
 90
        1
176
     1
 90
        6
176
     1
 90
        2
176
     1
 62
     7
176
     1
 90
        5
176
     1
 90
        0
176
     1
 90
        0
176
     1
290
     0
176
     1
 90
        1
176
     1
 40
50.0
176
     1
 90
        0
176
     1
290
     0
176
     1
290
     1
176
     1
290
     1
176
     1
290
     0
176
     1
290
     0
176
     1
290
     0
176
     1
290
     0
176
     1
290
     0
176
     1
290
     0
176
     1
 90
       50
176
     1
 40
0.0
176
     1
 40
1.0
176
     1
 90
        0
176
     1
 62
    18
420
        0
176
     1
 90
       50
176
     1
 90
        3
176
     1
 62
     5
420
      255
176
     1
290
     0
176
     1
 90
       50
176
     1
 90
       50
176
     1
 90
       50
176
     1
290
     0
176
     1
 90
       50
176
     1
 62
   256
176
     0
 40
1.0
176
     0
 90
        2
176
     1
  1
strokes_ogs.tif
176
     1
290
     0
176
     1
 40
1.0
176
     1
 40
1.0
176
     1
  0
VISUALSTYLE
  5
39
102
{ACAD_REACTORS
330
29
102
}
330
29
100
AcDbVisualStyle
  2
ColorChange
 70
    16
177
     3
291
     1
 70
    58
 90
        2
176
     1
 90
        2
176
     1
 90
        3
176
     1
 90
        0
176
     1
 40
0.6
176
     1
 40
30.0
176
     1
 62
     8
420
  8421504
176
     1
 90
        1
176
     1
 90
        4
176
     1
 62
     7
176
     1
 62
   257
176
     1
 90
        1
176
     1
 90
        1
176
     1
 40
1.0
176
     1
 90
        8
176
     1
 62
     8
420
  8421504
176
     1
 40
1.0
176
     1
 90
        1
176
     1
 90
        6
176
     1
 90
        2
176
     1
 62
     7
176
     1
 90
        5
176
     1
 90
        0
176
     1
 90
        0
176
     1
290
     0
176
     1
 90
        1
176
     1
 40
0.0
176
     1
 90
        0
176
     1
290
     0
176
     1
290
     1
176
     1
290
     1
176
     1
290
     0
176
     1
290
     0
176
     1
290
     0
176
     1
290
     0
176
     1
290
     0
176
     1
290
     0
176
     1
 90
       50
176
     1
 40
0.0
176
     1
 40
1.0
176
     1
 90
        0
176
     1
 62
    18
420
        0
176
     1
 90
       50
176
     1
 90
        3
176
     1
 62
     5
420
      255
176
     1
290
     0
176
     1
 90
       50
176
     1
 90
       50
176
     1
 90
       50
176
     1
290
     0
176
     1
 90
       50
176
     1
 62
   256
176
     0
 40
1.0
176
     0
 90
        2
176
     1
  1
strokes_ogs.tif
176
     1
290
     0
176
     1
 40
1.0
176
     1
 40
1.0
176
     1
  0
VISUALSTYLE
  5
32
102
{ACAD_REACTORS
330
29
102
}
330
29
100
AcDbVisualStyle
  2
Conceptual
 70
     9
177
     3
291
     0
 70
    58
 90
        3
176
     1
 90
        2
176
     1
 90
        0
176
     1
 90
        0
176
     1
 40
0.6
176
     1
 40
30.0
176
     1
 62
     7
420
 16777215
176
     1
 90
        2
176
     1
 90
        2
176
     1
 62
     7
176
     1
 62
   257
176
     1
 90
        1
176
     1
 90
        1
176
     1
 40
179.0
176
     1
 90
        8
176
     1
 62
     7
176
     1
 40
1.0
176
     1
 90
        1
176
     1
 90
        6
176
     1
 90
        2
176
     1
 62
     7
176
     1
 90
        3
176
     1
 90
        0
176
     1
 90
        0
176
     1
290
     0
176
     1
 90
        1
176
     1
 40
0.0
176
     1
 90
        0
176
     1
290
     0
176
     1
290
     1
176
     1
290
     1
176
     1
290
     0
176
     1
290
     0
176
     1
290
     0
176
     1
290
     0
176
     1
290
     0
176
     1
290
     0
176
     1
 90
       50
176
     1
 40
0.0
176
     1
 40
1.0
176
     1
 90
        0
176
     1
 62
    18
420
        0
176
     1
 90
       50
176
     1
 90
        3
176
     1
 62
     5
420
      255
176
     1
290
     0
176
     1
 90
       50
176
     1
 90
       50
176
     1
 90
       50
176
     1
290
     0
176
     1
 90
       50
176
     1
 62
   256
176
     0
 40
1.0
176
     0
 90
        2
176
     1
  1
strokes_ogs.tif
176
     1
290
     0
176
     1
 40
1.0
176
     1
 40
1.0
176
     1
  0
VISUALSTYLE
  5
34
102
{ACAD_REACTORS
330
29
102
}
330
29
100
AcDbVisualStyle
  2
Dim
 70
    11
177
     3
291
     1
 70
    58
 90
        2
176
     1
 90
        2
176
     1
 90
        0
176
     1
 90
        0
176
     1
 40
0.6
176
     1
 40
30.0
176
     1
 62
     7
420
 16777215
176
     1
 90
        1
176
     1
 90
        4
176
     1
 62
     7
176
     1
 62
   257
176
     1
 90
        1
176
     1
 90
        1
176
     1
 40
1.0
176
     1
 90
        8
176
     1
 62
     7
176
     1
 40
1.0
176
     1
 90
        1
176
     1
 90
        6
176
     1
 90
        2
176
     1
 62
     7
176
     1
 90
        5
176
     1
 90
        0
176
     1
 90
        0
176
     1
290
     0
176
     1
 90
        1
176
     1
 40
-50.0
176
     1
 90
        0
176
     1
290
     0
176
     1
290
     1
176
     1
290
     1
176
     1
290
     0
176
     1
290
     0
176
     1
290
     0
176
     1
290
     0
176
     1
290
     0
176
     1
290
     0
176
     1
 90
       50
176
     1
 40
0.0
176
     1
 40
1.0
176
     1
 90
        0
176
     1
 62
    18
420
        0
176
     1
 90
       50
176
     1
 90
        3
176
     1
 62
     5
420
      255
176
     1
290
     0
176
     1
 90
       50
176
     1
 90
       50
176
     1
 90
       50
176
     1
290
     0
176
     1
 90
       50
176
     1
 62
   256
176
     0
 40
1.0
176
     0
 90
        2
176
     1
  1
strokes_ogs.tif
176
     1
290
     0
176
     1
 40
1.0
176
     1
 40
1.0
176
     1
  0
VISUALSTYLE
  5
41
102
{ACAD_REACTORS
330
29
102
}
330
29
100
AcDbVisualStyle
  2
EdgeColorOff
 70
    22
177
     3
291
     1
 70
    58
 90
        2
176
     0
 90
        2
176
     0
 90
        0
176
     0
 90
        0
176
     0
 40
0.6
176
     0
 40
30.0
176
     0
 62
     7
420
 16777215
176
     0
 90
        1
176
     0
 90
        4
176
     0
 62
     7
176
     0
 62
   257
176
     0
 90
        1
176
     0
 90
        1
176
     0
 40
1.0
176
     0
 90
        8
176
     2
 62
     7
176
     0
 40
1.0
176
     0
 90
        1
176
     0
 90
        6
176
     0
 90
        2
176
     0
 62
     7
176
     0
 90
        5
176
     0
 90
        0
176
     0
 90
        0
176
     0
290
     0
176
     0
 90
        1
176
     0
 40
0.0
176
     0
 90
        0
176
     0
290
     0
176
     0
290
     1
176
     0
290
     1
176
     0
290
     0
176
     0
290
     0
176
     0
290
     0
176
     0
290
     0
176
     0
290
     0
176
     0
290
     0
176
     0
 90
       50
176
     0
 40
0.0
176
     0
 40
1.0
176
     0
 90
        0
176
     0
 62
    18
420
        0
176
     0
 90
       50
176
     0
 90
        3
176
     0
 62
     5
420
      255
176
     0
290
     0
176
     0
 90
       50
176
     0
 90
       50
176
     0
 90
       50
176
     0
290
     0
176
     0
 90
       50
176
     0
 62
   256
176
     0
 40
1.0
176
     0
 90
        2
176
     0
  1
strokes_ogs.tif
176
     0
290
     0
176
     0
 40
1.0
176
     0
 40
1.0
176
     0
  0
VISUALSTYLE
  5
38
102
{ACAD_REACTORS
330
29
102
}
330
29
100
AcDbVisualStyle
  2
Facepattern
 70
    15
177
     3
291
     1
 70
    58
 90
        2
176
     1
 90
        2
176
     1
 90
        0
176
     1
 90
        0
176
     1
 40
0.6
176
     1
 40
30.0
176
     1
 62
     7
420
 16777215
176
     1
 90
        1
176
     1
 90
        4
176
     1
 62
     7
176
     1
 62
   257
176
     1
 90
        1
176
     1
 90
        1
176
     1
 40
1.0
176
     1
 90
        8
176
     1
 62
     7
176
     1
 40
1.0
176
     1
 90
        1
176
     1
 90
        6
176
     1
 90
        2
176
     1
 62
     7
176
     1
 90
        5
176
     1
 90
        0
176
     1
 90
        0
176
     1
290
     0
176
     1
 90
        1
176
     1
 40
0.0
176
     1
 90
        0
176
     1
290
     0
176
     1
290
     1
176
     1
290
     1
176
     1
290
     0
176
     1
290
     0
176
     1
290
     0
176
     1
290
     0
176
     1
290
     0
176
     1
290
     0
176
     1
 90
       50
176
     1
 40
0.0
176
     1
 40
1.0
176
     1
 90
        0
176
     1
 62
    18
420
        0
176
     1
 90
       50
176
     1
 90
        3
176
     1
 62
     5
420
      255
176
     1
290
     0
176
     1
 90
       50
176
     1
 90
       50
176
     1
 90
       50
176
     1
290
     0
176
     1
 90
       50
176
     1
 62
   256
176
     0
 40
1.0
176
     0
 90
        2
176
     1
  1
strokes_ogs.tif
176
     1
290
     0
176
     1
 40
1.0
176
     1
 40
1.0
176
     1
  0
VISUALSTYLE
  5
2A
102
{ACAD_REACTORS
330
29
102
}
330
29
100
AcDbVisualStyle
  2
Flat
 70
     0
177
     3
291
     1
 70
    58
 90
        2
176
     1
 90
        1
176
     1
 90
        1
176
     1
 90
        2
176
     1
 40
0.6
176
     1
 40
30.0
176
     1
 62
     7
420
 16777215
176
     1
 90
        0
176
     1
 90
        0
176
     1
 62
     7
176
     1
 62
   257
176
     1
 90
        1
176
     1
 90
        1
176
     1
 40
1.0
176
     1
 90
        8
176
     1
 62
     7
176
     1
 40
1.0
176
     1
 90
        1
176
     1
 90
        6
176
     1
 90
        2
176
     1
 62
     7
176
     1
 90
        5
176
     1
 90
        0
176
     1
 90
        0
176
     1
290
     0
176
     1
 90
       13
176
     1
 40
0.0
176
     1
 90
        0
176
     1
290
     0
176
     1
290
     1
176
     1
290
     1
176
     1
290
     0
176
     1
290
     0
176
     1
290
     0
176
     1
290
     0
176
     1
290
     0
176
     1
290
     0
176
     1
 90
       50
176
     1
 40
0.0
176
     1
 40
1.0
176
     1
 90
        0
176
     1
 62
    18
420
        0
176
     1
 90
       50
176
     1
 90
        3
176
     1
 62
     5
420
      255
176
     1
290
     0
176
     1
 90
       50
176
     1
 90
       50
176
     1
 90
       50
176
     1
290
     0
176
     1
 90
       50
176
     1
 62
   256
176
     0
 40
1.0
176
     0
 90
        2
176
     1
  1
strokes_ogs.tif
176
     1
290
     0
176
     1
 40
1.0
176
     1
 40
1.0
176
     1
  0
VISUALSTYLE
  5
2B
102
{ACAD_REACTORS
330
29
102
}
330
29
100
AcDbVisualStyle
  2
FlatWithEdges
 70
     1
177
     3
291
     1
 70
    58
 90
        2
176
     1
 90
        1
176
     1
 90
        1
176
     1
 90
        2
176
     1
 40
0.6
176
     1
 40
30.0
176
     1
 62
     7
420
 16777215
176
     1
 90
        1
176
     1
 90
        0
176
     1
 62
     7
176
     1
 62
   257
176
     1
 90
        1
176
     1
 90
        1
176
     1
 40
1.0
176
     1
 90
        0
176
     1
 62
   257
176
     1
 40
1.0
176
     1
 90
        1
176
     1
 90
        6
176
     1
 90
        2
176
     1
 62
     7
176
     1
 90
        5
176
     1
 90
        0
176
     1
 90
        0
176
     1
290
     0
176
     1
 90
       13
176
     1
 40
0.0
176
     1
 90
        0
176
     1
290
     0
176
     1
290
     1
176
     1
290
     1
176
     1
290
     0
176
     1
290
     0
176
     1
290
     0
176
     1
290
     0
176
     1
290
     0
176
     1
290
     0
176
     1
 90
       50
176
     1
 40
0.0
176
     1
 40
1.0
176
     1
 90
        0
176
     1
 62
    18
420
        0
176
     1
 90
       50
176
     1
 90
        3
176
     1
 62
     5
420
      255
176
     1
290
     0
176
     1
 90
       50
176
     1
 90
       50
176
     1
 90
       50
176
     1
290
     0
176
     1
 90
       50
176
     1
 62
   256
176
     0
 40
1.0
176
     0
 90
        2
176
     1
  1
strokes_ogs.tif
176
     1
290
     0
176
     1
 40
1.0
176
     1
 40
1.0
176
     1
  0
VISUALSTYLE
  5
2C
102
{ACAD_REACTORS
330
29
102
}
330
29
100
AcDbVisualStyle
  2
Gouraud
 70
     2
177
     3
291
     1
 70
    58
 90
        2
176
     1
 90
        2
176
     1
 90
        1
176
     1
 90
        2
176
     1
 40
0.6
176
     1
 40
30.0
176
     1
 62
     7
420
 16777215
176
     1
 90
        0
176
     1
 90
        0
176
     1
 62
     7
176
     1
 62
   257
176
     1
 90
        1
176
     1
 90
        1
176
     1
 40
1.0
176
     1
 90
        0
176
     1
 62
     7
176
     1
 40
1.0
176
     1
 90
        1
176
     1
 90
        6
176
     1
 90
        2
176
     1
 62
     7
176
     1
 90
        5
176
     1
 90
        0
176
     1
 90
        0
176
     1
290
     0
176
     1
 90
       13
176
     1
 40
0.0
176
     1
 90
        0
176
     1
290
     0
176
     1
290
     1
176
     1
290
     1
176
     1
290
     0
176
     1
290
     0
176
     1
290
     0
176
     1
290
     0
176
     1
290
     0
176
     1
290
     0
176
     1
 90
       50
176
     1
 40
0.0
176
     1
 40
1.0
176
     1
 90
        0
176
     1
 62
    18
420
        0
176
     1
 90
       50
176
     1
 90
        3
176
     1
 62
     5
420
      255
176
     1
290
     0
176
     1
 90
       50
176
     1
 90
       50
176
     1
 90
       50
176
     1
290
     0
176
     1
 90
       50
176
     1
 62
   256
176
     0
 40
1.0
176
     0
 90
        2
176
     1
  1
strokes_ogs.tif
176
     1
290
     0
176
     1
 40
1.0
176
     1
 40
1.0
176
     1
  0
VISUALSTYLE
  5
2D
102
{ACAD_REACTORS
330
29
102
}
330
29
100
AcDbVisualStyle
  2
GouraudWithEdges
 70
     3
177
     3
291
     1
 70
    58
 90
        2
176
     1
 90
        2
176
     1
 90
        1
176
     1
 90
        2
176
     1
 40
0.6
176
     1
 40
30.0
176
     1
 62
     7
420
 16777215
176
     1
 90
        1
176
     1
 90
        0
176
     1
 62
     7
176
     1
 62
   257
176
     1
 90
        1
176
     1
 90
        1
176
     1
 40
1.0
176
     1
 90
        0
176
     1
 62
   257
176
     1
 40
1.0
176
     1
 90
        1
176
     1
 90
        6
176
     1
 90
        2
176
     1
 62
     7
176
     1
 90
        5
176
     1
 90
        0
176
     1
 90
        0
176
     1
290
     0
176
     1
 90
       13
176
     1
 40
0.0
176
     1
 90
        0
176
     1
290
     0
176
     1
290
     1
176
     1
290
     1
176
     1
290
     0
176
     1
290
     0
176
     1
290
     0
176
     1
290
     0
176
     1
290
     0
176
     1
290
     0
176
     1
 90
       50
176
     1
 40
0.0
176
     1
 40
1.0
176
     1
 90
        0
176
     1
 62
    18
420
        0
176
     1
 90
       50
176
     1
 90
        3
176
     1
 62
     5
420
      255
176
     1
290
     0
176
     1
 90
       50
176
     1
 90
       50
176
     1
 90
       50
176
     1
290
     0
176
     1
 90
       50
176
     1
 62
   256
176
     0
 40
1.0
176
     0
 90
        2
176
     1
  1
strokes_ogs.tif
176
     1
290
     0
176
     1
 40
1.0
176
     1
 40
1.0
176
     1
  0
VISUALSTYLE
  5
31
102
{ACAD_REACTORS
330
29
102
}
330
29
100
AcDbVisualStyle
  2
Hidden
 70
     6
177
     3
291
     0
 70
    58
 90
        1
176
     1
 90
        2
176
     1
 90
        2
176
     1
 90
        0
176
     1
 40
0.6
176
     1
 40
30.0
176
     1
 62
     7
420
 16777215
176
     1
 90
        2
176
     1
 90
        2
176
     1
 62
     7
176
     1
 62
   257
176
     1
 90
        2
176
     1
 90
        1
176
     1
 40
40.0
176
     1
 90
        0
176
     1
 62
   257
176
     1
 40
1.0
176
     1
 90
        1
176
     1
 90
        6
176
     1
 90
        2
176
     1
 62
     7
176
     1
 90
        3
176
     1
 90
        0
176
     1
 90
        0
176
     1
290
     0
176
     1
 90
        1
176
     1
 40
0.0
176
     1
 90
        0
176
     1
290
     0
176
     1
290
     1
176
     1
290
     1
176
     1
290
     0
176
     1
290
     0
176
     1
290
     0
176
     1
290
     0
176
     1
290
     0
176
     1
290
     0
176
     1
 90
       50
176
     1
 40
0.0
176
     1
 40
1.0
176
     1
 90
        0
176
     1
 62
    18
420
        0
176
     1
 90
       50
176
     1
 90
        3
176
     1
 62
     5
420
      255
176
     1
290
     0
176
     1
 90
       50
176
     1
 90
       50
176
     1
 90
       50
176
     1
290
     0
176
     1
 90
       50
176
     1
 62
   256
176
     0
 40
1.0
176
     0
 90
        2
176
     1
  1
strokes_ogs.tif
176
     1
290
     0
176
     1
 40
1.0
176
     1
 40
1.0
176
     1
  0
VISUALSTYLE
  5
3F
102
{ACAD_REACTORS
330
29
102
}
330
29
100
AcDbVisualStyle
  2
JitterOff
 70
    20
177
     3
291
     1
 70
    58
 90
        2
176
     0
 90
        2
176
     0
 90
        0
176
     0
 90
        0
176
     0
 40
0.6
176
     0
 40
30.0
176
     0
 62
     7
420
 16777215
176
     0
 90
        1
176
     0
 90
        4
176
     0
 62
     7
176
     0
 62
   257
176
     0
 90
        1
176
     0
 90
        1
176
     0
 40
1.0
176
     0
 90
       10
176
     2
 62
     7
176
     0
 40
1.0
176
     0
 90
        1
176
     0
 90
        6
176
     0
 90
        2
176
     0
 62
     7
176
     0
 90
        5
176
     0
 90
        0
176
     0
 90
        0
176
     0
290
     0
176
     0
 90
        1
176
     0
 40
0.0
176
     0
 90
        0
176
     0
290
     0
176
     0
290
     1
176
     0
290
     1
176
     0
290
     0
176
     0
290
     0
176
     0
290
     0
176
     0
290
     0
176
     0
290
     0
176
     0
290
     0
176
     0
 90
       50
176
     0
 40
0.0
176
     0
 40
1.0
176
     0
 90
        0
176
     0
 62
    18
420
        0
176
     0
 90
       50
176
     0
 90
        3
176
     0
 62
     5
420
      255
176
     0
290
     0
176
     0
 90
       50
176
     0
 90
       50
176
     0
 90
       50
176
     0
290
     0
176
     0
 90
       50
176
     0
 62
   256
176
     0
 40
1.0
176
     0
 90
        2
176
     0
  1
strokes_ogs.tif
176
     0
290
     0
176
     0
 40
1.0
176
     0
 40
1.0
176
     0
  0
VISUALSTYLE
  5
37
102
{ACAD_REACTORS
330
29
102
}
330
29
100
AcDbVisualStyle
  2
Linepattern
 70
    14
177
     3
291
     1
 70
    58
 90
        2
176
     1
 90
        2
176
     1
 90
        0
176
     1
 90
        0
176
     1
 40
0.6
176
     1
 40
30.0
176
     1
 62
     7
420
 16777215
176
     1
 90
        1
176
     1
 90
        4
176
     1
 62
     7
176
     1
 62
   257
176
     1
 90
        7
176
     1
 90
        7
176
     1
 40
1.0
176
     1
 90
        8
176
     1
 62
     7
176
     1
 40
1.0
176
     1
 90
        1
176
     1
 90
        6
176
     1
 90
        2
176
     1
 62
     7
176
     1
 90
        5
176
     1
 90
        0
176
     1
 90
        0
176
     1
290
     0
176
     1
 90
        1
176
     1
 40
0.0
176
     1
 90
        0
176
     1
290
     0
176
     1
290
     1
176
     1
290
     1
176
     1
290
     0
176
     1
290
     0
176
     1
290
     0
176
     1
290
     0
176
     1
290
     0
176
     1
290
     0
176
     1
 90
       50
176
     1
 40
0.0
176
     1
 40
1.0
176
     1
 90
        0
176
     1
 62
    18
420
        0
176
     1
 90
       50
176
     1
 90
        3
176
     1
 62
     5
420
      255
176
     1
290
     0
176
     1
 90
       50
176
     1
 90
       50
176
     1
 90
       50
176
     1
290
     0
176
     1
 90
       50
176
     1
 62
   256
176
     0
 40
1.0
176
     0
 90
        2
176
     1
  1
strokes_ogs.tif
176
     1
290
     0
176
     1
 40
1.0
176
     1
 40
1.0
176
     1
  0
VISUALSTYLE
  5
40
102
{ACAD_REACTORS
330
29
102
}
330
29
100
AcDbVisualStyle
  2
OverhangOff
 70
    21
177
     3
291
     1
 70
    58
 90
        2
176
     0
 90
        2
176
     0
 90
        0
176
     0
 90
        0
176
     0
 40
0.6
176
     0
 40
30.0
176
     0
 62
     7
420
 16777215
176
     0
 90
        1
176
     0
 90
        4
176
     0
 62
     7
176
     0
 62
   257
176
     0
 90
        1
176
     0
 90
        1
176
     0
 40
1.0
176
     0
 90
        9
176
     2
 62
     7
176
     0
 40
1.0
176
     0
 90
        1
176
     0
 90
        6
176
     0
 90
        2
176
     0
 62
     7
176
     0
 90
        5
176
     0
 90
        0
176
     0
 90
        0
176
     0
290
     0
176
     0
 90
        1
176
     0
 40
0.0
176
     0
 90
        0
176
     0
290
     0
176
     0
290
     1
176
     0
290
     1
176
     0
290
     0
176
     0
290
     0
176
     0
290
     0
176
     0
290
     0
176
     0
290
     0
176
     0
290
     0
176
     0
 90
       50
176
     0
 40
0.0
176
     0
 40
1.0
176
     0
 90
        0
176
     0
 62
    18
420
        0
176
     0
 90
       50
176
     0
 90
        3
176
     0
 62
     5
420
      255
176
     0
290
     0
176
     0
 90
       50
176
     0
 90
       50
176
     0
 90
       50
176
     0
290
     0
176
     0
 90
       50
176
     0
 62
   256
176
     0
 40
1.0
176
     0
 90
        2
176
     0
  1
strokes_ogs.tif
176
     0
290
     0
176
     0
 40
1.0
176
     0
 40
1.0
176
     0
  0
VISUALSTYLE
  5
33
102
{ACAD_REACTORS
330
29
102
}
330
29
100
AcDbVisualStyle
  2
Realistic
 70
     8
177
     3
291
     0
 70
    58
 90
        2
176
     1
 90
        3
176
     1
 90
        0
176
     1
 90
        2
176
     1
 40
0.6
176
     1
 40
30.0
176
     1
 62
     7
420
 16777215
176
     1
 90
        0
176
     1
 90
        0
176
     1
 62
     7
176
     1
 62
   257
176
     1
 90
        1
176
     1
 90
        1
176
     1
 40
1.0
176
     1
 90
        8
176
     1
 62
   257
176
     1
 40
1.0
176
     1
 90
        1
176
     1
 90
        6
176
     1
 90
        2
176
     1
 62
     7
176
     1
 90
        3
176
     1
 90
        0
176
     1
 90
        0
176
     1
290
     0
176
     1
 90
       13
176
     1
 40
0.0
176
     1
 90
        0
176
     1
290
     0
176
     1
290
     1
176
     1
290
     1
176
     1
290
     0
176
     1
290
     0
176
     1
290
     0
176
     1
290
     0
176
     1
290
     0
176
     1
290
     0
176
     1
 90
       50
176
     1
 40
0.0
176
     1
 40
1.0
176
     1
 90
        0
176
     1
 62
    18
420
        0
176
     1
 90
       50
176
     1
 90
        3
176
     1
 62
     5
420
      255
176
     1
290
     0
176
     1
 90
       50
176
     1
 90
       50
176
     1
 90
       50
176
     1
290
     0
176
     1
 90
       50
176
     1
 62
   256
176
     0
 40
1.0
176
     0
 90
        2
176
     1
  1
strokes_ogs.tif
176
     1
290
     0
176
     1
 40
1.0
176
     1
 40
1.0
176
     1
  0
VISUALSTYLE
  5
3E
102
{ACAD_REACTORS
330
29
102
}
330
29
100
AcDbVisualStyle
  2
Shaded
 70
    27
177
     3
291
     0
 70
    58
 90
        2
176
     1
 90
        2
176
     1
 90
        1
176
     1
 90
        2
176
     1
 40
0.6
176
     1
 40
30.0
176
     1
 62
     7
420
 16777215
176
     1
 90
        0
176
     1
 90
        4
176
     1
 62
     7
176
     1
 62
   257
176
     1
 90
        1
176
     1
 90
        1
176
     1
 40
1.0
176
     1
 90
        8
176
     1
 62
   257
176
     1
 40
1.0
176
     1
 90
        1
176
     1
 90
        6
176
     1
 90
        2
176
     1
 62
     8
420
  7895160
176
     1
 90
        3
176
     1
 90
        0
176
     1
 90
        0
176
     1
290
     0
176
     1
 90
        5
176
     1
 40
0.0
176
     1
 90
        0
176
     1
290
     0
176
     1
290
     1
176
     1
290
     1
176
     1
290
     0
176
     1
290
     0
176
     1
290
     0
176
     1
290
     0
176
     1
290
     0
176
     1
290
     0
176
     1
 90
       50
176
     1
 40
0.0
176
     1
 40
1.0
176
     1
 90
        0
176
     1
 62
    18
420
        0
176
     1
 90
       50
176
     1
 90
        3
176
     1
 62
     5
420
      255
176
     1
290
     0
176
     1
 90
       50
176
     1
 90
       50
176
     1
 90
       50
176
     1
290
     0
176
     1
 90
       50
176
     1
 62
   256
176
     0
 40
1.0
176
     0
 90
        2
176
     1
  1
strokes_ogs.tif
176
     1
290
     0
176
     1
 40
1.0
176
     1
 40
1.0
176
     1
  0
VISUALSTYLE
  5
3D
102
{ACAD_REACTORS
330
29
102
}
330
29
100
AcDbVisualStyle
  2
Shaded with edges
 70
    26
177
     3
291
     0
 70
    58
 90
        2
176
     1
 90
        2
176
     1
 90
        1
176
     1
 90
        2
176
     1
 40
0.6
176
     1
 40
30.0
176
     1
 62
     7
420
 16777215
176
     1
 90
        1
176
     1
 90
        2
176
     1
 62
     7
176
     1
 62
   257
176
     1
 90
        2
176
     1
 90
        1
176
     1
 40
1.0
176
     1
 90
        8
176
     1
 62
   257
176
     1
 40
1.0
176
     1
 90
        1
176
     1
 90
        6
176
     1
 90
        2
176
     1
 62
     7
176
     1
 90
        3
176
     1
 90
        0
176
     1
 90
        0
176
     1
290
     0
176
     1
 90
        5
176
     1
 40
0.0
176
     1
 90
        0
176
     1
290
     0
176
     1
290
     1
176
     1
290
     1
176
     1
290
     0
176
     1
290
     0
176
     1
290
     0
176
     1
290
     0
176
     1
290
     0
176
     1
290
     0
176
     1
 90
       50
176
     1
 40
0.0
176
     1
 40
1.0
176
     1
 90
        0
176
     1
 62
    18
420
        0
176
     1
 90
       50
176
     1
 90
        3
176
     1
 62
     5
420
      255
176
     1
290
     0
176
     1
 90
       50
176
     1
 90
       50
176
     1
 90
       50
176
     1
290
     0
176
     1
 90
       50
176
     1
 62
   256
176
     0
 40
1.0
176
     0
 90
        2
176
     1
  1
strokes_ogs.tif
176
     1
290
     0
176
     1
 40
1.0
176
     1
 40
1.0
176
     1
  0
VISUALSTYLE
  5
3A
102
{ACAD_REACTORS
330
29
102
}
330
29
100
AcDbVisualStyle
  2
Shades of Gray
 70
    23
177
     3
291
     0
 70
    58
 90
        2
176
     1
 90
        2
176
     1
 90
        3
176
     1
 90
        0
176
     1
 40
0.6
176
     1
 40
30.0
176
     1
 62
     7
420
 16777215
176
     1
 90
        2
176
     1
 90
        2
176
     1
 62
     7
176
     1
 62
     7
176
     1
 90
        1
176
     1
 90
        1
176
     1
 40
40.0
176
     1
 90
        8
176
     1
 62
     7
176
     1
 40
1.0
176
     1
 90
        1
176
     1
 90
        6
176
     1
 90
        2
176
     1
 62
     7
176
     1
 90
        3
176
     1
 90
        0
176
     1
 90
        0
176
     1
290
     0
176
     1
 90
        1
176
     1
 40
0.0
176
     1
 90
        0
176
     1
290
     0
176
     1
290
     1
176
     1
290
     1
176
     1
290
     0
176
     1
290
     0
176
     1
290
     0
176
     1
290
     0
176
     1
290
     0
176
     1
290
     0
176
     1
 90
       50
176
     1
 40
0.0
176
     1
 40
1.0
176
     1
 90
        0
176
     1
 62
    18
420
        0
176
     1
 90
       50
176
     1
 90
        3
176
     1
 62
     5
420
      255
176
     1
290
     0
176
     1
 90
       50
176
     1
 90
       50
176
     1
 90
       50
176
     1
290
     0
176
     1
 90
       50
176
     1
 62
   256
176
     0
 40
1.0
176
     0
 90
        2
176
     1
  1
strokes_ogs.tif
176
     1
290
     0
176
     1
 40
1.0
176
     1
 40
1.0
176
     1
  0
VISUALSTYLE
  5
3B
102
{ACAD_REACTORS
330
29
102
}
330
29
100
AcDbVisualStyle
  2
Sketchy
 70
    24
177
     3
291
     0
 70
    58
 90
        1
176
     1
 90
        2
176
     1
 90
        2
176
     1
 90
        0
176
     1
 40
0.6
176
     1
 40
30.0
176
     1
 62
     7
420
 16777215
176
     1
 90
        2
176
     1
 90
        2
176
     1
 62
     7
176
     1
 62
     7
176
     1
 90
        1
176
     1
 90
        1
176
     1
 40
40.0
176
     1
 90
       11
176
     1
 62
     7
176
     1
 40
1.0
176
     1
 90
        1
176
     1
 90
        6
176
     1
 90
        2
176
     1
 62
     7
176
     1
 90
        6
176
     1
 90
        0
176
     1
 90
        0
176
     1
290
     0
176
     1
 90
        1
176
     1
 40
0.0
176
     1
 90
        0
176
     1
290
     0
176
     1
290
     1
176
     1
290
     1
176
     1
290
     0
176
     1
290
     0
176
     1
290
     0
176
     1
290
     0
176
     1
290
     0
176
     1
290
     0
176
     1
 90
       50
176
     1
 40
0.0
176
     1
 40
1.0
176
     1
 90
        0
176
     1
 62
    18
420
        0
176
     1
 90
       50
176
     1
 90
        3
176
     1
 62
     5
420
      255
176
     1
290
     0
176
     1
 90
       50
176
     1
 90
       50
176
     1
 90
       50
176
     1
290
     0
176
     1
 90
       50
176
     1
 62
   256
176
     0
 40
1.0
176
     0
 90
        2
176
     1
  1
strokes_ogs.tif
176
     1
290
     0
176
     1
 40
1.0
176
     1
 40
1.0
176
     1
  0
VISUALSTYLE
  5
36
102
{ACAD_REACTORS
330
29
102
}
330
29
100
AcDbVisualStyle
  2
Thicken
 70
    13
177
     3
291
     1
 70
    58
 90
        2
176
     1
 90
        2
176
     1
 90
        0
176
     1
 90
        0
176
     1
 40
0.6
176
     1
 40
30.0
176
     1
 62
     7
420
 16777215
176
     1
 90
        1
176
     1
 90
        4
176
     1
 62
     7
176
     1
 62
   257
176
     1
 90
        1
176
     1
 90
        1
176
     1
 40
1.0
176
     1
 90
       12
176
     1
 62
     7
176
     1
 40
1.0
176
     1
 90
        1
176
     1
 90
        6
176
     1
 90
        2
176
     1
 62
     7
176
     1
 90
        5
176
     1
 90
        0
176
     1
 90
        0
176
     1
290
     0
176
     1
 90
        1
176
     1
 40
0.0
176
     1
 90
        0
176
     1
290
     0
176
     1
290
     1
176
     1
290
     1
176
     1
290
     0
176
     1
290
     0
176
     1
290
     0
176
     1
290
     0
176
     1
290
     0
176
     1
290
     0
176
     1
 90
       50
176
     1
 40
0.0
176
     1
 40
1.0
176
     1
 90
        0
176
     1
 62
    18
420
        0
176
     1
 90
       50
176
     1
 90
        3
176
     1
 62
     5
420
      255
176
     1
290
     0
176
     1
 90
       50
176
     1
 90
       50
176
     1
 90
       50
176
     1
290
     0
176
     1
 90
       50
176
     1
 62
   256
176
     0
 40
1.0
176
     0
 90
        2
176
     1
  1
strokes_ogs.tif
176
     1
290
     0
176
     1
 40
1.0
176
     1
 40
1.0
176
     1
  0
VISUALSTYLE
  5
30
102
{ACAD_REACTORS
330
29
102
}
330
29
100
AcDbVisualStyle
  2
Wireframe
 70
     5
177
     3
291
     0
 70
    58
 90
        0
176
     1
 90
        2
176
     1
 90
        0
176
     1
 90
        0
176
     1
 40
0.6
176
     1
 40
30.0
176
     1
 62
     7
420
 16777215
176
     1
 90
        1
176
     1
 90
        4
176
     1
 62
     7
176
     1
 62
   257
176
     1
 90
        1
176
     1
 90
        1
176
     1
 40
1.0
176
     1
 90
        0
176
     1
 62
   257
176
     1
 40
1.0
176
     1
 90
        1
176
     1
 90
        6
176
     1
 90
        2
176
     1
 62
     7
176
     1
 90
        3
176
     1
 90
        0
176
     1
 90
        0
176
     1
290
     0
176
     1
 90
        1
176
     1
 40
0.0
176
     1
 90
        0
176
     1
290
     0
176
     1
290
     1
176
     1
290
     1
176
     1
290
     0
176
     1
290
     0
176
     1
290
     0
176
     1
290
     0
176
     1
290
     0
176
     1
290
     0
176
     1
 90
       50
176
     1
 40
0.0
176
     1
 40
1.0
176
     1
 90
        0
176
     1
 62
    18
420
        0
176
     1
 90
       50
176
     1
 90
        3
176
     1
 62
     5
420
      255
176
     1
290
     0
176
     1
 90
       50
176
     1
 90
       50
176
     1
 90
       50
176
     1
290
     0
176
     1
 90
       50
176
     1
 62
   256
176
     0
 40
1.0
176
     0
 90
        2
176
     1
  1
strokes_ogs.tif
176
     1
290
     0
176
     1
 40
1.0
176
     1
 40
1.0
176
     1
  0
VISUALSTYLE
  5
3C
102
{ACAD_REACTORS
330
29
102
}
330
29
100
AcDbVisualStyle
  2
X-Ray
 70
    25
177
     3
291
     0
 70
    58
 90
        2
176
     1
 90
        2
176
     1
 90
        1
176
     1
 90
        1
176
     1
 40
0.5
176
     1
 40
30.0
176
     1
 62
     7
420
 16777215
176
     1
 90
        1
176
     1
 90
        0
176
     1
 62
     7
176
     1
 62
   257
176
     1
 90
        1
176
     1
 90
        1
176
     1
 40
1.0
176
     1
 90
        8
176
     1
 62
     7
176
     1
 40
1.0
176
     1
 90
        1
176
     1
 90
        6
176
     1
 90
        2
176
     1
 62
     7
176
     1
 90
        3
176
     1
 90
        0
176
     1
 90
        0
176
     1
290
     0
176
     1
 90
       13
176
     1
 40
0.0
176
     1
 90
        0
176
     1
290
     0
176
     1
290
     1
176
     1
290
     1
176
     1
290
     0
176
     1
290
     0
176
     1
290
     0
176
     1
290
     0
176
     1
290
     0
176
     1
290
     0
176
     1
 90
       50
176
     1
 40
0.0
176
     1
 40
1.0
176
     1
 90
        0
176
     1
 62
    18
420
        0
176
     1
 90
       50
176
     1
 90
        3
176
     1
 62
     5
420
      255
176
     1
290
     0
176
     1
 90
       50
176
     1
 90
       50
176
     1
 90
       50
176
     1
290
     0
176
     1
 90
       50
176
     1
 62
   256
176
     0
 40
1.0
176
     0
 90
        2
176
     1
  1
strokes_ogs.tif
176
     1
290
     0
176
     1
 40
1.0
176
     1
 40
1.0
176
     1
  0
DICTIONARYVAR
  5
301
102
{ACAD_REACTORS
330
2FC
102
}
330
2FC
100
DictionaryVariables
280
     0
  1
1:1
  0
DICTIONARYVAR
  5
2FE
102
{ACAD_REACTORS
330
2FC
102
}
330
2FC
100
DictionaryVariables
280
     0
  1
STANDARD
  0
DICTIONARYVAR
  5
2FD
102
{ACAD_REACTORS
330
2FC
102
}
330
2FC
100
DictionaryVariables
280
     0
  1
STANDARD
  0
DICTIONARYVAR
  5
2FF
102
{ACAD_REACTORS
330
2FC
102
}
330
2FC
100
DictionaryVariables
280
     0
  1
Imperial24
  0
DICTIONARYVAR
  5
300
102
{ACAD_REACTORS
330
2FC
102
}
330
2FC
100
DictionaryVariables
280
     0
  1
Imperial24
  0
DICTIONARY
  5
1A
330
19
100
AcDbDictionary
280
     1
281
     1
  3
BUMPTILE
360
1C
  3
DIFFUSETILE
360
1B
  3
OPACITYTILE
360
1F
  3
REFLECTIONTILE
360
1E
  3
REFRACTIONTILE
360
20
  3
SPECULARTILE
360
1D
  0
DICTIONARY
  5
12
330
11
100
AcDbDictionary
280
     1
281
     1
  3
BUMPTILE
360
14
  3
DIFFUSETILE
360
13
  3
OPACITYTILE
360
17
  3
REFLECTIONTILE
360
16
  3
REFRACTIONTILE
360
18
  3
SPECULARTILE
360
15
  0
DICTIONARY
  5
22
330
21
100
AcDbDictionary
280
     1
281
     1
  3
BUMPTILE
360
24
  3
DIFFUSETILE
360
23
  3
OPACITYTILE
360
27
  3
REFLECTIONTILE
360
26
  3
REFRACTIONTILE
360
28
  3
SPECULARTILE
360
25
  0
DICTIONARY
  5
302
330
65
100
AcDbDictionary
280
     1
281
     1
  3
ACAD_ROUNDTRIP_2008_TABLESTYLE_CELLSTYLEMAP
360
303
  0
XRECORD
  5
1C
102
{ACAD_REACTORS
330
1A
102
}
330
1A
100
AcDbXrecord
280
     1
270
     1
271
     1
  0
XRECORD
  5
1B
102
{ACAD_REACTORS
330
1A
102
}
330
1A
100
AcDbXrecord
280
     1
270
     1
271
     1
  0
XRECORD
  5
1F
102
{ACAD_REACTORS
330
1A
102
}
330
1A
100
AcDbXrecord
280
     1
270
     1
271
     1
  0
XRECORD
  5
1E
102
{ACAD_REACTORS
330
1A
102
}
330
1A
100
AcDbXrecord
280
     1
270
     1
271
     1
  0
XRECORD
  5
20
102
{ACAD_REACTORS
330
1A
102
}
330
1A
100
AcDbXrecord
280
     1
270
     1
271
     1
  0
XRECORD
  5
1D
102
{ACAD_REACTORS
330
1A
102
}
330
1A
100
AcDbXrecord
280
     1
270
     1
271
     1
  0
XRECORD
  5
14
102
{ACAD_REACTORS
330
12
102
}
330
12
100
AcDbXrecord
280
     1
270
     1
271
     1
  0
XRECORD
  5
13
102
{ACAD_REACTORS
330
12
102
}
330
12
100
AcDbXrecord
280
     1
270
     1
271
     1
  0
XRECORD
  5
17
102
{ACAD_REACTORS
330
12
102
}
330
12
100
AcDbXrecord
280
     1
270
     1
271
     1
  0
XRECORD
  5
16
102
{ACAD_REACTORS
330
12
102
}
330
12
100
AcDbXrecord
280
     1
270
     1
271
     1
  0
XRECORD
  5
18
102
{ACAD_REACTORS
330
12
102
}
330
12
100
AcDbXrecord
280
     1
270
     1
271
     1
  0
XRECORD
  5
15
102
{ACAD_REACTORS
330
12
102
}
330
12
100
AcDbXrecord
280
     1
270
     1
271
     1
  0
XRECORD
  5
24
102
{ACAD_REACTORS
330
22
102
}
330
22
100
AcDbXrecord
280
     1
270
     1
271
     1
  0
XRECORD
  5
23
102
{ACAD_REACTORS
330
22
102
}
330
22
100
AcDbXrecord
280
     1
270
     1
271
     1
  0
XRECORD
  5
27
102
{ACAD_REACTORS
330
22
102
}
330
22
100
AcDbXrecord
280
     1
270
     1
271
     1
  0
XRECORD
  5
26
102
{ACAD_REACTORS
330
22
102
}
330
22
100
AcDbXrecord
280
     1
270
     1
271
     1
  0
XRECORD
  5
28
102
{ACAD_REACTORS
330
22
102
}
330
22
100
AcDbXrecord
280
     1
270
     1
271
     1
  0
XRECORD
  5
25
102
{ACAD_REACTORS
330
22
102
}
330
22
100
AcDbXrecord
280
     1
270
     1
271
     1
  0
CELLSTYLEMAP
  5
303
102
{ACAD_REACTORS
330
302
102
}
330
302
100
AcDbCellStyleMap
 90
        3
300
CELLSTYLE
  1
TABLEFORMAT_BEGIN
 90
        5
170
     1
 91
        0
 92
    32768
 62
   257
 93
        1
300
CONTENTFORMAT
  1
CONTENTFORMAT_BEGIN
 90
        0
 91
        0
 92
      512
 93
        0
300

 40
0.0
140
1.0
 94
        5
 62
     0
340
55
144
0.25
309
CONTENTFORMAT_END
171
     0
 94
        0
309
TABLEFORMAT_END
  1
CELLSTYLE_BEGIN
 90
        1
 91
        1
300
_TITLE
309
CELLSTYLE_END
300
CELLSTYLE
  1
TABLEFORMAT_BEGIN
 90
        5
170
     1
 91
        0
 92
        0
 62
   257
 93
        1
300
CONTENTFORMAT
  1
CONTENTFORMAT_BEGIN
 90
        0
 91
        0
 92
      512
 93
        0
300

 40
0.0
140
1.0
 94
        5
 62
     0
340
55
144
0.18
309
CONTENTFORMAT_END
171
     0
 94
        0
309
TABLEFORMAT_END
  1
CELLSTYLE_BEGIN
 90
        2
 91
        1
300
_HEADER
309
CELLSTYLE_END
300
CELLSTYLE
  1
TABLEFORMAT_BEGIN
 90
        5
170
     1
 91
        0
 92
        0
 62
   257
 93
        1
300
CONTENTFORMAT
  1
CONTENTFORMAT_BEGIN
 90
        0
 91
        0
 92
      512
 93
        0
300

 40
0.0
140
1.0
 94
        2
 62
     0
340
55
144
0.18
309
CONTENTFORMAT_END
171
     0
 94
        0
309
TABLEFORMAT_END
  1
CELLSTYLE_BEGIN
 90
        3
 91
        2
300
_DATA
309
CELLSTYLE_END
  0
ENDSEC
  0
EOF
