  0
SECTION
  2
HEADER
  9
$ACADVER
  1
AC1032
  9
$ACADMAINTVER
 90
      228
  9
$DWGCODEPAGE
  3
ANSI_1252
  9
$REQUIREDVERSIONS
160
                 0
  9
$INSBASE
 10
0.0
 20
0.0
 30
0.0
  9
$EXTMIN
 10
1.000000000000000E+20
 20
1.000000000000000E+20
 30
1.000000000000000E+20
  9
$EXTMAX
 10
-1.000000000000000E+20
 20
-1.000000000000000E+20
 30
-1.000000000000000E+20
  9
$LIMMIN
 10
0.0
 20
0.0
  9
$LIMMAX
 10
12.0
 20
9.0
  9
$ORTHOMODE
 70
     0
  9
$REGENMODE
 70
     1
  9
$FILLMODE
 70
     1
  9
$QTEXTMODE
 70
     0
  9
$MIRRTEXT
 70
     0
  9
$LTSCALE
 40
1.0
  9
$ATTMODE
 70
     1
  9
$TEXTSIZE
 40
0.2
  9
$TRACEWID
 40
0.05
  9
$TEXTSTYLE
  7
Standard
  9
$CLAYER
  8
0
  9
$CELTYPE
  6
ByLayer
  9
$CECOLOR
 62
   256
  9
$CELTSCALE
 40
1.0
  9
$DISPSILH
 70
     0
  9
$DIMSCALE
 40
1.0
  9
$DIMASZ
 40
0.18
  9
$DIMEXO
 40
0.0625
  9
$DIMDLI
 40
0.38
  9
$DIMRND
 40
0.0
  9
$DIMDLE
 40
0.0
  9
$DIMEXE
 40
0.18
  9
$DIMTP
 40
0.0
  9
$DIMTM
 40
0.0
  9
$DIMTXT
 40
0.18
  9
$DIMCEN
 40
0.09
  9
$DIMTSZ
 40
0.0
  9
$DIMTOL
 70
     0
  9
$DIMLIM
 70
     0
  9
$DIMTIH
 70
     1
  9
$DIMTOH
 70
     1
  9
$DIMSE1
 70
     0
  9
$DIMSE2
 70
     0
  9
$DIMTAD
 70
     0
  9
$DIMZIN
 70
     0
  9
$DIMBLK
  1

  9
$DIMASO
 70
     1
  9
$DIMSHO
 70
     1
  9
$DIMPOST
  1

  9
$DIMAPOST
  1

  9
$DIMALT
 70
     0
  9
$DIMALTD
 70
     2
  9
$DIMALTF
 40
25.4
  9
$DIMLFAC
 40
1.0
  9
$DIMTOFL
 70
     0
  9
$DIMTVP
 40
0.0
  9
$DIMTIX
 70
     0
  9
$DIMSOXD
 70
     0
  9
$DIMSAH
 70
     0
  9
$DIMBLK1
  1

  9
$DIMBLK2
  1

  9
$DIMSTYLE
  2
Standard
  9
$DIMCLRD
 70
     0
  9
$DIMCLRE
 70
     0
  9
$DIMCLRT
 70
     0
  9
$DIMTFAC
 40
1.0
  9
$DIMGAP
 40
0.09
  9
$DIMJUST
 70
     0
  9
$DIMSD1
 70
     0
  9
$DIMSD2
 70
     0
  9
$DIMTOLJ
 70
     1
  9
$DIMTZIN
 70
     0
  9
$DIMALTZ
 70
     0
  9
$DIMALTTZ
 70
     0
  9
$DIMUPT
 70
     0
  9
$DIMDEC
 70
     4
  9
$DIMTDEC
 70
     4
  9
$DIMALTU
 70
     2
  9
$DIMALTTD
 70
     2
  9
$DIMTXSTY
  7
Standard
  9
$DIMAUNIT
 70
     0
  9
$DIMADEC
 70
     0
  9
$DIMALTRND
 40
0.0
  9
$DIMAZIN
 70
     0
  9
$DIMDSEP
 70
    46
  9
$DIMATFIT
 70
     3
  9
$DIMFRAC
 70
     0
  9
$DIMLDRBLK
  1

  9
$DIMLUNIT
 70
     2
  9
$DIMLWD
 70
    -2
  9
$DIMLWE
 70
    -2
  9
$DIMTMOVE
 70
     0
  9
$DIMFXL
 40
1.0
  9
$DIMFXLON
 70
     0
  9
$DIMJOGANG
 40
0.7853981633974483
  9
$DIMTFILL
 70
     0
  9
$DIMTFILLCLR
 70
     0
  9
$DIMARCSYM
 70
     0
  9
$DIMLTYPE
  6

  9
$DIMLTEX1
  6

  9
$DIMLTEX2
  6

  9
$DIMTXTDIRECTION
 70
     0
  9
$LUNITS
 70
     2
  9
$LUPREC
 70
     4
  9
$SKETCHINC
 40
0.1
  9
$FILLETRAD
 40
0.0
  9
$AUNITS
 70
     0
  9
$AUPREC
 70
     0
  9
$MENU
  1
.
  9
$ELEVATION
 40
0.0
  9
$PELEVATION
 40
0.0
  9
$THICKNESS
 40
0.0
  9
$LIMCHECK
 70
     0
  9
$CHAMFERA
 40
0.0
  9
$CHAMFERB
 40
0.0
  9
$CHAMFERC
 40
0.0
  9
$CHAMFERD
 40
0.0
  9
$SKPOLY
 70
     0
  9
$TDCREATE
 40
2460255.749467593
  9
$TDUCREATE
 40
2460255.749467593
  9
$TDUPDATE
 40
2460255.749467593
  9
$TDUUPDATE
 40
2460255.749467593
  9
$TDINDWG
 40
0.0000000000
  9
$TDUSRTIMER
 40
0.0000000000
  9
$USRTIMER
 70
     1
  9
$ANGBASE
 50
0.0
  9
$ANGDIR
 70
     0
  9
$PDMODE
 70
     0
  9
$PDSIZE
 40
0.0
  9
$PLINEWID
 40
0.0
  9
$SPLFRAME
 70
     0
  9
$SPLINETYPE
 70
     6
  9
$SPLINESEGS
 70
     8
  9
$HANDSEED
  5
2DE
  9
$SURFTAB1
 70
     6
  9
$SURFTAB2
 70
     6
  9
$SURFTYPE
 70
     6
  9
$SURFU
 70
     6
  9
$SURFV
 70
     6
  9
$UCSBASE
  2

  9
$UCSNAME
  2

  9
$UCSORG
 10
0.0
 20
0.0
 30
0.0
  9
$UCSXDIR
 10
1.0
 20
0.0
 30
0.0
  9
$UCSYDIR
 10
0.0
 20
1.0
 30
0.0
  9
$UCSORTHOREF
  2

  9
$UCSORTHOVIEW
 70
     0
  9
$UCSORGTOP
 10
0.0
 20
0.0
 30
0.0
  9
$UCSORGBOTTOM
 10
0.0
 20
0.0
 30
0.0
  9
$UCSORGLEFT
 10
0.0
 20
0.0
 30
0.0
  9
$UCSORGRIGHT
 10
0.0
 20
0.0
 30
0.0
  9
$UCSORGFRONT
 10
0.0
 20
0.0
 30
0.0
  9
$UCSORGBACK
 10
0.0
 20
0.0
 30
0.0
  9
$PUCSBASE
  2

  9
$PUCSNAME
  2

  9
$PUCSORG
 10
0.0
 20
0.0
 30
0.0
  9
$PUCSXDIR
 10
1.0
 20
0.0
 30
0.0
  9
$PUCSYDIR
 10
0.0
 20
1.0
 30
0.0
  9
$PUCSORTHOREF
  2

  9
$PUCSORTHOVIEW
 70
     0
  9
$PUCSORGTOP
 10
0.0
 20
0.0
 30
0.0
  9
$PUCSORGBOTTOM
 10
0.0
 20
0.0
 30
0.0
  9
$PUCSORGLEFT
 10
0.0
 20
0.0
 30
0.0
  9
$PUCSORGRIGHT
 10
0.0
 20
0.0
 30
0.0
  9
$PUCSORGFRONT
 10
0.0
 20
0.0
 30
0.0
  9
$PUCSORGBACK
 10
0.0
 20
0.0
 30
0.0
  9
$USERI1
 70
     0
  9
$USERI2
 70
     0
  9
$USERI3
 70
     0
  9
$USERI4
 70
     0
  9
$USERI5
 70
     0
  9
$USERR1
 40
0.0
  9
$USERR2
 40
0.0
  9
$USERR3
 40
0.0
  9
$USERR4
 40
0.0
  9
$USERR5
 40
0.0
  9
$WORLDVIEW
 70
     1
  9
$SHADEDGE
 70
     3
  9
$SHADEDIF
 70
    70
  9
$TILEMODE
 70
     1
  9
$MAXACTVP
 70
    64
  9
$PINSBASE
 10
0.0
 20
0.0
 30
0.0
  9
$PLIMCHECK
 70
     0
  9
$PEXTMIN
 10
1.000000000000000E+20
 20
1.000000000000000E+20
 30
1.000000000000000E+20
  9
$PEXTMAX
 10
-1.000000000000000E+20
 20
-1.000000000000000E+20
 30
-1.000000000000000E+20
  9
$PLIMMIN
 10
0.0
 20
0.0
  9
$PLIMMAX
 10
12.0
 20
9.0
  9
$UNITMODE
 70
     0
  9
$VISRETAIN
 70
     1
  9
$PLINEGEN
 70
     0
  9
$PSLTSCALE
 70
     1
  9
$TREEDEPTH
 70
  3020
  9
$CMLSTYLE
  2
Standard
  9
$CMLJUST
 70
     0
  9
$CMLSCALE
 40
1.0
  9
$PROXYGRAPHICS
 70
     1
  9
$MEASUREMENT
 70
     0
  9
$CELWEIGHT
370
    -1
  9
$ENDCAPS
280
     0
  9
$JOINSTYLE
280
     0
  9
$LWDISPLAY
290
     1
  9
$INSUNITS
 70
     4
  9
$HYPERLINKBASE
  1

  9
$STYLESHEET
  1

  9
$XEDIT
290
     1
  9
$CEPSNTYPE
380
     0
  9
$PSTYLEMODE
290
     1
  9
$FINGERPRINTGUID
  2
{7D8CD30F-5255-E641-9173-1F2F5960BEBB}
  9
$VERSIONGUID
  2
{59796F59-ECF7-C44D-93A4-123F73603A5C}
  9
$EXTNAMES
290
     1
  9
$PSVPSCALE
 40
0.0
  9
$OLESTARTUP
290
     0
  9
$SORTENTS
280
   127
  9
$INDEXCTL
280
     0
  9
$HIDETEXT
280
     1
  9
$XCLIPFRAME
280
     2
  9
$HALOGAP
280
     0
  9
$OBSCOLOR
 70
   257
  9
$OBSLTYPE
280
     0
  9
$INTERSECTIONDISPLAY
280
     0
  9
$INTERSECTIONCOLOR
 70
   257
  9
$DIMASSOC
280
     2
  9
$PROJECTNAME
  1

  9
$CAMERADISPLAY
290
     0
  9
$LENSLENGTH
 40
50.0
  9
$CAMERAHEIGHT
 40
0.0
  9
$STEPSPERSEC
 40
2.0
  9
$STEPSIZE
 40
6.0
  9
$3DDWFPREC
 40
2.0
  9
$PSOLWIDTH
 40
0.25
  9
$PSOLHEIGHT
 40
4.0
  9
$LOFTANG1
 40
1.570796326794896
  9
$LOFTANG2
 40
1.570796326794896
  9
$LOFTMAG1
 40
0.0
  9
$LOFTMAG2
 40
0.0
  9
$LOFTPARAM
 70
     7
  9
$LOFTNORMALS
280
     1
  9
$LATITUDE
 40
37.795
  9
$LONGITUDE
 40
-122.394
  9
$NORTHDIRECTION
 40
0.0
  9
$TIMEZONE
 70
 -8000
  9
$LIGHTGLYPHDISPLAY
280
     1
  9
$TILEMODELIGHTSYNCH
280
     1
  9
$CMATERIAL
347
11
  9
$SOLIDHIST
280
     0
  9
$SHOWHIST
280
     1
  9
$DWFFRAME
280
     2
  9
$DGNFRAME
280
     0
  9
$REALWORLDSCALE
290
     1
  9
$INTERFERECOLOR
 62
     1
  9
$INTERFEREOBJVS
345
33
  9
$INTERFEREVPVS
346
30
  9
$CSHADOW
280
     0
  9
$SHADOWPLANELOCATION
 40
0.0
  0
ENDSEC
  0
SECTION
  2
CLASSES
  0
CLASS
  1
ACDBDICTIONARYWDFLT
  2
AcDbDictionaryWithDefault
  3
ObjectDBX Classes
 90
        0
 91
        1
280
     0
281
     0
  0
CLASS
  1
MATERIAL
  2
AcDbMaterial
  3
ObjectDBX Classes
 90
     1153
 91
        3
280
     0
281
     0
  0
CLASS
  1
VISUALSTYLE
  2
AcDbVisualStyle
  3
ObjectDBX Classes
 90
     4095
 91
       24
280
     0
281
     0
  0
CLASS
  1
SCALE
  2
AcDbScale
  3
ObjectDBX Classes
 90
     1153
 91
       17
280
     0
281
     0
  0
CLASS
  1
TABLESTYLE
  2
AcDbTableStyle
  3
ObjectDBX Classes
 90
     4095
 91
        1
280
     0
281
     0
  0
CLASS
  1
MLEADERSTYLE
  2
AcDbMLeaderStyle
  3
ACDB_MLEADERSTYLE_CLASS
 90
     4095
 91
        1
280
     0
281
     0
  0
CLASS
  1
ACDBSECTIONVIEWSTYLE
  2
AcDbSectionViewStyle
  3
ObjectDBX Classes
 90
     1025
 91
        1
280
     0
281
     0
  0
CLASS
  1
ACDBDETAILVIEWSTYLE
  2
AcDbDetailViewStyle
  3
ObjectDBX Classes
 90
     1025
 91
        1
280
     0
281
     0
  0
CLASS
  1
DICTIONARYVAR
  2
AcDbDictionaryVar
  3
ObjectDBX Classes
 90
        0
 91
        5
280
     0
281
     0
  0
CLASS
  1
CELLSTYLEMAP
  2
AcDbCellStyleMap
  3
ObjectDBX Classes
 90
     1152
 91
        1
280
     0
281
     0
  0
ENDSEC
  0
SECTION
  2
TABLES
  0
TABLE
  2
VPORT
  5
8
330
0
100
AcDbSymbolTable
 70
     1
  0
VPORT
  5
57
330
8
100
AcDbSymbolTableRecord
100
AcDbViewportTableRecord
  2
*Active
 70
     0
 10
0.0
 20
0.0
 11
1.0
 21
1.0
 12
0.0
 22
0.0
 13
0.0
 23
0.0
 14
1.0
 24
1.0
 15
0.0
 25
0.0
 16
0.0
 26
0.0
 36
1.0
 17
49.99999998749986
 27
-49.99999998749986
 37
0.0
 40
101.9999999744997
 41
1.0
 42
50.0
 43
0.0
 44
0.0
 50
0.0
 51
0.0
 71
     0
 72
   100
 73
     1
 74
     1
 75
     0
 76
     0
 77
     0
 78
     0
281
     0
 65
     1
110
0.0
120
0.0
130
0.0
111
1.0
121
0.0
131
0.0
112
0.0
122
1.0
132
0.0
 79
     0
146
0.0
 60
     3
 61
     5
292
     1
282
     1
141
0.0
142
0.0
 63
   250
421
  3355443
  0
ENDTAB
  0
TABLE
  2
LTYPE
  5
5
330
0
100
AcDbSymbolTable
 70
     9
  0
LTYPE
  5
5B
330
5
100
AcDbSymbolTableRecord
100
AcDbLinetypeTableRecord
  2
ByBlock
 70
     0
  3

 72
    65
 73
     0
 40
0.0
  0
LTYPE
  5
5C
330
5
100
AcDbSymbolTableRecord
100
AcDbLinetypeTableRecord
  2
ByLayer
 70
     0
  3

 72
    65
 73
     0
 40
0.0
  0
LTYPE
  5
5D
330
5
100
AcDbSymbolTableRecord
100
AcDbLinetypeTableRecord
  2
Continuous
 70
     0
  3
Solid line
 72
    65
 73
     0
 40
0.0
  0
LTYPE
  5
C2
330
5
100
AcDbSymbolTableRecord
100
AcDbLinetypeTableRecord
  2
AI-Linetype-0
 70
     0
  3
Adobe Illustrator Linetype No. 0
 72
    65
 73
     2
 40
1.234722200886347
 49
0.9877777607090781
 74
     0
 49
-0.2469444401772695
 74
     0
  0
LTYPE
  5
C4
330
5
100
AcDbSymbolTableRecord
100
AcDbLinetypeTableRecord
  2
AI-Linetype-1
 70
     0
  3
Adobe Illustrator Linetype No. 1
 72
    65
 73
     2
 40
1.234722200886347
 49
0.9877777607090781
 74
     0
 49
-0.2469444401772695
 74
     0
  0
LTYPE
  5
C8
330
5
100
AcDbSymbolTableRecord
100
AcDbLinetypeTableRecord
  2
AI-Linetype-2
 70
     0
  3
Adobe Illustrator Linetype No. 2
 72
    65
 73
     2
 40
1.234722179859153
 49
0.7408332995046144
 74
     0
 49
-0.4938888803545391
 74
     0
  0
LTYPE
  5
CA
330
5
100
AcDbSymbolTableRecord
100
AcDbLinetypeTableRecord
  2
AI-Linetype-3
 70
     0
  3
Adobe Illustrator Linetype No. 3
 72
    65
 73
     2
 40
1.234722179859153
 49
0.7408332995046144
 74
     0
 49
-0.4938888803545391
 74
     0
  0
LTYPE
  5
256
330
5
100
AcDbSymbolTableRecord
100
AcDbLinetypeTableRecord
  2
AI-Linetype-4
 70
     0
  3
Adobe Illustrator Linetype No. 4
 72
    65
 73
     2
 40
0.4198055546095164
 49
0.2469444401772695
 74
     0
 49
-0.1728611144322469
 74
     0
  0
LTYPE
  5
258
330
5
100
AcDbSymbolTableRecord
100
AcDbLinetypeTableRecord
  2
AI-Linetype-5
 70
     0
  3
Adobe Illustrator Linetype No. 5
 72
    65
 73
     2
 40
0.4198055546095164
 49
0.2469444401772695
 74
     0
 49
-0.1728611144322469
 74
     0
  0
LTYPE
  5
25A
330
5
100
AcDbSymbolTableRecord
100
AcDbLinetypeTableRecord
  2
AI-Linetype-6
 70
     0
  3
Adobe Illustrator Linetype No. 6
 72
    65
 73
     2
 40
0.4198055546095164
 49
0.2469444401772695
 74
     0
 49
-0.1728611144322469
 74
     0
  0
LTYPE
  5
25C
330
5
100
AcDbSymbolTableRecord
100
AcDbLinetypeTableRecord
  2
AI-Linetype-7
 70
     0
  3
Adobe Illustrator Linetype No. 7
 72
    65
 73
     2
 40
0.4198055546095164
 49
0.2469444401772695
 74
     0
 49
-0.1728611144322469
 74
     0
  0
ENDTAB
  0
TABLE
  2
LAYER
  5
2
330
0
100
AcDbSymbolTable
 70
     2
  0
LAYER
  5
54
330
2
100
AcDbSymbolTableRecord
100
AcDbLayerTableRecord
  2
0
 70
     0
 62
     7
  6
Continuous
370
    -3
390
F
347
21
348
0
  0
LAYER
  5
78
330
2
100
AcDbSymbolTableRecord
100
AcDbLayerTableRecord
  2
Camada 1
 70
     0
 62
     7
  6
Continuous
370
     0
390
F
347
21
348
0
  0
ENDTAB
  0
TABLE
  2
STYLE
  5
3
330
0
100
AcDbSymbolTable
 70
     2
  0
STYLE
  5
55
330
3
100
AcDbSymbolTableRecord
100
AcDbTextStyleTableRecord
  2
Standard
 70
     0
 40
0.0
 41
1.0
 50
0.0
 71
     0
 42
0.2
  3
txt
  4

  0
STYLE
  5
5A
330
3
100
AcDbSymbolTableRecord
100
AcDbTextStyleTableRecord
  2
Annotative
 70
     0
 40
0.0
 41
1.0
 50
0.0
 71
     0
 42
0.2
  3
txt
  4

1001
AcadAnnotative
1000
AnnotativeData
1002
{
1070
     1
1070
     1
1002
}
  0
ENDTAB
  0
TABLE
  2
VIEW
  5
6
330
0
100
AcDbSymbolTable
 70
     0
  0
ENDTAB
  0
TABLE
  2
UCS
  5
7
330
0
100
AcDbSymbolTable
 70
     0
  0
ENDTAB
  0
TABLE
  2
APPID
  5
9
330
0
100
AcDbSymbolTable
 70
     2
  0
APPID
  5
56
330
9
100
AcDbSymbolTableRecord
100
AcDbRegAppTableRecord
  2
ACAD
 70
     0
  0
APPID
  5
5E
330
9
100
AcDbSymbolTableRecord
100
AcDbRegAppTableRecord
  2
AcadAnnotative
 70
     0
  0
ENDTAB
  0
TABLE
  2
DIMSTYLE
  5
A
330
0
100
AcDbSymbolTable
 70
     2
100
AcDbDimStyleTable
 71
     0
  0
DIMSTYLE
105
58
330
A
100
AcDbSymbolTableRecord
100
AcDbDimStyleTableRecord
  2
Standard
 70
     0
340
55
  0
DIMSTYLE
105
59
330
A
100
AcDbSymbolTableRecord
100
AcDbDimStyleTableRecord
  2
Annotative
 70
     0
340
55
1001
AcadAnnotative
1000
AnnotativeData
1002
{
1070
     1
1070
     1
1002
}
  0
ENDTAB
  0
TABLE
  2
BLOCK_RECORD
  5
1
330
0
100
AcDbSymbolTable
 70
     2
  0
BLOCK_RECORD
  5
70
330
1
100
AcDbSymbolTableRecord
100
AcDbBlockTableRecord
  2
*Model_Space
340
73
 70
     0
280
     1
281
     0
  0
BLOCK_RECORD
  5
6C
330
1
100
AcDbSymbolTableRecord
100
AcDbBlockTableRecord
  2
*Paper_Space
340
6F
 70
     0
280
     1
281
     0
  0
BLOCK_RECORD
  5
74
330
1
100
AcDbSymbolTableRecord
100
AcDbBlockTableRecord
  2
*Paper_Space0
340
77
 70
     0
280
     1
281
     0
  0
BLOCK_RECORD
  5
79
330
1
100
AcDbSymbolTableRecord
100
AcDbBlockTableRecord
  2
Block_0
340
0
102
{BLKREFS
331
7A
102
}
 70
     0
280
     1
281
     0
  0
ENDTAB
  0
ENDSEC
  0
SECTION
  2
BLOCKS
  0
BLOCK
  5
71
330
70
100
AcDbEntity
  8
0
100
AcDbBlockBegin
  2
*Model_Space
 70
     0
 10
0.0
 20
0.0
 30
0.0
  3
*Model_Space
  1

  0
ENDBLK
  5
72
330
70
100
AcDbEntity
  8
0
100
AcDbBlockEnd
  0
BLOCK
  5
6D
330
6C
100
AcDbEntity
 67
     1
  8
0
100
AcDbBlockBegin
  2
*Paper_Space
 70
     0
 10
0.0
 20
0.0
 30
0.0
  3
*Paper_Space
  1

  0
ENDBLK
  5
6E
330
6C
100
AcDbEntity
 67
     1
  8
0
100
AcDbBlockEnd
  0
BLOCK
  5
75
330
74
100
AcDbEntity
 67
     1
  8
0
100
AcDbBlockBegin
  2
*Paper_Space0
 70
     0
 10
0.0
 20
0.0
 30
0.0
  3
*Paper_Space0
  1

  0
ENDBLK
  5
76
330
74
100
AcDbEntity
 67
     1
  8
0
100
AcDbBlockEnd
  0
BLOCK
  5
7B
330
79
100
AcDbEntity
  8
0
100
AcDbBlockBegin
  2
Block_0
 70
     0
 10
0.0
 20
0.0
 30
0.0
  3
Block_0
  1

  0
SPLINE
  5
7D
330
79
100
AcDbEntity
  8
Camada 1
 62
    18
420
        0
370
    15
100
AcDbSpline
210
0.0
220
0.0
230
1.0
 70
     9
 71
     3
 72
    17
 73
    13
 74
     0
 42
0.0000000001
 43
0.0000000001
 40
0.0
 40
0.0
 40
0.0
 40
0.0
 40
1.0
 40
1.0
 40
1.0
 40
2.0
 40
2.0
 40
2.0
 40
3.0
 40
3.0
 40
3.0
 40
4.0
 40
4.0
 40
4.0
 40
4.0
 10
31.3047595653084
 20
-71.16488099588433
 30
0.0
 10
31.3047595653084
 20
-71.5413418477477
 30
0.0
 10
30.99969941134215
 20
-71.84594455116254
 30
0.0
 10
30.6236960100318
 20
-71.84594455116254
 30
0.0
 10
30.24746562943887
 20
-71.84594455116254
 30
0.0
 10
29.94240896745762
 20
-71.5413418477477
 30
0.0
 10
29.94240896745762
 20
-71.16488099588433
 30
0.0
 10
29.94240896745762
 20
-70.78842363600981
 30
0.0
 10
30.24746562943887
 20
-70.48382093259369
 30
0.0
 10
30.6236960100318
 20
-70.48382093259369
 30
0.0
 10
30.99969941134215
 20
-70.48382093259369
 30
0.0
 10
31.3047595653084
 20
-70.78842363600981
 30
0.0
 10
31.3047595653084
 20
-71.16488099588433
 30
0.0
  0
SPLINE
  5
7E
330
79
100
AcDbEntity
  8
Camada 1
 62
    18
420
        0
370
    15
100
AcDbSpline
210
0.0
220
0.0
230
1.0
 70
     9
 71
     3
 72
    17
 73
    13
 74
     0
 42
0.0000000001
 43
0.0000000001
 40
0.0
 40
0.0
 40
0.0
 40
0.0
 40
1.0
 40
1.0
 40
1.0
 40
2.0
 40
2.0
 40
2.0
 40
3.0
 40
3.0
 40
3.0
 40
4.0
 40
4.0
 40
4.0
 40
4.0
 10
31.3047595653084
 20
-71.16488099588433
 30
0.0
 10
31.3047595653084
 20
-71.5413418477477
 30
0.0
 10
30.99969941134215
 20
-71.84594455116254
 30
0.0
 10
30.6236960100318
 20
-71.84594455116254
 30
0.0
 10
30.24746562943887
 20
-71.84594455116254
 30
0.0
 10
29.94240896745762
 20
-71.5413418477477
 30
0.0
 10
29.94240896745762
 20
-71.16488099588433
 30
0.0
 10
29.94240896745762
 20
-70.78842363600981
 30
0.0
 10
30.24746562943887
 20
-70.48382093259369
 30
0.0
 10
30.6236960100318
 20
-70.48382093259369
 30
0.0
 10
30.99969941134215
 20
-70.48382093259369
 30
0.0
 10
31.3047595653084
 20
-70.78842363600981
 30
0.0
 10
31.3047595653084
 20
-71.16488099588433
 30
0.0
  0
SPLINE
  5
7F
330
79
100
AcDbEntity
  8
Camada 1
 62
    18
420
        0
370
    15
100
AcDbSpline
210
0.0
220
0.0
230
1.0
 70
     9
 71
     3
 72
    17
 73
    13
 74
     0
 42
0.0000000001
 43
0.0000000001
 40
0.0
 40
0.0
 40
0.0
 40
0.0
 40
1.0
 40
1.0
 40
1.0
 40
2.0
 40
2.0
 40
2.0
 40
3.0
 40
3.0
 40
3.0
 40
4.0
 40
4.0
 40
4.0
 40
4.0
 10
28.94317633172576
 20
-68.66736161676961
 30
0.0
 10
28.94317633172576
 20
-68.86783670192548
 30
0.0
 10
28.78046012299753
 20
-69.03077988993435
 30
0.0
 10
28.57998852983339
 20
-69.03077988993435
 30
0.0
 10
28.37928646539528
 20
-69.03077988993435
 30
0.0
 10
28.21680072793814
 20
-68.86783670192548
 30
0.0
 10
28.21680072793814
 20
-68.66736161676961
 30
0.0
 10
28.21680072793814
 20
-68.4668900236026
 30
0.0
 10
28.37928646539528
 20
-68.30394683559373
 30
0.0
 10
28.57998852983339
 20
-68.30394683559373
 30
0.0
 10
28.78046012299753
 20
-68.30394683559373
 30
0.0
 10
28.94317633172576
 20
-68.4668900236026
 30
0.0
 10
28.94317633172576
 20
-68.66736161676961
 30
0.0
  0
ELLIPSE
  5
80
330
79
100
AcDbEntity
  8
Camada 1
 62
    18
420
        0
370
    15
100
AcDbEllipse
 10
28.57998852983267
 20
-68.66736248976683
 30
0.0
 11
0.000690685536901
 21
0.3634167446628756
 31
0.0
210
0.0
220
0.0
230
1.0
 40
0.9993682197719273
 41
0.0
 42
6.283185307179586
  0
SPLINE
  5
81
330
79
100
AcDbEntity
  8
Camada 1
 62
    18
420
        0
370
    15
100
AcDbSpline
210
0.0
220
0.0
230
1.0
 70
     9
 71
     3
 72
    17
 73
    13
 74
     0
 42
0.0000000001
 43
0.0000000001
 40
0.0
 40
0.0
 40
0.0
 40
0.0
 40
1.0
 40
1.0
 40
1.0
 40
2.0
 40
2.0
 40
2.0
 40
3.0
 40
3.0
 40
3.0
 40
4.0
 40
4.0
 40
4.0
 40
4.0
 10
33.03008844571837
 20
-68.66736161676961
 30
0.0
 10
33.03008844571837
 20
-68.86783670192548
 30
0.0
 10
32.86737223699013
 20
-69.03077988993435
 30
0.0
 10
32.66667017255523
 20
-69.03077988993435
 30
0.0
 10
32.46619857938436
 20
-69.03077988993435
 30
0.0
 10
32.30371284193075
 20
-68.86783670192548
 30
0.0
 10
32.30371284193075
 20
-68.66736161676961
 30
0.0
 10
32.30371284193075
 20
-68.4668900236026
 30
0.0
 10
32.46619857938436
 20
-68.30394683559373
 30
0.0
 10
32.66667017255523
 20
-68.30394683559373
 30
0.0
 10
32.86737223699013
 20
-68.30394683559373
 30
0.0
 10
33.03008844571837
 20
-68.4668900236026
 30
0.0
 10
33.03008844571837
 20
-68.66736161676961
 30
0.0
  0
SPLINE
  5
82
330
79
100
AcDbEntity
  8
Camada 1
 62
    18
420
        0
370
    15
100
AcDbSpline
210
0.0
220
0.0
230
1.0
 70
     9
 71
     3
 72
    17
 73
    13
 74
     0
 42
0.0000000001
 43
0.0000000001
 40
0.0
 40
0.0
 40
0.0
 40
0.0
 40
1.0
 40
1.0
 40
1.0
 40
2.0
 40
2.0
 40
2.0
 40
3.0
 40
3.0
 40
3.0
 40
4.0
 40
4.0
 40
4.0
 40
4.0
 10
33.03008844571837
 20
-68.66736161676961
 30
0.0
 10
33.03008844571837
 20
-68.86783670192548
 30
0.0
 10
32.86737223699013
 20
-69.03077988993435
 30
0.0
 10
32.66667017255523
 20
-69.03077988993435
 30
0.0
 10
32.46619857938436
 20
-69.03077988993435
 30
0.0
 10
32.30371284193075
 20
-68.86783670192548
 30
0.0
 10
32.30371284193075
 20
-68.66736161676961
 30
0.0
 10
32.30371284193075
 20
-68.4668900236026
 30
0.0
 10
32.46619857938436
 20
-68.30394683559373
 30
0.0
 10
32.66667017255523
 20
-68.30394683559373
 30
0.0
 10
32.86737223699013
 20
-68.30394683559373
 30
0.0
 10
33.03008844571837
 20
-68.4668900236026
 30
0.0
 10
33.03008844571837
 20
-68.66736161676961
 30
0.0
  0
LINE
  5
83
330
79
100
AcDbEntity
  8
Camada 1
 62
    18
420
        0
370
    15
100
AcDbLine
 10
79.91019133296538
 20
-29.96958470585319
 30
0.0
 11
77.95191187024187
 21
-29.83249969595998
 31
0.0
  0
LINE
  5
84
330
79
100
AcDbEntity
  8
Camada 1
 62
    18
420
        0
370
    15
100
AcDbLine
 10
72.26235841533001
 20
-35.15919359593834
 30
0.0
 11
72.29073431747186
 21
-35.15896312466789
 31
0.0
  0
LINE
  5
85
330
79
100
AcDbEntity
  8
Camada 1
 62
    18
420
        0
370
    15
100
AcDbLine
 10
72.26235841533001
 20
-36.51980169130568
 30
0.0
 11
72.29073431747186
 21
-36.52002867058696
 31
0.0
  0
LINE
  5
86
330
79
100
AcDbEntity
  8
Camada 1
 62
    18
420
        0
370
    15
100
AcDbLine
 10
77.95198171002141
 20
-41.84633146780363
 30
0.0
 11
79.91025418876529
 21
-41.70924645791043
 31
0.0
  0
LINE
  5
87
330
79
100
AcDbEntity
  8
Camada 1
 62
    18
420
        0
370
    15
100
AcDbLine
 10
79.91019133296538
 20
-41.7094105813905
 30
0.0
 11
79.91019133296538
 21
-29.96958121386434
 31
0.0
  0
LINE
  5
88
330
79
100
AcDbEntity
  8
Camada 1
 62
    18
420
        0
370
    15
100
AcDbLine
 10
80.09183062977077
 20
-41.80044673310663
 30
0.0
 11
80.09183062977077
 21
-29.87845427043588
 31
0.0
  0
SPLINE
  5
89
330
79
100
AcDbEntity
  8
Camada 1
 62
    18
420
        0
370
    15
100
AcDbSpline
210
0.0
220
0.0
230
1.0
 70
     8
 71
     3
 72
     8
 73
     4
 74
     0
 42
0.0000000001
 43
0.0000000001
 40
0.0
 40
0.0
 40
0.0
 40
0.0
 40
1.0
 40
1.0
 40
1.0
 40
1.0
 10
72.26528470206372
 20
-35.76317498731267
 30
0.0
 10
72.26505423079648
 20
-35.58672827806556
 30
0.0
 10
72.26436281698385
 20
-35.41051553207775
 30
0.0
 10
72.26299395731593
 20
-35.23406882283096
 30
0.0
  0
SPLINE
  5
8A
330
79
100
AcDbEntity
  8
Camada 1
 62
    18
420
        0
370
    15
100
AcDbSpline
210
0.0
220
0.0
230
1.0
 70
     8
 71
     3
 72
     8
 73
     4
 74
     0
 42
0.0000000001
 43
0.0000000001
 40
0.0
 40
0.0
 40
0.0
 40
0.0
 40
1.0
 40
1.0
 40
1.0
 40
1.0
 10
72.26300094129682
 20
-36.44496836827989
 30
0.0
 10
72.26436980096091
 20
-36.2685216590331
 30
0.0
 10
72.26528470206372
 20
-36.09230891304561
 30
0.0
 10
72.26528470206372
 20
-35.91586220379881
 30
0.0
  0
SPLINE
  5
8B
330
79
100
AcDbEntity
  8
Camada 1
 62
    18
420
        0
370
    15
100
AcDbSpline
210
0.0
220
0.0
230
1.0
 70
     8
 71
     3
 72
     8
 73
     4
 74
     0
 42
0.0000000001
 43
0.0000000001
 40
0.0
 40
0.0
 40
0.0
 40
0.0
 40
1.0
 40
1.0
 40
1.0
 40
1.0
 10
72.29089494896276
 20
-36.51980169130568
 30
0.0
 10
72.29294823846242
 20
-36.2930074854939
 30
0.0
 10
72.29386313956585
 20
-36.06621677167129
 30
0.0
 10
72.29386313956585
 20
-35.83942605784868
 30
0.0
  0
SPLINE
  5
8C
330
79
100
AcDbEntity
  8
Camada 1
 62
    18
420
        0
370
    15
100
AcDbSpline
210
0.0
220
0.0
230
1.0
 70
     8
 71
     3
 72
     8
 73
     4
 74
     0
 42
0.0000000001
 43
0.0000000001
 40
0.0
 40
0.0
 40
0.0
 40
0.0
 40
1.0
 40
1.0
 40
1.0
 40
1.0
 10
72.29387012354227
 20
-35.83949938961643
 30
0.0
 10
72.29387012354227
 20
-35.61270518380465
 30
0.0
 10
72.29294823846242
 20
-35.38591446998204
 30
0.0
 10
72.29089494896276
 20
-35.15912375615911
 30
0.0
  0
SPLINE
  5
8D
330
79
100
AcDbEntity
  8
Camada 1
 62
    18
420
        0
370
    15
100
AcDbSpline
210
0.0
220
0.0
230
1.0
 70
     8
 71
     3
 72
     8
 73
     4
 74
     0
 42
0.0000000001
 43
0.0000000001
 40
0.0
 40
0.0
 40
0.0
 40
0.0
 40
1.0
 40
1.0
 40
1.0
 40
1.0
 10
72.28917689040544
 20
-36.6058757267356
 30
0.0
 10
72.28986132023781
 20
-36.57703888205253
 30
0.0
 10
72.29054575006952
 20
-36.54820203737043
 30
0.0
 10
72.29077622133741
 20
-36.51959566395782
 30
0.0
  0
SPLINE
  5
8E
330
79
100
AcDbEntity
  8
Camada 1
 62
    18
420
        0
370
    15
100
AcDbSpline
210
0.0
220
0.0
230
1.0
 70
     8
 71
     3
 72
     8
 73
     4
 74
     0
 42
0.0000000001
 43
0.0000000001
 40
0.0
 40
0.0
 40
0.0
 40
0.0
 40
1.0
 40
1.0
 40
1.0
 40
1.0
 10
72.29089494896276
 20
-35.15919359593834
 30
0.0
 10
72.29066447769551
 20
-35.12349150099567
 30
0.0
 10
72.28974957658886
 20
-35.08756242677237
 30
0.0
 10
72.28860420421881
 20
-35.05186033183036
 30
0.0
  0
SPLINE
  5
8F
330
79
100
AcDbEntity
  8
Camada 1
 62
    18
420
        0
370
    15
100
AcDbSpline
210
0.0
220
0.0
230
1.0
 70
     8
 71
     3
 72
     8
 73
     4
 74
     0
 42
0.0000000001
 43
0.0000000001
 40
0.0
 40
0.0
 40
0.0
 40
0.0
 40
1.0
 40
1.0
 40
1.0
 40
1.0
 10
72.28853436444246
 20
-36.63038250512982
 30
0.0
 10
72.2899032241027
 20
-36.59353503781421
 30
0.0
 10
72.29058765393507
 20
-36.55669106248811
 30
0.0
 10
72.29081812520937
 20
-36.519847087162
 30
0.0
  0
SPLINE
  5
90
330
79
100
AcDbEntity
  8
Camada 1
 62
    18
420
        0
370
    15
100
AcDbSpline
210
0.0
220
0.0
230
1.0
 70
     8
 71
     3
 72
     8
 73
     4
 74
     0
 42
0.0000000001
 43
0.0000000001
 40
0.0
 40
0.0
 40
0.0
 40
0.0
 40
1.0
 40
1.0
 40
1.0
 40
1.0
 10
72.29078320531766
 20
-35.15919359593834
 30
0.0
 10
72.29055273404658
 20
-35.13035675125559
 30
0.0
 10
72.28986132023781
 20
-35.10175037784362
 30
0.0
 10
72.28917689040544
 20
-35.07291353316087
 30
0.0
  0
SPLINE
  5
91
330
79
100
AcDbEntity
  8
Camada 1
 62
    18
420
        0
370
    15
100
AcDbSpline
210
0.0
220
0.0
230
1.0
 70
     8
 71
     3
 72
     8
 73
     4
 74
     0
 42
0.0000000001
 43
0.0000000001
 40
0.0
 40
0.0
 40
0.0
 40
0.0
 40
1.0
 40
1.0
 40
1.0
 40
1.0
 10
72.28879277162436
 20
-36.61905449300223
 30
0.0
 10
72.28901625891133
 20
-36.6147034747806
 30
0.0
 10
72.28901625891133
 20
-36.61012896926687
 30
0.0
 10
72.28901625891133
 20
-36.60600842231506
 30
0.0
  0
SPLINE
  5
92
330
79
100
AcDbEntity
  8
Camada 1
 62
    18
420
        0
370
    15
100
AcDbSpline
210
0.0
220
0.0
230
1.0
 70
     8
 71
     3
 72
     8
 73
     4
 74
     0
 42
0.0000000001
 43
0.0000000001
 40
0.0
 40
0.0
 40
0.0
 40
0.0
 40
1.0
 40
1.0
 40
1.0
 40
1.0
 10
72.28917689040544
 20
-35.07293797708346
 30
0.0
 10
72.28894641913498
 20
-35.06835997958088
 30
0.0
 10
72.28894641913498
 20
-35.06401245334779
 30
0.0
 10
72.2887159478639
 20
-35.05943445584522
 30
0.0
  0
SPLINE
  5
93
330
79
100
AcDbEntity
  8
Camada 1
 62
    18
420
        0
370
    15
100
AcDbSpline
210
0.0
220
0.0
230
1.0
 70
     8
 71
     3
 72
     8
 73
     4
 74
     0
 42
0.0000000001
 43
0.0000000001
 40
0.0
 40
0.0
 40
0.0
 40
0.0
 40
1.0
 40
1.0
 40
1.0
 40
1.0
 10
72.28865309206462
 20
-35.05190572768635
 30
0.0
 10
72.28819214952244
 20
-35.03519656059911
 30
0.0
 10
72.28727724841964
 20
-35.01849088550104
 30
0.0
 10
72.28659281858728
 20
-35.00178521040296
 30
0.0
  0
SPLINE
  5
94
330
79
100
AcDbEntity
  8
Camada 1
 62
    18
420
        0
370
    15
100
AcDbSpline
210
0.0
220
0.0
230
1.0
 70
     8
 71
     3
 72
     8
 73
     4
 74
     0
 42
0.0000000001
 43
0.0000000001
 40
0.0
 40
0.0
 40
0.0
 40
0.0
 40
1.0
 40
1.0
 40
1.0
 40
1.0
 10
72.28648107493897
 20
-36.67990589230431
 30
0.0
 10
72.28716550477455
 20
-36.66342719648752
 30
0.0
 10
72.28784993460627
 20
-36.6469485006704
 30
0.0
 10
72.28853436444246
 20
-36.63047329684213
 30
0.0
  0
SPLINE
  5
95
330
79
100
AcDbEntity
  8
Camada 1
 62
    18
420
        0
370
    15
100
AcDbSpline
210
0.0
220
0.0
230
1.0
 70
     8
 71
     3
 72
     8
 73
     4
 74
     0
 42
0.0000000001
 43
0.0000000001
 40
0.0
 40
0.0
 40
0.0
 40
0.0
 40
1.0
 40
1.0
 40
1.0
 40
1.0
 10
75.17798759841901
 20
-29.09038569800951
 30
0.0
 10
76.04647318418919
 20
-29.51330047876702
 30
0.0
 10
76.98842323331821
 20
-29.76526494087196
 30
0.0
 10
77.95188393433043
 20
-29.83277556308643
 30
0.0
  0
SPLINE
  5
96
330
79
100
AcDbEntity
  8
Camada 1
 62
    18
420
        0
370
    15
100
AcDbSpline
210
0.0
220
0.0
230
1.0
 70
     8
 71
     3
 72
     8
 73
     4
 74
     0
 42
0.0000000001
 43
0.0000000001
 40
0.0
 40
0.0
 40
0.0
 40
0.0
 40
1.0
 40
1.0
 40
1.0
 40
1.0
 10
80.09183062977077
 20
-29.87854855413705
 30
0.0
 10
80.09183062977077
 20
-29.78311598834297
 30
0.0
 10
80.01790522386976
 20
-29.70416211836601
 30
0.0
 10
79.9227066213369
 20
-29.69729686810609
 30
0.0
  0
SPLINE
  5
97
330
79
100
AcDbEntity
  8
Camada 1
 62
    18
420
        0
370
    15
100
AcDbSpline
210
0.0
220
0.0
230
1.0
 70
     8
 71
     3
 72
     8
 73
     4
 74
     0
 42
0.0000000001
 43
0.0000000001
 40
0.0
 40
0.0
 40
0.0
 40
0.0
 40
1.0
 40
1.0
 40
1.0
 40
1.0
 10
79.92286725282396
 20
-41.98165302328161
 30
0.0
 10
80.01806585536066
 20
-41.97501475230328
 30
0.0
 10
80.09175380601353
 20
-41.89583390304409
 30
0.0
 10
80.09175380601353
 20
-41.80040133725031
 30
0.0
  0
SPLINE
  5
98
330
79
100
AcDbEntity
  8
Camada 1
 62
    18
420
        0
370
    15
100
AcDbSpline
210
0.0
220
0.0
230
1.0
 70
     8
 71
     3
 72
     8
 73
     4
 74
     0
 42
0.0000000001
 43
0.0000000001
 40
0.0
 40
0.0
 40
0.0
 40
0.0
 40
1.0
 40
1.0
 40
1.0
 40
1.0
 10
77.95198171002141
 20
-41.84633146780363
 30
0.0
 10
76.98828355376169
 20
-41.9138420900181
 30
0.0
 10
76.04656397590312
 20
-42.16580655212305
 30
0.0
 10
75.17807839013357
 20
-42.58872133288055
 30
0.0
  0
SPLINE
  5
99
330
79
100
AcDbEntity
  8
Camada 1
 62
    18
420
        0
370
    15
100
AcDbSpline
210
0.0
220
0.0
230
1.0
 70
     8
 71
     3
 72
    11
 73
     7
 74
     0
 42
0.0000000001
 43
0.0000000001
 40
0.0
 40
0.0
 40
0.0
 40
0.0
 40
1.0
 40
1.0
 40
1.0
 40
2.0
 40
2.0
 40
2.0
 40
2.0
 10
72.28879277162436
 20
-36.61905449300223
 30
0.0
 10
72.28833182907897
 20
-36.63552969683049
 30
0.0
 10
72.28741692798
 20
-36.65223537192856
 30
0.0
 10
72.28695598543783
 20
-36.66871406774536
 30
0.0
 10
72.28558712577374
 20
-36.70052259501717
 30
0.0
 10
72.28444175339984
 20
-36.73210414300834
 30
0.0
 10
72.27940630534684
 20
-36.76345871171791
 30
0.0
  0
SPLINE
  5
9A
330
79
100
AcDbEntity
  8
Camada 1
 62
    18
420
        0
370
    15
100
AcDbSpline
210
0.0
220
0.0
230
1.0
 70
     8
 71
     3
 72
    11
 73
     7
 74
     0
 42
0.0000000001
 43
0.0000000001
 40
0.0
 40
0.0
 40
0.0
 40
0.0
 40
1.0
 40
1.0
 40
1.0
 40
2.0
 40
2.0
 40
2.0
 40
2.0
 10
72.27951804898872
 20
-34.91558197138243
 30
0.0
 10
72.27608193187087
 20
-34.90253590069527
 30
0.0
 10
72.28065643738556
 20
-34.93297207631318
 30
0.0
 10
72.28363161196508
 20
-34.95585857183849
 30
0.0
 10
72.2909578047659
 20
-35.01467414158774
 30
0.0
 10
72.28775215891528
 20
-35.0249720169773
 30
0.0
 10
72.28889753128918
 20
-35.05952873954671
 30
0.0
  0
LINE
  5
9B
330
79
100
AcDbEntity
  8
Camada 1
 62
    18
420
        0
370
    15
100
AcDbLine
 10
72.26531263797515
 20
-35.83949938961643
 30
0.0
 11
72.26531263797515
 21
-35.76329022294757
 31
0.0
  0
LINE
  5
9C
330
79
100
AcDbEntity
  8
Camada 1
 62
    18
420
        0
370
    15
100
AcDbLine
 10
72.26300094129682
 20
-35.23405136288639
 30
0.0
 11
72.2623095274842
 21
-35.15921454787175
 31
0.0
  0
SPLINE
  5
9D
330
79
100
AcDbEntity
  8
Camada 1
 62
    18
420
        0
370
    15
100
AcDbSpline
210
0.0
220
0.0
230
1.0
 70
     8
 71
     3
 72
    38
 73
    34
 74
     0
 42
0.0000000001
 43
0.0000000001
 40
0.0
 40
0.0
 40
0.0
 40
0.0
 40
1.0
 40
1.0
 40
1.0
 40
2.0
 40
2.0
 40
2.0
 40
3.0
 40
3.0
 40
3.0
 40
4.0
 40
4.0
 40
4.0
 40
5.0
 40
5.0
 40
5.0
 40
6.0
 40
6.0
 40
6.0
 40
7.0
 40
7.0
 40
7.0
 40
8.0
 40
8.0
 40
8.0
 40
9.0
 40
9.0
 40
9.0
 40
10.0
 40
10.0
 40
10.0
 40
11.0
 40
11.0
 40
11.0
 40
11.0
 10
67.83118507951041
 20
-29.83623263213865
 30
0.0
 10
68.21816729405608
 20
-29.83623263213865
 30
0.0
 10
68.6051564925756
 20
-29.84217948930691
 30
0.0
 10
68.99191521983174
 20
-29.85980355749664
 30
0.0
 10
69.3788974343774
 20
-29.87742413369785
 30
0.0
 10
69.76565616162969
 20
-29.90648795766187
 30
0.0
 10
70.14737944082897
 20
-29.97056595474638
 30
0.0
 10
70.33824457241327
 20
-30.00260495328831
 30
0.0
 10
70.52773386036029
 20
-30.04311202501451
 30
0.0
 10
70.71310260135327
 20
-30.10078222239082
 30
0.0
 10
70.89801039980854
 20
-30.15822544048554
 30
0.0
 10
71.07903510655791
 20
-30.23237084168948
 30
0.0
 10
71.24312366693875
 20
-30.33581403011642
 30
0.0
 10
71.40698175604851
 20
-30.43879627600278
 30
0.0
 10
71.55435765735487
 20
-30.57038489530175
 30
0.0
 10
71.67244275541591
 20
-30.72348765847183
 30
0.0
 10
71.79098879601531
 20
-30.87658692965274
 30
0.0
 10
71.8802440333726
 20
-31.05120034470506
 30
0.0
 10
71.95050285088467
 20
-31.23176410891449
 30
0.0
 10
72.02121562695801
 20
-31.41278532367533
 30
0.0
 10
72.07224755335376
 20
-31.59975688759327
 30
0.0
 10
72.11343905491457
 20
-31.78901570426793
 30
0.0
 10
72.1548610277426
 20
-31.97827452094258
 30
0.0
 10
72.18598861717058
 20
-32.16936663181202
 30
0.0
 10
72.21138934473676
 20
-32.36114317251414
 30
0.0
 10
72.2624212711293
 20
-32.74492672518787
 30
0.0
 10
72.29080415725204
 20
-33.13122800188939
 30
0.0
 10
72.31070849422367
 20
-33.51798672914199
 30
0.0
 10
72.33085028643895
 20
-33.90451498512415
 30
0.0
 10
72.34229004221292
 20
-34.29150069165836
 30
0.0
 10
72.34915529247155
 20
-34.67848989018108
 30
0.0
 10
72.35625101400128
 20
-35.06524861743305
 30
0.0
 10
72.35854175874907
 20
-35.45246479523771
 30
0.0
 10
72.35854175874907
 20
-35.83945050177126
 30
0.0
  0
SPLINE
  5
9E
330
79
100
AcDbEntity
  8
Camada 1
 62
    18
420
        0
370
    15
100
AcDbSpline
210
0.0
220
0.0
230
1.0
 70
     8
 71
     3
 72
    38
 73
    34
 74
     0
 42
0.0000000001
 43
0.0000000001
 40
0.0
 40
0.0
 40
0.0
 40
0.0
 40
1.0
 40
1.0
 40
1.0
 40
2.0
 40
2.0
 40
2.0
 40
3.0
 40
3.0
 40
3.0
 40
4.0
 40
4.0
 40
4.0
 40
5.0
 40
5.0
 40
5.0
 40
6.0
 40
6.0
 40
6.0
 40
7.0
 40
7.0
 40
7.0
 40
8.0
 40
8.0
 40
8.0
 40
9.0
 40
9.0
 40
9.0
 40
10.0
 40
10.0
 40
10.0
 40
11.0
 40
11.0
 40
11.0
 40
11.0
 10
67.83118507951041
 20
-43.62727376410044
 30
0.0
 10
67.11282009835564
 20
-43.62727376410044
 30
0.0
 10
66.39445511720087
 20
-43.61880569091619
 30
0.0
 10
65.6763206073095
 20
-43.59752201831522
 30
0.0
 10
64.95818609742584
 20
-43.57623834571393
 30
0.0
 10
64.2402820588094
 20
-43.54213907369561
 30
0.0
 10
63.52420782239859
 20
-43.48652914979568
 30
0.0
 10
62.80813358599162
 20
-43.43137667644715
 30
0.0
 10
62.09365868051597
 20
-43.35471005922689
 30
0.0
 10
61.38353479326099
 20
-43.24028456557804
 30
0.0
 10
60.67386486457112
 20
-43.12585907192821
 30
0.0
 10
59.96854595410255
 20
-42.97344423057968
 30
0.0
 10
59.28794334136395
 20
-42.74390881344896
 30
0.0
 10
58.94741854770255
 20
-42.6290223772592
 30
0.0
 10
58.6128371192199
 20
-42.4949160339334
 30
0.0
 10
58.29175571998473
 20
-42.33289123901651
 30
0.0
 10
57.97091177600091
 20
-42.17086295211109
 30
0.0
 10
57.66333040601963
 20
-41.98091970560375
 30
0.0
 10
57.38161769011927
 20
-41.75733114564065
 30
0.0
 10
57.10012846150652
 20
-41.53374258567787
 30
0.0
 10
56.84450090300469
 20
-41.27628522496691
 30
0.0
 10
56.62572081181237
 20
-40.99113639194709
 30
0.0
 10
56.40671024935281
 20
-40.70598755892663
 30
0.0
 10
56.2245471542066
 20
-40.39292027431542
 30
0.0
 10
56.07624936782038
 20
-40.06543456736315
 30
0.0
 10
55.92772809414398
 20
-39.7377218811296
 30
0.0
 10
55.81307212922371
 20
-39.39558728056551
 30
0.0
 10
55.72290199076681
 20
-39.04773629410457
 30
0.0
 10
55.63296930755485
 20
-38.69965134438401
 30
0.0
 10
55.56728499555747
 20
-38.34585000876532
 30
0.0
 10
55.5183133426378
 20
-37.98975792840044
 30
0.0
 10
55.42059352408669
 20
-37.27780074695291
 30
0.0
 10
55.38901197609359
 20
-36.55760596359092
 30
0.0
 10
55.38901197609359
 20
-35.83947494569385
 30
0.0
  0
SPLINE
  5
9F
330
79
100
AcDbEntity
  8
Camada 1
 62
    18
420
        0
370
    15
100
AcDbSpline
210
0.0
220
0.0
230
1.0
 70
     8
 71
     3
 72
    14
 73
    10
 74
     0
 42
0.0000000001
 43
0.0000000001
 40
0.0
 40
0.0
 40
0.0
 40
0.0
 40
1.0
 40
1.0
 40
1.0
 40
2.0
 40
2.0
 40
2.0
 40
3.0
 40
3.0
 40
3.0
 40
3.0
 10
75.17798759841901
 20
-42.58860958923418
 30
0.0
 10
74.61889921688225
 20
-42.86071235156748
 30
0.0
 10
74.01725047412063
 20
-43.04379383980438
 30
0.0
 10
73.40850600982927
 20
-43.17949951406536
 30
0.0
 10
72.79907711570618
 20
-43.31498170103423
 30
0.0
 10
72.18255250005272
 20
-43.40308807402814
 30
0.0
 10
71.56305270981976
 20
-43.46716607111265
 30
0.0
 10
70.32474454316645
 20
-43.59509508600071
 30
0.0
 10
69.076358496423
 20
-43.62736106382391
 30
0.0
 10
67.83117809553335
 20
-43.62736106382391
 30
0.0
  0
SPLINE
  5
A0
330
79
100
AcDbEntity
  8
Camada 1
 62
    18
420
        0
370
    15
100
AcDbSpline
210
0.0
220
0.0
230
1.0
 70
     8
 71
     3
 72
    41
 73
    37
 74
     0
 42
0.0000000001
 43
0.0000000001
 40
0.0
 40
0.0
 40
0.0
 40
0.0
 40
1.0
 40
1.0
 40
1.0
 40
2.0
 40
2.0
 40
2.0
 40
3.0
 40
3.0
 40
3.0
 40
4.0
 40
4.0
 40
4.0
 40
5.0
 40
5.0
 40
5.0
 40
6.0
 40
6.0
 40
6.0
 40
7.0
 40
7.0
 40
7.0
 40
8.0
 40
8.0
 40
8.0
 40
9.0
 40
9.0
 40
9.0
 40
10.0
 40
10.0
 40
10.0
 40
11.0
 40
11.0
 40
11.0
 40
12.0
 40
12.0
 40
12.0
 40
12.0
 10
57.17341134144007
 20
-35.83949938961643
 30
0.0
 10
57.17341134144007
 20
-35.23807762613671
 30
0.0
 10
57.19720575409401
 20
-34.63459558918093
 30
0.0
 10
57.27250001965909
 20
-34.03752484392251
 30
0.0
 10
57.3104928593502
 20
-33.73910296093394
 30
0.0
 10
57.36129431447486
 20
-33.4420534295999
 30
0.0
 10
57.43269850436083
 20
-33.14958189576812
 30
0.0
 10
57.50409571026652
 20
-32.85734083320646
 30
0.0
 10
57.59609565092905
 20
-32.5694472968779
 30
0.0
 10
57.7260814473056
 20
-32.29734104255576
 30
0.0
 10
57.85561328511768
 20
-32.02569573077418
 30
0.0
 10
58.02313097863932
 20
-31.76961072171742
 30
0.0
 10
58.23138621515727
 20
-31.55357533383642
 30
0.0
 10
58.43964145167844
 20
-31.33731296667317
 30
0.0
 10
58.6888577184861
 20
-31.16132719996663
 30
0.0
 10
58.95226542835323
 20
-31.01508968705648
 30
0.0
 10
59.21613408076252
 20
-30.86885566613549
 30
0.0
 10
59.49441766352146
 20
-30.75282734956198
 30
0.0
 10
59.77842112416577
 20
-30.65373517935634
 30
0.0
 10
60.06265505608374
 20
-30.55486998843262
 30
0.0
 10
60.35260886589157
 20
-30.47317141514723
 30
0.0
 10
60.64530737900014
 20
-30.4026856183542
 30
0.0
 10
60.93800589211642
 20
-30.3326572721129
 30
0.0
 10
61.23345609251495
 20
-30.27384170236397
 30
0.0
 10
61.53004468131034
 20
-30.22326722651803
 30
0.0
 10
61.82686374137297
 20
-30.17268925868323
 30
0.0
 10
62.1248281738095
 20
-30.1303523847511
 30
0.0
 10
62.42347703608158
 20
-30.09373538870562
 30
0.0
 10
63.02078174459513
 20
-30.02027441733468
 30
0.0
 10
63.62105464371563
 20
-29.96969994148842
 30
0.0
 10
64.22178848537446
 20
-29.93285247417314
 30
0.0
 10
64.82252232703264
 20
-29.89555104829531
 30
0.0
 10
65.42394059852384
 20
-29.87198012293731
 30
0.0
 10
66.02559632526189
 20
-29.85710425004486
 30
0.0
 10
66.62724506802352
 20
-29.8422283771524
 30
0.0
 10
67.22934776934643
 20
-29.83627802799497
 30
0.0
 10
67.83122698337916
 20
-29.83627802799497
 30
0.0
  0
SPLINE
  5
A1
330
79
100
AcDbEntity
  8
Camada 1
 62
    18
420
        0
370
    15
100
AcDbSpline
210
0.0
220
0.0
230
1.0
 70
     8
 71
     3
 72
    47
 73
    43
 74
     0
 42
0.0000000001
 43
0.0000000001
 40
0.0
 40
0.0
 40
0.0
 40
0.0
 40
1.0
 40
1.0
 40
1.0
 40
2.0
 40
2.0
 40
2.0
 40
3.0
 40
3.0
 40
3.0
 40
4.0
 40
4.0
 40
4.0
 40
5.0
 40
5.0
 40
5.0
 40
6.0
 40
6.0
 40
6.0
 40
7.0
 40
7.0
 40
7.0
 40
8.0
 40
8.0
 40
8.0
 40
9.0
 40
9.0
 40
9.0
 40
10.0
 40
10.0
 40
10.0
 40
11.0
 40
11.0
 40
11.0
 40
12.0
 40
12.0
 40
12.0
 40
13.0
 40
13.0
 40
13.0
 40
14.0
 40
14.0
 40
14.0
 40
14.0
 10
57.73620123126065
 20
-35.83949938961643
 30
0.0
 10
57.73620123126065
 20
-35.5570952599044
 30
0.0
 10
57.74237506770731
 20
-35.27469462218154
 30
0.0
 10
57.75633603949952
 20
-34.99252096373965
 30
0.0
 10
57.77029701128853
 20
-34.71034730529806
 30
0.0
 10
57.79203813443897
 20
-34.42840411812693
 30
0.0
 10
57.82613391447005
 20
-34.14806026189064
 30
0.0
 10
57.86000620720709
 20
-33.86794687692417
 30
0.0
 10
57.90600268554983
 20
-33.58897886433127
 30
0.0
 10
57.97191746881829
 20
-33.31389743543056
 30
0.0
 10
58.03759479683477
 20
-33.03904647780031
 30
0.0
 10
58.12295297453268
 20
-32.76785861656982
 30
0.0
 10
58.2463039919172
 20
-32.51383388098881
 30
0.0
 10
58.30809822823161
 20
-32.38682325919305
 30
0.0
 10
58.37927194684713
 20
-32.26416016362974
 30
0.0
 10
58.46325428090326
 20
-32.15041909981323
 30
0.0
 10
58.54702011164306
 20
-32.03690850726655
 30
0.0
 10
58.64359455781706
 20
-31.93255390972629
 30
0.0
 10
58.74931801502492
 20
-31.83895463812668
 30
0.0
 10
58.96032493883158
 20
-31.65221005349001
 30
0.0
 10
59.20794187470471
 20
-31.50872073587713
 30
0.0
 10
59.46447735033228
 20
-31.38994771599519
 30
0.0
 10
59.72171122375339
 20
-31.27071724556183
 30
0.0
 10
59.98786363692959
 20
-31.17643005214069
 30
0.0
 10
60.25813659705598
 20
-31.09564637995811
 30
0.0
 10
60.52864002845283
 20
-31.0146322365054
 30
0.0
 10
60.80302655155559
 20
-30.9468911430208
 30
0.0
 10
61.07924986083781
 20
-30.88853651581212
 30
0.0
 10
61.35570364139433
 20
-30.8301783966146
 30
0.0
 10
61.63375675288603
 20
-30.78143372297427
 30
0.0
 10
61.91295523674842
 20
-30.73932382832341
 30
0.0
 10
62.19215372061015
 20
-30.69698695439128
 30
0.0
 10
62.47226710557534
 20
-30.66128485944894
 30
0.0
 10
62.75307190435317
 20
-30.63039123327994
 30
0.0
 10
63.31421357538572
 20
-30.56837350967086
 30
0.0
 10
63.87764599116993
 20
-30.52512173463624
 30
0.0
 10
64.44153236551155
 20
-30.49354018664571
 30
0.0
 10
65.00541873985317
 20
-30.46150118810313
 30
0.0
 10
65.56999652800808
 20
-30.44113241660497
 30
0.0
 10
66.13457431616232
 20
-30.42831681718826
 30
0.0
 10
66.69914512033631
 20
-30.41527074650078
 30
0.0
 10
67.26395337976164
 20
-30.4100083191652
 30
0.0
 10
67.82875465520993
 20
-30.4100083191652
 30
0.0
  0
SPLINE
  5
A2
330
79
100
AcDbEntity
  8
Camada 1
 62
    18
420
        0
370
    15
100
AcDbSpline
210
0.0
220
0.0
230
1.0
 70
     8
 71
     3
 72
    44
 73
    40
 74
     0
 42
0.0000000001
 43
0.0000000001
 40
0.0
 40
0.0
 40
0.0
 40
0.0
 40
1.0
 40
1.0
 40
1.0
 40
2.0
 40
2.0
 40
2.0
 40
3.0
 40
3.0
 40
3.0
 40
4.0
 40
4.0
 40
4.0
 40
5.0
 40
5.0
 40
5.0
 40
6.0
 40
6.0
 40
6.0
 40
7.0
 40
7.0
 40
7.0
 40
8.0
 40
8.0
 40
8.0
 40
9.0
 40
9.0
 40
9.0
 40
10.0
 40
10.0
 40
10.0
 40
11.0
 40
11.0
 40
11.0
 40
12.0
 40
12.0
 40
12.0
 40
13.0
 40
13.0
 40
13.0
 40
13.0
 10
67.82887338283209
 20
-30.41002927109926
 30
0.0
 10
68.17832370022883
 20
-30.41002927109926
 30
0.0
 10
68.52801147287372
 20
-30.41460377661298
 30
0.0
 10
68.87746179026791
 20
-30.42902219895436
 30
0.0
 10
69.05207520532248
 20
-30.43634489976569
 30
0.0
 10
69.22646513308045
 20
-30.44618532460416
 30
0.0
 10
69.40084807686457
 20
-30.459915825124
 30
0.0
 10
69.57523102064548
 20
-30.47387679691332
 30
0.0
 10
69.74939047713943
 20
-30.49172784438465
 30
0.0
 10
69.9223975772792
 20
-30.51644414211558
 30
0.0
 10
70.09518119012494
 20
-30.54116043984683
 30
0.0
 10
70.26681943059678
 20
-30.57296896711864
 30
0.0
 10
70.43662786886621
 20
-30.61805403634773
 30
0.0
 10
70.60574489331917
 20
-30.66336608485842
 30
0.0
 10
70.77303909955062
 20
-30.72195118333754
 30
0.0
 10
70.92247527433369
 20
-30.81257528035828
 30
0.0
 10
70.99730859736045
 20
-30.85788732886897
 30
0.0
 10
71.06779788614038
 20
-30.9112100000122
 30
0.0
 10
71.12913117991647
 20
-30.97345819489076
 30
0.0
 10
71.19068796098658
 20
-31.03547591849985
 30
0.0
 10
71.2433262022984
 20
-31.10642265783281
 30
0.0
 10
71.28840777953448
 20
-31.1812559808586
 30
0.0
 10
71.37857791799523
 20
-31.33092262690954
 30
0.0
 10
71.43921979795869
 20
-31.49684098949633
 30
0.0
 10
71.48682259121748
 20
-31.66504660484078
 30
0.0
 10
71.53488632701398
 20
-31.8339401420058
 30
0.0
 10
71.57012747941511
 20
-32.00489046065835
 30
0.0
 10
71.59873385282804
 20
-32.17721662295365
 30
0.0
 10
71.62734022624163
 20
-32.34931231397882
 30
0.0
 10
71.64931182066315
 20
-32.52300733593948
 30
0.0
 10
71.66784729796686
 20
-32.696705849889
 30
0.0
 10
71.70423382274188
 20
-33.04432985706962
 30
0.0
 10
71.72597494589618
 20
-33.39332970789267
 30
0.0
 10
71.74130477735246
 20
-33.74255653799732
 30
0.0
 10
71.75686508007601
 20
-34.09178336810228
 30
0.0
 10
71.76602107507924
 20
-34.44123717748821
 30
0.0
 10
71.77174095296781
 20
-34.79069447886298
 30
0.0
 10
71.77746781483346
 20
-35.14037875951935
 30
0.0
 10
71.77952808830696
 20
-35.48983256890494
 30
0.0
 10
71.77952808830696
 20
-35.839516849561
 30
0.0
  0
SPLINE
  5
A3
330
79
100
AcDbEntity
  8
Camada 1
 62
    18
420
        0
370
    15
100
AcDbSpline
210
0.0
220
0.0
230
1.0
 70
     8
 71
     3
 72
    44
 73
    40
 74
     0
 42
0.0000000001
 43
0.0000000001
 40
0.0
 40
0.0
 40
0.0
 40
0.0
 40
1.0
 40
1.0
 40
1.0
 40
2.0
 40
2.0
 40
2.0
 40
3.0
 40
3.0
 40
3.0
 40
4.0
 40
4.0
 40
4.0
 40
5.0
 40
5.0
 40
5.0
 40
6.0
 40
6.0
 40
6.0
 40
7.0
 40
7.0
 40
7.0
 40
8.0
 40
8.0
 40
8.0
 40
9.0
 40
9.0
 40
9.0
 40
10.0
 40
10.0
 40
10.0
 40
11.0
 40
11.0
 40
11.0
 40
12.0
 40
12.0
 40
12.0
 40
13.0
 40
13.0
 40
13.0
 40
13.0
 10
71.77959792808715
 20
-35.83949938961643
 30
0.0
 10
71.77959792808715
 20
-36.18895319900268
 30
0.0
 10
71.77730718334256
 20
-36.53863747965841
 30
0.0
 10
71.77181079274801
 20
-36.88832176031445
 30
0.0
 10
71.76586044358832
 20
-37.23777556970038
 30
0.0
 10
71.75693491985298
 20
-37.58723287107579
 30
0.0
 10
71.74137461712881
 20
-37.93645970117979
 30
0.0
 10
71.72581431440528
 20
-38.28568653128476
 30
0.0
 10
71.70430366251821
 20
-38.63468289011896
 30
0.0
 10
71.66768666647596
 20
-38.98230689729958
 30
0.0
 10
71.64960514773354
 20
-39.15600541124974
 30
0.0
 10
71.62741006601796
 20
-39.32947694591733
 30
0.0
 10
71.59880369260823
 20
-39.50179961622378
 30
0.0
 10
71.5701973191953
 20
-39.6741257785194
 30
0.0
 10
71.53495616679032
 20
-39.84507609717164
 30
0.0
 10
71.48689243099767
 20
-40.01396963433697
 30
0.0
 10
71.43928963773887
 20
-40.18217524968078
 30
0.0
 10
71.37864775777541
 20
-40.34809012027872
 30
0.0
 10
71.28847761931466
 20
-40.49776025831915
 30
0.0
 10
71.2431655708075
 20
-40.57259358134494
 30
0.0
 10
71.19075780076356
 20
-40.64353682868905
 30
0.0
 10
71.12920101969665
 20
-40.70555804428667
 30
0.0
 10
71.06763725464948
 20
-40.76757576789511
 30
0.0
 10
70.99715494984339
 20
-40.82112541831993
 30
0.0
 10
70.92232162681984
 20
-40.86643746683029
 30
0.0
 10
70.77287846805972
 20
-40.95706505584052
 30
0.0
 10
70.6058147331032
 20
-41.015650154319
 30
0.0
 10
70.43646723737531
 20
-41.0609622028297
 30
0.0
 10
70.26711974164742
 20
-41.1060472720591
 30
0.0
 10
70.0950205586302
 20
-41.13785579933123
 30
0.0
 10
69.92223694578445
 20
-41.16257209706184
 30
0.0
 10
69.74922984564853
 20
-41.18728839479277
 30
0.0
 10
69.57530086042567
 20
-41.2051394422641
 30
0.0
 10
69.40091791664091
 20
-41.21909692206522
 30
0.0
 10
69.22653497286384
 20
-41.23282742258473
 30
0.0
 10
69.05214504510268
 20
-41.24267133941207
 30
0.0
 10
68.87753861402773
 20
-41.24976356895294
 30
0.0
 10
68.52808131265392
 20
-41.26440897057559
 30
0.0
 10
68.17839354000902
 20
-41.26898696807816
 30
0.0
 10
67.82894322261163
 20
-41.26898696807816
 30
0.0
  0
SPLINE
  5
A4
330
79
100
AcDbEntity
  8
Camada 1
 62
    18
420
        0
370
    15
100
AcDbSpline
210
0.0
220
0.0
230
1.0
 70
     8
 71
     3
 72
    47
 73
    43
 74
     0
 42
0.0000000001
 43
0.0000000001
 40
0.0
 40
0.0
 40
0.0
 40
0.0
 40
1.0
 40
1.0
 40
1.0
 40
2.0
 40
2.0
 40
2.0
 40
3.0
 40
3.0
 40
3.0
 40
4.0
 40
4.0
 40
4.0
 40
5.0
 40
5.0
 40
5.0
 40
6.0
 40
6.0
 40
6.0
 40
7.0
 40
7.0
 40
7.0
 40
8.0
 40
8.0
 40
8.0
 40
9.0
 40
9.0
 40
9.0
 40
10.0
 40
10.0
 40
10.0
 40
11.0
 40
11.0
 40
11.0
 40
12.0
 40
12.0
 40
12.0
 40
13.0
 40
13.0
 40
13.0
 40
14.0
 40
14.0
 40
14.0
 40
14.0
 10
67.82887338283209
 20
-41.26896601614475
 30
0.0
 10
67.26406512340995
 20
-41.26896601614475
 30
0.0
 10
66.69926384796166
 20
-41.26370009682033
 30
0.0
 10
66.13445558853633
 20
-41.2508844974033
 30
0.0
 10
65.56988478436299
 20
-41.2378419187053
 30
0.0
 10
65.00530699620809
 20
-41.21747314720682
 30
0.0
 10
64.44142062186646
 20
-41.18566112794616
 30
0.0
 10
63.87752726354393
 20
-41.1538526006734
 30
0.0
 10
63.31432531903466
 20
-41.11060082563942
 30
0.0
 10
62.75295317673101
 20
-41.04857961004149
 30
0.0
 10
62.47215536193025
 20
-41.01768598387216
 30
0.0
 10
62.19204197696186
 20
-40.98198388893015
 30
0.0
 10
61.91307396437377
 20
-40.93964701499801
 30
0.0
 10
61.63387548050818
 20
-40.89754061233601
 30
0.0
 10
61.35559189774603
 20
-40.84879244670683
 30
0.0
 10
61.07913811719272
 20
-40.79043781949783
 30
0.0
 10
60.80291480790664
 20
-40.73231017157043
 30
0.0
 10
60.52852130083068
 20
-40.6645690780868
 30
0.0
 10
60.25802485340705
 20
-40.58355493463312
 30
0.0
 10
59.98775189328449
 20
-40.50231381189914
 30
0.0
 10
59.7215924961274
 20
-40.40825708974844
 30
0.0
 10
59.46436560668719
 20
-40.28925359859637
 30
0.0
 10
59.20782314707871
 20
-40.17025010744397
 30
0.0
 10
58.96020621120622
 20
-40.02676078983109
 30
0.0
 10
58.74920627137919
 20
-39.8400196971836
 30
0.0
 10
58.6434758301949
 20
-39.74642042558399
 30
0.0
 10
58.54713185528815
 20
-39.64206233605456
 30
0.0
 10
58.46314253725496
 20
-39.52855174350819
 30
0.0
 10
58.37938369049222
 20
-39.41504115096215
 30
0.0
 10
58.30820997188055
 20
-39.29215107611724
 30
0.0
 10
58.2464227195432
 20
-39.16513696233231
 30
0.0
 10
58.12307170215803
 20
-38.91111222675161
 30
0.0
 10
58.03748305318968
 20
-38.63992436552112
 30
0.0
 10
57.9717987411923
 20
-38.36507340789022
 30
0.0
 10
57.90612141317197
 20
-38.08976499970857
 30
0.0
 10
57.86011795085219
 20
-37.81102745838611
 30
0.0
 10
57.82602217082111
 20
-37.53068360214951
 30
0.0
 10
57.79214987808792
 20
-37.25033974591386
 30
0.0
 10
57.7701852676428
 20
-36.9686270300119
 30
0.0
 10
57.75622429585443
 20
-36.68645337157
 30
0.0
 10
57.74226332405837
 20
-36.40450669241034
 30
0.0
 10
57.73631297490575
 20
-36.12187558341703
 30
0.0
 10
57.73631297490575
 20
-35.83947494569385
 30
0.0
  0
SPLINE
  5
A5
330
79
100
AcDbEntity
  8
Camada 1
 62
    18
420
        0
370
    15
100
AcDbSpline
210
0.0
220
0.0
230
1.0
 70
     8
 71
     3
 72
    14
 73
    10
 74
     0
 42
0.0000000001
 43
0.0000000001
 40
0.0
 40
0.0
 40
0.0
 40
0.0
 40
1.0
 40
1.0
 40
1.0
 40
2.0
 40
2.0
 40
2.0
 40
3.0
 40
3.0
 40
3.0
 40
3.0
 10
75.17798759841901
 20
-29.09038569800951
 30
0.0
 10
74.61889921688225
 20
-28.81827944368736
 30
0.0
 10
74.01725047412063
 20
-28.6351979554511
 30
0.0
 10
73.40850600982927
 20
-28.49949228118948
 30
0.0
 10
72.79907711570618
 20
-28.36401009422029
 30
0.0
 10
72.18255250005272
 20
-28.2759037212267
 30
0.0
 10
71.56305270981976
 20
-28.21182572414219
 30
0.0
 10
70.32474454316645
 20
-28.08389670925477
 30
0.0
 10
69.076358496423
 20
-28.05163073143124
 30
0.0
 10
67.83117809553335
 20
-28.05163073143124
 30
0.0
  0
SPLINE
  5
A6
330
79
100
AcDbEntity
  8
Camada 1
 62
    18
420
        0
370
    15
100
AcDbSpline
210
0.0
220
0.0
230
1.0
 70
     8
 71
     3
 72
    38
 73
    34
 74
     0
 42
0.0000000001
 43
0.0000000001
 40
0.0
 40
0.0
 40
0.0
 40
0.0
 40
1.0
 40
1.0
 40
1.0
 40
2.0
 40
2.0
 40
2.0
 40
3.0
 40
3.0
 40
3.0
 40
4.0
 40
4.0
 40
4.0
 40
5.0
 40
5.0
 40
5.0
 40
6.0
 40
6.0
 40
6.0
 40
7.0
 40
7.0
 40
7.0
 40
8.0
 40
8.0
 40
8.0
 40
9.0
 40
9.0
 40
9.0
 40
10.0
 40
10.0
 40
10.0
 40
11.0
 40
11.0
 40
11.0
 40
11.0
 10
55.38890023244849
 20
-35.83949938961643
 30
0.0
 10
55.38890023244849
 20
-35.12159185901147
 30
0.0
 10
55.42047479646133
 20
-34.40117009636852
 30
0.0
 10
55.51842508627967
 20
-33.6894433861908
 30
0.0
 10
55.56740372317962
 20
-33.33312083455612
 30
0.0
 10
55.63285057993271
 20
-32.97931949893742
 30
0.0
 10
55.72302071838896
 20
-32.63123454921686
 30
0.0
 10
55.81318387286881
 20
-32.28338356275496
 30
0.0
 10
55.92783983778907
 20
-31.94124896219183
 30
0.0
 10
56.07636809544638
 20
-31.61353627595796
 30
0.0
 10
56.2246588978549
 20
-31.28605056900569
 30
0.0
 10
56.40659850570772
 20
-30.97298328439479
 30
0.0
 10
56.62560906816728
 20
-30.68760398010421
 30
0.0
 10
56.84438915935576
 20
-30.40245514708407
 30
0.0
 10
57.10001671786463
 20
-30.14522825764355
 30
0.0
 10
57.38149896249391
 20
-29.92163969768077
 30
0.0
 10
57.66344913364178
 20
-29.69805113771768
 30
0.0
 10
57.97102351964601
 20
-29.50810789121034
 30
0.0
 10
58.29187444761009
 20
-29.3460796043046
 30
0.0
 10
58.612948862865
 20
-29.18405480938803
 30
0.0
 10
58.94729982007654
 20
-29.04971799479178
 30
0.0
 10
59.28783159771501
 20
-28.93483505059119
 30
0.0
 10
59.96866468172791
 20
-28.70552661274143
 30
0.0
 10
60.67375312092282
 20
-28.55311177139288
 30
0.0
 10
61.38364653690993
 20
-28.43868627774371
 30
0.0
 10
62.09354693686703
 20
-28.32426078409453
 30
0.0
 10
62.80801485836562
 20
-28.24759416687427
 30
0.0
 10
63.52408909477643
 20
-28.19244169352542
 30
0.0
 10
64.2403938024577
 20
-28.13705874890646
 30
0.0
 10
64.95829784107478
 20
-28.10273249760718
 30
0.0
 10
65.67643235095845
 20
-28.08144882500621
 30
0.0
 10
66.39456686084597
 20
-28.06016515240524
 30
0.0
 10
67.11270137072964
 20
-28.05170057120982
 30
0.0
 10
67.83106635188826
 20
-28.05170057120982
 30
0.0
  0
SPLINE
  5
A7
330
79
100
AcDbEntity
  8
Camada 1
 62
    18
420
        0
370
    15
100
AcDbSpline
210
0.0
220
0.0
230
1.0
 70
     8
 71
     3
 72
    41
 73
    37
 74
     0
 42
0.0000000001
 43
0.0000000001
 40
0.0
 40
0.0
 40
0.0
 40
0.0
 40
1.0
 40
1.0
 40
1.0
 40
2.0
 40
2.0
 40
2.0
 40
3.0
 40
3.0
 40
3.0
 40
4.0
 40
4.0
 40
4.0
 40
5.0
 40
5.0
 40
5.0
 40
6.0
 40
6.0
 40
6.0
 40
7.0
 40
7.0
 40
7.0
 40
8.0
 40
8.0
 40
8.0
 40
9.0
 40
9.0
 40
9.0
 40
10.0
 40
10.0
 40
10.0
 40
11.0
 40
11.0
 40
11.0
 40
12.0
 40
12.0
 40
12.0
 40
12.0
 10
67.83118507951041
 20
-41.84276265510503
 30
0.0
 10
67.22930586547768
 20
-41.84276265510503
 30
0.0
 10
66.6274266514488
 20
-41.83658183467779
 30
0.0
 10
66.02554743741672
 20
-41.82193643305548
 30
0.0
 10
65.42389869465508
 20
-41.80706056016302
 30
0.0
 10
64.82248042316453
 20
-41.78325916353458
 30
0.0
 10
64.22174658150571
 20
-41.74641518820815
 30
0.0
 10
63.62101273984688
 20
-41.70911027034114
 30
0.0
 10
63.02073285675318
 20
-41.65876626576564
 30
0.0
 10
62.42343513221284
 20
-41.58530529439503
 30
0.0
 10
62.1247792859669
 20
-41.54868829834923
 30
0.0
 10
61.82682183750421
 20
-41.50612095314698
 30
0.0
 10
61.52999579346453
 20
-41.45577345658199
 30
0.0
 10
61.23340720466915
 20
-41.40519898073669
 30
0.0
 10
60.9381874755417
 20
-41.34638341098743
 30
0.0
 10
60.64548896242928
 20
-41.27612459347536
 30
0.0
 10
60.352790449313
 20
-41.20586926795311
 30
0.0
 10
60.06260616824178
 20
-41.12416720267886
 30
0.0
 10
59.77837223632317
 20
-41.02507503247323
 30
0.0
 10
59.49436877567564
 20
-40.92621333353867
 30
0.0
 10
59.21608519291671
 20
-40.81018501696483
 30
0.0
 10
58.95222352448447
 20
-40.66372052477308
 30
0.0
 10
58.68881581461735
 20
-40.51771348313337
 30
0.0
 10
58.43959256383262
 20
-40.34149724515671
 30
0.0
 10
58.23133732731467
 20
-40.12523487799379
 30
0.0
 10
58.02308907477057
 20
-39.90942646939375
 30
0.0
 10
57.85556439727187
 20
-39.65334495232583
 30
0.0
 10
57.72603954343685
 20
-39.38192661982554
 30
0.0
 10
57.59605374706413
 20
-39.10959338622179
 30
0.0
 10
57.50428427766886
 20
-38.82169984989355
 30
0.0
 10
57.4326496165118
 20
-38.52945529534336
 30
0.0
 10
57.36125241060996
 20
-38.2367567822303
 30
0.0
 10
57.31044397150439
 20
-37.93993772216639
 30
0.0
 10
57.27268160308438
 20
-37.64128536790706
 30
0.0
 10
57.1971638502259
 20
-37.04421462264928
 30
0.0
 10
57.1733624535981
 20
-36.44096305696298
 30
0.0
 10
57.1733624535981
 20
-35.8395412934839
 30
0.0
  0
SPLINE
  5
A8
330
79
100
AcDbEntity
  8
Camada 1
 62
    18
420
        0
370
    15
100
AcDbSpline
210
0.0
220
0.0
230
1.0
 70
     8
 71
     3
 72
    38
 73
    34
 74
     0
 42
0.0000000001
 43
0.0000000001
 40
0.0
 40
0.0
 40
0.0
 40
0.0
 40
1.0
 40
1.0
 40
1.0
 40
2.0
 40
2.0
 40
2.0
 40
3.0
 40
3.0
 40
3.0
 40
4.0
 40
4.0
 40
4.0
 40
5.0
 40
5.0
 40
5.0
 40
6.0
 40
6.0
 40
6.0
 40
7.0
 40
7.0
 40
7.0
 40
8.0
 40
8.0
 40
8.0
 40
9.0
 40
9.0
 40
9.0
 40
10.0
 40
10.0
 40
10.0
 40
11.0
 40
11.0
 40
11.0
 40
11.0
 10
72.35863255045979
 20
-35.83949938961643
 30
0.0
 10
72.35863255045979
 20
-36.22648509615063
 30
0.0
 10
72.35634180571584
 20
-36.61347080268388
 30
0.0
 10
72.34924608418227
 20
-37.00068698048788
 30
0.0
 10
72.34238083392362
 20
-37.38744570774081
 30
0.0
 10
72.33071060687922
 20
-37.77443141427438
 30
0.0
 10
72.31079928593437
 20
-38.1609631622457
 30
0.0
 10
72.2908879649857
 20
-38.54749141822818
 30
0.0
 10
72.26228159157277
 20
-38.93401967421098
 30
0.0
 10
72.21148013644747
 20
-39.31757624760343
 30
0.0
 10
72.18584893761406
 20
-39.50957976758683
 30
0.0
 10
72.15495181945716
 20
-39.70089885773755
 30
0.0
 10
72.11352984662527
 20
-39.88993069513092
 30
0.0
 10
72.07233834506446
 20
-40.07896253252429
 30
0.0
 10
72.02107594739763
 20
-40.26616107572351
 30
0.0
 10
71.95058665861833
 20
-40.44695531120339
 30
0.0
 10
71.88032784110626
 20
-40.62774605469346
 30
0.0
 10
71.79107958772601
 20
-40.80213249046451
 30
0.0
 10
71.67253354712663
 20
-40.95546223291586
 30
0.0
 10
71.55421797779834
 20
-41.10856150409708
 30
0.0
 10
71.40706556378281
 20
-41.24038059466619
 30
0.0
 10
71.24320747467241
 20
-41.34336284055224
 30
0.0
 10
71.07889542699817
 20
-41.44657555770904
 30
0.0
 10
70.89810119151926
 20
-41.52095143018343
 30
0.0
 10
70.71319339306782
 20
-41.57839464827815
 30
0.0
 10
70.52782465207421
 20
-41.63583437438401
 30
0.0
 10
70.33833536412784
 20
-41.67657191738033
 30
0.0
 10
70.14747023253967
 20
-41.70838044465247
 30
0.0
 10
69.76574695334041
 20
-41.77245844173697
 30
0.0
 10
69.3787577548209
 20
-41.8017527369708
 30
0.0
 10
68.9919990275654
 20
-41.819373313172
 30
0.0
 10
68.60501681302292
 20
-41.83699738136174
 30
0.0
 10
68.21825808576743
 20
-41.84271725924872
 30
0.0
 10
67.83126888724407
 20
-41.84271725924872
 30
0.0
  0
SPLINE
  5
A9
330
79
100
AcDbEntity
  8
Camada 1
 62
    18
420
        0
370
    15
100
AcDbSpline
210
0.0
220
0.0
230
1.0
 70
     8
 71
     3
 72
    41
 73
    37
 74
     0
 42
0.0000000001
 43
0.0000000001
 40
0.0
 40
0.0
 40
0.0
 40
0.0
 40
1.0
 40
1.0
 40
1.0
 40
2.0
 40
2.0
 40
2.0
 40
3.0
 40
3.0
 40
3.0
 40
4.0
 40
4.0
 40
4.0
 40
5.0
 40
5.0
 40
5.0
 40
6.0
 40
6.0
 40
6.0
 40
7.0
 40
7.0
 40
7.0
 40
8.0
 40
8.0
 40
8.0
 40
9.0
 40
9.0
 40
9.0
 40
10.0
 40
10.0
 40
10.0
 40
11.0
 40
11.0
 40
11.0
 40
12.0
 40
12.0
 40
12.0
 40
12.0
 10
56.90132953104242
 20
-35.83949938961643
 30
0.0
 10
56.90132953104242
 20
-35.22022657866506
 30
0.0
 10
56.92626931606707
 20
-34.59912396550872
 30
0.0
 10
57.00522318604402
 20
-33.98443264404909
 30
0.0
 10
57.04458488539857
 20
-33.67708523732517
 30
0.0
 10
57.09745359798084
 20
-33.37156763280688
 30
0.0
 10
57.1720564497333
 20
-33.07040104650988
 30
0.0
 10
57.24643581419558
 20
-32.76991889004557
 30
0.0
 10
57.34209535927383
 20
-32.47378775180287
 30
0.0
 10
57.47459538768452
 20
-32.1929864450155
 30
0.0
 10
57.60641797024375
 20
-31.91264258877954
 30
0.0
 10
57.77508103613608
 20
-31.64740507670551
 30
0.0
 10
57.98379023121851
 20
-31.41946899051029
 30
0.0
 10
58.19272989757203
 20
-31.19130592503347
 30
0.0
 10
58.44195314835676
 20
-31.00067126471543
 30
0.0
 10
58.70810556153295
 20
-30.84162164437742
 30
0.0
 10
58.97471891724747
 20
-30.68256853204991
 30
0.0
 10
59.25826143535346
 20
-30.55532743898402
 30
0.0
 10
59.54867618770219
 20
-30.44730974504336
 30
0.0
 10
59.83908395606746
 20
-30.33929205110237
 30
0.0
 10
60.13636395867162
 20
-30.25049775628693
 30
0.0
 10
60.43661913585594
 20
-30.17429208160757
 30
0.0
 10
60.7370978003298
 20
-30.09785593565744
 30
0.0
 10
61.04055163938447
 20
-30.03423538912433
 30
0.0
 10
61.34538132208348
 20
-29.97930989505677
 30
0.0
 10
61.65044147604973
 20
-29.92461487225933
 30
0.0
 10
61.95687048968391
 20
-29.87884537319724
 30
0.0
 10
62.2642213883941
 20
-29.83948367384365
 30
0.0
 10
62.87891620184129
 20
-29.76052980386669
 30
0.0
 10
63.49658618986865
 20
-29.70651921090161
 30
0.0
 10
64.11516409502175
 20
-29.66693053226708
 30
0.0
 10
64.73352549685786
 20
-29.62733836164369
 30
0.0
 10
65.35279481581975
 20
-29.60216461336136
 30
0.0
 10
65.97229460605271
 20
-29.58637383936577
 30
0.0
 10
66.59179439628569
 20
-29.57058306537019
 30
0.0
 10
67.21151767380948
 20
-29.56417526566199
 30
0.0
 10
67.83124793530969
 20
-29.56417526566199
 30
0.0
  0
SPLINE
  5
AA
330
79
100
AcDbEntity
  8
Camada 1
 62
    18
420
        0
370
    15
100
AcDbSpline
210
0.0
220
0.0
230
1.0
 70
     8
 71
     3
 72
    41
 73
    37
 74
     0
 42
0.0000000001
 43
0.0000000001
 40
0.0
 40
0.0
 40
0.0
 40
0.0
 40
1.0
 40
1.0
 40
1.0
 40
2.0
 40
2.0
 40
2.0
 40
3.0
 40
3.0
 40
3.0
 40
4.0
 40
4.0
 40
4.0
 40
5.0
 40
5.0
 40
5.0
 40
6.0
 40
6.0
 40
6.0
 40
7.0
 40
7.0
 40
7.0
 40
8.0
 40
8.0
 40
8.0
 40
9.0
 40
9.0
 40
9.0
 40
10.0
 40
10.0
 40
10.0
 40
11.0
 40
11.0
 40
11.0
 40
12.0
 40
12.0
 40
12.0
 40
12.0
 10
67.83118507951041
 20
-42.1148444655046
 30
0.0
 10
67.2114548180102
 20
-42.1148444655046
 30
0.0
 10
66.59172455650613
 20
-42.10843317380756
 30
0.0
 10
65.97222476627317
 20
-42.09264589180082
 30
0.0
 10
65.35272497604021
 20
-42.07685511780524
 30
0.0
 10
64.73368612834878
 20
-42.05190834880418
 30
0.0
 10
64.11510123921861
 20
-42.01208919889952
 30
0.0
 10
63.4965163500923
 20
-41.97249702827582
 30
0.0
 10
62.87884636206495
 20
-41.9184899272999
 30
0.0
 10
62.264382019885
 20
-41.83953605732262
 30
0.0
 10
61.95703810515123
 20
-41.79994388669924
 30
0.0
 10
61.65037163626954
 20
-41.75440136691842
 30
0.0
 10
61.34554195357438
 20
-41.69970634412066
 30
0.0
 10
61.04048878358454
 20
-41.64478434204226
 30
0.0
 10
60.73702796055346
 20
-41.58116379550884
 30
0.0
 10
60.43677976734684
 20
-41.50472764955902
 30
0.0
 10
60.13629411889528
 20
-41.42829150360953
 30
0.0
 10
59.83924458755836
 20
-41.33972418807505
 30
0.0
 10
59.54860634792201
 20
-41.23170649413439
 30
0.0
 10
59.25819857955353
 20
-41.12368880019372
 30
0.0
 10
58.97464907747114
 20
-40.99644770712752
 30
0.0
 10
58.70803572175276
 20
-40.83716761551905
 30
0.0
 10
58.44188330858043
 20
-40.67834497446232
 30
0.0
 10
58.1926670417689
 20
-40.487483334863
 30
0.0
 10
57.98372737541924
 20
-40.25954724866745
 30
0.0
 10
57.77501119635974
 20
-40.03138418319063
 30
0.0
 10
57.60657860173465
 20
-39.76637365039854
 30
0.0
 10
57.47430206061414
 20
-39.48602979416193
 30
0.0
 10
57.34202551949364
 20
-39.20523197936373
 30
0.0
 10
57.24636597441924
 20
-38.90909734913186
 30
0.0
 10
57.17198660995375
 20
-38.60838821338659
 30
0.0
 10
57.09761422947174
 20
-38.30744860637119
 30
0.0
 10
57.04452202959544
 20
-38.00170402257098
 30
0.0
 10
57.00516033024411
 20
-37.69458708711719
 30
0.0
 10
56.92620646026714
 20
-37.07989227366903
 30
0.0
 10
56.90125969126608
 20
-36.45878966051237
 30
0.0
 10
56.90125969126608
 20
-35.83952034155017
 30
0.0
  0
SPLINE
  5
AB
330
79
100
AcDbEntity
  8
Camada 1
 62
    18
420
        0
370
    15
100
AcDbSpline
210
0.0
220
0.0
230
1.0
 70
     8
 71
     3
 72
    38
 73
    34
 74
     0
 42
0.0000000001
 43
0.0000000001
 40
0.0
 40
0.0
 40
0.0
 40
0.0
 40
1.0
 40
1.0
 40
1.0
 40
2.0
 40
2.0
 40
2.0
 40
3.0
 40
3.0
 40
3.0
 40
4.0
 40
4.0
 40
4.0
 40
5.0
 40
5.0
 40
5.0
 40
6.0
 40
6.0
 40
6.0
 40
7.0
 40
7.0
 40
7.0
 40
8.0
 40
8.0
 40
8.0
 40
9.0
 40
9.0
 40
9.0
 40
10.0
 40
10.0
 40
10.0
 40
11.0
 40
11.0
 40
11.0
 40
11.0
 10
72.63071436086128
 20
-35.83949938961643
 30
0.0
 10
72.63071436086128
 20
-36.244336143621
 30
0.0
 10
72.62796267357194
 20
-36.64917289762654
 30
0.0
 10
72.62018252220986
 20
-37.05400965163143
 30
0.0
 10
72.61263284211885
 20
-37.45861942635505
 30
0.0
 10
72.60004771397163
 20
-37.86322570908981
 30
0.0
 10
72.57761517701176
 20
-38.26760501254394
 30
0.0
 10
72.55495915275081
 20
-38.67198780798596
 30
0.0
 10
72.5226931749292
 20
-39.07590966088804
 30
0.0
 10
72.46388109716815
 20
-39.47662586794145
 30
0.0
 10
72.43458330994581
 20
-39.67687048182751
 30
0.0
 10
72.39865772771231
 20
-39.87620019461108
 30
0.0
 10
72.35059399191583
 20
-40.0730121833675
 30
0.0
 10
72.30253724009639
 20
-40.26982417212328
 30
0.0
 10
72.24234931869355
 20
-40.46389145757159
 30
0.0
 10
72.16133517523989
 20
-40.64994462839692
 30
0.0
 10
72.08032103178621
 20
-40.83577431193175
 30
0.0
 10
71.97848765026517
 20
-41.01358988084326
 30
0.0
 10
71.84964024228545
 20
-41.16989479787348
 30
0.0
 10
71.72103028955388
 20
-41.32643018617288
 30
0.0
 10
71.56563678163793
 20
-41.46145143060214
 30
0.0
 10
71.39422901243333
 20
-41.56969610382376
 30
0.0
 10
71.22282124322872
 20
-41.67794426903455
 30
0.0
 10
71.03539222875841
 20
-41.75918539176886
 30
0.0
 10
70.84292776623572
 20
-41.82234848775023
 30
0.0
 10
70.65023283244129
 20
-41.88551158373226
 30
0.0
 10
70.4522789633043
 20
-41.93082363224294
 30
0.0
 10
70.25317972178958
 20
-41.96629525591484
 30
0.0
 10
69.85452029622564
 20
-42.03746897452908
 30
0.0
 10
69.44991052150204
 20
-42.06973844434178
 30
0.0
 10
69.04530074677456
 20
-42.088961843467
 30
0.0
 10
68.64046748476076
 20
-42.1084122218735
 30
0.0
 10
68.23585771003715
 20
-42.11482002158201
 30
0.0
 10
67.83124793530969
 20
-42.11482002158201
 30
0.0
  0
SPLINE
  5
AC
330
79
100
AcDbEntity
  8
Camada 1
 62
    18
420
        0
370
    15
100
AcDbSpline
210
0.0
220
0.0
230
1.0
 70
     8
 71
     3
 72
    38
 73
    34
 74
     0
 42
0.0000000001
 43
0.0000000001
 40
0.0
 40
0.0
 40
0.0
 40
0.0
 40
1.0
 40
1.0
 40
1.0
 40
2.0
 40
2.0
 40
2.0
 40
3.0
 40
3.0
 40
3.0
 40
4.0
 40
4.0
 40
4.0
 40
5.0
 40
5.0
 40
5.0
 40
6.0
 40
6.0
 40
6.0
 40
7.0
 40
7.0
 40
7.0
 40
8.0
 40
8.0
 40
8.0
 40
9.0
 40
9.0
 40
9.0
 40
10.0
 40
10.0
 40
10.0
 40
11.0
 40
11.0
 40
11.0
 40
11.0
 10
67.83118507951041
 20
-29.56415082173941
 30
0.0
 10
68.23601834152805
 20
-29.56415082173941
 30
0.0
 10
68.64062811625166
 20
-29.57055862144792
 30
0.0
 10
69.04523789097144
 20
-29.5900089998541
 30
0.0
 10
69.4498476656989
 20
-29.60923239897965
 30
0.0
 10
69.85445045644546
 20
-29.64150186879203
 30
0.0
 10
70.25310988200939
 20
-29.71267209541774
 30
0.0
 10
70.45220912352412
 20
-29.74814371908963
 30
0.0
 10
70.65016997664201
 20
-29.79345925958917
 30
0.0
 10
70.84285792645937
 20
-29.85662235557119
 30
0.0
 10
71.03532238898207
 20
-29.9197819595634
 30
0.0
 10
71.22275140345239
 20
-30.00102657428656
 30
0.0
 10
71.39438964392422
 20
-30.1092712475085
 30
0.0
 10
71.56557392583479
 20
-30.21751941271929
 30
0.0
 10
71.72096044977369
 20
-30.35254065714823
 30
0.0
 10
71.84957738648617
 20
-30.50907604544794
 30
0.0
 10
71.97841781048499
 20
-30.66538096247784
 30
0.0
 10
72.08025817598628
 20
-30.84319653139
 30
0.0
 10
72.16127231944061
 20
-31.02902272293469
 30
0.0
 10
72.24228646289429
 20
-31.21507938574983
 30
0.0
 10
72.30247438429646
 20
-31.40914667119782
 30
0.0
 10
72.35053113611654
 20
-31.6057281886838
 30
0.0
 10
72.39858788793277
 20
-31.80277064871035
 30
0.0
 10
72.43452045414652
 20
-32.00210036149361
 30
0.0
 10
72.46404172865905
 20
-32.20234497537999
 30
0.0
 10
72.52285380642395
 20
-32.60306118243339
 30
0.0
 10
72.55512676822262
 20
-33.00698303533547
 30
0.0
 10
72.57755232120864
 20
-33.41136233878895
 30
0.0
 10
72.59997787419464
 20
-33.81574164224244
 30
0.0
 10
72.61279347360975
 20
-34.22035141696606
 30
0.0
 10
72.62034315370076
 20
-34.62496119169
 30
0.0
 10
72.62813028904311
 20
-35.02979794569489
 30
0.0
 10
72.63064452107788
 20
-35.4346346997001
 30
0.0
 10
72.63064452107788
 20
-35.839471453705
 30
0.0
  0
LINE
  5
AD
330
79
100
AcDbEntity
  8
Camada 1
 62
    18
420
        0
370
    15
100
AcDbLine
 10
72.26235841533001
 20
-36.51980169130568
 30
0.0
 11
72.26304284516174
 21
-36.44496487629104
 31
0.0
  0
LINE
  5
AE
330
79
100
AcDbEntity
  8
Camada 1
 62
    18
420
        0
370
    15
100
AcDbLine
 10
72.26528470206372
 20
-35.91582029993134
 30
0.0
 11
72.26528470206372
 21
-35.83961113326249
 31
0.0
  0
SPLINE
  5
AF
330
79
100
AcDbEntity
  8
Camada 1
 62
    18
420
        0
370
    15
100
AcDbSpline
210
0.0
220
0.0
230
1.0
 70
     8
 71
     3
 72
    11
 73
     7
 74
     0
 42
0.0000000001
 43
0.0000000001
 40
0.0
 40
0.0
 40
0.0
 40
0.0
 40
1.0
 40
1.0
 40
1.0
 40
2.0
 40
2.0
 40
2.0
 40
2.0
 10
72.28648107493897
 20
-36.67990589230431
 30
0.0
 10
72.28464428875951
 20
-36.71743429746343
 30
0.0
 10
72.27847045230965
 20
-36.79181366192666
 30
0.0
 10
72.27343500425662
 20
-36.79181366192666
 30
0.0
 10
72.2683995562004
 20
-36.79204064120762
 30
0.0
 10
72.26427900924635
 20
-36.71606194580889
 30
0.0
 10
72.26336410814674
 20
-36.67807259811016
 30
0.0
  0
SPLINE
  5
B0
330
79
100
AcDbEntity
  8
Camada 1
 62
    18
420
        0
370
    15
100
AcDbSpline
210
0.0
220
0.0
230
1.0
 70
     8
 71
     3
 72
    11
 73
     7
 74
     0
 42
0.0000000001
 43
0.0000000001
 40
0.0
 40
0.0
 40
0.0
 40
0.0
 40
1.0
 40
1.0
 40
1.0
 40
2.0
 40
2.0
 40
2.0
 40
2.0
 10
72.26334315621237
 20
-36.67793990253038
 30
0.0
 10
72.26311268494192
 20
-36.66580873294603
 30
0.0
 10
72.26288221367084
 20
-36.65390803463149
 30
0.0
 10
72.2624212711293
 20
-36.64178035703663
 30
0.0
 10
72.26196731256802
 20
-36.60127328530979
 30
0.0
 10
72.26196731256802
 20
-36.560539234302
 30
0.0
 10
72.2624212711293
 20
-36.51980169130568
 30
0.0
  0
SPLINE
  5
B1
330
79
100
AcDbEntity
  8
Camada 1
 62
    18
420
        0
370
    15
100
AcDbSpline
210
0.0
220
0.0
230
1.0
 70
     8
 71
     3
 72
    11
 73
     7
 74
     0
 42
0.0000000001
 43
0.0000000001
 40
0.0
 40
0.0
 40
0.0
 40
0.0
 40
1.0
 40
1.0
 40
1.0
 40
2.0
 40
2.0
 40
2.0
 40
2.0
 10
72.26235841533001
 20
-35.15919359593834
 30
0.0
 10
72.26212794405892
 20
-35.11776813112048
 30
0.0
 10
72.26212794405892
 20
-35.07657662956096
 30
0.0
 10
72.26258190262341
 20
-35.03538512800208
 30
0.0
 10
72.26281237389449
 20
-35.02325395841806
 30
0.0
 10
72.26304284516174
 20
-35.01089580955243
 30
0.0
 10
72.26349680372685
 20
-34.99876813195662
 30
0.0
  0
SPLINE
  5
B2
330
79
100
AcDbEntity
  8
Camada 1
 62
    18
420
        0
370
    15
100
AcDbSpline
210
0.0
220
0.0
230
1.0
 70
     8
 71
     3
 72
    11
 73
     7
 74
     0
 42
0.0000000001
 43
0.0000000001
 40
0.0
 40
0.0
 40
0.0
 40
0.0
 40
1.0
 40
1.0
 40
1.0
 40
2.0
 40
2.0
 40
2.0
 40
2.0
 10
72.26338506008112
 20
-34.99883797173584
 30
0.0
 10
72.26429996118072
 20
-34.96153305386915
 30
0.0
 10
72.26841352415387
 20
-34.8878451032163
 30
0.0
 10
72.27367944347799
 20
-34.88715718139477
 30
0.0
 10
72.27871489153421
 20
-34.88646925957356
 30
0.0
 10
72.28466524069388
 20
-34.96336285607478
 30
0.0
 10
72.28672551416739
 20
-35.00180965432522
 30
0.0
  0
LINE
  5
B3
330
79
100
AcDbEntity
  8
Camada 1
 62
    18
420
        0
370
    15
100
AcDbLine
 10
79.92286725282396
 20
-29.69736670788499
 30
0.0
 11
77.9709920978246
 21
-29.56096961981331
 31
0.0
  0
LINE
  5
B4
330
79
100
AcDbEntity
  8
Camada 1
 62
    18
420
        0
370
    15
100
AcDbLine
 10
77.97099908179781
 20
-42.11813741107707
 30
0.0
 11
79.92286725282396
 21
-41.98174032300539
 31
0.0
  0
SPLINE
  5
B5
330
79
100
AcDbEntity
  8
Camada 1
 62
    18
420
        0
370
    15
100
AcDbSpline
210
0.0
220
0.0
230
1.0
 70
     8
 71
     3
 72
     8
 73
     4
 74
     0
 42
0.0000000001
 43
0.0000000001
 40
0.0
 40
0.0
 40
0.0
 40
0.0
 40
1.0
 40
1.0
 40
1.0
 40
1.0
 10
67.83118507951041
 20
-43.8997431852722
 30
0.0
 10
68.04401482154304
 20
-43.8997431852722
 30
0.0
 10
68.25707503484614
 20
-43.89859781289926
 30
0.0
 10
68.46990477687879
 20
-43.89630706815339
 30
0.0
  0
SPLINE
  5
B6
330
79
100
AcDbEntity
  8
Camada 1
 62
    18
420
        0
370
    15
100
AcDbSpline
210
0.0
220
0.0
230
1.0
 70
     8
 71
     3
 72
     8
 73
     4
 74
     0
 42
0.0000000001
 43
0.0000000001
 40
0.0
 40
0.0
 40
0.0
 40
0.0
 40
1.0
 40
1.0
 40
1.0
 40
1.0
 10
75.2972390207845
 20
-28.84542267373312
 30
0.0
 10
75.22331361488735
 20
-28.80949010752066
 30
0.0
 10
75.14871076312783
 20
-28.77493338495158
 30
0.0
 10
75.07364696883318
 20
-28.74197948530619
 30
0.0
  0
SPLINE
  5
B7
330
79
100
AcDbEntity
  8
Camada 1
 62
    18
420
        0
370
    15
100
AcDbSpline
210
0.0
220
0.0
230
1.0
 70
     8
 71
     3
 72
     8
 73
     4
 74
     0
 42
0.0000000001
 43
0.0000000001
 40
0.0
 40
0.0
 40
0.0
 40
0.0
 40
1.0
 40
1.0
 40
1.0
 40
1.0
 10
55.11750285188258
 20
-35.61959487798747
 30
0.0
 10
55.11681143806995
 20
-35.69305584935874
 30
0.0
 10
55.11635747950933
 20
-35.76605937017859
 30
0.0
 10
55.11635747950933
 20
-35.83952034155017
 30
0.0
  0
SPLINE
  5
B8
330
79
100
AcDbEntity
  8
Camada 1
 62
    18
420
        0
370
    15
100
AcDbSpline
210
0.0
220
0.0
230
1.0
 70
     8
 71
     3
 72
     8
 73
     4
 74
     0
 42
0.0000000001
 43
0.0000000001
 40
0.0
 40
0.0
 40
0.0
 40
0.0
 40
1.0
 40
1.0
 40
1.0
 40
1.0
 10
75.2972390207845
 20
-28.84542267373312
 30
0.0
 10
76.13437352983588
 20
-29.25300413104613
 30
0.0
 10
77.04199732766658
 20
-29.49604306941605
 30
0.0
 10
77.97090130611003
 20
-29.56080898832177
 30
0.0
  0
SPLINE
  5
B9
330
79
100
AcDbEntity
  8
Camada 1
 62
    18
420
        0
370
    15
100
AcDbSpline
210
0.0
220
0.0
230
1.0
 70
     8
 71
     3
 72
     8
 73
     4
 74
     0
 42
0.0000000001
 43
0.0000000001
 40
0.0
 40
0.0
 40
0.0
 40
0.0
 40
1.0
 40
1.0
 40
1.0
 40
1.0
 10
77.97099908179781
 20
-42.11813741107707
 30
0.0
 10
77.04208811938115
 20
-42.1831303092644
 30
0.0
 10
76.13424083425641
 20
-42.42593877636386
 30
0.0
 10
75.29732981249906
 20
-42.83352372566508
 30
0.0
  0
SPLINE
  5
BA
330
79
100
AcDbEntity
  8
Camada 1
 62
    18
420
        0
370
    15
100
AcDbSpline
210
0.0
220
0.0
230
1.0
 70
     8
 71
     3
 72
     8
 73
     4
 74
     0
 42
0.0000000001
 43
0.0000000001
 40
0.0
 40
0.0
 40
0.0
 40
0.0
 40
1.0
 40
1.0
 40
1.0
 40
1.0
 10
67.83118507951041
 20
-27.77925210197118
 30
0.0
 10
67.72842981290565
 20
-27.77925210197118
 30
0.0
 10
67.62567454629767
 20
-27.77947908125277
 30
0.0
 10
67.52268880842246
 20
-27.7797095525229
 30
0.0
  0
SPLINE
  5
BB
330
79
100
AcDbEntity
  8
Camada 1
 62
    18
420
        0
370
    15
100
AcDbSpline
210
0.0
220
0.0
230
1.0
 70
     8
 71
     3
 72
     8
 73
     4
 74
     0
 42
0.0000000001
 43
0.0000000001
 40
0.0
 40
0.0
 40
0.0
 40
0.0
 40
1.0
 40
1.0
 40
1.0
 40
1.0
 10
68.1976693189673
 20
-27.78037303042185
 30
0.0
 10
68.07545668997576
 20
-27.77945463733019
 30
0.0
 10
67.95325104496836
 20
-27.77922765804891
 30
0.0
 10
67.83104539995388
 20
-27.77922765804891
 30
0.0
  0
SPLINE
  5
BC
330
79
100
AcDbEntity
  8
Camada 1
 62
    18
420
        0
370
    15
100
AcDbSpline
210
0.0
220
0.0
230
1.0
 70
     8
 71
     3
 72
    35
 73
    31
 74
     0
 42
0.0000000001
 43
0.0000000001
 40
0.0
 40
0.0
 40
0.0
 40
0.0
 40
1.0
 40
1.0
 40
1.0
 40
2.0
 40
2.0
 40
2.0
 40
3.0
 40
3.0
 40
3.0
 40
4.0
 40
4.0
 40
4.0
 40
5.0
 40
5.0
 40
5.0
 40
6.0
 40
6.0
 40
6.0
 40
7.0
 40
7.0
 40
7.0
 40
8.0
 40
8.0
 40
8.0
 40
9.0
 40
9.0
 40
9.0
 40
10.0
 40
10.0
 40
10.0
 40
10.0
 10
67.83118507951041
 20
-27.77925210197118
 30
0.0
 10
67.09519952215476
 20
-27.77925210197118
 30
0.0
 10
66.35875302225757
 20
-27.78794715443672
 30
0.0
 10
65.62276746489871
 20
-27.81037270742209
 30
0.0
 10
64.88701237881416
 20
-27.832801752396
 30
0.0
 10
64.15171823526472
 20
-27.86873082661962
 30
0.0
 10
63.41756248011471
 20
-27.92731592509842
 30
0.0
 10
62.68363719622935
 20
-27.98613149484735
 30
0.0
 10
61.95108775599219
 20
-28.06760308885147
 30
0.0
 10
61.22494262347534
 20
-28.18866336149044
 30
0.0
 10
60.49925144951976
 20
-28.30972712611826
 30
0.0
 10
59.7799785512354
 20
-28.47037956938061
 30
0.0
 10
59.0826632794223
 20
-28.71731207542043
 30
0.0
 10
58.38741526506298
 20
-28.96355316764954
 30
0.0
 10
57.7141388451252
 20
-29.29515942155362
 30
0.0
 10
57.14658588239078
 20
-29.76132946933427
 30
0.0
 10
56.8618979919109
 20
-29.99521590468726
 30
0.0
 10
56.60397968866128
 20
-30.26297114078778
 30
0.0
 10
56.38245489416053
 20
-30.55750294809499
 30
0.0
 10
56.16092311568593
 20
-30.85203126341303
 30
0.0
 10
55.97578484596342
 20
-31.17356662120851
 30
0.0
 10
55.82428839770365
 20
-31.5095204013444
 30
0.0
 10
55.67278496547067
 20
-31.84570465275138
 30
0.0
 10
55.5549303386807
 20
-32.19607336324011
 30
0.0
 10
55.46201549691473
 20
-32.55239591487448
 30
0.0
 10
55.36933112641985
 20
-32.90894544579077
 30
0.0
 10
55.30136305365173
 20
-33.27144532586352
 30
0.0
 10
55.25078508581725
 20
-33.63623245869364
 30
0.0
 10
55.14917519158318
 20
-34.36535276579096
 30
0.0
 10
55.11644827122005
 20
-35.10362557590524
 30
0.0
 10
55.11644827122005
 20
-35.83938415398121
 30
0.0
  0
SPLINE
  5
BD
330
79
100
AcDbEntity
  8
Camada 1
 62
    18
420
        0
370
    15
100
AcDbSpline
210
0.0
220
0.0
230
1.0
 70
     8
 71
     3
 72
    14
 73
    10
 74
     0
 42
0.0000000001
 43
0.0000000001
 40
0.0
 40
0.0
 40
0.0
 40
0.0
 40
1.0
 40
1.0
 40
1.0
 40
2.0
 40
2.0
 40
2.0
 40
3.0
 40
3.0
 40
3.0
 40
3.0
 10
75.2972390207845
 20
-28.84542267373312
 30
0.0
 10
74.72877115695112
 20
-28.5685114426268
 30
0.0
 10
74.11796641918306
 20
-28.38016752705464
 30
0.0
 10
73.49961200132398
 20
-28.24056828512313
 30
0.0
 10
72.88056616965549
 20
-28.10096904319161
 30
0.0
 10
72.25374717059877
 20
-28.01034494617056
 30
0.0
 10
71.62440695553022
 20
-27.9442066756103
 30
0.0
 10
70.36572652539054
 20
-27.8123875850412
 30
0.0
 10
69.09674472786668
 20
-27.77920321412633
 30
0.0
 10
67.83119904746772
 20
-27.77920321412633
 30
0.0
  0
SPLINE
  5
BE
330
79
100
AcDbEntity
  8
Camada 1
 62
    18
420
        0
370
    15
100
AcDbSpline
210
0.0
220
0.0
230
1.0
 70
     8
 71
     3
 72
    14
 73
    10
 74
     0
 42
0.0000000001
 43
0.0000000001
 40
0.0
 40
0.0
 40
0.0
 40
0.0
 40
1.0
 40
1.0
 40
1.0
 40
2.0
 40
2.0
 40
2.0
 40
3.0
 40
3.0
 40
3.0
 40
3.0
 10
67.83118507951041
 20
-43.8997431852722
 30
0.0
 10
69.09673075991257
 20
-43.8997431852722
 30
0.0
 10
70.36570557345296
 20
-43.86655881435732
 30
0.0
 10
71.62438600359648
 20
-43.73451274450726
 30
0.0
 10
72.2537262186644
 20
-43.66860145322829
 30
0.0
 10
72.88055220169818
 20
-43.57797735620691
 30
0.0
 10
73.49959104939282
 20
-43.43837811427508
 30
0.0
 10
74.11794546725189
 20
-43.29877887234355
 30
0.0
 10
74.72898067628783
 20
-43.11020448550127
 30
0.0
 10
75.29721806885397
 20
-42.83352372566508
 30
0.0
  0
SPLINE
  5
BF
330
79
100
AcDbEntity
  8
Camada 1
 62
    18
420
        0
370
    15
100
AcDbSpline
210
0.0
220
0.0
230
1.0
 70
     8
 71
     3
 72
    35
 73
    31
 74
     0
 42
0.0000000001
 43
0.0000000001
 40
0.0
 40
0.0
 40
0.0
 40
0.0
 40
1.0
 40
1.0
 40
1.0
 40
2.0
 40
2.0
 40
2.0
 40
3.0
 40
3.0
 40
3.0
 40
4.0
 40
4.0
 40
4.0
 40
5.0
 40
5.0
 40
5.0
 40
6.0
 40
6.0
 40
6.0
 40
7.0
 40
7.0
 40
7.0
 40
8.0
 40
8.0
 40
8.0
 40
9.0
 40
9.0
 40
9.0
 40
10.0
 40
10.0
 40
10.0
 40
10.0
 10
55.11642731928887
 20
-35.83949938961643
 30
0.0
 10
55.11642731928887
 20
-36.57525447570356
 30
0.0
 10
55.14914725567175
 20
-37.31352728581751
 30
0.0
 10
55.25075714990582
 20
-38.04264759291516
 30
0.0
 10
55.3013351177403
 20
-38.40743472574526
 30
0.0
 10
55.36930319050521
 20
-38.76993460581802
 30
0.0
 10
55.46221803227053
 20
-39.12648413673431
 30
0.0
 10
55.55490240276927
 20
-39.48303366764996
 30
0.0
 10
55.67276401353629
 20
-39.83340587012754
 30
0.0
 10
55.82426046179606
 20
-40.16935965026407
 30
0.0
 10
55.97575691005198
 20
-40.50531343039995
 30
0.0
 10
56.16112565104559
 20
-40.82684878819576
 30
0.0
 10
56.38265742952018
 20
-41.1213771035138
 30
0.0
 10
56.6039587367269
 20
-41.41613938209113
 30
0.0
 10
56.86187005600011
 20
-41.68366414692186
 30
0.0
 10
57.14655794647935
 20
-41.91755058227451
 30
0.0
 10
57.71388043794267
 20
-42.38372063005516
 30
0.0
 10
58.3873943131286
 20
-42.71532688395892
 30
0.0
 10
59.08264232748793
 20
-42.96156797618804
 30
0.0
 10
59.77995061532396
 20
-43.20850048222785
 30
0.0
 10
60.49923049758539
 20
-43.36915292549053
 30
0.0
 10
61.22491468756391
 20
-43.49021669011867
 30
0.0
 10
61.95105982008396
 20
-43.61127696275732
 30
0.0
 10
62.68360926031792
 20
-43.69297902803221
 30
0.0
 10
63.41753454420391
 20
-43.75156412651036
 30
0.0
 10
64.15169029935329
 20
-43.81014922498949
 30
0.0
 10
64.88699142687979
 20
-43.84607829921279
 30
0.0
 10
65.62274651296434
 20
-43.86850734418701
 30
0.0
 10
66.3587320703232
 20
-43.89093289717208
 30
0.0
 10
67.09494111497289
 20
-43.89963144162646
 30
0.0
 10
67.83115714359897
 20
-43.89963144162646
 30
0.0
  0
SPLINE
  5
C0
330
79
100
AcDbEntity
  8
Camada 1
 62
    18
420
        0
370
    15
100
AcDbSpline
210
0.0
220
0.0
230
1.0
 70
     9
 71
     3
 72
    17
 73
    13
 74
     0
 42
0.0000000001
 43
0.0000000001
 40
0.0
 40
0.0
 40
0.0
 40
0.0
 40
1.0
 40
1.0
 40
1.0
 40
2.0
 40
2.0
 40
2.0
 40
3.0
 40
3.0
 40
3.0
 40
4.0
 40
4.0
 40
4.0
 40
4.0
 10
76.45902374176902
 20
-36.63420623302144
 30
0.0
 10
76.89795976779095
 20
-36.63420623302144
 30
0.0
 10
77.2535909056114
 20
-36.27834113193784
 30
0.0
 10
77.2535909056114
 20
-35.83963557718507
 30
0.0
 10
77.2535909056114
 20
-35.40069605917365
 30
0.0
 10
76.89795976779095
 20
-35.04483445007889
 30
0.0
 10
76.45902374176902
 20
-35.04483445007889
 30
0.0
 10
76.02008073176617
 20
-35.04483445007889
 30
0.0
 10
75.66421912267141
 20
-35.40069605917365
 30
0.0
 10
75.66421912267141
 20
-35.83963557718507
 30
0.0
 10
75.66421912267141
 20
-36.27834113193784
 30
0.0
 10
76.02008073176617
 20
-36.63420623302144
 30
0.0
 10
76.45902374176902
 20
-36.63420623302144
 30
0.0
  0
LINE
  5
C1
330
79
100
AcDbEntity
  8
Camada 1
  6
AI-Linetype-0
 62
    18
420
        0
370
    15
100
AcDbLine
 10
76.45902374176902
 20
-34.70428172050605
 30
0.0
 11
76.45902374176902
 21
-36.97471007474912
 31
0.0
  0
LINE
  5
C3
330
79
100
AcDbEntity
  8
Camada 1
  6
AI-Linetype-1
 62
    18
420
        0
370
    15
100
AcDbLine
 10
77.59440204236998
 20
-35.83949938961643
 30
0.0
 11
75.323966704146
 21
-35.83972636889739
 31
0.0
  0
SPLINE
  5
C5
330
79
100
AcDbEntity
  8
Camada 1
 62
    18
420
        0
370
    15
100
AcDbSpline
210
0.0
220
0.0
230
1.0
 70
     9
 71
     3
 72
    17
 73
    13
 74
     0
 42
0.0000000001
 43
0.0000000001
 40
0.0
 40
0.0
 40
0.0
 40
0.0
 40
1.0
 40
1.0
 40
1.0
 40
2.0
 40
2.0
 40
2.0
 40
3.0
 40
3.0
 40
3.0
 40
4.0
 40
4.0
 40
4.0
 40
4.0
 10
69.21353779002025
 20
-36.86511749379523
 30
0.0
 10
69.79047023504808
 20
-36.86511749379523
 30
0.0
 10
70.25801263448293
 20
-36.39757160237119
 30
0.0
 10
70.25801263448293
 20
-35.82109660789221
 30
0.0
 10
70.25801263448293
 20
-35.24416416286214
 30
0.0
 10
69.79047023504808
 20
-34.77639129215715
 30
0.0
 10
69.21353779002025
 20
-34.77639129215715
 30
0.0
 10
68.63682883228327
 20
-34.77639129215715
 30
0.0
 10
68.16905596157731
 20
-35.24416416286214
 30
0.0
 10
68.16905596157731
 20
-35.82109660789221
 30
0.0
 10
68.16905596157731
 20
-36.39757160237119
 30
0.0
 10
68.63682883228327
 20
-36.86511749379523
 30
0.0
 10
69.21353779002025
 20
-36.86511749379523
 30
0.0
  0
SPLINE
  5
C6
330
79
100
AcDbEntity
  8
Camada 1
 62
    18
420
        0
370
    15
100
AcDbSpline
210
0.0
220
0.0
230
1.0
 70
     9
 71
     3
 72
    17
 73
    13
 74
     0
 42
0.0000000001
 43
0.0000000001
 40
0.0
 40
0.0
 40
0.0
 40
0.0
 40
1.0
 40
1.0
 40
1.0
 40
2.0
 40
2.0
 40
2.0
 40
3.0
 40
3.0
 40
3.0
 40
4.0
 40
4.0
 40
4.0
 40
4.0
 10
69.21348890217444
 20
-37.52358788061978
 30
0.0
 10
70.15406310766232
 20
-37.52358788061978
 30
0.0
 10
70.91659476495419
 20
-36.76105622332566
 30
0.0
 10
70.91659476495419
 20
-35.82093597640131
 30
0.0
 10
70.91659476495419
 20
-34.88012780765477
 30
0.0
 10
70.15406310766232
 20
-34.11782662163111
 30
0.0
 10
69.21348890217444
 20
-34.11782662163111
 30
0.0
 10
68.27290771270952
 20
-34.11782662163111
 30
0.0
 10
67.51060652668552
 20
-34.88012780765477
 30
0.0
 10
67.51060652668552
 20
-35.82093597640131
 30
0.0
 10
67.51060652668552
 20
-36.76105622332566
 30
0.0
 10
68.27290771270952
 20
-37.52358788061978
 30
0.0
 10
69.21348890217444
 20
-37.52358788061978
 30
0.0
  0
LINE
  5
C7
330
79
100
AcDbEntity
  8
Camada 1
  6
AI-Linetype-2
 62
    18
420
        0
370
    15
100
AcDbLine
 10
71.02983298236456
 20
-35.82073344104261
 30
0.0
 11
67.39682355900317
 21
-35.82073344104261
 31
0.0
  0
LINE
  5
C9
330
79
100
AcDbEntity
  8
Camada 1
  6
AI-Linetype-3
 62
    18
420
        0
370
    15
100
AcDbLine
 10
69.21348890217444
 20
-34.0043649169299
 30
0.0
 11
69.21348890217444
 21
-37.63714386902247
 31
0.0
  0
LINE
  5
CB
330
79
100
AcDbEntity
  8
Camada 1
 62
    18
420
        0
370
    15
100
AcDbLine
 10
26.34127791115174
 20
-59.85078793618038
 30
0.0
 11
26.34127791115174
 21
-59.94988359837455
 31
0.0
  0
LINE
  5
CC
330
79
100
AcDbEntity
  8
Camada 1
 62
    18
420
        0
370
    15
100
AcDbLine
 10
24.39927111689492
 20
-71.1281068603368
 30
0.0
 11
24.53589169225967
 21
-71.1281068603368
 31
0.0
  0
LINE
  5
CD
330
79
100
AcDbEntity
  8
Camada 1
 62
    18
420
        0
370
    15
100
AcDbLine
 10
36.71122446067587
 20
-71.1281068603368
 30
0.0
 11
36.84784503604383
 21
-71.1281068603368
 31
0.0
  0
LINE
  5
CE
330
79
100
AcDbEntity
  8
Camada 1
 62
    18
420
        0
370
    15
100
AcDbLine
 10
24.40739348317639
 20
-70.7853087818744
 30
0.0
 11
24.5440140585373
 21
-70.7853087818744
 31
0.0
  0
LINE
  5
CF
330
79
100
AcDbEntity
  8
Camada 1
 62
    18
420
        0
370
    15
100
AcDbLine
 10
36.70305669854064
 20
-70.7853087818744
 30
0.0
 11
36.8396772739086
 21
-70.7853087818744
 31
0.0
  0
LINE
  5
D0
330
79
100
AcDbEntity
  8
Camada 1
 62
    18
420
        0
370
    15
100
AcDbLine
 10
24.40739348317639
 20
-70.37747590135658
 30
0.0
 11
24.5440140585373
 21
-70.37747590135658
 31
0.0
  0
LINE
  5
D1
330
79
100
AcDbEntity
  8
Camada 1
 62
    18
420
        0
370
    15
100
AcDbLine
 10
36.70305669854064
 20
-70.37747590135658
 30
0.0
 11
36.8396772739086
 21
-70.37747590135658
 31
0.0
  0
LINE
  5
D2
330
79
100
AcDbEntity
  8
Camada 1
 62
    18
420
        0
370
    15
100
AcDbLine
 10
24.40739348317639
 20
-70.04609662673442
 30
0.0
 11
24.5440140585373
 21
-70.04609662673442
 31
0.0
  0
LINE
  5
D3
330
79
100
AcDbEntity
  8
Camada 1
 62
    18
420
        0
370
    15
100
AcDbLine
 10
36.70305669854064
 20
-70.04609662673442
 30
0.0
 11
36.8396772739086
 21
-70.04609662673442
 31
0.0
  0
LINE
  5
D4
330
79
100
AcDbEntity
  8
Camada 1
 62
    18
420
        0
370
    15
100
AcDbLine
 10
24.40739348317639
 20
-69.63826374621787
 30
0.0
 11
24.5440140585373
 21
-69.63826374621787
 31
0.0
  0
LINE
  5
D5
330
79
100
AcDbEntity
  8
Camada 1
 62
    18
420
        0
370
    15
100
AcDbLine
 10
36.70305669854064
 20
-69.63826374621787
 30
0.0
 11
36.8396772739086
 21
-69.63826374621787
 31
0.0
  0
LINE
  5
D6
330
79
100
AcDbEntity
  8
Camada 1
 62
    18
420
        0
370
    15
100
AcDbLine
 10
24.40739348317639
 20
-69.30688796358328
 30
0.0
 11
24.5440140585373
 21
-69.30688796358328
 31
0.0
  0
LINE
  5
D7
330
79
100
AcDbEntity
  8
Camada 1
 62
    18
420
        0
370
    15
100
AcDbLine
 10
36.70305669854064
 20
-69.30688796358328
 30
0.0
 11
36.8396772739086
 21
-69.30688796358328
 31
0.0
  0
LINE
  5
D8
330
79
100
AcDbEntity
  8
Camada 1
 62
    18
420
        0
370
    15
100
AcDbLine
 10
24.40739348317639
 20
-68.89905159107789
 30
0.0
 11
24.5440140585373
 21
-68.89905159107789
 31
0.0
  0
LINE
  5
D9
330
79
100
AcDbEntity
  8
Camada 1
 62
    18
420
        0
370
    15
100
AcDbLine
 10
36.70305669854064
 20
-68.89905159107789
 30
0.0
 11
36.8396772739086
 21
-68.89905159107789
 31
0.0
  0
LINE
  5
DA
330
79
100
AcDbEntity
  8
Camada 1
 62
    18
420
        0
370
    15
100
AcDbLine
 10
24.40739348317639
 20
-68.5676758084433
 30
0.0
 11
24.5440140585373
 21
-68.5676758084433
 31
0.0
  0
LINE
  5
DB
330
79
100
AcDbEntity
  8
Camada 1
 62
    18
420
        0
370
    15
100
AcDbLine
 10
36.70305669854064
 20
-68.5676758084433
 30
0.0
 11
36.8396772739086
 21
-68.5676758084433
 31
0.0
  0
LINE
  5
DC
330
79
100
AcDbEntity
  8
Camada 1
 62
    18
420
        0
370
    15
100
AcDbLine
 10
29.41840809081168
 20
-65.62362183536855
 30
0.0
 11
29.23189397744449
 21
-59.58767704537248
 31
0.0
  0
LINE
  5
DD
330
79
100
AcDbEntity
  8
Camada 1
 62
    18
420
        0
370
    15
100
AcDbLine
 10
24.40739348317639
 20
-68.1598184840048
 30
0.0
 11
24.5440140585373
 21
-68.1598184840048
 31
0.0
  0
LINE
  5
DE
330
79
100
AcDbEntity
  8
Camada 1
 62
    18
420
        0
370
    15
100
AcDbLine
 10
36.70305669854064
 20
-68.1598184840048
 30
0.0
 11
36.8396772739086
 21
-68.1598184840048
 31
0.0
  0
LINE
  5
DF
330
79
100
AcDbEntity
  8
Camada 1
 62
    18
420
        0
370
    15
100
AcDbLine
 10
24.40739348317639
 20
-67.82843920938265
 30
0.0
 11
24.5440140585373
 21
-67.82843920938265
 31
0.0
  0
LINE
  5
E0
330
79
100
AcDbEntity
  8
Camada 1
 62
    18
420
        0
370
    15
100
AcDbLine
 10
36.70305669854064
 20
-67.82843920938265
 30
0.0
 11
36.8396772739086
 21
-67.82843920938265
 31
0.0
  0
LINE
  5
E1
330
79
100
AcDbEntity
  8
Camada 1
 62
    18
420
        0
370
    15
100
AcDbLine
 10
24.40739348317639
 20
-67.42060632886482
 30
0.0
 11
24.5440140585373
 21
-67.42060632886482
 31
0.0
  0
LINE
  5
E2
330
79
100
AcDbEntity
  8
Camada 1
 62
    18
420
        0
370
    15
100
AcDbLine
 10
36.70305669854064
 20
-67.42060632886482
 30
0.0
 11
36.8396772739086
 21
-67.42060632886482
 31
0.0
  0
LINE
  5
E3
330
79
100
AcDbEntity
  8
Camada 1
 62
    18
420
        0
370
    15
100
AcDbLine
 10
24.40739348317639
 20
-67.0892305462315
 30
0.0
 11
24.5440140585373
 21
-67.0892305462315
 31
0.0
  0
LINE
  5
E4
330
79
100
AcDbEntity
  8
Camada 1
 62
    18
420
        0
370
    15
100
AcDbLine
 10
36.70305669854064
 20
-67.0892305462315
 30
0.0
 11
36.8396772739086
 21
-67.0892305462315
 31
0.0
  0
LINE
  5
E5
330
79
100
AcDbEntity
  8
Camada 1
 62
    18
420
        0
370
    15
100
AcDbLine
 10
24.40739348317639
 20
-66.68139417372483
 30
0.0
 11
24.5440140585373
 21
-66.68139417372483
 31
0.0
  0
LINE
  5
E6
330
79
100
AcDbEntity
  8
Camada 1
 62
    18
420
        0
370
    15
100
AcDbLine
 10
36.70305669854064
 20
-66.68139417372483
 30
0.0
 11
36.8396772739086
 21
-66.68139417372483
 31
0.0
  0
LINE
  5
E7
330
79
100
AcDbEntity
  8
Camada 1
 62
    18
420
        0
370
    15
100
AcDbLine
 10
24.40739348317639
 20
-66.35001839109152
 30
0.0
 11
24.5440140585373
 21
-66.35001839109152
 31
0.0
  0
LINE
  5
E8
330
79
100
AcDbEntity
  8
Camada 1
 62
    18
420
        0
370
    15
100
AcDbLine
 10
36.70305669854064
 20
-66.35001839109152
 30
0.0
 11
36.8396772739086
 21
-66.35001839109152
 31
0.0
  0
LINE
  5
E9
330
79
100
AcDbEntity
  8
Camada 1
 62
    18
420
        0
370
    15
100
AcDbLine
 10
24.40739348317639
 20
-65.94218201858485
 30
0.0
 11
24.5440140585373
 21
-65.94218201858485
 31
0.0
  0
LINE
  5
EA
330
79
100
AcDbEntity
  8
Camada 1
 62
    18
420
        0
370
    15
100
AcDbLine
 10
36.70305669854064
 20
-65.94218201858485
 30
0.0
 11
36.8396772739086
 21
-65.94218201858485
 31
0.0
  0
LINE
  5
EB
330
79
100
AcDbEntity
  8
Camada 1
 62
    18
420
        0
370
    15
100
AcDbLine
 10
29.73609876878276
 20
-65.92503984486974
 30
0.0
 11
31.51083580073071
 21
-65.92503984486974
 31
0.0
  0
LINE
  5
EC
330
79
100
AcDbEntity
  8
Camada 1
 62
    18
420
        0
370
    15
100
AcDbLine
 10
24.40739348317639
 20
-65.61078179202958
 30
0.0
 11
24.5440140585373
 21
-65.61078179202958
 31
0.0
  0
LINE
  5
ED
330
79
100
AcDbEntity
  8
Camada 1
 62
    18
420
        0
370
    15
100
AcDbLine
 10
36.70305669854064
 20
-65.61078179202958
 30
0.0
 11
36.8396772739086
 21
-65.61078179202958
 31
0.0
  0
LINE
  5
EE
330
79
100
AcDbEntity
  8
Camada 1
 62
    18
420
        0
370
    15
100
AcDbLine
 10
32.01513487576469
 20
-59.58765260145054
 30
0.0
 11
31.82862076240103
 21
-65.62359739144662
 31
0.0
  0
LINE
  5
EF
330
79
100
AcDbEntity
  8
Camada 1
 62
    18
420
        0
370
    15
100
AcDbLine
 10
24.40739348317639
 20
-65.20294891151177
 30
0.0
 11
24.5440140585373
 21
-65.20294891151177
 31
0.0
  0
LINE
  5
F0
330
79
100
AcDbEntity
  8
Camada 1
 62
    18
420
        0
370
    15
100
AcDbLine
 10
36.70305669854064
 20
-65.20294891151177
 30
0.0
 11
36.8396772739086
 21
-65.20294891151177
 31
0.0
  0
LINE
  5
F1
330
79
100
AcDbEntity
  8
Camada 1
 62
    18
420
        0
370
    15
100
AcDbLine
 10
24.40739348317639
 20
-64.87159408081282
 30
0.0
 11
24.5440140585373
 21
-64.87159408081282
 31
0.0
  0
LINE
  5
F2
330
79
100
AcDbEntity
  8
Camada 1
 62
    18
420
        0
370
    15
100
AcDbLine
 10
36.70305669854064
 20
-64.87159408081282
 30
0.0
 11
36.8396772739086
 21
-64.87159408081282
 31
0.0
  0
LINE
  5
F3
330
79
100
AcDbEntity
  8
Camada 1
 62
    18
420
        0
370
    15
100
AcDbLine
 10
24.40739348317639
 20
-64.46371231244983
 30
0.0
 11
24.5440140585373
 21
-64.46371231244983
 31
0.0
  0
LINE
  5
F4
330
79
100
AcDbEntity
  8
Camada 1
 62
    18
420
        0
370
    15
100
AcDbLine
 10
36.70305669854064
 20
-64.46371231244983
 30
0.0
 11
36.8396772739086
 21
-64.46371231244983
 31
0.0
  0
LINE
  5
F5
330
79
100
AcDbEntity
  8
Camada 1
 62
    18
420
        0
370
    15
100
AcDbLine
 10
24.40739348317639
 20
-64.13236097373846
 30
0.0
 11
24.5440140585373
 21
-64.13236097373846
 31
0.0
  0
LINE
  5
F6
330
79
100
AcDbEntity
  8
Camada 1
 62
    18
420
        0
370
    15
100
AcDbLine
 10
36.70305669854064
 20
-64.13236097373846
 30
0.0
 11
36.8396772739086
 21
-64.13236097373846
 31
0.0
  0
LINE
  5
F7
330
79
100
AcDbEntity
  8
Camada 1
 62
    18
420
        0
370
    15
100
AcDbLine
 10
24.40739348317639
 20
-63.72452460123307
 30
0.0
 11
24.5440140585373
 21
-63.72452460123307
 31
0.0
  0
LINE
  5
F8
330
79
100
AcDbEntity
  8
Camada 1
 62
    18
420
        0
370
    15
100
AcDbLine
 10
36.70305669854064
 20
-63.72452460123307
 30
0.0
 11
36.8396772739086
 21
-63.72452460123307
 31
0.0
  0
LINE
  5
F9
330
79
100
AcDbEntity
  8
Camada 1
 62
    18
420
        0
370
    15
100
AcDbLine
 10
24.40739348317639
 20
-63.39314881859976
 30
0.0
 11
24.5440140585373
 21
-63.39314881859976
 31
0.0
  0
LINE
  5
FA
330
79
100
AcDbEntity
  8
Camada 1
 62
    18
420
        0
370
    15
100
AcDbLine
 10
36.70305669854064
 20
-63.39314881859976
 30
0.0
 11
36.8396772739086
 21
-63.39314881859976
 31
0.0
  0
LINE
  5
FB
330
79
100
AcDbEntity
  8
Camada 1
 62
    18
420
        0
370
    15
100
AcDbLine
 10
24.40739348317639
 20
-62.98529149415998
 30
0.0
 11
24.5440140585373
 21
-62.98529149415998
 31
0.0
  0
LINE
  5
FC
330
79
100
AcDbEntity
  8
Camada 1
 62
    18
420
        0
370
    15
100
AcDbLine
 10
36.70305669854064
 20
-62.98529149415998
 30
0.0
 11
36.8396772739086
 21
-62.98529149415998
 31
0.0
  0
LWPOLYLINE
  5
FD
330
79
100
AcDbEntity
  8
Camada 1
 62
    18
420
        0
370
    15
100
AcDbPolyline
 90
        3
 70
     0
 43
0.0
 10
34.90579633791826
 20
-62.85823198451906
 10
34.90579633791826
 20
-71.56418294741573
 10
38.41133419694493
 20
-71.56418294741573
  0
LINE
  5
FE
330
79
100
AcDbEntity
  8
Camada 1
 62
    18
420
        0
370
    15
100
AcDbLine
 10
34.90579633791826
 20
-59.94985566246376
 30
0.0
 11
34.90579633791826
 21
-59.85282376573323
 31
0.0
  0
LINE
  5
FF
330
79
100
AcDbEntity
  8
Camada 1
 62
    18
420
        0
370
    15
100
AcDbLine
 10
24.40739348317639
 20
-62.65393666345977
 30
0.0
 11
24.5440140585373
 21
-62.65393666345977
 31
0.0
  0
LINE
  5
100
330
79
100
AcDbEntity
  8
Camada 1
 62
    18
420
        0
370
    15
100
AcDbLine
 10
36.70305669854064
 20
-62.65393666345977
 30
0.0
 11
36.8396772739086
 21
-62.65393666345977
 31
0.0
  0
LINE
  5
101
330
79
100
AcDbEntity
  8
Camada 1
 62
    18
420
        0
370
    15
100
AcDbLine
 10
24.40739348317639
 20
-62.24607933901999
 30
0.0
 11
24.5440140585373
 21
-62.24607933901999
 31
0.0
  0
LINE
  5
102
330
79
100
AcDbEntity
  8
Camada 1
 62
    18
420
        0
370
    15
100
AcDbLine
 10
36.70305669854064
 20
-62.24607933901999
 30
0.0
 11
36.8396772739086
 21
-62.24607933901999
 31
0.0
  0
LINE
  5
103
330
79
100
AcDbEntity
  8
Camada 1
 62
    18
420
        0
370
    15
100
AcDbLine
 10
24.40739348317639
 20
-61.91470355638668
 30
0.0
 11
24.5440140585373
 21
-61.91470355638668
 31
0.0
  0
LINE
  5
104
330
79
100
AcDbEntity
  8
Camada 1
 62
    18
420
        0
370
    15
100
AcDbLine
 10
36.70305669854064
 20
-61.91470355638668
 30
0.0
 11
36.8396772739086
 21
-61.91470355638668
 31
0.0
  0
LINE
  5
105
330
79
100
AcDbEntity
  8
Camada 1
 62
    18
420
        0
370
    15
100
AcDbLine
 10
24.40739348317639
 20
-61.50686718388001
 30
0.0
 11
24.5440140585373
 21
-61.50686718388001
 31
0.0
  0
LINE
  5
106
330
79
100
AcDbEntity
  8
Camada 1
 62
    18
420
        0
370
    15
100
AcDbLine
 10
36.70305669854064
 20
-61.50686718388001
 30
0.0
 11
36.8396772739086
 21
-61.50686718388001
 31
0.0
  0
LINE
  5
107
330
79
100
AcDbEntity
  8
Camada 1
 62
    18
420
        0
370
    15
100
AcDbLine
 10
24.40739348317639
 20
-61.17549140124669
 30
0.0
 11
24.5440140585373
 21
-61.17549140124669
 31
0.0
  0
LINE
  5
108
330
79
100
AcDbEntity
  8
Camada 1
 62
    18
420
        0
370
    15
100
AcDbLine
 10
36.70305669854064
 20
-61.17549140124669
 30
0.0
 11
36.8396772739086
 21
-61.17549140124669
 31
0.0
  0
LINE
  5
109
330
79
100
AcDbEntity
  8
Camada 1
 62
    18
420
        0
370
    15
100
AcDbLine
 10
24.40739348317639
 20
-60.76763407680822
 30
0.0
 11
24.5440140585373
 21
-60.76763407680822
 31
0.0
  0
LINE
  5
10A
330
79
100
AcDbEntity
  8
Camada 1
 62
    18
420
        0
370
    15
100
AcDbLine
 10
36.70305669854064
 20
-60.76763407680822
 30
0.0
 11
36.8396772739086
 21
-60.76763407680822
 31
0.0
  0
LINE
  5
10B
330
79
100
AcDbEntity
  8
Camada 1
 62
    18
420
        0
370
    15
100
AcDbLine
 10
24.40739348317639
 20
-60.43625480218477
 30
0.0
 11
24.5440140585373
 21
-60.43625480218477
 31
0.0
  0
LINE
  5
10C
330
79
100
AcDbEntity
  8
Camada 1
 62
    18
420
        0
370
    15
100
AcDbLine
 10
36.70305669854064
 20
-60.43625480218477
 30
0.0
 11
36.8396772739086
 21
-60.43625480218477
 31
0.0
  0
LINE
  5
10D
330
79
100
AcDbEntity
  8
Camada 1
 62
    18
420
        0
370
    15
100
AcDbLine
 10
24.40739348317639
 20
-60.02842192166823
 30
0.0
 11
24.5440140585373
 21
-60.02842192166823
 31
0.0
  0
LINE
  5
10E
330
79
100
AcDbEntity
  8
Camada 1
 62
    18
420
        0
370
    15
100
AcDbLine
 10
36.70305669854064
 20
-60.02842192166823
 30
0.0
 11
36.8396772739086
 21
-60.02842192166823
 31
0.0
  0
LINE
  5
10F
330
79
100
AcDbEntity
  8
Camada 1
 62
    18
420
        0
370
    15
100
AcDbLine
 10
24.40739348317639
 20
-59.69704613903362
 30
0.0
 11
24.5440140585373
 21
-59.69704613903362
 31
0.0
  0
LINE
  5
110
330
79
100
AcDbEntity
  8
Camada 1
 62
    18
420
        0
370
    15
100
AcDbLine
 10
36.70305669854064
 20
-59.69704613903362
 30
0.0
 11
36.8396772739086
 21
-59.69704613903362
 31
0.0
  0
LINE
  5
111
330
79
100
AcDbEntity
  8
Camada 1
 62
    18
420
        0
370
    15
100
AcDbLine
 10
34.633326916751
 20
-59.58765260145054
 30
0.0
 11
26.61370193646203
 21
-59.58765260145054
 31
0.0
  0
LINE
  5
112
330
79
100
AcDbEntity
  8
Camada 1
 62
    18
420
        0
370
    15
100
AcDbLine
 10
24.40739348317639
 20
-59.28920976652823
 30
0.0
 11
24.5440140585373
 21
-59.28920976652823
 31
0.0
  0
LINE
  5
113
330
79
100
AcDbEntity
  8
Camada 1
 62
    18
420
        0
370
    15
100
AcDbLine
 10
36.70305669854064
 20
-59.28920976652823
 30
0.0
 11
36.8396772739086
 21
-59.28920976652823
 31
0.0
  0
LINE
  5
114
330
79
100
AcDbEntity
  8
Camada 1
 62
    18
420
        0
370
    15
100
AcDbLine
 10
24.40739348317639
 20
-58.95783398389492
 30
0.0
 11
24.5440140585373
 21
-58.95783398389492
 31
0.0
  0
LINE
  5
115
330
79
100
AcDbEntity
  8
Camada 1
 62
    18
420
        0
370
    15
100
AcDbLine
 10
36.70305669854064
 20
-58.95783398389492
 30
0.0
 11
36.8396772739086
 21
-58.95783398389492
 31
0.0
  0
LINE
  5
116
330
79
100
AcDbEntity
  8
Camada 1
 62
    18
420
        0
370
    15
100
AcDbLine
 10
24.40739348317639
 20
-58.54999761138824
 30
0.0
 11
24.5440140585373
 21
-58.54999761138824
 31
0.0
  0
LINE
  5
117
330
79
100
AcDbEntity
  8
Camada 1
 62
    18
420
        0
370
    15
100
AcDbLine
 10
36.70305669854064
 20
-58.54999761138824
 30
0.0
 11
36.8396772739086
 21
-58.54999761138824
 31
0.0
  0
LINE
  5
118
330
79
100
AcDbEntity
  8
Camada 1
 62
    18
420
        0
370
    15
100
AcDbLine
 10
24.53584978839091
 20
-58.20720302491469
 30
0.0
 11
24.39922572103796
 21
-58.20720302491469
 31
0.0
  0
LINE
  5
119
330
79
100
AcDbEntity
  8
Camada 1
 62
    18
420
        0
370
    15
100
AcDbLine
 10
36.71122446067587
 20
-58.20720302491469
 30
0.0
 11
36.84784503604383
 21
-58.20720302491469
 31
0.0
  0
LINE
  5
11A
330
79
100
AcDbEntity
  8
Camada 1
 62
    18
420
        0
370
    15
100
AcDbLine
 10
22.83576100405623
 20
-57.77126312540346
 30
0.0
 11
38.41135864086751
 21
-57.77126312540346
 31
0.0
  0
SPLINE
  5
11B
330
79
100
AcDbEntity
  8
Camada 1
 62
    18
420
        0
370
    15
100
AcDbSpline
210
0.0
220
0.0
230
1.0
 70
     8
 71
     3
 72
     8
 73
     4
 74
     0
 42
0.0000000001
 43
0.0000000001
 40
0.0
 40
0.0
 40
0.0
 40
0.0
 40
1.0
 40
1.0
 40
1.0
 40
1.0
 10
24.54404199444873
 20
-68.1598184840048
 30
0.0
 10
24.46051012696854
 20
-68.28294252210773
 30
0.0
 10
24.46051012696854
 20
-68.4445098664729
 30
0.0
 10
24.54404199444873
 20
-68.56763390457711
 30
0.0
  0
SPLINE
  5
11C
330
79
100
AcDbEntity
  8
Camada 1
 62
    18
420
        0
370
    15
100
AcDbSpline
210
0.0
220
0.0
230
1.0
 70
     8
 71
     3
 72
     8
 73
     4
 74
     0
 42
0.0000000001
 43
0.0000000001
 40
0.0
 40
0.0
 40
0.0
 40
0.0
 40
1.0
 40
1.0
 40
1.0
 40
1.0
 10
24.54404199444873
 20
-68.89905159107789
 30
0.0
 10
24.46051012696854
 20
-69.0221756291821
 30
0.0
 10
24.46051012696854
 20
-69.18374297354597
 30
0.0
 10
24.54404199444873
 20
-69.30686701165019
 30
0.0
  0
SPLINE
  5
11D
330
79
100
AcDbEntity
  8
Camada 1
 62
    18
420
        0
370
    15
100
AcDbSpline
210
0.0
220
0.0
230
1.0
 70
     8
 71
     3
 72
     8
 73
     4
 74
     0
 42
0.0000000001
 43
0.0000000001
 40
0.0
 40
0.0
 40
0.0
 40
0.0
 40
1.0
 40
1.0
 40
1.0
 40
1.0
 10
24.54404199444873
 20
-69.63826374621787
 30
0.0
 10
24.46051012696854
 20
-69.7613877843208
 30
0.0
 10
24.46051012696854
 20
-69.92295512868597
 30
0.0
 10
24.54404199444873
 20
-70.04607916679018
 30
0.0
  0
SPLINE
  5
11E
330
79
100
AcDbEntity
  8
Camada 1
 62
    18
420
        0
370
    15
100
AcDbSpline
210
0.0
220
0.0
230
1.0
 70
     8
 71
     3
 72
     8
 73
     4
 74
     0
 42
0.0000000001
 43
0.0000000001
 40
0.0
 40
0.0
 40
0.0
 40
0.0
 40
1.0
 40
1.0
 40
1.0
 40
1.0
 10
24.54404199444873
 20
-70.37747590135658
 30
0.0
 10
24.46051012696854
 20
-70.5005999394608
 30
0.0
 10
24.46051012696854
 20
-70.66216728382595
 30
0.0
 10
24.54404199444873
 20
-70.78529132192888
 30
0.0
  0
SPLINE
  5
11F
330
79
100
AcDbEntity
  8
Camada 1
 62
    18
420
        0
370
    15
100
AcDbSpline
210
0.0
220
0.0
230
1.0
 70
     8
 71
     3
 72
     8
 73
     4
 74
     0
 42
0.0000000001
 43
0.0000000001
 40
0.0
 40
0.0
 40
0.0
 40
0.0
 40
1.0
 40
1.0
 40
1.0
 40
1.0
 10
24.53584978839091
 20
-71.1281068603368
 30
0.0
 10
24.61182499180304
 20
-71.02741535919631
 30
0.0
 10
24.61503063765011
 20
-70.88964591947074
 30
0.0
 10
24.54408739030601
 20
-70.78529132192888
 30
0.0
  0
SPLINE
  5
120
330
79
100
AcDbEntity
  8
Camada 1
 62
    18
420
        0
370
    15
100
AcDbSpline
210
0.0
220
0.0
230
1.0
 70
     8
 71
     3
 72
     8
 73
     4
 74
     0
 42
0.0000000001
 43
0.0000000001
 40
0.0
 40
0.0
 40
0.0
 40
0.0
 40
1.0
 40
1.0
 40
1.0
 40
1.0
 10
24.54404199444873
 20
-68.89905159107789
 30
0.0
 10
24.61223704649555
 20
-68.79904451976976
 30
0.0
 10
24.61223704649555
 20
-68.66745590047111
 30
0.0
 10
24.54404199444873
 20
-68.5676758084433
 30
0.0
  0
SPLINE
  5
121
330
79
100
AcDbEntity
  8
Camada 1
 62
    18
420
        0
370
    15
100
AcDbSpline
210
0.0
220
0.0
230
1.0
 70
     8
 71
     3
 72
     8
 73
     4
 74
     0
 42
0.0000000001
 43
0.0000000001
 40
0.0
 40
0.0
 40
0.0
 40
0.0
 40
1.0
 40
1.0
 40
1.0
 40
1.0
 10
24.54404199444873
 20
-69.63826374621787
 30
0.0
 10
24.61223704649555
 20
-69.53825667490974
 30
0.0
 10
24.61223704649555
 20
-69.40666805560981
 30
0.0
 10
24.54404199444873
 20
-69.30688796358328
 30
0.0
  0
SPLINE
  5
122
330
79
100
AcDbEntity
  8
Camada 1
 62
    18
420
        0
370
    15
100
AcDbSpline
210
0.0
220
0.0
230
1.0
 70
     8
 71
     3
 72
     8
 73
     4
 74
     0
 42
0.0000000001
 43
0.0000000001
 40
0.0
 40
0.0
 40
0.0
 40
0.0
 40
1.0
 40
1.0
 40
1.0
 40
1.0
 10
24.54404199444873
 20
-70.37747590135658
 30
0.0
 10
24.61223704649555
 20
-70.27746883004846
 30
0.0
 10
24.61223704649555
 20
-70.14588021074979
 30
0.0
 10
24.54404199444873
 20
-70.04610011872327
 30
0.0
  0
SPLINE
  5
123
330
79
100
AcDbEntity
  8
Camada 1
 62
    18
420
        0
370
    15
100
AcDbSpline
210
0.0
220
0.0
230
1.0
 70
     8
 71
     3
 72
    11
 73
     7
 74
     0
 42
0.0000000001
 43
0.0000000001
 40
0.0
 40
0.0
 40
0.0
 40
0.0
 40
1.0
 40
1.0
 40
1.0
 40
2.0
 40
2.0
 40
2.0
 40
2.0
 10
24.53584978839091
 20
-71.1281068603368
 30
0.0
 10
24.44567964993402
 20
-71.24848270314245
 30
0.0
 10
24.4699384971145
 20
-71.41943651378385
 30
0.0
 10
24.59031433991983
 20
-71.50960316025383
 30
0.0
 10
24.63745619063646
 20
-71.54484780464445
 30
0.0
 10
24.69466893745944
 20
-71.56407120376998
 30
0.0
 10
24.75348450720901
 20
-71.56407120376998
 30
0.0
  0
SPLINE
  5
124
330
79
100
AcDbEntity
  8
Camada 1
 62
    18
420
        0
370
    15
100
AcDbSpline
210
0.0
220
0.0
230
1.0
 70
     8
 71
     3
 72
    11
 73
     7
 74
     0
 42
0.0000000001
 43
0.0000000001
 40
0.0
 40
0.0
 40
0.0
 40
0.0
 40
1.0
 40
1.0
 40
1.0
 40
2.0
 40
2.0
 40
2.0
 40
2.0
 10
22.617805022256
 20
-71.1281068603368
 30
0.0
 10
22.52740790451686
 20
-71.24848270314245
 30
0.0
 10
22.55189373097991
 20
-71.41943651378385
 30
0.0
 10
22.67226957378492
 20
-71.50960316025383
 30
0.0
 10
22.71941142449802
 20
-71.54484780464445
 30
0.0
 10
22.7768546425953
 20
-71.56407120376998
 30
0.0
 10
22.83589719162391
 20
-71.56407120376998
 30
0.0
  0
SPLINE
  5
125
330
79
100
AcDbEntity
  8
Camada 1
 62
    18
420
        0
370
    15
100
AcDbSpline
210
0.0
220
0.0
230
1.0
 70
     8
 71
     3
 72
     8
 73
     4
 74
     0
 42
0.0000000001
 43
0.0000000001
 40
0.0
 40
0.0
 40
0.0
 40
0.0
 40
1.0
 40
1.0
 40
1.0
 40
1.0
 10
24.54404199444873
 20
-65.94218201858485
 30
0.0
 10
24.46051012696854
 20
-66.06530605668905
 30
0.0
 10
24.46051012696854
 20
-66.22687340105422
 30
0.0
 10
24.54404199444873
 20
-66.34999743915843
 30
0.0
  0
SPLINE
  5
126
330
79
100
AcDbEntity
  8
Camada 1
 62
    18
420
        0
370
    15
100
AcDbSpline
210
0.0
220
0.0
230
1.0
 70
     8
 71
     3
 72
     8
 73
     4
 74
     0
 42
0.0000000001
 43
0.0000000001
 40
0.0
 40
0.0
 40
0.0
 40
0.0
 40
1.0
 40
1.0
 40
1.0
 40
1.0
 10
24.54404199444873
 20
-66.68139417372483
 30
0.0
 10
24.46051012696854
 20
-66.80451821182903
 30
0.0
 10
24.46051012696854
 20
-66.9660855561942
 30
0.0
 10
24.54404199444873
 20
-67.08920959429841
 30
0.0
  0
SPLINE
  5
127
330
79
100
AcDbEntity
  8
Camada 1
 62
    18
420
        0
370
    15
100
AcDbSpline
210
0.0
220
0.0
230
1.0
 70
     8
 71
     3
 72
     8
 73
     4
 74
     0
 42
0.0000000001
 43
0.0000000001
 40
0.0
 40
0.0
 40
0.0
 40
0.0
 40
1.0
 40
1.0
 40
1.0
 40
1.0
 10
24.54404199444873
 20
-67.42060632886482
 30
0.0
 10
24.46051012696854
 20
-67.54373036696775
 30
0.0
 10
24.46051012696854
 20
-67.7052977113342
 30
0.0
 10
24.54404199444873
 20
-67.82842174943711
 30
0.0
  0
SPLINE
  5
128
330
79
100
AcDbEntity
  8
Camada 1
 62
    18
420
        0
370
    15
100
AcDbSpline
210
0.0
220
0.0
230
1.0
 70
     8
 71
     3
 72
     8
 73
     4
 74
     0
 42
0.0000000001
 43
0.0000000001
 40
0.0
 40
0.0
 40
0.0
 40
0.0
 40
1.0
 40
1.0
 40
1.0
 40
1.0
 10
24.54404199444873
 20
-65.94218201858485
 30
0.0
 10
24.61223704649555
 20
-65.84217494727799
 30
0.0
 10
24.61223704649555
 20
-65.71058632797934
 30
0.0
 10
24.54404199444873
 20
-65.61080623595152
 30
0.0
  0
SPLINE
  5
129
330
79
100
AcDbEntity
  8
Camada 1
 62
    18
420
        0
370
    15
100
AcDbSpline
210
0.0
220
0.0
230
1.0
 70
     8
 71
     3
 72
     8
 73
     4
 74
     0
 42
0.0000000001
 43
0.0000000001
 40
0.0
 40
0.0
 40
0.0
 40
0.0
 40
1.0
 40
1.0
 40
1.0
 40
1.0
 10
24.54404199444873
 20
-66.68139417372483
 30
0.0
 10
24.61223704649555
 20
-66.5813871024167
 30
0.0
 10
24.61223704649555
 20
-66.44979848311804
 30
0.0
 10
24.54404199444873
 20
-66.35001839109152
 30
0.0
  0
SPLINE
  5
12A
330
79
100
AcDbEntity
  8
Camada 1
 62
    18
420
        0
370
    15
100
AcDbSpline
210
0.0
220
0.0
230
1.0
 70
     8
 71
     3
 72
     8
 73
     4
 74
     0
 42
0.0000000001
 43
0.0000000001
 40
0.0
 40
0.0
 40
0.0
 40
0.0
 40
1.0
 40
1.0
 40
1.0
 40
1.0
 10
24.54404199444873
 20
-67.42060632886482
 30
0.0
 10
24.61223704649555
 20
-67.32059925755669
 30
0.0
 10
24.61223704649555
 20
-67.1892411095272
 30
0.0
 10
24.54404199444873
 20
-67.0892305462315
 30
0.0
  0
SPLINE
  5
12B
330
79
100
AcDbEntity
  8
Camada 1
 62
    18
420
        0
370
    15
100
AcDbSpline
210
0.0
220
0.0
230
1.0
 70
     8
 71
     3
 72
     8
 73
     4
 74
     0
 42
0.0000000001
 43
0.0000000001
 40
0.0
 40
0.0
 40
0.0
 40
0.0
 40
1.0
 40
1.0
 40
1.0
 40
1.0
 10
24.54404199444873
 20
-68.1598184840048
 30
0.0
 10
24.61223704649555
 20
-68.05981141269668
 30
0.0
 10
24.61223704649555
 20
-67.92845326466848
 30
0.0
 10
24.54404199444873
 20
-67.8284427013715
 30
0.0
  0
SPLINE
  5
12C
330
79
100
AcDbEntity
  8
Camada 1
 62
    18
420
        0
370
    15
100
AcDbSpline
210
0.0
220
0.0
230
1.0
 70
     8
 71
     3
 72
     8
 73
     4
 74
     0
 42
0.0000000001
 43
0.0000000001
 40
0.0
 40
0.0
 40
0.0
 40
0.0
 40
1.0
 40
1.0
 40
1.0
 40
1.0
 10
24.54404199444873
 20
-62.98529149415998
 30
0.0
 10
24.46051012696854
 20
-63.10841553226291
 30
0.0
 10
24.46051012696854
 20
-63.26998287662935
 30
0.0
 10
24.54404199444873
 20
-63.39310691473229
 30
0.0
  0
SPLINE
  5
12D
330
79
100
AcDbEntity
  8
Camada 1
 62
    18
420
        0
370
    15
100
AcDbSpline
210
0.0
220
0.0
230
1.0
 70
     8
 71
     3
 72
     8
 73
     4
 74
     0
 42
0.0000000001
 43
0.0000000001
 40
0.0
 40
0.0
 40
0.0
 40
0.0
 40
1.0
 40
1.0
 40
1.0
 40
1.0
 10
24.54404199444873
 20
-63.72452460123307
 30
0.0
 10
24.46051012696854
 20
-63.84764863933599
 30
0.0
 10
24.46051012696854
 20
-64.00921598370115
 30
0.0
 10
24.54404199444873
 20
-64.13234002180536
 30
0.0
  0
SPLINE
  5
12E
330
79
100
AcDbEntity
  8
Camada 1
 62
    18
420
        0
370
    15
100
AcDbSpline
210
0.0
220
0.0
230
1.0
 70
     8
 71
     3
 72
     8
 73
     4
 74
     0
 42
0.0000000001
 43
0.0000000001
 40
0.0
 40
0.0
 40
0.0
 40
0.0
 40
1.0
 40
1.0
 40
1.0
 40
1.0
 10
24.54404199444873
 20
-64.46371231244983
 30
0.0
 10
24.46051012696854
 20
-64.58683635055276
 30
0.0
 10
24.46051012696854
 20
-64.7484036949192
 30
0.0
 10
24.54404199444873
 20
-64.87152773302213
 30
0.0
  0
SPLINE
  5
12F
330
79
100
AcDbEntity
  8
Camada 1
 62
    18
420
        0
370
    15
100
AcDbSpline
210
0.0
220
0.0
230
1.0
 70
     8
 71
     3
 72
     8
 73
     4
 74
     0
 42
0.0000000001
 43
0.0000000001
 40
0.0
 40
0.0
 40
0.0
 40
0.0
 40
1.0
 40
1.0
 40
1.0
 40
1.0
 10
24.54404199444873
 20
-65.20294891151177
 30
0.0
 10
24.46051012696854
 20
-65.32607294961596
 30
0.0
 10
24.46051012696854
 20
-65.48764029398113
 30
0.0
 10
24.54404199444873
 20
-65.61076433208405
 30
0.0
  0
SPLINE
  5
130
330
79
100
AcDbEntity
  8
Camada 1
 62
    18
420
        0
370
    15
100
AcDbSpline
210
0.0
220
0.0
230
1.0
 70
     8
 71
     3
 72
     8
 73
     4
 74
     0
 42
0.0000000001
 43
0.0000000001
 40
0.0
 40
0.0
 40
0.0
 40
0.0
 40
1.0
 40
1.0
 40
1.0
 40
1.0
 10
24.54404199444873
 20
-63.72452460123307
 30
0.0
 10
24.61223704649555
 20
-63.62451752992494
 30
0.0
 10
24.61223704649555
 20
-63.49315938189673
 30
0.0
 10
24.54404199444873
 20
-63.39314881859976
 30
0.0
  0
SPLINE
  5
131
330
79
100
AcDbEntity
  8
Camada 1
 62
    18
420
        0
370
    15
100
AcDbSpline
210
0.0
220
0.0
230
1.0
 70
     8
 71
     3
 72
     8
 73
     4
 74
     0
 42
0.0000000001
 43
0.0000000001
 40
0.0
 40
0.0
 40
0.0
 40
0.0
 40
1.0
 40
1.0
 40
1.0
 40
1.0
 10
24.54404199444873
 20
-64.46371231244983
 30
0.0
 10
24.61223704649555
 20
-64.3637052411417
 30
0.0
 10
24.61223704649555
 20
-64.23234709311349
 30
0.0
 10
24.54404199444873
 20
-64.13233652981651
 30
0.0
  0
SPLINE
  5
132
330
79
100
AcDbEntity
  8
Camada 1
 62
    18
420
        0
370
    15
100
AcDbSpline
210
0.0
220
0.0
230
1.0
 70
     8
 71
     3
 72
     8
 73
     4
 74
     0
 42
0.0000000001
 43
0.0000000001
 40
0.0
 40
0.0
 40
0.0
 40
0.0
 40
1.0
 40
1.0
 40
1.0
 40
1.0
 10
24.54404199444873
 20
-65.20294891151177
 30
0.0
 10
24.61223704649555
 20
-65.10294184020363
 30
0.0
 10
24.61223704649555
 20
-64.97158369217543
 30
0.0
 10
24.54404199444873
 20
-64.87157312887845
 30
0.0
  0
SPLINE
  5
133
330
79
100
AcDbEntity
  8
Camada 1
 62
    18
420
        0
370
    15
100
AcDbSpline
210
0.0
220
0.0
230
1.0
 70
     8
 71
     3
 72
    11
 73
     7
 74
     0
 42
0.0000000001
 43
0.0000000001
 40
0.0
 40
0.0
 40
0.0
 40
0.0
 40
1.0
 40
1.0
 40
1.0
 40
2.0
 40
2.0
 40
2.0
 40
2.0
 10
22.83576100405623
 20
-57.77126312540346
 30
0.0
 10
22.68540294419651
 20
-57.77126312540346
 30
0.0
 10
22.56319729918203
 20
-57.89324179113441
 30
0.0
 10
22.56319729918203
 20
-58.04382683027701
 30
0.0
 10
22.56319729918203
 20
-58.1026424000269
 30
0.0
 10
22.58242069830629
 20
-58.16008212613309
 30
0.0
 10
22.61766534269948
 20
-58.20722746883664
 30
0.0
  0
SPLINE
  5
134
330
79
100
AcDbEntity
  8
Camada 1
 62
    18
420
        0
370
    15
100
AcDbSpline
210
0.0
220
0.0
230
1.0
 70
     8
 71
     3
 72
     8
 73
     4
 74
     0
 42
0.0000000001
 43
0.0000000001
 40
0.0
 40
0.0
 40
0.0
 40
0.0
 40
1.0
 40
1.0
 40
1.0
 40
1.0
 10
24.54404199444873
 20
-60.76763407680822
 30
0.0
 10
24.46051012696854
 20
-60.89075811491113
 30
0.0
 10
24.46051012696854
 20
-61.05232545927631
 30
0.0
 10
24.54404199444873
 20
-61.17544949737922
 30
0.0
  0
SPLINE
  5
135
330
79
100
AcDbEntity
  8
Camada 1
 62
    18
420
        0
370
    15
100
AcDbSpline
210
0.0
220
0.0
230
1.0
 70
     8
 71
     3
 72
     8
 73
     4
 74
     0
 42
0.0000000001
 43
0.0000000001
 40
0.0
 40
0.0
 40
0.0
 40
0.0
 40
1.0
 40
1.0
 40
1.0
 40
1.0
 10
24.54404199444873
 20
-61.50686718388001
 30
0.0
 10
24.46051012696854
 20
-61.62999122198422
 30
0.0
 10
24.46051012696854
 20
-61.79155856634938
 30
0.0
 10
24.54404199444873
 20
-61.91468260445231
 30
0.0
  0
SPLINE
  5
136
330
79
100
AcDbEntity
  8
Camada 1
 62
    18
420
        0
370
    15
100
AcDbSpline
210
0.0
220
0.0
230
1.0
 70
     8
 71
     3
 72
     8
 73
     4
 74
     0
 42
0.0000000001
 43
0.0000000001
 40
0.0
 40
0.0
 40
0.0
 40
0.0
 40
1.0
 40
1.0
 40
1.0
 40
1.0
 10
24.54404199444873
 20
-62.24607933901999
 30
0.0
 10
24.46051012696854
 20
-62.36920337712421
 30
0.0
 10
24.46051012696854
 20
-62.53077072148936
 30
0.0
 10
24.54404199444873
 20
-62.6538947595923
 30
0.0
  0
SPLINE
  5
137
330
79
100
AcDbEntity
  8
Camada 1
 62
    18
420
        0
370
    15
100
AcDbSpline
210
0.0
220
0.0
230
1.0
 70
     8
 71
     3
 72
     8
 73
     4
 74
     0
 42
0.0000000001
 43
0.0000000001
 40
0.0
 40
0.0
 40
0.0
 40
0.0
 40
1.0
 40
1.0
 40
1.0
 40
1.0
 10
24.54404199444873
 20
-60.76763407680822
 30
0.0
 10
24.61223704649555
 20
-60.66762700550007
 30
0.0
 10
24.61223704649555
 20
-60.53626885747059
 30
0.0
 10
24.54404199444873
 20
-60.43625829417361
 30
0.0
  0
SPLINE
  5
138
330
79
100
AcDbEntity
  8
Camada 1
 62
    18
420
        0
370
    15
100
AcDbSpline
210
0.0
220
0.0
230
1.0
 70
     8
 71
     3
 72
     8
 73
     4
 74
     0
 42
0.0000000001
 43
0.0000000001
 40
0.0
 40
0.0
 40
0.0
 40
0.0
 40
1.0
 40
1.0
 40
1.0
 40
1.0
 10
24.54404199444873
 20
-61.50686718388001
 30
0.0
 10
24.61223704649555
 20
-61.40686011257188
 30
0.0
 10
24.61223704649555
 20
-61.27527149327322
 30
0.0
 10
24.54404199444873
 20
-61.17549140124669
 30
0.0
  0
SPLINE
  5
139
330
79
100
AcDbEntity
  8
Camada 1
 62
    18
420
        0
370
    15
100
AcDbSpline
210
0.0
220
0.0
230
1.0
 70
     8
 71
     3
 72
     8
 73
     4
 74
     0
 42
0.0000000001
 43
0.0000000001
 40
0.0
 40
0.0
 40
0.0
 40
0.0
 40
1.0
 40
1.0
 40
1.0
 40
1.0
 10
24.54404199444873
 20
-62.24607933901999
 30
0.0
 10
24.61223704649555
 20
-62.14607226771187
 30
0.0
 10
24.61223704649555
 20
-62.01471411968366
 30
0.0
 10
24.54404199444873
 20
-61.91470355638668
 30
0.0
  0
SPLINE
  5
13A
330
79
100
AcDbEntity
  8
Camada 1
 62
    18
420
        0
370
    15
100
AcDbSpline
210
0.0
220
0.0
230
1.0
 70
     8
 71
     3
 72
     8
 73
     4
 74
     0
 42
0.0000000001
 43
0.0000000001
 40
0.0
 40
0.0
 40
0.0
 40
0.0
 40
1.0
 40
1.0
 40
1.0
 40
1.0
 10
24.54404199444873
 20
-62.98529149415998
 30
0.0
 10
24.61223704649555
 20
-62.88528442285186
 30
0.0
 10
24.61223704649555
 20
-62.7536958035532
 30
0.0
 10
24.54404199444873
 20
-62.65391571152667
 30
0.0
  0
SPLINE
  5
13B
330
79
100
AcDbEntity
  8
Camada 1
 62
    18
420
        0
370
    15
100
AcDbSpline
210
0.0
220
0.0
230
1.0
 70
     8
 71
     3
 72
     8
 73
     4
 74
     0
 42
0.0000000001
 43
0.0000000001
 40
0.0
 40
0.0
 40
0.0
 40
0.0
 40
1.0
 40
1.0
 40
1.0
 40
1.0
 10
24.54404199444873
 20
-58.54999761138824
 30
0.0
 10
24.46051012696854
 20
-58.67312164949117
 30
0.0
 10
24.46051012696854
 20
-58.83468899385762
 30
0.0
 10
24.54404199444873
 20
-58.95781303196054
 30
0.0
  0
SPLINE
  5
13C
330
79
100
AcDbEntity
  8
Camada 1
 62
    18
420
        0
370
    15
100
AcDbSpline
210
0.0
220
0.0
230
1.0
 70
     8
 71
     3
 72
     8
 73
     4
 74
     0
 42
0.0000000001
 43
0.0000000001
 40
0.0
 40
0.0
 40
0.0
 40
0.0
 40
1.0
 40
1.0
 40
1.0
 40
1.0
 10
24.54404199444873
 20
-59.28920976652823
 30
0.0
 10
24.46051012696854
 20
-59.41233380463116
 30
0.0
 10
24.46051012696854
 20
-59.57390114899633
 30
0.0
 10
24.54404199444873
 20
-59.69702518710053
 30
0.0
  0
SPLINE
  5
13D
330
79
100
AcDbEntity
  8
Camada 1
 62
    18
420
        0
370
    15
100
AcDbSpline
210
0.0
220
0.0
230
1.0
 70
     8
 71
     3
 72
     8
 73
     4
 74
     0
 42
0.0000000001
 43
0.0000000001
 40
0.0
 40
0.0
 40
0.0
 40
0.0
 40
1.0
 40
1.0
 40
1.0
 40
1.0
 10
24.54404199444873
 20
-60.02842192166823
 30
0.0
 10
24.46051012696854
 20
-60.15154595977115
 30
0.0
 10
24.46051012696854
 20
-60.31311330413632
 30
0.0
 10
24.54404199444873
 20
-60.43623734224052
 30
0.0
  0
SPLINE
  5
13E
330
79
100
AcDbEntity
  8
Camada 1
 62
    18
420
        0
370
    15
100
AcDbSpline
210
0.0
220
0.0
230
1.0
 70
     8
 71
     3
 72
     8
 73
     4
 74
     0
 42
0.0000000001
 43
0.0000000001
 40
0.0
 40
0.0
 40
0.0
 40
0.0
 40
1.0
 40
1.0
 40
1.0
 40
1.0
 10
24.54404199444873
 20
-58.54999761138824
 30
0.0
 10
24.6152122210754
 20
-58.44587348511812
 30
0.0
 10
24.61177959594575
 20
-58.30787357412209
 30
0.0
 10
24.5358009005451
 20
-58.20718207298161
 30
0.0
  0
SPLINE
  5
13F
330
79
100
AcDbEntity
  8
Camada 1
 62
    18
420
        0
370
    15
100
AcDbSpline
210
0.0
220
0.0
230
1.0
 70
     8
 71
     3
 72
     8
 73
     4
 74
     0
 42
0.0000000001
 43
0.0000000001
 40
0.0
 40
0.0
 40
0.0
 40
0.0
 40
1.0
 40
1.0
 40
1.0
 40
1.0
 10
24.54404199444873
 20
-59.28920976652823
 30
0.0
 10
24.61223704649555
 20
-59.1892026952201
 30
0.0
 10
24.61223704649555
 20
-59.0578445471919
 30
0.0
 10
24.54404199444873
 20
-58.95783398389492
 30
0.0
  0
SPLINE
  5
140
330
79
100
AcDbEntity
  8
Camada 1
 62
    18
420
        0
370
    15
100
AcDbSpline
210
0.0
220
0.0
230
1.0
 70
     8
 71
     3
 72
     8
 73
     4
 74
     0
 42
0.0000000001
 43
0.0000000001
 40
0.0
 40
0.0
 40
0.0
 40
0.0
 40
1.0
 40
1.0
 40
1.0
 40
1.0
 10
24.54404199444873
 20
-60.02842192166823
 30
0.0
 10
24.61223704649555
 20
-59.92841485036009
 30
0.0
 10
24.61223704649555
 20
-59.7970567023306
 30
0.0
 10
24.54404199444873
 20
-59.69704613903362
 30
0.0
  0
SPLINE
  5
141
330
79
100
AcDbEntity
  8
Camada 1
 62
    18
420
        0
370
    15
100
AcDbSpline
210
0.0
220
0.0
230
1.0
 70
     8
 71
     3
 72
    11
 73
     7
 74
     0
 42
0.0000000001
 43
0.0000000001
 40
0.0
 40
0.0
 40
0.0
 40
0.0
 40
1.0
 40
1.0
 40
1.0
 40
2.0
 40
2.0
 40
2.0
 40
2.0
 10
24.75362418676554
 20
-57.77126312540346
 30
0.0
 10
24.60326612690261
 20
-57.7714935966739
 30
0.0
 10
24.48129095316244
 20
-57.89347226240486
 30
0.0
 10
24.48129095316244
 20
-58.04382683027701
 30
0.0
 10
24.481517932445
 20
-58.10286937930722
 30
0.0
 10
24.50051435228669
 20
-58.16008212613309
 30
0.0
 10
24.53598597596244
 20
-58.20722746883664
 30
0.0
  0
SPLINE
  5
142
330
79
100
AcDbEntity
  8
Camada 1
 62
    18
420
        0
370
    15
100
AcDbSpline
210
0.0
220
0.0
230
1.0
 70
     8
 71
     3
 72
     8
 73
     4
 74
     0
 42
0.0000000001
 43
0.0000000001
 40
0.0
 40
0.0
 40
0.0
 40
0.0
 40
1.0
 40
1.0
 40
1.0
 40
1.0
 10
28.92399832845525
 20
-65.13182058875449
 30
0.0
 10
28.9077466119223
 20
-64.99885961780098
 30
0.0
 10
28.79698421467
 20
-64.89748019483927
 30
0.0
 10
28.66310485062932
 20
-64.89290219733638
 30
0.0
  0
SPLINE
  5
143
330
79
100
AcDbEntity
  8
Camada 1
 62
    18
420
        0
370
    15
100
AcDbSpline
210
0.0
220
0.0
230
1.0
 70
     8
 71
     3
 72
    11
 73
     7
 74
     0
 42
0.0000000001
 43
0.0000000001
 40
0.0
 40
0.0
 40
0.0
 40
0.0
 40
1.0
 40
1.0
 40
1.0
 40
2.0
 40
2.0
 40
2.0
 40
2.0
 10
26.71682036992024
 20
-62.40975235271754
 30
0.0
 10
27.272238671076
 20
-62.31020273196147
 30
0.0
 10
27.64183427268072
 20
-61.77927025726265
 30
0.0
 10
27.54228465192721
 20
-61.22384846411549
 30
0.0
 10
27.46699387834681
 20
-60.80322093611501
 30
0.0
 10
27.13767487719975
 20
-60.47367495568603
 30
0.0
 10
26.71682036992024
 20
-60.39838418210916
 30
0.0
  0
SPLINE
  5
144
330
79
100
AcDbEntity
  8
Camada 1
 62
    18
420
        0
370
    15
100
AcDbSpline
210
0.0
220
0.0
230
1.0
 70
     8
 71
     3
 72
     8
 73
     4
 74
     0
 42
0.0000000001
 43
0.0000000001
 40
0.0
 40
0.0
 40
0.0
 40
0.0
 40
1.0
 40
1.0
 40
1.0
 40
1.0
 10
36.70305669854064
 20
-70.7853087818744
 30
0.0
 10
36.78658507403582
 20
-70.66218823575905
 30
0.0
 10
36.78658507403582
 20
-70.50062089139517
 30
0.0
 10
36.70305669854064
 20
-70.37749685329096
 30
0.0
  0
SPLINE
  5
145
330
79
100
AcDbEntity
  8
Camada 1
 62
    18
420
        0
370
    15
100
AcDbSpline
210
0.0
220
0.0
230
1.0
 70
     8
 71
     3
 72
     8
 73
     4
 74
     0
 42
0.0000000001
 43
0.0000000001
 40
0.0
 40
0.0
 40
0.0
 40
0.0
 40
1.0
 40
1.0
 40
1.0
 40
1.0
 10
36.70305669854064
 20
-70.04609662673442
 30
0.0
 10
36.78658507403582
 20
-69.92297608062035
 30
0.0
 10
36.78658507403582
 20
-69.76140873625389
 30
0.0
 10
36.70305669854064
 20
-69.63828469815097
 30
0.0
  0
SPLINE
  5
146
330
79
100
AcDbEntity
  8
Camada 1
 62
    18
420
        0
370
    15
100
AcDbSpline
210
0.0
220
0.0
230
1.0
 70
     8
 71
     3
 72
     8
 73
     4
 74
     0
 42
0.0000000001
 43
0.0000000001
 40
0.0
 40
0.0
 40
0.0
 40
0.0
 40
1.0
 40
1.0
 40
1.0
 40
1.0
 10
36.70305669854064
 20
-69.30688796358328
 30
0.0
 10
36.78658507403582
 20
-69.18376741746921
 30
0.0
 10
36.78658507403582
 20
-69.02220007310404
 30
0.0
 10
36.70305669854064
 20
-68.89907603499984
 30
0.0
  0
SPLINE
  5
147
330
79
100
AcDbEntity
  8
Camada 1
 62
    18
420
        0
370
    15
100
AcDbSpline
210
0.0
220
0.0
230
1.0
 70
     8
 71
     3
 72
     8
 73
     4
 74
     0
 42
0.0000000001
 43
0.0000000001
 40
0.0
 40
0.0
 40
0.0
 40
0.0
 40
1.0
 40
1.0
 40
1.0
 40
1.0
 10
36.70305669854064
 20
-68.5676758084433
 30
0.0
 10
36.78658507403582
 20
-68.44455526232922
 30
0.0
 10
36.78658507403582
 20
-68.28298791796405
 30
0.0
 10
36.70305669854064
 20
-68.15986387985984
 30
0.0
  0
SPLINE
  5
148
330
79
100
AcDbEntity
  8
Camada 1
 62
    18
420
        0
370
    15
100
AcDbSpline
210
0.0
220
0.0
230
1.0
 70
     8
 71
     3
 72
     8
 73
     4
 74
     0
 42
0.0000000001
 43
0.0000000001
 40
0.0
 40
0.0
 40
0.0
 40
0.0
 40
1.0
 40
1.0
 40
1.0
 40
1.0
 10
36.70305669854064
 20
-70.7853087818744
 30
0.0
 10
36.63188297992544
 20
-70.88943640013339
 30
0.0
 10
36.63531560505861
 20
-71.0274363111294
 30
0.0
 10
36.71129430045573
 20
-71.12812781226989
 30
0.0
  0
SPLINE
  5
149
330
79
100
AcDbEntity
  8
Camada 1
 62
    18
420
        0
370
    15
100
AcDbSpline
210
0.0
220
0.0
230
1.0
 70
     8
 71
     3
 72
     8
 73
     4
 74
     0
 42
0.0000000001
 43
0.0000000001
 40
0.0
 40
0.0
 40
0.0
 40
0.0
 40
1.0
 40
1.0
 40
1.0
 40
1.0
 10
36.70305669854064
 20
-70.04609662673442
 30
0.0
 10
36.63485815450528
 20
-70.1461071900314
 30
0.0
 10
36.63485815450528
 20
-70.27769580933005
 30
0.0
 10
36.70305669854064
 20
-70.37747590135658
 30
0.0
  0
SPLINE
  5
14A
330
79
100
AcDbEntity
  8
Camada 1
 62
    18
420
        0
370
    15
100
AcDbSpline
210
0.0
220
0.0
230
1.0
 70
     8
 71
     3
 72
     8
 73
     4
 74
     0
 42
0.0000000001
 43
0.0000000001
 40
0.0
 40
0.0
 40
0.0
 40
0.0
 40
1.0
 40
1.0
 40
1.0
 40
1.0
 10
36.70305669854064
 20
-69.30688796358328
 30
0.0
 10
36.63485815450528
 20
-69.40689852688025
 30
0.0
 10
36.63485815450528
 20
-69.5384871461789
 30
0.0
 10
36.70305669854064
 20
-69.63826723820672
 30
0.0
  0
SPLINE
  5
14B
330
79
100
AcDbEntity
  8
Camada 1
 62
    18
420
        0
370
    15
100
AcDbSpline
210
0.0
220
0.0
230
1.0
 70
     8
 71
     3
 72
     8
 73
     4
 74
     0
 42
0.0000000001
 43
0.0000000001
 40
0.0
 40
0.0
 40
0.0
 40
0.0
 40
1.0
 40
1.0
 40
1.0
 40
1.0
 10
36.70305669854064
 20
-68.5676758084433
 30
0.0
 10
36.63485815450528
 20
-68.66768637174027
 30
0.0
 10
36.63485815450528
 20
-68.7992749910402
 30
0.0
 10
36.70305669854064
 20
-68.89905508306674
 30
0.0
  0
SPLINE
  5
14C
330
79
100
AcDbEntity
  8
Camada 1
 62
    18
420
        0
370
    15
100
AcDbSpline
210
0.0
220
0.0
230
1.0
 70
     8
 71
     3
 72
    11
 73
     7
 74
     0
 42
0.0000000001
 43
0.0000000001
 40
0.0
 40
0.0
 40
0.0
 40
0.0
 40
1.0
 40
1.0
 40
1.0
 40
2.0
 40
2.0
 40
2.0
 40
2.0
 10
36.49345006230445
 20
-71.56404326785791
 30
0.0
 10
36.64380463017533
 20
-71.5638162885776
 30
0.0
 10
36.7657798039155
 20
-71.44183762284665
 30
0.0
 10
36.7657798039155
 20
-71.29148305497449
 30
0.0
 10
36.76555282463679
 20
-71.23244050594428
 30
0.0
 10
36.74655640479123
 20
-71.17522775911841
 30
0.0
 10
36.71108478111934
 20
-71.12808241641357
 30
0.0
  0
SPLINE
  5
14D
330
79
100
AcDbEntity
  8
Camada 1
 62
    18
420
        0
370
    15
100
AcDbSpline
210
0.0
220
0.0
230
1.0
 70
     8
 71
     3
 72
    11
 73
     7
 74
     0
 42
0.0000000001
 43
0.0000000001
 40
0.0
 40
0.0
 40
0.0
 40
0.0
 40
1.0
 40
1.0
 40
1.0
 40
2.0
 40
2.0
 40
2.0
 40
2.0
 10
38.41131324501056
 20
-71.56404326785791
 30
0.0
 10
38.56166781288848
 20
-71.56404326785791
 30
0.0
 10
38.6838734578959
 20
-71.4420680941171
 30
0.0
 10
38.6838734578959
 20
-71.29148305497449
 30
0.0
 10
38.6838734578959
 20
-71.2326674852246
 30
0.0
 10
38.66465005877163
 20
-71.17522775911841
 30
0.0
 10
38.62940541438199
 20
-71.12808241641357
 30
0.0
  0
SPLINE
  5
14E
330
79
100
AcDbEntity
  8
Camada 1
 62
    18
420
        0
370
    15
100
AcDbSpline
210
0.0
220
0.0
230
1.0
 70
     8
 71
     3
 72
     8
 73
     4
 74
     0
 42
0.0000000001
 43
0.0000000001
 40
0.0
 40
0.0
 40
0.0
 40
0.0
 40
1.0
 40
1.0
 40
1.0
 40
1.0
 10
32.58401130230942
 20
-64.89274156584548
 30
0.0
 10
32.45013193826522
 20
-64.8973195633471
 30
0.0
 10
32.33936954101645
 20
-64.99870247829893
 30
0.0
 10
32.32311782447644
 20
-65.13166344925115
 30
0.0
  0
SPLINE
  5
14F
330
79
100
AcDbEntity
  8
Camada 1
 62
    18
420
        0
370
    15
100
AcDbSpline
210
0.0
220
0.0
230
1.0
 70
     8
 71
     3
 72
     8
 73
     4
 74
     0
 42
0.0000000001
 43
0.0000000001
 40
0.0
 40
0.0
 40
0.0
 40
0.0
 40
1.0
 40
1.0
 40
1.0
 40
1.0
 10
31.84754734246639
 20
-65.083990816216
 30
0.0
 10
31.84617149882173
 20
-65.09337379050339
 30
0.0
 10
31.84502961843636
 20
-65.10298723605996
 30
0.0
 10
31.84479914716912
 20
-65.11259718962894
 30
0.0
  0
SPLINE
  5
150
330
79
100
AcDbEntity
  8
Camada 1
 62
    18
420
        0
370
    15
100
AcDbSpline
210
0.0
220
0.0
230
1.0
 70
     8
 71
     3
 72
    11
 73
     7
 74
     0
 42
0.0000000001
 43
0.0000000001
 40
0.0
 40
0.0
 40
0.0
 40
0.0
 40
1.0
 40
1.0
 40
1.0
 40
2.0
 40
2.0
 40
2.0
 40
2.0
 10
34.53027483108413
 20
-60.39833529426398
 30
0.0
 10
33.97485303793632
 20
-60.49788840701019
 30
0.0
 10
33.60502696506049
 20
-61.02882088170773
 30
0.0
 10
33.70480705708895
 20
-61.58424267485617
 30
0.0
 10
33.78009783066551
 20
-62.00487020285666
 30
0.0
 10
34.10941683181256
 20
-62.33441618328306
 30
0.0
 10
34.53027483108413
 20
-62.40970695686122
 30
0.0
  0
SPLINE
  5
151
330
79
100
AcDbEntity
  8
Camada 1
 62
    18
420
        0
370
    15
100
AcDbSpline
210
0.0
220
0.0
230
1.0
 70
     8
 71
     3
 72
     8
 73
     4
 74
     0
 42
0.0000000001
 43
0.0000000001
 40
0.0
 40
0.0
 40
0.0
 40
0.0
 40
1.0
 40
1.0
 40
1.0
 40
1.0
 10
36.70305669854064
 20
-67.82843920938265
 30
0.0
 10
36.78658507403582
 20
-67.70531866326729
 30
0.0
 10
36.78658507403582
 20
-67.54375131890212
 30
0.0
 10
36.70305669854064
 20
-67.42062728079919
 30
0.0
  0
SPLINE
  5
152
330
79
100
AcDbEntity
  8
Camada 1
 62
    18
420
        0
370
    15
100
AcDbSpline
210
0.0
220
0.0
230
1.0
 70
     8
 71
     3
 72
     8
 73
     4
 74
     0
 42
0.0000000001
 43
0.0000000001
 40
0.0
 40
0.0
 40
0.0
 40
0.0
 40
1.0
 40
1.0
 40
1.0
 40
1.0
 10
36.70305669854064
 20
-67.0892305462315
 30
0.0
 10
36.78658507403582
 20
-66.96611000011742
 30
0.0
 10
36.78658507403582
 20
-66.80454265575098
 30
0.0
 10
36.70305669854064
 20
-66.68141861764806
 30
0.0
  0
SPLINE
  5
153
330
79
100
AcDbEntity
  8
Camada 1
 62
    18
420
        0
370
    15
100
AcDbSpline
210
0.0
220
0.0
230
1.0
 70
     8
 71
     3
 72
     8
 73
     4
 74
     0
 42
0.0000000001
 43
0.0000000001
 40
0.0
 40
0.0
 40
0.0
 40
0.0
 40
1.0
 40
1.0
 40
1.0
 40
1.0
 10
36.70305669854064
 20
-66.35001839109152
 30
0.0
 10
36.78658507403582
 20
-66.22689784497744
 30
0.0
 10
36.78658507403582
 20
-66.06533050061099
 30
0.0
 10
36.70305669854064
 20
-65.94220646250807
 30
0.0
  0
SPLINE
  5
154
330
79
100
AcDbEntity
  8
Camada 1
 62
    18
420
        0
370
    15
100
AcDbSpline
210
0.0
220
0.0
230
1.0
 70
     8
 71
     3
 72
     8
 73
     4
 74
     0
 42
0.0000000001
 43
0.0000000001
 40
0.0
 40
0.0
 40
0.0
 40
0.0
 40
1.0
 40
1.0
 40
1.0
 40
1.0
 10
36.70305669854064
 20
-67.82843920938265
 30
0.0
 10
36.63485815450528
 20
-67.92844977267963
 30
0.0
 10
36.63485815450528
 20
-68.060038391977
 30
0.0
 10
36.70305669854064
 20
-68.1598184840048
 30
0.0
  0
SPLINE
  5
155
330
79
100
AcDbEntity
  8
Camada 1
 62
    18
420
        0
370
    15
100
AcDbSpline
210
0.0
220
0.0
230
1.0
 70
     8
 71
     3
 72
     8
 73
     4
 74
     0
 42
0.0000000001
 43
0.0000000001
 40
0.0
 40
0.0
 40
0.0
 40
0.0
 40
1.0
 40
1.0
 40
1.0
 40
1.0
 10
36.70305669854064
 20
-67.0892305462315
 30
0.0
 10
36.63485815450528
 20
-67.1892411095272
 30
0.0
 10
36.63485815450528
 20
-67.32082972882714
 30
0.0
 10
36.70305669854064
 20
-67.42060982085367
 30
0.0
  0
SPLINE
  5
156
330
79
100
AcDbEntity
  8
Camada 1
 62
    18
420
        0
370
    15
100
AcDbSpline
210
0.0
220
0.0
230
1.0
 70
     8
 71
     3
 72
     8
 73
     4
 74
     0
 42
0.0000000001
 43
0.0000000001
 40
0.0
 40
0.0
 40
0.0
 40
0.0
 40
1.0
 40
1.0
 40
1.0
 40
1.0
 10
36.70305669854064
 20
-66.35001839109152
 30
0.0
 10
36.63485815450528
 20
-66.4500289543885
 30
0.0
 10
36.63485815450528
 20
-66.58161757368715
 30
0.0
 10
36.70305669854064
 20
-66.68139766571368
 30
0.0
  0
SPLINE
  5
157
330
79
100
AcDbEntity
  8
Camada 1
 62
    18
420
        0
370
    15
100
AcDbSpline
210
0.0
220
0.0
230
1.0
 70
     8
 71
     3
 72
     8
 73
     4
 74
     0
 42
0.0000000001
 43
0.0000000001
 40
0.0
 40
0.0
 40
0.0
 40
0.0
 40
1.0
 40
1.0
 40
1.0
 40
1.0
 10
36.70305669854064
 20
-65.61078179202958
 30
0.0
 10
36.63485815450528
 20
-65.71079235532656
 30
0.0
 10
36.63485815450528
 20
-65.84238097462521
 30
0.0
 10
36.70305669854064
 20
-65.94216106665175
 30
0.0
  0
SPLINE
  5
158
330
79
100
AcDbEntity
  8
Camada 1
 62
    18
420
        0
370
    15
100
AcDbSpline
210
0.0
220
0.0
230
1.0
 70
     8
 71
     3
 72
     8
 73
     4
 74
     0
 42
0.0000000001
 43
0.0000000001
 40
0.0
 40
0.0
 40
0.0
 40
0.0
 40
1.0
 40
1.0
 40
1.0
 40
1.0
 10
36.70305669854064
 20
-65.61078179202958
 30
0.0
 10
36.78658507403582
 20
-65.48766124591423
 30
0.0
 10
36.78658507403582
 20
-65.32609390154906
 30
0.0
 10
36.70305669854064
 20
-65.20296986344614
 30
0.0
  0
SPLINE
  5
159
330
79
100
AcDbEntity
  8
Camada 1
 62
    18
420
        0
370
    15
100
AcDbSpline
210
0.0
220
0.0
230
1.0
 70
     8
 71
     3
 72
     8
 73
     4
 74
     0
 42
0.0000000001
 43
0.0000000001
 40
0.0
 40
0.0
 40
0.0
 40
0.0
 40
1.0
 40
1.0
 40
1.0
 40
1.0
 10
36.70305669854064
 20
-64.87159408081282
 30
0.0
 10
36.78658507403582
 20
-64.74847353469747
 30
0.0
 10
36.78658507403582
 20
-64.5869061903323
 30
0.0
 10
36.70305669854064
 20
-64.46378215222937
 30
0.0
  0
SPLINE
  5
15A
330
79
100
AcDbEntity
  8
Camada 1
 62
    18
420
        0
370
    15
100
AcDbSpline
210
0.0
220
0.0
230
1.0
 70
     8
 71
     3
 72
     8
 73
     4
 74
     0
 42
0.0000000001
 43
0.0000000001
 40
0.0
 40
0.0
 40
0.0
 40
0.0
 40
1.0
 40
1.0
 40
1.0
 40
1.0
 10
36.70305669854064
 20
-64.13236097373846
 30
0.0
 10
36.78658507403582
 20
-64.00924042762437
 30
0.0
 10
36.78658507403582
 20
-63.84767308325922
 30
0.0
 10
36.70305669854064
 20
-63.72454904515501
 30
0.0
  0
SPLINE
  5
15B
330
79
100
AcDbEntity
  8
Camada 1
 62
    18
420
        0
370
    15
100
AcDbSpline
210
0.0
220
0.0
230
1.0
 70
     8
 71
     3
 72
     8
 73
     4
 74
     0
 42
0.0000000001
 43
0.0000000001
 40
0.0
 40
0.0
 40
0.0
 40
0.0
 40
1.0
 40
1.0
 40
1.0
 40
1.0
 10
36.70305669854064
 20
-63.39314881859976
 30
0.0
 10
36.78658507403582
 20
-63.27002827248439
 30
0.0
 10
36.78658507403582
 20
-63.10846092811923
 30
0.0
 10
36.70305669854064
 20
-62.9853368900163
 30
0.0
  0
SPLINE
  5
15C
330
79
100
AcDbEntity
  8
Camada 1
 62
    18
420
        0
370
    15
100
AcDbSpline
210
0.0
220
0.0
230
1.0
 70
     8
 71
     3
 72
     8
 73
     4
 74
     0
 42
0.0000000001
 43
0.0000000001
 40
0.0
 40
0.0
 40
0.0
 40
0.0
 40
1.0
 40
1.0
 40
1.0
 40
1.0
 10
36.70305669854064
 20
-64.87159408081282
 30
0.0
 10
36.63485815450528
 20
-64.9716046441098
 30
0.0
 10
36.63485815450528
 20
-65.10319326340845
 30
0.0
 10
36.70305669854064
 20
-65.20297335543499
 30
0.0
  0
SPLINE
  5
15D
330
79
100
AcDbEntity
  8
Camada 1
 62
    18
420
        0
370
    15
100
AcDbSpline
210
0.0
220
0.0
230
1.0
 70
     8
 71
     3
 72
     8
 73
     4
 74
     0
 42
0.0000000001
 43
0.0000000001
 40
0.0
 40
0.0
 40
0.0
 40
0.0
 40
1.0
 40
1.0
 40
1.0
 40
1.0
 10
36.70305669854064
 20
-64.13236097373846
 30
0.0
 10
36.63485815450528
 20
-64.23237153703543
 30
0.0
 10
36.63485815450528
 20
-64.36396015633538
 30
0.0
 10
36.70305669854064
 20
-64.4637402483619
 30
0.0
  0
SPLINE
  5
15E
330
79
100
AcDbEntity
  8
Camada 1
 62
    18
420
        0
370
    15
100
AcDbSpline
210
0.0
220
0.0
230
1.0
 70
     8
 71
     3
 72
     8
 73
     4
 74
     0
 42
0.0000000001
 43
0.0000000001
 40
0.0
 40
0.0
 40
0.0
 40
0.0
 40
1.0
 40
1.0
 40
1.0
 40
1.0
 10
36.70305669854064
 20
-63.39314881859976
 30
0.0
 10
36.63485815450528
 20
-63.49315938189673
 30
0.0
 10
36.63485815450528
 20
-63.62474800119539
 30
0.0
 10
36.70305669854064
 20
-63.72452809322192
 30
0.0
  0
SPLINE
  5
15F
330
79
100
AcDbEntity
  8
Camada 1
 62
    18
420
        0
370
    15
100
AcDbSpline
210
0.0
220
0.0
230
1.0
 70
     8
 71
     3
 72
     8
 73
     4
 74
     0
 42
0.0000000001
 43
0.0000000001
 40
0.0
 40
0.0
 40
0.0
 40
0.0
 40
1.0
 40
1.0
 40
1.0
 40
1.0
 10
36.70305669854064
 20
-62.65393666345977
 30
0.0
 10
36.78658507403582
 20
-62.53081611734569
 30
0.0
 10
36.78658507403582
 20
-62.36924877297924
 30
0.0
 10
36.70305669854064
 20
-62.24612473487631
 30
0.0
  0
SPLINE
  5
160
330
79
100
AcDbEntity
  8
Camada 1
 62
    18
420
        0
370
    15
100
AcDbSpline
210
0.0
220
0.0
230
1.0
 70
     8
 71
     3
 72
     8
 73
     4
 74
     0
 42
0.0000000001
 43
0.0000000001
 40
0.0
 40
0.0
 40
0.0
 40
0.0
 40
1.0
 40
1.0
 40
1.0
 40
1.0
 10
36.70305669854064
 20
-61.91470355638668
 30
0.0
 10
36.78658507403582
 20
-61.79158301027261
 30
0.0
 10
36.78658507403582
 20
-61.63001566590615
 30
0.0
 10
36.70305669854064
 20
-61.50689162780324
 30
0.0
  0
SPLINE
  5
161
330
79
100
AcDbEntity
  8
Camada 1
 62
    18
420
        0
370
    15
100
AcDbSpline
210
0.0
220
0.0
230
1.0
 70
     8
 71
     3
 72
     8
 73
     4
 74
     0
 42
0.0000000001
 43
0.0000000001
 40
0.0
 40
0.0
 40
0.0
 40
0.0
 40
1.0
 40
1.0
 40
1.0
 40
1.0
 10
36.70305669854064
 20
-61.17549140124669
 30
0.0
 10
36.78658507403582
 20
-61.05237085513262
 30
0.0
 10
36.78658507403582
 20
-60.89080351076617
 30
0.0
 10
36.70305669854064
 20
-60.76767947266325
 30
0.0
  0
SPLINE
  5
162
330
79
100
AcDbEntity
  8
Camada 1
 62
    18
420
        0
370
    15
100
AcDbSpline
210
0.0
220
0.0
230
1.0
 70
     8
 71
     3
 72
     8
 73
     4
 74
     0
 42
0.0000000001
 43
0.0000000001
 40
0.0
 40
0.0
 40
0.0
 40
0.0
 40
1.0
 40
1.0
 40
1.0
 40
1.0
 10
36.70305669854064
 20
-62.65393666345977
 30
0.0
 10
36.63485815450528
 20
-62.75394722675674
 30
0.0
 10
36.63485815450528
 20
-62.8855358460554
 30
0.0
 10
36.70305669854064
 20
-62.98531593808321
 30
0.0
  0
SPLINE
  5
163
330
79
100
AcDbEntity
  8
Camada 1
 62
    18
420
        0
370
    15
100
AcDbSpline
210
0.0
220
0.0
230
1.0
 70
     8
 71
     3
 72
     8
 73
     4
 74
     0
 42
0.0000000001
 43
0.0000000001
 40
0.0
 40
0.0
 40
0.0
 40
0.0
 40
1.0
 40
1.0
 40
1.0
 40
1.0
 10
36.70305669854064
 20
-61.91470355638668
 30
0.0
 10
36.63485815450528
 20
-62.01471411968366
 30
0.0
 10
36.63485815450528
 20
-62.14630273898232
 30
0.0
 10
36.70305669854064
 20
-62.24608283100884
 30
0.0
  0
SPLINE
  5
164
330
79
100
AcDbEntity
  8
Camada 1
 62
    18
420
        0
370
    15
100
AcDbSpline
210
0.0
220
0.0
230
1.0
 70
     8
 71
     3
 72
     8
 73
     4
 74
     0
 42
0.0000000001
 43
0.0000000001
 40
0.0
 40
0.0
 40
0.0
 40
0.0
 40
1.0
 40
1.0
 40
1.0
 40
1.0
 10
36.70305669854064
 20
-61.17549140124669
 30
0.0
 10
36.63485815450528
 20
-61.27550196454367
 30
0.0
 10
36.63485815450528
 20
-61.40709058384232
 30
0.0
 10
36.70305669854064
 20
-61.50687067586886
 30
0.0
  0
SPLINE
  5
165
330
79
100
AcDbEntity
  8
Camada 1
 62
    18
420
        0
370
    15
100
AcDbSpline
210
0.0
220
0.0
230
1.0
 70
     8
 71
     3
 72
     8
 73
     4
 74
     0
 42
0.0000000001
 43
0.0000000001
 40
0.0
 40
0.0
 40
0.0
 40
0.0
 40
1.0
 40
1.0
 40
1.0
 40
1.0
 10
36.70305669854064
 20
-60.43625480218477
 30
0.0
 10
36.63485815450528
 20
-60.53626536548174
 30
0.0
 10
36.63485815450528
 20
-60.6678539847804
 30
0.0
 10
36.70305669854064
 20
-60.76763407680822
 30
0.0
  0
SPLINE
  5
166
330
79
100
AcDbEntity
  8
Camada 1
 62
    18
420
        0
370
    15
100
AcDbSpline
210
0.0
220
0.0
230
1.0
 70
     8
 71
     3
 72
     8
 73
     4
 74
     0
 42
0.0000000001
 43
0.0000000001
 40
0.0
 40
0.0
 40
0.0
 40
0.0
 40
1.0
 40
1.0
 40
1.0
 40
1.0
 10
36.70305669854064
 20
-60.43625480218477
 30
0.0
 10
36.78658507403582
 20
-60.3131342560694
 30
0.0
 10
36.78658507403582
 20
-60.15156691170552
 30
0.0
 10
36.70305669854064
 20
-60.02844287360131
 30
0.0
  0
SPLINE
  5
167
330
79
100
AcDbEntity
  8
Camada 1
 62
    18
420
        0
370
    15
100
AcDbSpline
210
0.0
220
0.0
230
1.0
 70
     8
 71
     3
 72
     8
 73
     4
 74
     0
 42
0.0000000001
 43
0.0000000001
 40
0.0
 40
0.0
 40
0.0
 40
0.0
 40
1.0
 40
1.0
 40
1.0
 40
1.0
 10
36.70305669854064
 20
-59.69704613903362
 30
0.0
 10
36.78658507403582
 20
-59.57392559291955
 30
0.0
 10
36.78658507403582
 20
-59.41235824855438
 30
0.0
 10
36.70305669854064
 20
-59.28923421045017
 30
0.0
  0
SPLINE
  5
168
330
79
100
AcDbEntity
  8
Camada 1
 62
    18
420
        0
370
    15
100
AcDbSpline
210
0.0
220
0.0
230
1.0
 70
     8
 71
     3
 72
     8
 73
     4
 74
     0
 42
0.0000000001
 43
0.0000000001
 40
0.0
 40
0.0
 40
0.0
 40
0.0
 40
1.0
 40
1.0
 40
1.0
 40
1.0
 10
36.70305669854064
 20
-58.95783398389492
 30
0.0
 10
36.78658507403582
 20
-58.83471343777956
 30
0.0
 10
36.78658507403582
 20
-58.67314609341439
 30
0.0
 10
36.70305669854064
 20
-58.55002205531147
 30
0.0
  0
SPLINE
  5
169
330
79
100
AcDbEntity
  8
Camada 1
 62
    18
420
        0
370
    15
100
AcDbSpline
210
0.0
220
0.0
230
1.0
 70
     8
 71
     3
 72
     8
 73
     4
 74
     0
 42
0.0000000001
 43
0.0000000001
 40
0.0
 40
0.0
 40
0.0
 40
0.0
 40
1.0
 40
1.0
 40
1.0
 40
1.0
 10
36.71122446067587
 20
-58.20720302491469
 30
0.0
 10
36.63524576527842
 20
-58.30789801804404
 30
0.0
 10
36.63181314014878
 20
-58.44589792904006
 30
0.0
 10
36.70298336677545
 20
-58.55002205531147
 30
0.0
  0
SPLINE
  5
16A
330
79
100
AcDbEntity
  8
Camada 1
 62
    18
420
        0
370
    15
100
AcDbSpline
210
0.0
220
0.0
230
1.0
 70
     8
 71
     3
 72
     8
 73
     4
 74
     0
 42
0.0000000001
 43
0.0000000001
 40
0.0
 40
0.0
 40
0.0
 40
0.0
 40
1.0
 40
1.0
 40
1.0
 40
1.0
 10
36.70305669854064
 20
-59.69704613903362
 30
0.0
 10
36.63485815450528
 20
-59.7970567023306
 30
0.0
 10
36.63485815450528
 20
-59.92864532162926
 30
0.0
 10
36.70305669854064
 20
-60.02842541365707
 30
0.0
  0
SPLINE
  5
16B
330
79
100
AcDbEntity
  8
Camada 1
 62
    18
420
        0
370
    15
100
AcDbSpline
210
0.0
220
0.0
230
1.0
 70
     8
 71
     3
 72
     8
 73
     4
 74
     0
 42
0.0000000001
 43
0.0000000001
 40
0.0
 40
0.0
 40
0.0
 40
0.0
 40
1.0
 40
1.0
 40
1.0
 40
1.0
 10
36.70305669854064
 20
-58.95783398389492
 30
0.0
 10
36.63485815450528
 20
-59.0578445471919
 30
0.0
 10
36.63485815450528
 20
-59.18943316649055
 30
0.0
 10
36.70305669854064
 20
-59.28921325851708
 30
0.0
  0
SPLINE
  5
16C
330
79
100
AcDbEntity
  8
Camada 1
 62
    18
420
        0
370
    15
100
AcDbSpline
210
0.0
220
0.0
230
1.0
 70
     8
 71
     3
 72
    11
 73
     7
 74
     0
 42
0.0000000001
 43
0.0000000001
 40
0.0
 40
0.0
 40
0.0
 40
0.0
 40
1.0
 40
1.0
 40
1.0
 40
2.0
 40
2.0
 40
2.0
 40
2.0
 10
36.71122446067587
 20
-58.20720302491469
 30
0.0
 10
36.80161808643001
 20
-58.08683067409662
 30
0.0
 10
36.77713225997049
 20
-57.9158768634565
 30
0.0
 10
36.65675641716163
 20
-57.82571021698652
 30
0.0
 10
36.609614566445
 20
-57.7904655725959
 30
0.0
 10
36.55240181961881
 20
-57.77124217347036
 30
0.0
 10
36.49358624987244
 20
-57.77124217347036
 30
0.0
  0
SPLINE
  5
16D
330
79
100
AcDbEntity
  8
Camada 1
 62
    18
420
        0
370
    15
100
AcDbSpline
210
0.0
220
0.0
230
1.0
 70
     8
 71
     3
 72
    11
 73
     7
 74
     0
 42
0.0000000001
 43
0.0000000001
 40
0.0
 40
0.0
 40
0.0
 40
0.0
 40
1.0
 40
1.0
 40
1.0
 40
2.0
 40
2.0
 40
2.0
 40
2.0
 10
38.62929367073657
 20
-58.20720302491469
 30
0.0
 10
38.71968729648397
 20
-58.08683067409662
 30
0.0
 10
38.69520147002445
 20
-57.9158768634565
 30
0.0
 10
38.57482562721945
 20
-57.82571021698652
 30
0.0
 10
38.52745330523173
 20
-57.7904655725959
 30
0.0
 10
38.47024055840907
 20
-57.77124217347036
 30
0.0
 10
38.41119800937661
 20
-57.77124217347036
 30
0.0
  0
SPLINE
  5
16E
330
79
100
AcDbEntity
  8
Camada 1
 62
    18
420
        0
370
    15
100
AcDbSpline
210
0.0
220
0.0
230
1.0
 70
     8
 71
     3
 72
     8
 73
     4
 74
     0
 42
0.0000000001
 43
0.0000000001
 40
0.0
 40
0.0
 40
0.0
 40
0.0
 40
1.0
 40
1.0
 40
1.0
 40
1.0
 10
34.74624037918719
 20
-62.51209556462723
 30
0.0
 10
34.68559151523962
 20
-62.46037571640834
 30
0.0
 10
34.60869791873937
 20
-62.423762212353
 30
0.0
 10
34.53020499130394
 20
-62.40980124056272
 30
0.0
  0
SPLINE
  5
16F
330
79
100
AcDbEntity
  8
Camada 1
 62
    18
420
        0
370
    15
100
AcDbSpline
210
0.0
220
0.0
230
1.0
 70
     8
 71
     3
 72
     8
 73
     4
 74
     0
 42
0.0000000001
 43
0.0000000001
 40
0.0
 40
0.0
 40
0.0
 40
0.0
 40
1.0
 40
1.0
 40
1.0
 40
1.0
 10
26.5008338698828
 20
-60.29601652627625
 30
0.0
 10
26.56147924183831
 20
-60.34773986648526
 30
0.0
 10
26.63837283833856
 20
-60.3843533705406
 30
0.0
 10
26.71686576577752
 20
-60.39831434233089
 30
0.0
  0
SPLINE
  5
170
330
79
100
AcDbEntity
  8
Camada 1
 62
    18
420
        0
370
    15
100
AcDbSpline
210
0.0
220
0.0
230
1.0
 70
     8
 71
     3
 72
     8
 73
     4
 74
     0
 42
0.0000000001
 43
0.0000000001
 40
0.0
 40
0.0
 40
0.0
 40
0.0
 40
1.0
 40
1.0
 40
1.0
 40
1.0
 10
34.53027483108413
 20
-60.39833529426398
 30
0.0
 10
34.60876775851924
 20
-60.38414734319339
 30
0.0
 10
34.68566135501949
 20
-60.34776081841836
 30
0.0
 10
34.74630672697532
 20
-60.29604097019947
 30
0.0
  0
SPLINE
  5
171
330
79
100
AcDbEntity
  8
Camada 1
 62
    18
420
        0
370
    15
100
AcDbSpline
210
0.0
220
0.0
230
1.0
 70
     8
 71
     3
 72
     8
 73
     4
 74
     0
 42
0.0000000001
 43
0.0000000001
 40
0.0
 40
0.0
 40
0.0
 40
0.0
 40
1.0
 40
1.0
 40
1.0
 40
1.0
 10
26.71682036992024
 20
-62.40975235271754
 30
0.0
 10
26.6383239504966
 20
-62.42394379577699
 30
0.0
 10
26.56143035399282
 20
-62.46033032055202
 30
0.0
 10
26.50078498204051
 20
-62.51205016877219
 30
0.0
  0
SPLINE
  5
172
330
79
100
AcDbEntity
  8
Camada 1
 62
    18
420
        0
370
    15
100
AcDbSpline
210
0.0
220
0.0
230
1.0
 70
     8
 71
     3
 72
    11
 73
     7
 74
     0
 42
0.0000000001
 43
0.0000000001
 40
0.0
 40
0.0
 40
0.0
 40
0.0
 40
1.0
 40
1.0
 40
1.0
 40
2.0
 40
2.0
 40
2.0
 40
2.0
 10
31.82869060218122
 20
-65.62362183536855
 30
0.0
 10
31.82617287815471
 20
-65.70189127551316
 30
0.0
 10
31.79070125447897
 20
-65.78198702587453
 30
0.0
 10
31.7323431352824
 20
-65.83760044176395
 30
0.0
 10
31.67307011498271
 20
-65.89389828748572
 30
0.0
 10
31.5902261693231
 20
-65.92501889293536
 30
0.0
 10
31.51104532006389
 20
-65.92501889293536
 30
0.0
  0
SPLINE
  5
173
330
79
100
AcDbEntity
  8
Camada 1
 62
    18
420
        0
370
    15
100
AcDbSpline
210
0.0
220
0.0
230
1.0
 70
     8
 71
     3
 72
    11
 73
     7
 74
     0
 42
0.0000000001
 43
0.0000000001
 40
0.0
 40
0.0
 40
0.0
 40
0.0
 40
1.0
 40
1.0
 40
1.0
 40
2.0
 40
2.0
 40
2.0
 40
2.0
 10
29.41838364688877
 20
-65.62362183536855
 30
0.0
 10
29.42089787892675
 20
-65.70189127551316
 30
0.0
 10
29.45659997387006
 20
-65.78198702587453
 30
0.0
 10
29.51472762179906
 20
-65.83760044176395
 30
0.0
 10
29.57400064209875
 20
-65.89389828748572
 30
0.0
 10
29.65684458775836
 20
-65.92501889293536
 30
0.0
 10
29.73602543701436
 20
-65.92501889293536
 30
0.0
  0
SPLINE
  5
174
330
79
100
AcDbEntity
  8
Camada 1
 62
    18
420
        0
370
    15
100
AcDbSpline
210
0.0
220
0.0
230
1.0
 70
     8
 71
     3
 72
     8
 73
     4
 74
     0
 42
0.0000000001
 43
0.0000000001
 40
0.0
 40
0.0
 40
0.0
 40
0.0
 40
1.0
 40
1.0
 40
1.0
 40
1.0
 10
34.74624037918719
 20
-60.29601652627625
 30
0.0
 10
34.84281482536504
 20
-60.21340305188933
 30
0.0
 10
34.90574745007629
 20
-60.07677898453573
 30
0.0
 10
34.90574745007629
 20
-59.94976836273997
 30
0.0
  0
SPLINE
  5
175
330
79
100
AcDbEntity
  8
Camada 1
 62
    18
420
        0
370
    15
100
AcDbSpline
210
0.0
220
0.0
230
1.0
 70
     8
 71
     3
 72
     8
 73
     4
 74
     0
 42
0.0000000001
 43
0.0000000001
 40
0.0
 40
0.0
 40
0.0
 40
0.0
 40
1.0
 40
1.0
 40
1.0
 40
1.0
 10
26.5008338698828
 20
-62.51209556462723
 30
0.0
 10
26.40425593171674
 20
-62.59471253100428
 30
0.0
 10
26.34132330700517
 20
-62.73133659835788
 30
0.0
 10
26.34132330700517
 20
-62.85834722015364
 30
0.0
  0
SPLINE
  5
176
330
79
100
AcDbEntity
  8
Camada 1
 62
    18
420
        0
370
    15
100
AcDbSpline
210
0.0
220
0.0
230
1.0
 70
     8
 71
     3
 72
     8
 73
     4
 74
     0
 42
0.0000000001
 43
0.0000000001
 40
0.0
 40
0.0
 40
0.0
 40
0.0
 40
1.0
 40
1.0
 40
1.0
 40
1.0
 10
34.90579633791826
 20
-62.85823198451906
 30
0.0
 10
34.90579633791826
 20
-62.7312213627233
 30
0.0
 10
34.84286022121847
 20
-62.59482776664015
 30
0.0
 10
34.74628577504095
 20
-62.5119838209815
 30
0.0
  0
SPLINE
  5
177
330
79
100
AcDbEntity
  8
Camada 1
 62
    18
420
        0
370
    15
100
AcDbSpline
210
0.0
220
0.0
230
1.0
 70
     8
 71
     3
 72
     8
 73
     4
 74
     0
 42
0.0000000001
 43
0.0000000001
 40
0.0
 40
0.0
 40
0.0
 40
0.0
 40
1.0
 40
1.0
 40
1.0
 40
1.0
 10
26.34127791115174
 20
-59.94985566246376
 30
0.0
 10
26.34127791115174
 20
-60.07686977624836
 30
0.0
 10
26.40421053585946
 20
-60.21349384360068
 30
0.0
 10
26.50078498204051
 20
-60.29610731798888
 30
0.0
  0
LINE
  5
178
330
79
100
AcDbEntity
  8
Camada 1
 62
    18
420
        0
370
    15
100
AcDbLine
 10
37.56861599757968
 20
-71.1281068603368
 30
0.0
 11
36.84796376366597
 21
-71.1281068603368
 31
0.0
  0
LINE
  5
179
330
79
100
AcDbEntity
  8
Camada 1
 62
    18
420
        0
370
    15
100
AcDbLine
 10
23.6784582514903
 20
-71.1281068603368
 30
0.0
 11
24.39910699341581
 21
-71.1281068603368
 31
0.0
  0
LINE
  5
17A
330
79
100
AcDbEntity
  8
Camada 1
 62
    18
420
        0
370
    15
100
AcDbLine
 10
37.56129329676773
 20
-70.7853087818744
 30
0.0
 11
36.83949569048332
 21
-70.7853087818744
 31
0.0
  0
LINE
  5
17B
330
79
100
AcDbEntity
  8
Camada 1
 62
    18
420
        0
370
    15
100
AcDbLine
 10
23.68578095230227
 20
-70.7853087818744
 30
0.0
 11
24.40734808731943
 21
-70.7853087818744
 31
0.0
  0
LINE
  5
17C
330
79
100
AcDbEntity
  8
Camada 1
 62
    18
420
        0
370
    15
100
AcDbLine
 10
37.56129329676773
 20
-70.37747590135658
 30
0.0
 11
36.83949569048332
 21
-70.37747590135658
 31
0.0
  0
LINE
  5
17D
330
79
100
AcDbEntity
  8
Camada 1
 62
    18
420
        0
370
    15
100
AcDbLine
 10
23.68578095230227
 20
-70.37747590135658
 30
0.0
 11
24.40734808731943
 21
-70.37747590135658
 31
0.0
  0
LINE
  5
17E
330
79
100
AcDbEntity
  8
Camada 1
 62
    18
420
        0
370
    15
100
AcDbLine
 10
37.56129329676773
 20
-70.04609662673442
 30
0.0
 11
36.83949569048332
 21
-70.04609662673442
 31
0.0
  0
LINE
  5
17F
330
79
100
AcDbEntity
  8
Camada 1
 62
    18
420
        0
370
    15
100
AcDbLine
 10
23.68578095230227
 20
-70.04609662673442
 30
0.0
 11
24.40734808731943
 21
-70.04609662673442
 31
0.0
  0
LINE
  5
180
330
79
100
AcDbEntity
  8
Camada 1
 62
    18
420
        0
370
    15
100
AcDbLine
 10
37.56129329676773
 20
-69.63826374621787
 30
0.0
 11
36.83949569048332
 21
-69.63826374621787
 31
0.0
  0
LINE
  5
181
330
79
100
AcDbEntity
  8
Camada 1
 62
    18
420
        0
370
    15
100
AcDbLine
 10
23.68578095230227
 20
-69.63826374621787
 30
0.0
 11
24.40734808731943
 21
-69.63826374621787
 31
0.0
  0
LINE
  5
182
330
79
100
AcDbEntity
  8
Camada 1
 62
    18
420
        0
370
    15
100
AcDbLine
 10
37.56129329676773
 20
-69.30688796358328
 30
0.0
 11
36.83949569048332
 21
-69.30688796358328
 31
0.0
  0
LINE
  5
183
330
79
100
AcDbEntity
  8
Camada 1
 62
    18
420
        0
370
    15
100
AcDbLine
 10
23.68578095230227
 20
-69.30688796358328
 30
0.0
 11
24.40734808731943
 21
-69.30688796358328
 31
0.0
  0
LINE
  5
184
330
79
100
AcDbEntity
  8
Camada 1
 62
    18
420
        0
370
    15
100
AcDbLine
 10
37.56129329676773
 20
-68.89905159107789
 30
0.0
 11
36.83949569048332
 21
-68.89905159107789
 31
0.0
  0
LINE
  5
185
330
79
100
AcDbEntity
  8
Camada 1
 62
    18
420
        0
370
    15
100
AcDbLine
 10
23.68578095230227
 20
-68.89905159107789
 30
0.0
 11
24.40734808731943
 21
-68.89905159107789
 31
0.0
  0
LINE
  5
186
330
79
100
AcDbEntity
  8
Camada 1
 62
    18
420
        0
370
    15
100
AcDbLine
 10
37.56129329676773
 20
-68.5676758084433
 30
0.0
 11
36.83949569048332
 21
-68.5676758084433
 31
0.0
  0
LINE
  5
187
330
79
100
AcDbEntity
  8
Camada 1
 62
    18
420
        0
370
    15
100
AcDbLine
 10
23.68578095230227
 20
-68.5676758084433
 30
0.0
 11
24.40734808731943
 21
-68.5676758084433
 31
0.0
  0
LINE
  5
188
330
79
100
AcDbEntity
  8
Camada 1
 62
    18
420
        0
370
    15
100
AcDbLine
 10
37.56129329676773
 20
-68.1598184840048
 30
0.0
 11
36.83949569048332
 21
-68.1598184840048
 31
0.0
  0
LINE
  5
189
330
79
100
AcDbEntity
  8
Camada 1
 62
    18
420
        0
370
    15
100
AcDbLine
 10
23.68578095230227
 20
-68.1598184840048
 30
0.0
 11
24.40734808731943
 21
-68.1598184840048
 31
0.0
  0
LINE
  5
18A
330
79
100
AcDbEntity
  8
Camada 1
 62
    18
420
        0
370
    15
100
AcDbLine
 10
37.56129329676773
 20
-67.82843920938265
 30
0.0
 11
36.83949569048332
 21
-67.82843920938265
 31
0.0
  0
LINE
  5
18B
330
79
100
AcDbEntity
  8
Camada 1
 62
    18
420
        0
370
    15
100
AcDbLine
 10
23.68578095230227
 20
-67.82843920938265
 30
0.0
 11
24.40734808731943
 21
-67.82843920938265
 31
0.0
  0
LINE
  5
18C
330
79
100
AcDbEntity
  8
Camada 1
 62
    18
420
        0
370
    15
100
AcDbLine
 10
37.56129329676773
 20
-67.42060632886482
 30
0.0
 11
36.83949569048332
 21
-67.42060632886482
 31
0.0
  0
LINE
  5
18D
330
79
100
AcDbEntity
  8
Camada 1
 62
    18
420
        0
370
    15
100
AcDbLine
 10
23.68578095230227
 20
-67.42060632886482
 30
0.0
 11
24.40734808731943
 21
-67.42060632886482
 31
0.0
  0
LINE
  5
18E
330
79
100
AcDbEntity
  8
Camada 1
 62
    18
420
        0
370
    15
100
AcDbLine
 10
37.56129329676773
 20
-67.0892305462315
 30
0.0
 11
36.83949569048332
 21
-67.0892305462315
 31
0.0
  0
LINE
  5
18F
330
79
100
AcDbEntity
  8
Camada 1
 62
    18
420
        0
370
    15
100
AcDbLine
 10
23.68578095230227
 20
-67.0892305462315
 30
0.0
 11
24.40734808731943
 21
-67.0892305462315
 31
0.0
  0
LINE
  5
190
330
79
100
AcDbEntity
  8
Camada 1
 62
    18
420
        0
370
    15
100
AcDbLine
 10
37.56129329676773
 20
-66.68139417372483
 30
0.0
 11
36.83949569048332
 21
-66.68139417372483
 31
0.0
  0
LINE
  5
191
330
79
100
AcDbEntity
  8
Camada 1
 62
    18
420
        0
370
    15
100
AcDbLine
 10
23.68578095230227
 20
-66.68139417372483
 30
0.0
 11
24.40734808731943
 21
-66.68139417372483
 31
0.0
  0
LINE
  5
192
330
79
100
AcDbEntity
  8
Camada 1
 62
    18
420
        0
370
    15
100
AcDbLine
 10
37.56129329676773
 20
-66.35001839109152
 30
0.0
 11
36.83949569048332
 21
-66.35001839109152
 31
0.0
  0
LINE
  5
193
330
79
100
AcDbEntity
  8
Camada 1
 62
    18
420
        0
370
    15
100
AcDbLine
 10
23.68578095230227
 20
-66.35001839109152
 30
0.0
 11
24.40734808731943
 21
-66.35001839109152
 31
0.0
  0
LINE
  5
194
330
79
100
AcDbEntity
  8
Camada 1
 62
    18
420
        0
370
    15
100
AcDbLine
 10
37.56129329676773
 20
-65.94218201858485
 30
0.0
 11
36.83949569048332
 21
-65.94218201858485
 31
0.0
  0
LINE
  5
195
330
79
100
AcDbEntity
  8
Camada 1
 62
    18
420
        0
370
    15
100
AcDbLine
 10
23.68578095230227
 20
-65.94218201858485
 30
0.0
 11
24.40734808731943
 21
-65.94218201858485
 31
0.0
  0
LINE
  5
196
330
79
100
AcDbEntity
  8
Camada 1
 62
    18
420
        0
370
    15
100
AcDbLine
 10
37.56129329676773
 20
-65.61078179202958
 30
0.0
 11
36.83949569048332
 21
-65.61078179202958
 31
0.0
  0
LINE
  5
197
330
79
100
AcDbEntity
  8
Camada 1
 62
    18
420
        0
370
    15
100
AcDbLine
 10
23.68578095230227
 20
-65.61078179202958
 30
0.0
 11
24.40734808731943
 21
-65.61078179202958
 31
0.0
  0
LINE
  5
198
330
79
100
AcDbEntity
  8
Camada 1
 62
    18
420
        0
370
    15
100
AcDbLine
 10
37.56129329676773
 20
-65.20294891151177
 30
0.0
 11
36.83949569048332
 21
-65.20294891151177
 31
0.0
  0
LINE
  5
199
330
79
100
AcDbEntity
  8
Camada 1
 62
    18
420
        0
370
    15
100
AcDbLine
 10
23.68578095230227
 20
-65.20294891151177
 30
0.0
 11
24.40734808731943
 21
-65.20294891151177
 31
0.0
  0
LINE
  5
19A
330
79
100
AcDbEntity
  8
Camada 1
 62
    18
420
        0
370
    15
100
AcDbLine
 10
37.56129329676773
 20
-64.87159408081282
 30
0.0
 11
36.83949569048332
 21
-64.87159408081282
 31
0.0
  0
LINE
  5
19B
330
79
100
AcDbEntity
  8
Camada 1
 62
    18
420
        0
370
    15
100
AcDbLine
 10
23.68578095230227
 20
-64.87159408081282
 30
0.0
 11
24.40734808731943
 21
-64.87159408081282
 31
0.0
  0
LINE
  5
19C
330
79
100
AcDbEntity
  8
Camada 1
 62
    18
420
        0
370
    15
100
AcDbLine
 10
37.56129329676773
 20
-64.46371231244983
 30
0.0
 11
36.83949569048332
 21
-64.46371231244983
 31
0.0
  0
LINE
  5
19D
330
79
100
AcDbEntity
  8
Camada 1
 62
    18
420
        0
370
    15
100
AcDbLine
 10
23.68578095230227
 20
-64.46371231244983
 30
0.0
 11
24.40734808731943
 21
-64.46371231244983
 31
0.0
  0
LINE
  5
19E
330
79
100
AcDbEntity
  8
Camada 1
 62
    18
420
        0
370
    15
100
AcDbLine
 10
37.56129329676773
 20
-64.13236097373846
 30
0.0
 11
36.83949569048332
 21
-64.13236097373846
 31
0.0
  0
LINE
  5
19F
330
79
100
AcDbEntity
  8
Camada 1
 62
    18
420
        0
370
    15
100
AcDbLine
 10
23.68578095230227
 20
-64.13236097373846
 30
0.0
 11
24.40734808731943
 21
-64.13236097373846
 31
0.0
  0
LINE
  5
1A0
330
79
100
AcDbEntity
  8
Camada 1
 62
    18
420
        0
370
    15
100
AcDbLine
 10
37.56129329676773
 20
-63.72452460123307
 30
0.0
 11
36.83949569048332
 21
-63.72452460123307
 31
0.0
  0
LINE
  5
1A1
330
79
100
AcDbEntity
  8
Camada 1
 62
    18
420
        0
370
    15
100
AcDbLine
 10
23.68578095230227
 20
-63.72452460123307
 30
0.0
 11
24.40734808731943
 21
-63.72452460123307
 31
0.0
  0
LINE
  5
1A2
330
79
100
AcDbEntity
  8
Camada 1
 62
    18
420
        0
370
    15
100
AcDbLine
 10
37.56129329676773
 20
-63.39314881859976
 30
0.0
 11
36.83949569048332
 21
-63.39314881859976
 31
0.0
  0
LINE
  5
1A3
330
79
100
AcDbEntity
  8
Camada 1
 62
    18
420
        0
370
    15
100
AcDbLine
 10
23.68578095230227
 20
-63.39314881859976
 30
0.0
 11
24.40734808731943
 21
-63.39314881859976
 31
0.0
  0
LINE
  5
1A4
330
79
100
AcDbEntity
  8
Camada 1
 62
    18
420
        0
370
    15
100
AcDbLine
 10
37.56129329676773
 20
-62.98529149415998
 30
0.0
 11
36.83949569048332
 21
-62.98529149415998
 31
0.0
  0
LINE
  5
1A5
330
79
100
AcDbEntity
  8
Camada 1
 62
    18
420
        0
370
    15
100
AcDbLine
 10
23.68578095230227
 20
-62.98529149415998
 30
0.0
 11
24.40734808731943
 21
-62.98529149415998
 31
0.0
  0
LINE
  5
1A6
330
79
100
AcDbEntity
  8
Camada 1
 62
    18
420
        0
370
    15
100
AcDbLine
 10
37.56129329676773
 20
-62.65393666345977
 30
0.0
 11
36.83949569048332
 21
-62.65393666345977
 31
0.0
  0
LINE
  5
1A7
330
79
100
AcDbEntity
  8
Camada 1
 62
    18
420
        0
370
    15
100
AcDbLine
 10
23.68578095230227
 20
-62.65393666345977
 30
0.0
 11
24.40734808731943
 21
-62.65393666345977
 31
0.0
  0
LINE
  5
1A8
330
79
100
AcDbEntity
  8
Camada 1
 62
    18
420
        0
370
    15
100
AcDbLine
 10
37.56129329676773
 20
-62.24607933901999
 30
0.0
 11
36.83949569048332
 21
-62.24607933901999
 31
0.0
  0
LINE
  5
1A9
330
79
100
AcDbEntity
  8
Camada 1
 62
    18
420
        0
370
    15
100
AcDbLine
 10
23.68578095230227
 20
-62.24607933901999
 30
0.0
 11
24.40734808731943
 21
-62.24607933901999
 31
0.0
  0
LINE
  5
1AA
330
79
100
AcDbEntity
  8
Camada 1
 62
    18
420
        0
370
    15
100
AcDbLine
 10
37.56129329676773
 20
-61.91470355638668
 30
0.0
 11
36.83949569048332
 21
-61.91470355638668
 31
0.0
  0
LINE
  5
1AB
330
79
100
AcDbEntity
  8
Camada 1
 62
    18
420
        0
370
    15
100
AcDbLine
 10
23.68578095230227
 20
-61.91470355638668
 30
0.0
 11
24.40734808731943
 21
-61.91470355638668
 31
0.0
  0
LINE
  5
1AC
330
79
100
AcDbEntity
  8
Camada 1
 62
    18
420
        0
370
    15
100
AcDbLine
 10
37.56129329676773
 20
-61.50686718388001
 30
0.0
 11
36.83949569048332
 21
-61.50686718388001
 31
0.0
  0
LINE
  5
1AD
330
79
100
AcDbEntity
  8
Camada 1
 62
    18
420
        0
370
    15
100
AcDbLine
 10
23.68578095230227
 20
-61.50686718388001
 30
0.0
 11
24.40734808731943
 21
-61.50686718388001
 31
0.0
  0
LINE
  5
1AE
330
79
100
AcDbEntity
  8
Camada 1
 62
    18
420
        0
370
    15
100
AcDbLine
 10
37.56129329676773
 20
-61.17549140124669
 30
0.0
 11
36.83949569048332
 21
-61.17549140124669
 31
0.0
  0
LINE
  5
1AF
330
79
100
AcDbEntity
  8
Camada 1
 62
    18
420
        0
370
    15
100
AcDbLine
 10
23.68578095230227
 20
-61.17549140124669
 30
0.0
 11
24.40734808731943
 21
-61.17549140124669
 31
0.0
  0
LINE
  5
1B0
330
79
100
AcDbEntity
  8
Camada 1
 62
    18
420
        0
370
    15
100
AcDbLine
 10
37.56129329676773
 20
-60.76763407680822
 30
0.0
 11
36.83949569048332
 21
-60.76763407680822
 31
0.0
  0
LINE
  5
1B1
330
79
100
AcDbEntity
  8
Camada 1
 62
    18
420
        0
370
    15
100
AcDbLine
 10
23.68578095230227
 20
-60.76763407680822
 30
0.0
 11
24.40734808731943
 21
-60.76763407680822
 31
0.0
  0
LINE
  5
1B2
330
79
100
AcDbEntity
  8
Camada 1
 62
    18
420
        0
370
    15
100
AcDbLine
 10
37.56129329676773
 20
-60.43625480218477
 30
0.0
 11
36.83949569048332
 21
-60.43625480218477
 31
0.0
  0
LINE
  5
1B3
330
79
100
AcDbEntity
  8
Camada 1
 62
    18
420
        0
370
    15
100
AcDbLine
 10
23.68578095230227
 20
-60.43625480218477
 30
0.0
 11
24.40734808731943
 21
-60.43625480218477
 31
0.0
  0
LINE
  5
1B4
330
79
100
AcDbEntity
  8
Camada 1
 62
    18
420
        0
370
    15
100
AcDbLine
 10
37.56129329676773
 20
-60.02842192166823
 30
0.0
 11
36.83949569048332
 21
-60.02842192166823
 31
0.0
  0
LINE
  5
1B5
330
79
100
AcDbEntity
  8
Camada 1
 62
    18
420
        0
370
    15
100
AcDbLine
 10
23.68578095230227
 20
-60.02842192166823
 30
0.0
 11
24.40734808731943
 21
-60.02842192166823
 31
0.0
  0
LINE
  5
1B6
330
79
100
AcDbEntity
  8
Camada 1
 62
    18
420
        0
370
    15
100
AcDbLine
 10
37.56129329676773
 20
-59.69704613903362
 30
0.0
 11
36.83949569048332
 21
-59.69704613903362
 31
0.0
  0
LINE
  5
1B7
330
79
100
AcDbEntity
  8
Camada 1
 62
    18
420
        0
370
    15
100
AcDbLine
 10
23.68578095230227
 20
-59.69704613903362
 30
0.0
 11
24.40734808731943
 21
-59.69704613903362
 31
0.0
  0
LINE
  5
1B8
330
79
100
AcDbEntity
  8
Camada 1
 62
    18
420
        0
370
    15
100
AcDbLine
 10
37.56129329676773
 20
-59.28920976652823
 30
0.0
 11
36.83949569048332
 21
-59.28920976652823
 31
0.0
  0
LINE
  5
1B9
330
79
100
AcDbEntity
  8
Camada 1
 62
    18
420
        0
370
    15
100
AcDbLine
 10
23.68578095230227
 20
-59.28920976652823
 30
0.0
 11
24.40734808731943
 21
-59.28920976652823
 31
0.0
  0
LINE
  5
1BA
330
79
100
AcDbEntity
  8
Camada 1
 62
    18
420
        0
370
    15
100
AcDbLine
 10
37.56129329676773
 20
-58.95783398389492
 30
0.0
 11
36.83949569048332
 21
-58.95783398389492
 31
0.0
  0
LINE
  5
1BB
330
79
100
AcDbEntity
  8
Camada 1
 62
    18
420
        0
370
    15
100
AcDbLine
 10
23.68578095230227
 20
-58.95783398389492
 30
0.0
 11
24.40734808731943
 21
-58.95783398389492
 31
0.0
  0
LINE
  5
1BC
330
79
100
AcDbEntity
  8
Camada 1
 62
    18
420
        0
370
    15
100
AcDbLine
 10
37.56129329676773
 20
-58.54999761138824
 30
0.0
 11
36.83949569048332
 21
-58.54999761138824
 31
0.0
  0
LINE
  5
1BD
330
79
100
AcDbEntity
  8
Camada 1
 62
    18
420
        0
370
    15
100
AcDbLine
 10
23.68578095230227
 20
-58.54999761138824
 30
0.0
 11
24.40734808731943
 21
-58.54999761138824
 31
0.0
  0
LINE
  5
1BE
330
79
100
AcDbEntity
  8
Camada 1
 62
    18
420
        0
370
    15
100
AcDbLine
 10
37.56861599757968
 20
-58.20720302491469
 30
0.0
 11
36.84796376366597
 21
-58.20720302491469
 31
0.0
  0
LINE
  5
1BF
330
79
100
AcDbEntity
  8
Camada 1
 62
    18
420
        0
370
    15
100
AcDbLine
 10
23.6784582514903
 20
-58.20720302491469
 30
0.0
 11
24.39910699341581
 21
-58.20720302491469
 31
0.0
  0
SPLINE
  5
1C0
330
79
100
AcDbEntity
  8
Camada 1
 62
    18
420
        0
370
    15
100
AcDbSpline
210
0.0
220
0.0
230
1.0
 70
     8
 71
     3
 72
     8
 73
     4
 74
     0
 42
0.0000000001
 43
0.0000000001
 40
0.0
 40
0.0
 40
0.0
 40
0.0
 40
1.0
 40
1.0
 40
1.0
 40
1.0
 10
22.62592738853748
 20
-68.1598184840048
 30
0.0
 10
22.5423955210573
 20
-68.28294252210773
 30
0.0
 10
22.5423955210573
 20
-68.4445098664729
 30
0.0
 10
22.62592738853748
 20
-68.56763390457711
 30
0.0
  0
SPLINE
  5
1C1
330
79
100
AcDbEntity
  8
Camada 1
 62
    18
420
        0
370
    15
100
AcDbSpline
210
0.0
220
0.0
230
1.0
 70
     8
 71
     3
 72
     8
 73
     4
 74
     0
 42
0.0000000001
 43
0.0000000001
 40
0.0
 40
0.0
 40
0.0
 40
0.0
 40
1.0
 40
1.0
 40
1.0
 40
1.0
 10
22.62592738853748
 20
-68.89905159107789
 30
0.0
 10
22.5423955210573
 20
-69.0221756291821
 30
0.0
 10
22.5423955210573
 20
-69.18374297354597
 30
0.0
 10
22.62592738853748
 20
-69.30686701165019
 30
0.0
  0
SPLINE
  5
1C2
330
79
100
AcDbEntity
  8
Camada 1
 62
    18
420
        0
370
    15
100
AcDbSpline
210
0.0
220
0.0
230
1.0
 70
     8
 71
     3
 72
     8
 73
     4
 74
     0
 42
0.0000000001
 43
0.0000000001
 40
0.0
 40
0.0
 40
0.0
 40
0.0
 40
1.0
 40
1.0
 40
1.0
 40
1.0
 10
22.62592738853748
 20
-69.63826374621787
 30
0.0
 10
22.5423955210573
 20
-69.7613877843208
 30
0.0
 10
22.5423955210573
 20
-69.92295512868597
 30
0.0
 10
22.62592738853748
 20
-70.04607916679018
 30
0.0
  0
SPLINE
  5
1C3
330
79
100
AcDbEntity
  8
Camada 1
 62
    18
420
        0
370
    15
100
AcDbSpline
210
0.0
220
0.0
230
1.0
 70
     8
 71
     3
 72
     8
 73
     4
 74
     0
 42
0.0000000001
 43
0.0000000001
 40
0.0
 40
0.0
 40
0.0
 40
0.0
 40
1.0
 40
1.0
 40
1.0
 40
1.0
 10
22.62592738853748
 20
-70.37747590135658
 30
0.0
 10
22.5423955210573
 20
-70.5005999394608
 30
0.0
 10
22.5423955210573
 20
-70.66216728382595
 30
0.0
 10
22.62592738853748
 20
-70.78529132192888
 30
0.0
  0
SPLINE
  5
1C4
330
79
100
AcDbEntity
  8
Camada 1
 62
    18
420
        0
370
    15
100
AcDbSpline
210
0.0
220
0.0
230
1.0
 70
     8
 71
     3
 72
     8
 73
     4
 74
     0
 42
0.0000000001
 43
0.0000000001
 40
0.0
 40
0.0
 40
0.0
 40
0.0
 40
1.0
 40
1.0
 40
1.0
 40
1.0
 10
22.62592738853748
 20
-68.89905159107789
 30
0.0
 10
22.69389546130207
 20
-68.79904451976976
 30
0.0
 10
22.69389546130207
 20
-68.66768637174027
 30
0.0
 10
22.62592738853748
 20
-68.5676758084433
 30
0.0
  0
SPLINE
  5
1C5
330
79
100
AcDbEntity
  8
Camada 1
 62
    18
420
        0
370
    15
100
AcDbSpline
210
0.0
220
0.0
230
1.0
 70
     8
 71
     3
 72
     8
 73
     4
 74
     0
 42
0.0000000001
 43
0.0000000001
 40
0.0
 40
0.0
 40
0.0
 40
0.0
 40
1.0
 40
1.0
 40
1.0
 40
1.0
 10
22.62592738853748
 20
-69.63826374621787
 30
0.0
 10
22.69389546130207
 20
-69.53825667490974
 30
0.0
 10
22.69389546130207
 20
-69.40689852688025
 30
0.0
 10
22.62592738853748
 20
-69.30688796358328
 30
0.0
  0
SPLINE
  5
1C6
330
79
100
AcDbEntity
  8
Camada 1
 62
    18
420
        0
370
    15
100
AcDbSpline
210
0.0
220
0.0
230
1.0
 70
     8
 71
     3
 72
     8
 73
     4
 74
     0
 42
0.0000000001
 43
0.0000000001
 40
0.0
 40
0.0
 40
0.0
 40
0.0
 40
1.0
 40
1.0
 40
1.0
 40
1.0
 10
22.62592738853748
 20
-70.37747590135658
 30
0.0
 10
22.69389546130207
 20
-70.27746883004846
 30
0.0
 10
22.69389546130207
 20
-70.14611068202025
 30
0.0
 10
22.62592738853748
 20
-70.04610011872327
 30
0.0
  0
SPLINE
  5
1C7
330
79
100
AcDbEntity
  8
Camada 1
 62
    18
420
        0
370
    15
100
AcDbSpline
210
0.0
220
0.0
230
1.0
 70
     8
 71
     3
 72
     8
 73
     4
 74
     0
 42
0.0000000001
 43
0.0000000001
 40
0.0
 40
0.0
 40
0.0
 40
0.0
 40
1.0
 40
1.0
 40
1.0
 40
1.0
 10
22.617805022256
 20
-71.1281068603368
 30
0.0
 10
22.69332277511512
 20
-71.02741535919631
 30
0.0
 10
22.69652842096572
 20
-70.88964591947074
 30
0.0
 10
22.62604262417142
 20
-70.78529132192888
 30
0.0
  0
SPLINE
  5
1C8
330
79
100
AcDbEntity
  8
Camada 1
 62
    18
420
        0
370
    15
100
AcDbSpline
210
0.0
220
0.0
230
1.0
 70
     8
 71
     3
 72
     8
 73
     4
 74
     0
 42
0.0000000001
 43
0.0000000001
 40
0.0
 40
0.0
 40
0.0
 40
0.0
 40
1.0
 40
1.0
 40
1.0
 40
1.0
 10
22.62592738853748
 20
-65.94218201858485
 30
0.0
 10
22.5423955210573
 20
-66.06530605668905
 30
0.0
 10
22.5423955210573
 20
-66.22687340105422
 30
0.0
 10
22.62592738853748
 20
-66.34999743915843
 30
0.0
  0
SPLINE
  5
1C9
330
79
100
AcDbEntity
  8
Camada 1
 62
    18
420
        0
370
    15
100
AcDbSpline
210
0.0
220
0.0
230
1.0
 70
     8
 71
     3
 72
     8
 73
     4
 74
     0
 42
0.0000000001
 43
0.0000000001
 40
0.0
 40
0.0
 40
0.0
 40
0.0
 40
1.0
 40
1.0
 40
1.0
 40
1.0
 10
22.62592738853748
 20
-66.68139417372483
 30
0.0
 10
22.5423955210573
 20
-66.80451821182903
 30
0.0
 10
22.5423955210573
 20
-66.9660855561942
 30
0.0
 10
22.62592738853748
 20
-67.08920959429841
 30
0.0
  0
SPLINE
  5
1CA
330
79
100
AcDbEntity
  8
Camada 1
 62
    18
420
        0
370
    15
100
AcDbSpline
210
0.0
220
0.0
230
1.0
 70
     8
 71
     3
 72
     8
 73
     4
 74
     0
 42
0.0000000001
 43
0.0000000001
 40
0.0
 40
0.0
 40
0.0
 40
0.0
 40
1.0
 40
1.0
 40
1.0
 40
1.0
 10
22.62592738853748
 20
-67.42060632886482
 30
0.0
 10
22.5423955210573
 20
-67.54373036696775
 30
0.0
 10
22.5423955210573
 20
-67.7052977113342
 30
0.0
 10
22.62592738853748
 20
-67.82842174943711
 30
0.0
  0
SPLINE
  5
1CB
330
79
100
AcDbEntity
  8
Camada 1
 62
    18
420
        0
370
    15
100
AcDbSpline
210
0.0
220
0.0
230
1.0
 70
     8
 71
     3
 72
     8
 73
     4
 74
     0
 42
0.0000000001
 43
0.0000000001
 40
0.0
 40
0.0
 40
0.0
 40
0.0
 40
1.0
 40
1.0
 40
1.0
 40
1.0
 10
22.62592738853748
 20
-65.94218201858485
 30
0.0
 10
22.69389546130207
 20
-65.84217494727799
 30
0.0
 10
22.69389546130207
 20
-65.71081679924851
 30
0.0
 10
22.62592738853748
 20
-65.61080623595152
 30
0.0
  0
SPLINE
  5
1CC
330
79
100
AcDbEntity
  8
Camada 1
 62
    18
420
        0
370
    15
100
AcDbSpline
210
0.0
220
0.0
230
1.0
 70
     8
 71
     3
 72
     8
 73
     4
 74
     0
 42
0.0000000001
 43
0.0000000001
 40
0.0
 40
0.0
 40
0.0
 40
0.0
 40
1.0
 40
1.0
 40
1.0
 40
1.0
 10
22.62592738853748
 20
-66.68139417372483
 30
0.0
 10
22.69389546130207
 20
-66.5813871024167
 30
0.0
 10
22.69389546130207
 20
-66.4500289543885
 30
0.0
 10
22.62592738853748
 20
-66.35001839109152
 30
0.0
  0
SPLINE
  5
1CD
330
79
100
AcDbEntity
  8
Camada 1
 62
    18
420
        0
370
    15
100
AcDbSpline
210
0.0
220
0.0
230
1.0
 70
     8
 71
     3
 72
     8
 73
     4
 74
     0
 42
0.0000000001
 43
0.0000000001
 40
0.0
 40
0.0
 40
0.0
 40
0.0
 40
1.0
 40
1.0
 40
1.0
 40
1.0
 10
22.62592738853748
 20
-67.42060632886482
 30
0.0
 10
22.69389546130207
 20
-67.32059925755669
 30
0.0
 10
22.69389546130207
 20
-67.1892411095272
 30
0.0
 10
22.62592738853748
 20
-67.0892305462315
 30
0.0
  0
SPLINE
  5
1CE
330
79
100
AcDbEntity
  8
Camada 1
 62
    18
420
        0
370
    15
100
AcDbSpline
210
0.0
220
0.0
230
1.0
 70
     8
 71
     3
 72
     8
 73
     4
 74
     0
 42
0.0000000001
 43
0.0000000001
 40
0.0
 40
0.0
 40
0.0
 40
0.0
 40
1.0
 40
1.0
 40
1.0
 40
1.0
 10
22.62592738853748
 20
-68.1598184840048
 30
0.0
 10
22.69389546130207
 20
-68.05981141269668
 30
0.0
 10
22.69389546130207
 20
-67.92845326466848
 30
0.0
 10
22.62592738853748
 20
-67.8284427013715
 30
0.0
  0
SPLINE
  5
1CF
330
79
100
AcDbEntity
  8
Camada 1
 62
    18
420
        0
370
    15
100
AcDbSpline
210
0.0
220
0.0
230
1.0
 70
     8
 71
     3
 72
     8
 73
     4
 74
     0
 42
0.0000000001
 43
0.0000000001
 40
0.0
 40
0.0
 40
0.0
 40
0.0
 40
1.0
 40
1.0
 40
1.0
 40
1.0
 10
22.62592738853748
 20
-62.98529149415998
 30
0.0
 10
22.5423955210573
 20
-63.10841553226291
 30
0.0
 10
22.5423955210573
 20
-63.26998287662935
 30
0.0
 10
22.62592738853748
 20
-63.39310691473229
 30
0.0
  0
SPLINE
  5
1D0
330
79
100
AcDbEntity
  8
Camada 1
 62
    18
420
        0
370
    15
100
AcDbSpline
210
0.0
220
0.0
230
1.0
 70
     8
 71
     3
 72
     8
 73
     4
 74
     0
 42
0.0000000001
 43
0.0000000001
 40
0.0
 40
0.0
 40
0.0
 40
0.0
 40
1.0
 40
1.0
 40
1.0
 40
1.0
 10
22.62592738853748
 20
-63.72452460123307
 30
0.0
 10
22.5423955210573
 20
-63.84764863933599
 30
0.0
 10
22.5423955210573
 20
-64.00921598370115
 30
0.0
 10
22.62592738853748
 20
-64.13234002180536
 30
0.0
  0
SPLINE
  5
1D1
330
79
100
AcDbEntity
  8
Camada 1
 62
    18
420
        0
370
    15
100
AcDbSpline
210
0.0
220
0.0
230
1.0
 70
     8
 71
     3
 72
     8
 73
     4
 74
     0
 42
0.0000000001
 43
0.0000000001
 40
0.0
 40
0.0
 40
0.0
 40
0.0
 40
1.0
 40
1.0
 40
1.0
 40
1.0
 10
22.62592738853748
 20
-64.46371231244983
 30
0.0
 10
22.5423955210573
 20
-64.58683635055276
 30
0.0
 10
22.5423955210573
 20
-64.7484036949192
 30
0.0
 10
22.62592738853748
 20
-64.87152773302213
 30
0.0
  0
SPLINE
  5
1D2
330
79
100
AcDbEntity
  8
Camada 1
 62
    18
420
        0
370
    15
100
AcDbSpline
210
0.0
220
0.0
230
1.0
 70
     8
 71
     3
 72
     8
 73
     4
 74
     0
 42
0.0000000001
 43
0.0000000001
 40
0.0
 40
0.0
 40
0.0
 40
0.0
 40
1.0
 40
1.0
 40
1.0
 40
1.0
 10
22.62592738853748
 20
-65.20294891151177
 30
0.0
 10
22.5423955210573
 20
-65.32607294961596
 30
0.0
 10
22.5423955210573
 20
-65.48764029398113
 30
0.0
 10
22.62592738853748
 20
-65.61076433208405
 30
0.0
  0
SPLINE
  5
1D3
330
79
100
AcDbEntity
  8
Camada 1
 62
    18
420
        0
370
    15
100
AcDbSpline
210
0.0
220
0.0
230
1.0
 70
     8
 71
     3
 72
     8
 73
     4
 74
     0
 42
0.0000000001
 43
0.0000000001
 40
0.0
 40
0.0
 40
0.0
 40
0.0
 40
1.0
 40
1.0
 40
1.0
 40
1.0
 10
22.62592738853748
 20
-63.72452460123307
 30
0.0
 10
22.69389546130207
 20
-63.62451752992494
 30
0.0
 10
22.69389546130207
 20
-63.49315938189673
 30
0.0
 10
22.62592738853748
 20
-63.39314881859976
 30
0.0
  0
SPLINE
  5
1D4
330
79
100
AcDbEntity
  8
Camada 1
 62
    18
420
        0
370
    15
100
AcDbSpline
210
0.0
220
0.0
230
1.0
 70
     8
 71
     3
 72
     8
 73
     4
 74
     0
 42
0.0000000001
 43
0.0000000001
 40
0.0
 40
0.0
 40
0.0
 40
0.0
 40
1.0
 40
1.0
 40
1.0
 40
1.0
 10
22.62592738853748
 20
-64.46371231244983
 30
0.0
 10
22.69389546130207
 20
-64.3637052411417
 30
0.0
 10
22.69389546130207
 20
-64.23234709311349
 30
0.0
 10
22.62592738853748
 20
-64.13233652981651
 30
0.0
  0
SPLINE
  5
1D5
330
79
100
AcDbEntity
  8
Camada 1
 62
    18
420
        0
370
    15
100
AcDbSpline
210
0.0
220
0.0
230
1.0
 70
     8
 71
     3
 72
     8
 73
     4
 74
     0
 42
0.0000000001
 43
0.0000000001
 40
0.0
 40
0.0
 40
0.0
 40
0.0
 40
1.0
 40
1.0
 40
1.0
 40
1.0
 10
22.62592738853748
 20
-65.20294891151177
 30
0.0
 10
22.69389546130207
 20
-65.10294184020363
 30
0.0
 10
22.69389546130207
 20
-64.97158369217543
 30
0.0
 10
22.62592738853748
 20
-64.87157312887845
 30
0.0
  0
SPLINE
  5
1D6
330
79
100
AcDbEntity
  8
Camada 1
 62
    18
420
        0
370
    15
100
AcDbSpline
210
0.0
220
0.0
230
1.0
 70
     8
 71
     3
 72
     8
 73
     4
 74
     0
 42
0.0000000001
 43
0.0000000001
 40
0.0
 40
0.0
 40
0.0
 40
0.0
 40
1.0
 40
1.0
 40
1.0
 40
1.0
 10
22.62592738853748
 20
-60.76763407680822
 30
0.0
 10
22.5423955210573
 20
-60.89075811491113
 30
0.0
 10
22.5423955210573
 20
-61.05232545927631
 30
0.0
 10
22.62592738853748
 20
-61.17544949737922
 30
0.0
  0
SPLINE
  5
1D7
330
79
100
AcDbEntity
  8
Camada 1
 62
    18
420
        0
370
    15
100
AcDbSpline
210
0.0
220
0.0
230
1.0
 70
     8
 71
     3
 72
     8
 73
     4
 74
     0
 42
0.0000000001
 43
0.0000000001
 40
0.0
 40
0.0
 40
0.0
 40
0.0
 40
1.0
 40
1.0
 40
1.0
 40
1.0
 10
22.62592738853748
 20
-61.50686718388001
 30
0.0
 10
22.5423955210573
 20
-61.62999122198422
 30
0.0
 10
22.5423955210573
 20
-61.79155856634938
 30
0.0
 10
22.62592738853748
 20
-61.91468260445231
 30
0.0
  0
SPLINE
  5
1D8
330
79
100
AcDbEntity
  8
Camada 1
 62
    18
420
        0
370
    15
100
AcDbSpline
210
0.0
220
0.0
230
1.0
 70
     8
 71
     3
 72
     8
 73
     4
 74
     0
 42
0.0000000001
 43
0.0000000001
 40
0.0
 40
0.0
 40
0.0
 40
0.0
 40
1.0
 40
1.0
 40
1.0
 40
1.0
 10
22.62592738853748
 20
-62.24607933901999
 30
0.0
 10
22.5423955210573
 20
-62.36920337712421
 30
0.0
 10
22.5423955210573
 20
-62.53077072148936
 30
0.0
 10
22.62592738853748
 20
-62.6538947595923
 30
0.0
  0
SPLINE
  5
1D9
330
79
100
AcDbEntity
  8
Camada 1
 62
    18
420
        0
370
    15
100
AcDbSpline
210
0.0
220
0.0
230
1.0
 70
     8
 71
     3
 72
     8
 73
     4
 74
     0
 42
0.0000000001
 43
0.0000000001
 40
0.0
 40
0.0
 40
0.0
 40
0.0
 40
1.0
 40
1.0
 40
1.0
 40
1.0
 10
22.62592738853748
 20
-60.76763407680822
 30
0.0
 10
22.69389546130207
 20
-60.66762700550007
 30
0.0
 10
22.69389546130207
 20
-60.53626885747059
 30
0.0
 10
22.62592738853748
 20
-60.43625829417361
 30
0.0
  0
SPLINE
  5
1DA
330
79
100
AcDbEntity
  8
Camada 1
 62
    18
420
        0
370
    15
100
AcDbSpline
210
0.0
220
0.0
230
1.0
 70
     8
 71
     3
 72
     8
 73
     4
 74
     0
 42
0.0000000001
 43
0.0000000001
 40
0.0
 40
0.0
 40
0.0
 40
0.0
 40
1.0
 40
1.0
 40
1.0
 40
1.0
 10
22.62592738853748
 20
-61.50686718388001
 30
0.0
 10
22.69389546130207
 20
-61.40686011257188
 30
0.0
 10
22.69389546130207
 20
-61.27550196454367
 30
0.0
 10
22.62592738853748
 20
-61.17549140124669
 30
0.0
  0
SPLINE
  5
1DB
330
79
100
AcDbEntity
  8
Camada 1
 62
    18
420
        0
370
    15
100
AcDbSpline
210
0.0
220
0.0
230
1.0
 70
     8
 71
     3
 72
     8
 73
     4
 74
     0
 42
0.0000000001
 43
0.0000000001
 40
0.0
 40
0.0
 40
0.0
 40
0.0
 40
1.0
 40
1.0
 40
1.0
 40
1.0
 10
22.62592738853748
 20
-62.24607933901999
 30
0.0
 10
22.69389546130207
 20
-62.14607226771187
 30
0.0
 10
22.69389546130207
 20
-62.01471411968366
 30
0.0
 10
22.62592738853748
 20
-61.91470355638668
 30
0.0
  0
SPLINE
  5
1DC
330
79
100
AcDbEntity
  8
Camada 1
 62
    18
420
        0
370
    15
100
AcDbSpline
210
0.0
220
0.0
230
1.0
 70
     8
 71
     3
 72
     8
 73
     4
 74
     0
 42
0.0000000001
 43
0.0000000001
 40
0.0
 40
0.0
 40
0.0
 40
0.0
 40
1.0
 40
1.0
 40
1.0
 40
1.0
 10
22.62592738853748
 20
-62.98529149415998
 30
0.0
 10
22.69389546130207
 20
-62.88528442285186
 30
0.0
 10
22.69389546130207
 20
-62.75392627482364
 30
0.0
 10
22.62592738853748
 20
-62.65391571152667
 30
0.0
  0
SPLINE
  5
1DD
330
79
100
AcDbEntity
  8
Camada 1
 62
    18
420
        0
370
    15
100
AcDbSpline
210
0.0
220
0.0
230
1.0
 70
     8
 71
     3
 72
     8
 73
     4
 74
     0
 42
0.0000000001
 43
0.0000000001
 40
0.0
 40
0.0
 40
0.0
 40
0.0
 40
1.0
 40
1.0
 40
1.0
 40
1.0
 10
22.62592738853748
 20
-58.54999761138824
 30
0.0
 10
22.5423955210573
 20
-58.67312164949117
 30
0.0
 10
22.5423955210573
 20
-58.83468899385762
 30
0.0
 10
22.62592738853748
 20
-58.95781303196054
 30
0.0
  0
SPLINE
  5
1DE
330
79
100
AcDbEntity
  8
Camada 1
 62
    18
420
        0
370
    15
100
AcDbSpline
210
0.0
220
0.0
230
1.0
 70
     8
 71
     3
 72
     8
 73
     4
 74
     0
 42
0.0000000001
 43
0.0000000001
 40
0.0
 40
0.0
 40
0.0
 40
0.0
 40
1.0
 40
1.0
 40
1.0
 40
1.0
 10
22.62592738853748
 20
-59.28920976652823
 30
0.0
 10
22.5423955210573
 20
-59.41233380463116
 30
0.0
 10
22.5423955210573
 20
-59.57390114899633
 30
0.0
 10
22.62592738853748
 20
-59.69702518710053
 30
0.0
  0
SPLINE
  5
1DF
330
79
100
AcDbEntity
  8
Camada 1
 62
    18
420
        0
370
    15
100
AcDbSpline
210
0.0
220
0.0
230
1.0
 70
     8
 71
     3
 72
     8
 73
     4
 74
     0
 42
0.0000000001
 43
0.0000000001
 40
0.0
 40
0.0
 40
0.0
 40
0.0
 40
1.0
 40
1.0
 40
1.0
 40
1.0
 10
22.62592738853748
 20
-60.02842192166823
 30
0.0
 10
22.5423955210573
 20
-60.15154595977115
 30
0.0
 10
22.5423955210573
 20
-60.31311330413632
 30
0.0
 10
22.62592738853748
 20
-60.43623734224052
 30
0.0
  0
SPLINE
  5
1E0
330
79
100
AcDbEntity
  8
Camada 1
 62
    18
420
        0
370
    15
100
AcDbSpline
210
0.0
220
0.0
230
1.0
 70
     8
 71
     3
 72
     8
 73
     4
 74
     0
 42
0.0000000001
 43
0.0000000001
 40
0.0
 40
0.0
 40
0.0
 40
0.0
 40
1.0
 40
1.0
 40
1.0
 40
1.0
 10
22.62592738853748
 20
-58.54999761138824
 30
0.0
 10
22.69664016461081
 20
-58.44564301384767
 30
0.0
 10
22.69343801075227
 20
-58.30787357412209
 30
0.0
 10
22.61768629463385
 20
-58.20718207298161
 30
0.0
  0
SPLINE
  5
1E1
330
79
100
AcDbEntity
  8
Camada 1
 62
    18
420
        0
370
    15
100
AcDbSpline
210
0.0
220
0.0
230
1.0
 70
     8
 71
     3
 72
     8
 73
     4
 74
     0
 42
0.0000000001
 43
0.0000000001
 40
0.0
 40
0.0
 40
0.0
 40
0.0
 40
1.0
 40
1.0
 40
1.0
 40
1.0
 10
22.62592738853748
 20
-59.28920976652823
 30
0.0
 10
22.69389546130207
 20
-59.1892026952201
 30
0.0
 10
22.69389546130207
 20
-59.0578445471919
 30
0.0
 10
22.62592738853748
 20
-58.95783398389492
 30
0.0
  0
SPLINE
  5
1E2
330
79
100
AcDbEntity
  8
Camada 1
 62
    18
420
        0
370
    15
100
AcDbSpline
210
0.0
220
0.0
230
1.0
 70
     8
 71
     3
 72
     8
 73
     4
 74
     0
 42
0.0000000001
 43
0.0000000001
 40
0.0
 40
0.0
 40
0.0
 40
0.0
 40
1.0
 40
1.0
 40
1.0
 40
1.0
 10
22.62592738853748
 20
-60.02842192166823
 30
0.0
 10
22.69389546130207
 20
-59.92841485036009
 30
0.0
 10
22.69389546130207
 20
-59.7970567023306
 30
0.0
 10
22.62592738853748
 20
-59.69704613903362
 30
0.0
  0
SPLINE
  5
1E3
330
79
100
AcDbEntity
  8
Camada 1
 62
    18
420
        0
370
    15
100
AcDbSpline
210
0.0
220
0.0
230
1.0
 70
     8
 71
     3
 72
     8
 73
     4
 74
     0
 42
0.0000000001
 43
0.0000000001
 40
0.0
 40
0.0
 40
0.0
 40
0.0
 40
1.0
 40
1.0
 40
1.0
 40
1.0
 10
38.62114686053251
 20
-70.7853087818744
 30
0.0
 10
38.70467523602417
 20
-70.66218823575905
 30
0.0
 10
38.70467523602417
 20
-70.50062089139517
 30
0.0
 10
38.62114686053251
 20
-70.37749685329096
 30
0.0
  0
SPLINE
  5
1E4
330
79
100
AcDbEntity
  8
Camada 1
 62
    18
420
        0
370
    15
100
AcDbSpline
210
0.0
220
0.0
230
1.0
 70
     8
 71
     3
 72
     8
 73
     4
 74
     0
 42
0.0000000001
 43
0.0000000001
 40
0.0
 40
0.0
 40
0.0
 40
0.0
 40
1.0
 40
1.0
 40
1.0
 40
1.0
 10
38.62114686053251
 20
-70.04609662673442
 30
0.0
 10
38.70467523602417
 20
-69.92297608062035
 30
0.0
 10
38.70467523602417
 20
-69.76140873625389
 30
0.0
 10
38.62114686053251
 20
-69.63828469815097
 30
0.0
  0
SPLINE
  5
1E5
330
79
100
AcDbEntity
  8
Camada 1
 62
    18
420
        0
370
    15
100
AcDbSpline
210
0.0
220
0.0
230
1.0
 70
     8
 71
     3
 72
     8
 73
     4
 74
     0
 42
0.0000000001
 43
0.0000000001
 40
0.0
 40
0.0
 40
0.0
 40
0.0
 40
1.0
 40
1.0
 40
1.0
 40
1.0
 10
38.62114686053251
 20
-69.30688796358328
 30
0.0
 10
38.70467523602417
 20
-69.18376741746921
 30
0.0
 10
38.70467523602417
 20
-69.02220007310404
 30
0.0
 10
38.62114686053251
 20
-68.89907603499984
 30
0.0
  0
SPLINE
  5
1E6
330
79
100
AcDbEntity
  8
Camada 1
 62
    18
420
        0
370
    15
100
AcDbSpline
210
0.0
220
0.0
230
1.0
 70
     8
 71
     3
 72
     8
 73
     4
 74
     0
 42
0.0000000001
 43
0.0000000001
 40
0.0
 40
0.0
 40
0.0
 40
0.0
 40
1.0
 40
1.0
 40
1.0
 40
1.0
 10
38.62114686053251
 20
-68.5676758084433
 30
0.0
 10
38.70467523602417
 20
-68.44455526232922
 30
0.0
 10
38.70467523602417
 20
-68.28298791796405
 30
0.0
 10
38.62114686053251
 20
-68.15986387985984
 30
0.0
  0
SPLINE
  5
1E7
330
79
100
AcDbEntity
  8
Camada 1
 62
    18
420
        0
370
    15
100
AcDbSpline
210
0.0
220
0.0
230
1.0
 70
     8
 71
     3
 72
     8
 73
     4
 74
     0
 42
0.0000000001
 43
0.0000000001
 40
0.0
 40
0.0
 40
0.0
 40
0.0
 40
1.0
 40
1.0
 40
1.0
 40
1.0
 10
38.62114686053251
 20
-70.7853087818744
 30
0.0
 10
38.55043059247064
 20
-70.88966687140383
 30
0.0
 10
38.55363274633273
 20
-71.02720583986024
 30
0.0
 10
38.6293844624476
 20
-71.12812781226989
 30
0.0
  0
SPLINE
  5
1E8
330
79
100
AcDbEntity
  8
Camada 1
 62
    18
420
        0
370
    15
100
AcDbSpline
210
0.0
220
0.0
230
1.0
 70
     8
 71
     3
 72
     8
 73
     4
 74
     0
 42
0.0000000001
 43
0.0000000001
 40
0.0
 40
0.0
 40
0.0
 40
0.0
 40
1.0
 40
1.0
 40
1.0
 40
1.0
 10
38.62114686053251
 20
-70.04609662673442
 30
0.0
 10
38.55317529577939
 20
-70.1461071900314
 30
0.0
 10
38.55317529577939
 20
-70.27746533805961
 30
0.0
 10
38.62114686053251
 20
-70.37747590135658
 30
0.0
  0
SPLINE
  5
1E9
330
79
100
AcDbEntity
  8
Camada 1
 62
    18
420
        0
370
    15
100
AcDbSpline
210
0.0
220
0.0
230
1.0
 70
     8
 71
     3
 72
     8
 73
     4
 74
     0
 42
0.0000000001
 43
0.0000000001
 40
0.0
 40
0.0
 40
0.0
 40
0.0
 40
1.0
 40
1.0
 40
1.0
 40
1.0
 10
38.62114686053251
 20
-69.30688796358328
 30
0.0
 10
38.55317529577939
 20
-69.40689852688025
 30
0.0
 10
38.55317529577939
 20
-69.53825667490974
 30
0.0
 10
38.62114686053251
 20
-69.63826723820672
 30
0.0
  0
SPLINE
  5
1EA
330
79
100
AcDbEntity
  8
Camada 1
 62
    18
420
        0
370
    15
100
AcDbSpline
210
0.0
220
0.0
230
1.0
 70
     8
 71
     3
 72
     8
 73
     4
 74
     0
 42
0.0000000001
 43
0.0000000001
 40
0.0
 40
0.0
 40
0.0
 40
0.0
 40
1.0
 40
1.0
 40
1.0
 40
1.0
 10
38.62114686053251
 20
-68.5676758084433
 30
0.0
 10
38.55317529577939
 20
-68.66768637174027
 30
0.0
 10
38.55317529577939
 20
-68.79904451976976
 30
0.0
 10
38.62114686053251
 20
-68.89905508306674
 30
0.0
  0
SPLINE
  5
1EB
330
79
100
AcDbEntity
  8
Camada 1
 62
    18
420
        0
370
    15
100
AcDbSpline
210
0.0
220
0.0
230
1.0
 70
     8
 71
     3
 72
     8
 73
     4
 74
     0
 42
0.0000000001
 43
0.0000000001
 40
0.0
 40
0.0
 40
0.0
 40
0.0
 40
1.0
 40
1.0
 40
1.0
 40
1.0
 10
38.62114686053251
 20
-67.82843920938265
 30
0.0
 10
38.70467523602417
 20
-67.70531866326729
 30
0.0
 10
38.70467523602417
 20
-67.54375131890212
 30
0.0
 10
38.62114686053251
 20
-67.42062728079919
 30
0.0
  0
SPLINE
  5
1EC
330
79
100
AcDbEntity
  8
Camada 1
 62
    18
420
        0
370
    15
100
AcDbSpline
210
0.0
220
0.0
230
1.0
 70
     8
 71
     3
 72
     8
 73
     4
 74
     0
 42
0.0000000001
 43
0.0000000001
 40
0.0
 40
0.0
 40
0.0
 40
0.0
 40
1.0
 40
1.0
 40
1.0
 40
1.0
 10
38.62114686053251
 20
-67.0892305462315
 30
0.0
 10
38.70467523602417
 20
-66.96611000011742
 30
0.0
 10
38.70467523602417
 20
-66.80454265575098
 30
0.0
 10
38.62114686053251
 20
-66.68141861764806
 30
0.0
  0
SPLINE
  5
1ED
330
79
100
AcDbEntity
  8
Camada 1
 62
    18
420
        0
370
    15
100
AcDbSpline
210
0.0
220
0.0
230
1.0
 70
     8
 71
     3
 72
     8
 73
     4
 74
     0
 42
0.0000000001
 43
0.0000000001
 40
0.0
 40
0.0
 40
0.0
 40
0.0
 40
1.0
 40
1.0
 40
1.0
 40
1.0
 10
38.62114686053251
 20
-66.35001839109152
 30
0.0
 10
38.70467523602417
 20
-66.22689784497744
 30
0.0
 10
38.70467523602417
 20
-66.06533050061099
 30
0.0
 10
38.62114686053251
 20
-65.94220646250807
 30
0.0
  0
SPLINE
  5
1EE
330
79
100
AcDbEntity
  8
Camada 1
 62
    18
420
        0
370
    15
100
AcDbSpline
210
0.0
220
0.0
230
1.0
 70
     8
 71
     3
 72
     8
 73
     4
 74
     0
 42
0.0000000001
 43
0.0000000001
 40
0.0
 40
0.0
 40
0.0
 40
0.0
 40
1.0
 40
1.0
 40
1.0
 40
1.0
 10
38.62114686053251
 20
-67.82843920938265
 30
0.0
 10
38.55317529577939
 20
-67.92844977267963
 30
0.0
 10
38.55317529577939
 20
-68.05980792070783
 30
0.0
 10
38.62114686053251
 20
-68.1598184840048
 30
0.0
  0
SPLINE
  5
1EF
330
79
100
AcDbEntity
  8
Camada 1
 62
    18
420
        0
370
    15
100
AcDbSpline
210
0.0
220
0.0
230
1.0
 70
     8
 71
     3
 72
     8
 73
     4
 74
     0
 42
0.0000000001
 43
0.0000000001
 40
0.0
 40
0.0
 40
0.0
 40
0.0
 40
1.0
 40
1.0
 40
1.0
 40
1.0
 10
38.62114686053251
 20
-67.0892305462315
 30
0.0
 10
38.55317529577939
 20
-67.1892411095272
 30
0.0
 10
38.55317529577939
 20
-67.32059925755669
 30
0.0
 10
38.62114686053251
 20
-67.42060982085367
 30
0.0
  0
SPLINE
  5
1F0
330
79
100
AcDbEntity
  8
Camada 1
 62
    18
420
        0
370
    15
100
AcDbSpline
210
0.0
220
0.0
230
1.0
 70
     8
 71
     3
 72
     8
 73
     4
 74
     0
 42
0.0000000001
 43
0.0000000001
 40
0.0
 40
0.0
 40
0.0
 40
0.0
 40
1.0
 40
1.0
 40
1.0
 40
1.0
 10
38.62114686053251
 20
-66.35001839109152
 30
0.0
 10
38.55317529577939
 20
-66.4500289543885
 30
0.0
 10
38.55317529577939
 20
-66.5813871024167
 30
0.0
 10
38.62114686053251
 20
-66.68139766571368
 30
0.0
  0
SPLINE
  5
1F1
330
79
100
AcDbEntity
  8
Camada 1
 62
    18
420
        0
370
    15
100
AcDbSpline
210
0.0
220
0.0
230
1.0
 70
     8
 71
     3
 72
     8
 73
     4
 74
     0
 42
0.0000000001
 43
0.0000000001
 40
0.0
 40
0.0
 40
0.0
 40
0.0
 40
1.0
 40
1.0
 40
1.0
 40
1.0
 10
38.62114686053251
 20
-65.61078179202958
 30
0.0
 10
38.55317529577939
 20
-65.71079235532656
 30
0.0
 10
38.55317529577939
 20
-65.84215050335477
 30
0.0
 10
38.62114686053251
 20
-65.94216106665175
 30
0.0
  0
SPLINE
  5
1F2
330
79
100
AcDbEntity
  8
Camada 1
 62
    18
420
        0
370
    15
100
AcDbSpline
210
0.0
220
0.0
230
1.0
 70
     8
 71
     3
 72
     8
 73
     4
 74
     0
 42
0.0000000001
 43
0.0000000001
 40
0.0
 40
0.0
 40
0.0
 40
0.0
 40
1.0
 40
1.0
 40
1.0
 40
1.0
 10
38.62114686053251
 20
-65.61078179202958
 30
0.0
 10
38.70467523602417
 20
-65.48766124591423
 30
0.0
 10
38.70467523602417
 20
-65.32609390154906
 30
0.0
 10
38.62114686053251
 20
-65.20296986344614
 30
0.0
  0
SPLINE
  5
1F3
330
79
100
AcDbEntity
  8
Camada 1
 62
    18
420
        0
370
    15
100
AcDbSpline
210
0.0
220
0.0
230
1.0
 70
     8
 71
     3
 72
     8
 73
     4
 74
     0
 42
0.0000000001
 43
0.0000000001
 40
0.0
 40
0.0
 40
0.0
 40
0.0
 40
1.0
 40
1.0
 40
1.0
 40
1.0
 10
38.62114686053251
 20
-64.87159408081282
 30
0.0
 10
38.70467523602417
 20
-64.74847353469747
 30
0.0
 10
38.70467523602417
 20
-64.5869061903323
 30
0.0
 10
38.62114686053251
 20
-64.46378215222937
 30
0.0
  0
SPLINE
  5
1F4
330
79
100
AcDbEntity
  8
Camada 1
 62
    18
420
        0
370
    15
100
AcDbSpline
210
0.0
220
0.0
230
1.0
 70
     8
 71
     3
 72
     8
 73
     4
 74
     0
 42
0.0000000001
 43
0.0000000001
 40
0.0
 40
0.0
 40
0.0
 40
0.0
 40
1.0
 40
1.0
 40
1.0
 40
1.0
 10
38.62114686053251
 20
-64.13236097373846
 30
0.0
 10
38.70467523602417
 20
-64.00924042762437
 30
0.0
 10
38.70467523602417
 20
-63.84767308325922
 30
0.0
 10
38.62114686053251
 20
-63.72454904515501
 30
0.0
  0
SPLINE
  5
1F5
330
79
100
AcDbEntity
  8
Camada 1
 62
    18
420
        0
370
    15
100
AcDbSpline
210
0.0
220
0.0
230
1.0
 70
     8
 71
     3
 72
     8
 73
     4
 74
     0
 42
0.0000000001
 43
0.0000000001
 40
0.0
 40
0.0
 40
0.0
 40
0.0
 40
1.0
 40
1.0
 40
1.0
 40
1.0
 10
38.62114686053251
 20
-63.39314881859976
 30
0.0
 10
38.70467523602417
 20
-63.27002827248439
 30
0.0
 10
38.70467523602417
 20
-63.10846092811923
 30
0.0
 10
38.62114686053251
 20
-62.9853368900163
 30
0.0
  0
SPLINE
  5
1F6
330
79
100
AcDbEntity
  8
Camada 1
 62
    18
420
        0
370
    15
100
AcDbSpline
210
0.0
220
0.0
230
1.0
 70
     8
 71
     3
 72
     8
 73
     4
 74
     0
 42
0.0000000001
 43
0.0000000001
 40
0.0
 40
0.0
 40
0.0
 40
0.0
 40
1.0
 40
1.0
 40
1.0
 40
1.0
 10
38.62114686053251
 20
-64.87159408081282
 30
0.0
 10
38.55317529577939
 20
-64.9716046441098
 30
0.0
 10
38.55317529577939
 20
-65.10296279213801
 30
0.0
 10
38.62114686053251
 20
-65.20297335543499
 30
0.0
  0
SPLINE
  5
1F7
330
79
100
AcDbEntity
  8
Camada 1
 62
    18
420
        0
370
    15
100
AcDbSpline
210
0.0
220
0.0
230
1.0
 70
     8
 71
     3
 72
     8
 73
     4
 74
     0
 42
0.0000000001
 43
0.0000000001
 40
0.0
 40
0.0
 40
0.0
 40
0.0
 40
1.0
 40
1.0
 40
1.0
 40
1.0
 10
38.62114686053251
 20
-64.13236097373846
 30
0.0
 10
38.55317529577939
 20
-64.23237153703543
 30
0.0
 10
38.55317529577939
 20
-64.36372968506493
 30
0.0
 10
38.62114686053251
 20
-64.4637402483619
 30
0.0
  0
SPLINE
  5
1F8
330
79
100
AcDbEntity
  8
Camada 1
 62
    18
420
        0
370
    15
100
AcDbSpline
210
0.0
220
0.0
230
1.0
 70
     8
 71
     3
 72
     8
 73
     4
 74
     0
 42
0.0000000001
 43
0.0000000001
 40
0.0
 40
0.0
 40
0.0
 40
0.0
 40
1.0
 40
1.0
 40
1.0
 40
1.0
 10
38.62114686053251
 20
-63.39314881859976
 30
0.0
 10
38.55317529577939
 20
-63.49315938189673
 30
0.0
 10
38.55317529577939
 20
-63.62451752992494
 30
0.0
 10
38.62114686053251
 20
-63.72452809322192
 30
0.0
  0
SPLINE
  5
1F9
330
79
100
AcDbEntity
  8
Camada 1
 62
    18
420
        0
370
    15
100
AcDbSpline
210
0.0
220
0.0
230
1.0
 70
     8
 71
     3
 72
     8
 73
     4
 74
     0
 42
0.0000000001
 43
0.0000000001
 40
0.0
 40
0.0
 40
0.0
 40
0.0
 40
1.0
 40
1.0
 40
1.0
 40
1.0
 10
38.62114686053251
 20
-62.65393666345977
 30
0.0
 10
38.70467523602417
 20
-62.53081611734569
 30
0.0
 10
38.70467523602417
 20
-62.36924877297924
 30
0.0
 10
38.62114686053251
 20
-62.24612473487631
 30
0.0
  0
SPLINE
  5
1FA
330
79
100
AcDbEntity
  8
Camada 1
 62
    18
420
        0
370
    15
100
AcDbSpline
210
0.0
220
0.0
230
1.0
 70
     8
 71
     3
 72
     8
 73
     4
 74
     0
 42
0.0000000001
 43
0.0000000001
 40
0.0
 40
0.0
 40
0.0
 40
0.0
 40
1.0
 40
1.0
 40
1.0
 40
1.0
 10
38.62114686053251
 20
-61.91470355638668
 30
0.0
 10
38.70467523602417
 20
-61.79158301027261
 30
0.0
 10
38.70467523602417
 20
-61.63001566590615
 30
0.0
 10
38.62114686053251
 20
-61.50689162780324
 30
0.0
  0
SPLINE
  5
1FB
330
79
100
AcDbEntity
  8
Camada 1
 62
    18
420
        0
370
    15
100
AcDbSpline
210
0.0
220
0.0
230
1.0
 70
     8
 71
     3
 72
     8
 73
     4
 74
     0
 42
0.0000000001
 43
0.0000000001
 40
0.0
 40
0.0
 40
0.0
 40
0.0
 40
1.0
 40
1.0
 40
1.0
 40
1.0
 10
38.62114686053251
 20
-61.17549140124669
 30
0.0
 10
38.70467523602417
 20
-61.05237085513262
 30
0.0
 10
38.70467523602417
 20
-60.89080351076617
 30
0.0
 10
38.62114686053251
 20
-60.76767947266325
 30
0.0
  0
SPLINE
  5
1FC
330
79
100
AcDbEntity
  8
Camada 1
 62
    18
420
        0
370
    15
100
AcDbSpline
210
0.0
220
0.0
230
1.0
 70
     8
 71
     3
 72
     8
 73
     4
 74
     0
 42
0.0000000001
 43
0.0000000001
 40
0.0
 40
0.0
 40
0.0
 40
0.0
 40
1.0
 40
1.0
 40
1.0
 40
1.0
 10
38.62114686053251
 20
-62.65393666345977
 30
0.0
 10
38.55317529577939
 20
-62.75394722675674
 30
0.0
 10
38.55317529577939
 20
-62.88530537478624
 30
0.0
 10
38.62114686053251
 20
-62.98531593808321
 30
0.0
  0
SPLINE
  5
1FD
330
79
100
AcDbEntity
  8
Camada 1
 62
    18
420
        0
370
    15
100
AcDbSpline
210
0.0
220
0.0
230
1.0
 70
     8
 71
     3
 72
     8
 73
     4
 74
     0
 42
0.0000000001
 43
0.0000000001
 40
0.0
 40
0.0
 40
0.0
 40
0.0
 40
1.0
 40
1.0
 40
1.0
 40
1.0
 10
38.62114686053251
 20
-61.91470355638668
 30
0.0
 10
38.55317529577939
 20
-62.01471411968366
 30
0.0
 10
38.55317529577939
 20
-62.14607226771187
 30
0.0
 10
38.62114686053251
 20
-62.24608283100884
 30
0.0
  0
SPLINE
  5
1FE
330
79
100
AcDbEntity
  8
Camada 1
 62
    18
420
        0
370
    15
100
AcDbSpline
210
0.0
220
0.0
230
1.0
 70
     8
 71
     3
 72
     8
 73
     4
 74
     0
 42
0.0000000001
 43
0.0000000001
 40
0.0
 40
0.0
 40
0.0
 40
0.0
 40
1.0
 40
1.0
 40
1.0
 40
1.0
 10
38.62114686053251
 20
-61.17549140124669
 30
0.0
 10
38.55317529577939
 20
-61.27550196454367
 30
0.0
 10
38.55317529577939
 20
-61.40686011257188
 30
0.0
 10
38.62114686053251
 20
-61.50687067586886
 30
0.0
  0
SPLINE
  5
1FF
330
79
100
AcDbEntity
  8
Camada 1
 62
    18
420
        0
370
    15
100
AcDbSpline
210
0.0
220
0.0
230
1.0
 70
     8
 71
     3
 72
     8
 73
     4
 74
     0
 42
0.0000000001
 43
0.0000000001
 40
0.0
 40
0.0
 40
0.0
 40
0.0
 40
1.0
 40
1.0
 40
1.0
 40
1.0
 10
38.62114686053251
 20
-60.43625480218477
 30
0.0
 10
38.55317529577939
 20
-60.53626536548174
 30
0.0
 10
38.55317529577939
 20
-60.66762351350995
 30
0.0
 10
38.62114686053251
 20
-60.76763407680822
 30
0.0
  0
SPLINE
  5
200
330
79
100
AcDbEntity
  8
Camada 1
 62
    18
420
        0
370
    15
100
AcDbSpline
210
0.0
220
0.0
230
1.0
 70
     8
 71
     3
 72
     8
 73
     4
 74
     0
 42
0.0000000001
 43
0.0000000001
 40
0.0
 40
0.0
 40
0.0
 40
0.0
 40
1.0
 40
1.0
 40
1.0
 40
1.0
 10
38.62114686053251
 20
-60.43625480218477
 30
0.0
 10
38.70467523602417
 20
-60.3131342560694
 30
0.0
 10
38.70467523602417
 20
-60.15156691170552
 30
0.0
 10
38.62114686053251
 20
-60.02844287360131
 30
0.0
  0
SPLINE
  5
201
330
79
100
AcDbEntity
  8
Camada 1
 62
    18
420
        0
370
    15
100
AcDbSpline
210
0.0
220
0.0
230
1.0
 70
     8
 71
     3
 72
     8
 73
     4
 74
     0
 42
0.0000000001
 43
0.0000000001
 40
0.0
 40
0.0
 40
0.0
 40
0.0
 40
1.0
 40
1.0
 40
1.0
 40
1.0
 10
38.62114686053251
 20
-59.69704613903362
 30
0.0
 10
38.70467523602417
 20
-59.57392559291955
 30
0.0
 10
38.70467523602417
 20
-59.41235824855438
 30
0.0
 10
38.62114686053251
 20
-59.28923421045017
 30
0.0
  0
SPLINE
  5
202
330
79
100
AcDbEntity
  8
Camada 1
 62
    18
420
        0
370
    15
100
AcDbSpline
210
0.0
220
0.0
230
1.0
 70
     8
 71
     3
 72
     8
 73
     4
 74
     0
 42
0.0000000001
 43
0.0000000001
 40
0.0
 40
0.0
 40
0.0
 40
0.0
 40
1.0
 40
1.0
 40
1.0
 40
1.0
 10
38.62114686053251
 20
-58.95783398389492
 30
0.0
 10
38.70467523602417
 20
-58.83471343777956
 30
0.0
 10
38.70467523602417
 20
-58.67314609341439
 30
0.0
 10
38.62114686053251
 20
-58.55002205531147
 30
0.0
  0
SPLINE
  5
203
330
79
100
AcDbEntity
  8
Camada 1
 62
    18
420
        0
370
    15
100
AcDbSpline
210
0.0
220
0.0
230
1.0
 70
     8
 71
     3
 72
     8
 73
     4
 74
     0
 42
0.0000000001
 43
0.0000000001
 40
0.0
 40
0.0
 40
0.0
 40
0.0
 40
1.0
 40
1.0
 40
1.0
 40
1.0
 10
38.62114686053251
 20
-59.69704613903362
 30
0.0
 10
38.55317529577939
 20
-59.7970567023306
 30
0.0
 10
38.55317529577939
 20
-59.92841485036009
 30
0.0
 10
38.62114686053251
 20
-60.02842541365707
 30
0.0
  0
SPLINE
  5
204
330
79
100
AcDbEntity
  8
Camada 1
 62
    18
420
        0
370
    15
100
AcDbSpline
210
0.0
220
0.0
230
1.0
 70
     8
 71
     3
 72
     8
 73
     4
 74
     0
 42
0.0000000001
 43
0.0000000001
 40
0.0
 40
0.0
 40
0.0
 40
0.0
 40
1.0
 40
1.0
 40
1.0
 40
1.0
 10
38.62114686053251
 20
-58.95783398389492
 30
0.0
 10
38.55317529577939
 20
-59.0578445471919
 30
0.0
 10
38.55317529577939
 20
-59.1892026952201
 30
0.0
 10
38.62114686053251
 20
-59.28921325851708
 30
0.0
  0
SPLINE
  5
205
330
79
100
AcDbEntity
  8
Camada 1
 62
    18
420
        0
370
    15
100
AcDbSpline
210
0.0
220
0.0
230
1.0
 70
     8
 71
     3
 72
     8
 73
     4
 74
     0
 42
0.0000000001
 43
0.0000000001
 40
0.0
 40
0.0
 40
0.0
 40
0.0
 40
1.0
 40
1.0
 40
1.0
 40
1.0
 10
38.62929367073657
 20
-58.20720302491469
 30
0.0
 10
38.55377242588925
 20
-58.30789801804404
 30
0.0
 10
38.55056678003864
 20
-58.44566745776961
 30
0.0
 10
38.62105257683295
 20
-58.55002205531147
 30
0.0
  0
LINE
  5
206
330
79
100
AcDbEntity
  8
Camada 1
 62
    18
420
        0
370
    15
100
AcDbLine
 10
22.617805022256
 20
-58.20720302491469
 30
0.0
 11
23.67852809126664
 21
-58.20720302491469
 31
0.0
  0
LINE
  5
207
330
79
100
AcDbEntity
  8
Camada 1
 62
    18
420
        0
370
    15
100
AcDbLine
 10
22.62592738853748
 20
-58.54999761138824
 30
0.0
 11
23.6857355564453
 21
-58.54999761138824
 31
0.0
  0
LINE
  5
208
330
79
100
AcDbEntity
  8
Camada 1
 62
    18
420
        0
370
    15
100
AcDbLine
 10
22.62592738853748
 20
-58.95783398389492
 30
0.0
 11
23.6857355564453
 21
-58.95783398389492
 31
0.0
  0
LINE
  5
209
330
79
100
AcDbEntity
  8
Camada 1
 62
    18
420
        0
370
    15
100
AcDbLine
 10
22.62592738853748
 20
-59.28920976652823
 30
0.0
 11
23.6857355564453
 21
-59.28920976652823
 31
0.0
  0
LINE
  5
20A
330
79
100
AcDbEntity
  8
Camada 1
 62
    18
420
        0
370
    15
100
AcDbLine
 10
22.62592738853748
 20
-59.69704613903362
 30
0.0
 11
23.6857355564453
 21
-59.69704613903362
 31
0.0
  0
LINE
  5
20B
330
79
100
AcDbEntity
  8
Camada 1
 62
    18
420
        0
370
    15
100
AcDbLine
 10
22.62592738853748
 20
-60.02842192166823
 30
0.0
 11
23.6857355564453
 21
-60.02842192166823
 31
0.0
  0
LINE
  5
20C
330
79
100
AcDbEntity
  8
Camada 1
 62
    18
420
        0
370
    15
100
AcDbLine
 10
22.62592738853748
 20
-60.43625480218477
 30
0.0
 11
23.6857355564453
 21
-60.43625480218477
 31
0.0
  0
LINE
  5
20D
330
79
100
AcDbEntity
  8
Camada 1
 62
    18
420
        0
370
    15
100
AcDbLine
 10
22.62592738853748
 20
-60.76763407680822
 30
0.0
 11
23.6857355564453
 21
-60.76763407680822
 31
0.0
  0
LINE
  5
20E
330
79
100
AcDbEntity
  8
Camada 1
 62
    18
420
        0
370
    15
100
AcDbLine
 10
22.62592738853748
 20
-61.17549140124669
 30
0.0
 11
23.6857355564453
 21
-61.17549140124669
 31
0.0
  0
LINE
  5
20F
330
79
100
AcDbEntity
  8
Camada 1
 62
    18
420
        0
370
    15
100
AcDbLine
 10
22.62592738853748
 20
-61.50686718388001
 30
0.0
 11
23.6857355564453
 21
-61.50686718388001
 31
0.0
  0
LINE
  5
210
330
79
100
AcDbEntity
  8
Camada 1
 62
    18
420
        0
370
    15
100
AcDbLine
 10
22.62592738853748
 20
-61.91470355638668
 30
0.0
 11
23.6857355564453
 21
-61.91470355638668
 31
0.0
  0
LINE
  5
211
330
79
100
AcDbEntity
  8
Camada 1
 62
    18
420
        0
370
    15
100
AcDbLine
 10
22.62592738853748
 20
-62.24607933901999
 30
0.0
 11
23.6857355564453
 21
-62.24607933901999
 31
0.0
  0
LINE
  5
212
330
79
100
AcDbEntity
  8
Camada 1
 62
    18
420
        0
370
    15
100
AcDbLine
 10
22.62592738853748
 20
-62.65393666345977
 30
0.0
 11
23.6857355564453
 21
-62.65393666345977
 31
0.0
  0
LINE
  5
213
330
79
100
AcDbEntity
  8
Camada 1
 62
    18
420
        0
370
    15
100
AcDbLine
 10
22.62592738853748
 20
-62.98529149415998
 30
0.0
 11
23.6857355564453
 21
-62.98529149415998
 31
0.0
  0
LINE
  5
214
330
79
100
AcDbEntity
  8
Camada 1
 62
    18
420
        0
370
    15
100
AcDbLine
 10
22.62592738853748
 20
-63.39314881859976
 30
0.0
 11
23.6857355564453
 21
-63.39314881859976
 31
0.0
  0
LINE
  5
215
330
79
100
AcDbEntity
  8
Camada 1
 62
    18
420
        0
370
    15
100
AcDbLine
 10
22.62592738853748
 20
-63.72452460123307
 30
0.0
 11
23.6857355564453
 21
-63.72452460123307
 31
0.0
  0
LINE
  5
216
330
79
100
AcDbEntity
  8
Camada 1
 62
    18
420
        0
370
    15
100
AcDbLine
 10
22.62592738853748
 20
-64.13236097373846
 30
0.0
 11
23.6857355564453
 21
-64.13236097373846
 31
0.0
  0
LINE
  5
217
330
79
100
AcDbEntity
  8
Camada 1
 62
    18
420
        0
370
    15
100
AcDbLine
 10
22.62592738853748
 20
-64.46371231244983
 30
0.0
 11
23.6857355564453
 21
-64.46371231244983
 31
0.0
  0
LINE
  5
218
330
79
100
AcDbEntity
  8
Camada 1
 62
    18
420
        0
370
    15
100
AcDbLine
 10
22.62592738853748
 20
-64.87159408081282
 30
0.0
 11
23.6857355564453
 21
-64.87159408081282
 31
0.0
  0
LINE
  5
219
330
79
100
AcDbEntity
  8
Camada 1
 62
    18
420
        0
370
    15
100
AcDbLine
 10
22.62592738853748
 20
-65.20294891151177
 30
0.0
 11
23.6857355564453
 21
-65.20294891151177
 31
0.0
  0
LINE
  5
21A
330
79
100
AcDbEntity
  8
Camada 1
 62
    18
420
        0
370
    15
100
AcDbLine
 10
22.62592738853748
 20
-65.61078179202958
 30
0.0
 11
23.6857355564453
 21
-65.61078179202958
 31
0.0
  0
LINE
  5
21B
330
79
100
AcDbEntity
  8
Camada 1
 62
    18
420
        0
370
    15
100
AcDbLine
 10
22.62592738853748
 20
-65.94218201858485
 30
0.0
 11
23.6857355564453
 21
-65.94218201858485
 31
0.0
  0
LINE
  5
21C
330
79
100
AcDbEntity
  8
Camada 1
 62
    18
420
        0
370
    15
100
AcDbLine
 10
22.62592738853748
 20
-66.35001839109152
 30
0.0
 11
23.6857355564453
 21
-66.35001839109152
 31
0.0
  0
LINE
  5
21D
330
79
100
AcDbEntity
  8
Camada 1
 62
    18
420
        0
370
    15
100
AcDbLine
 10
22.62592738853748
 20
-66.68139417372483
 30
0.0
 11
23.6857355564453
 21
-66.68139417372483
 31
0.0
  0
LINE
  5
21E
330
79
100
AcDbEntity
  8
Camada 1
 62
    18
420
        0
370
    15
100
AcDbLine
 10
22.62592738853748
 20
-67.0892305462315
 30
0.0
 11
23.6857355564453
 21
-67.0892305462315
 31
0.0
  0
LINE
  5
21F
330
79
100
AcDbEntity
  8
Camada 1
 62
    18
420
        0
370
    15
100
AcDbLine
 10
22.62592738853748
 20
-67.42060632886482
 30
0.0
 11
23.6857355564453
 21
-67.42060632886482
 31
0.0
  0
LINE
  5
220
330
79
100
AcDbEntity
  8
Camada 1
 62
    18
420
        0
370
    15
100
AcDbLine
 10
22.62592738853748
 20
-67.82843920938265
 30
0.0
 11
23.6857355564453
 21
-67.82843920938265
 31
0.0
  0
LINE
  5
221
330
79
100
AcDbEntity
  8
Camada 1
 62
    18
420
        0
370
    15
100
AcDbLine
 10
22.62592738853748
 20
-68.1598184840048
 30
0.0
 11
23.6857355564453
 21
-68.1598184840048
 31
0.0
  0
LINE
  5
222
330
79
100
AcDbEntity
  8
Camada 1
 62
    18
420
        0
370
    15
100
AcDbLine
 10
22.62592738853748
 20
-68.5676758084433
 30
0.0
 11
23.6857355564453
 21
-68.5676758084433
 31
0.0
  0
LINE
  5
223
330
79
100
AcDbEntity
  8
Camada 1
 62
    18
420
        0
370
    15
100
AcDbLine
 10
22.62592738853748
 20
-68.89905159107789
 30
0.0
 11
23.6857355564453
 21
-68.89905159107789
 31
0.0
  0
LINE
  5
224
330
79
100
AcDbEntity
  8
Camada 1
 62
    18
420
        0
370
    15
100
AcDbLine
 10
22.62592738853748
 20
-69.30688796358328
 30
0.0
 11
23.6857355564453
 21
-69.30688796358328
 31
0.0
  0
LINE
  5
225
330
79
100
AcDbEntity
  8
Camada 1
 62
    18
420
        0
370
    15
100
AcDbLine
 10
22.62592738853748
 20
-69.63826374621787
 30
0.0
 11
23.6857355564453
 21
-69.63826374621787
 31
0.0
  0
LINE
  5
226
330
79
100
AcDbEntity
  8
Camada 1
 62
    18
420
        0
370
    15
100
AcDbLine
 10
22.62592738853748
 20
-70.04609662673442
 30
0.0
 11
23.6857355564453
 21
-70.04609662673442
 31
0.0
  0
LINE
  5
227
330
79
100
AcDbEntity
  8
Camada 1
 62
    18
420
        0
370
    15
100
AcDbLine
 10
22.62592738853748
 20
-70.37747590135658
 30
0.0
 11
23.6857355564453
 21
-70.37747590135658
 31
0.0
  0
LINE
  5
228
330
79
100
AcDbEntity
  8
Camada 1
 62
    18
420
        0
370
    15
100
AcDbLine
 10
22.62592738853748
 20
-70.7853087818744
 30
0.0
 11
23.6857355564453
 21
-70.7853087818744
 31
0.0
  0
LINE
  5
229
330
79
100
AcDbEntity
  8
Camada 1
 62
    18
420
        0
370
    15
100
AcDbLine
 10
22.617805022256
 20
-71.1281068603368
 30
0.0
 11
23.67852809126664
 21
-71.1281068603368
 31
0.0
  0
LINE
  5
22A
330
79
100
AcDbEntity
  8
Camada 1
 62
    18
420
        0
370
    15
100
AcDbLine
 10
38.62929367073657
 20
-71.1281068603368
 30
0.0
 11
37.5685671097342
 21
-71.1281068603368
 31
0.0
  0
LINE
  5
22B
330
79
100
AcDbEntity
  8
Camada 1
 62
    18
420
        0
370
    15
100
AcDbLine
 10
38.62114686053251
 20
-70.7853087818744
 30
0.0
 11
37.56133520063262
 21
-70.7853087818744
 31
0.0
  0
LINE
  5
22C
330
79
100
AcDbEntity
  8
Camada 1
 62
    18
420
        0
370
    15
100
AcDbLine
 10
38.62114686053251
 20
-70.37747590135658
 30
0.0
 11
37.56133520063262
 21
-70.37747590135658
 31
0.0
  0
LINE
  5
22D
330
79
100
AcDbEntity
  8
Camada 1
 62
    18
420
        0
370
    15
100
AcDbLine
 10
38.62114686053251
 20
-70.04609662673442
 30
0.0
 11
37.56133520063262
 21
-70.04609662673442
 31
0.0
  0
LINE
  5
22E
330
79
100
AcDbEntity
  8
Camada 1
 62
    18
420
        0
370
    15
100
AcDbLine
 10
38.62114686053251
 20
-69.63826374621787
 30
0.0
 11
37.56133520063262
 21
-69.63826374621787
 31
0.0
  0
LINE
  5
22F
330
79
100
AcDbEntity
  8
Camada 1
 62
    18
420
        0
370
    15
100
AcDbLine
 10
38.62114686053251
 20
-69.30688796358328
 30
0.0
 11
37.56133520063262
 21
-69.30688796358328
 31
0.0
  0
LINE
  5
230
330
79
100
AcDbEntity
  8
Camada 1
 62
    18
420
        0
370
    15
100
AcDbLine
 10
38.62114686053251
 20
-68.89905159107789
 30
0.0
 11
37.56133520063262
 21
-68.89905159107789
 31
0.0
  0
LINE
  5
231
330
79
100
AcDbEntity
  8
Camada 1
 62
    18
420
        0
370
    15
100
AcDbLine
 10
38.62114686053251
 20
-68.5676758084433
 30
0.0
 11
37.56133520063262
 21
-68.5676758084433
 31
0.0
  0
LINE
  5
232
330
79
100
AcDbEntity
  8
Camada 1
 62
    18
420
        0
370
    15
100
AcDbLine
 10
38.62114686053251
 20
-68.1598184840048
 30
0.0
 11
37.56133520063262
 21
-68.1598184840048
 31
0.0
  0
LINE
  5
233
330
79
100
AcDbEntity
  8
Camada 1
 62
    18
420
        0
370
    15
100
AcDbLine
 10
38.62114686053251
 20
-67.82843920938265
 30
0.0
 11
37.56133520063262
 21
-67.82843920938265
 31
0.0
  0
LINE
  5
234
330
79
100
AcDbEntity
  8
Camada 1
 62
    18
420
        0
370
    15
100
AcDbLine
 10
38.62114686053251
 20
-67.42060632886482
 30
0.0
 11
37.56133520063262
 21
-67.42060632886482
 31
0.0
  0
LINE
  5
235
330
79
100
AcDbEntity
  8
Camada 1
 62
    18
420
        0
370
    15
100
AcDbLine
 10
38.62114686053251
 20
-67.0892305462315
 30
0.0
 11
37.56133520063262
 21
-67.0892305462315
 31
0.0
  0
LINE
  5
236
330
79
100
AcDbEntity
  8
Camada 1
 62
    18
420
        0
370
    15
100
AcDbLine
 10
38.62114686053251
 20
-66.68139417372483
 30
0.0
 11
37.56133520063262
 21
-66.68139417372483
 31
0.0
  0
LINE
  5
237
330
79
100
AcDbEntity
  8
Camada 1
 62
    18
420
        0
370
    15
100
AcDbLine
 10
38.62114686053251
 20
-66.35001839109152
 30
0.0
 11
37.56133520063262
 21
-66.35001839109152
 31
0.0
  0
LINE
  5
238
330
79
100
AcDbEntity
  8
Camada 1
 62
    18
420
        0
370
    15
100
AcDbLine
 10
38.62114686053251
 20
-65.94218201858485
 30
0.0
 11
37.56133520063262
 21
-65.94218201858485
 31
0.0
  0
LINE
  5
239
330
79
100
AcDbEntity
  8
Camada 1
 62
    18
420
        0
370
    15
100
AcDbLine
 10
38.62114686053251
 20
-65.61078179202958
 30
0.0
 11
37.56133520063262
 21
-65.61078179202958
 31
0.0
  0
LINE
  5
23A
330
79
100
AcDbEntity
  8
Camada 1
 62
    18
420
        0
370
    15
100
AcDbLine
 10
38.62114686053251
 20
-65.20294891151177
 30
0.0
 11
37.56133520063262
 21
-65.20294891151177
 31
0.0
  0
LINE
  5
23B
330
79
100
AcDbEntity
  8
Camada 1
 62
    18
420
        0
370
    15
100
AcDbLine
 10
38.62114686053251
 20
-64.87159408081282
 30
0.0
 11
37.56133520063262
 21
-64.87159408081282
 31
0.0
  0
LINE
  5
23C
330
79
100
AcDbEntity
  8
Camada 1
 62
    18
420
        0
370
    15
100
AcDbLine
 10
38.62114686053251
 20
-64.46371231244983
 30
0.0
 11
37.56133520063262
 21
-64.46371231244983
 31
0.0
  0
LINE
  5
23D
330
79
100
AcDbEntity
  8
Camada 1
 62
    18
420
        0
370
    15
100
AcDbLine
 10
38.62114686053251
 20
-64.13236097373846
 30
0.0
 11
37.56133520063262
 21
-64.13236097373846
 31
0.0
  0
LINE
  5
23E
330
79
100
AcDbEntity
  8
Camada 1
 62
    18
420
        0
370
    15
100
AcDbLine
 10
38.62114686053251
 20
-63.72452460123307
 30
0.0
 11
37.56133520063262
 21
-63.72452460123307
 31
0.0
  0
LINE
  5
23F
330
79
100
AcDbEntity
  8
Camada 1
 62
    18
420
        0
370
    15
100
AcDbLine
 10
38.62114686053251
 20
-63.39314881859976
 30
0.0
 11
37.56133520063262
 21
-63.39314881859976
 31
0.0
  0
LINE
  5
240
330
79
100
AcDbEntity
  8
Camada 1
 62
    18
420
        0
370
    15
100
AcDbLine
 10
38.62114686053251
 20
-62.98529149415998
 30
0.0
 11
37.56133520063262
 21
-62.98529149415998
 31
0.0
  0
LINE
  5
241
330
79
100
AcDbEntity
  8
Camada 1
 62
    18
420
        0
370
    15
100
AcDbLine
 10
38.62114686053251
 20
-62.65393666345977
 30
0.0
 11
37.56133520063262
 21
-62.65393666345977
 31
0.0
  0
LINE
  5
242
330
79
100
AcDbEntity
  8
Camada 1
 62
    18
420
        0
370
    15
100
AcDbLine
 10
38.62114686053251
 20
-62.24607933901999
 30
0.0
 11
37.56133520063262
 21
-62.24607933901999
 31
0.0
  0
LINE
  5
243
330
79
100
AcDbEntity
  8
Camada 1
 62
    18
420
        0
370
    15
100
AcDbLine
 10
38.62114686053251
 20
-61.91470355638668
 30
0.0
 11
37.56133520063262
 21
-61.91470355638668
 31
0.0
  0
LINE
  5
244
330
79
100
AcDbEntity
  8
Camada 1
 62
    18
420
        0
370
    15
100
AcDbLine
 10
38.62114686053251
 20
-61.50686718388001
 30
0.0
 11
37.56133520063262
 21
-61.50686718388001
 31
0.0
  0
LINE
  5
245
330
79
100
AcDbEntity
  8
Camada 1
 62
    18
420
        0
370
    15
100
AcDbLine
 10
38.62114686053251
 20
-61.17549140124669
 30
0.0
 11
37.56133520063262
 21
-61.17549140124669
 31
0.0
  0
LINE
  5
246
330
79
100
AcDbEntity
  8
Camada 1
 62
    18
420
        0
370
    15
100
AcDbLine
 10
38.62114686053251
 20
-60.76763407680822
 30
0.0
 11
37.56133520063262
 21
-60.76763407680822
 31
0.0
  0
LINE
  5
247
330
79
100
AcDbEntity
  8
Camada 1
 62
    18
420
        0
370
    15
100
AcDbLine
 10
38.62114686053251
 20
-60.43625480218477
 30
0.0
 11
37.56133520063262
 21
-60.43625480218477
 31
0.0
  0
LINE
  5
248
330
79
100
AcDbEntity
  8
Camada 1
 62
    18
420
        0
370
    15
100
AcDbLine
 10
38.62114686053251
 20
-60.02842192166823
 30
0.0
 11
37.56133520063262
 21
-60.02842192166823
 31
0.0
  0
LINE
  5
249
330
79
100
AcDbEntity
  8
Camada 1
 62
    18
420
        0
370
    15
100
AcDbLine
 10
38.62114686053251
 20
-59.69704613903362
 30
0.0
 11
37.56133520063262
 21
-59.69704613903362
 31
0.0
  0
LINE
  5
24A
330
79
100
AcDbEntity
  8
Camada 1
 62
    18
420
        0
370
    15
100
AcDbLine
 10
38.62114686053251
 20
-59.28920976652823
 30
0.0
 11
37.56133520063262
 21
-59.28920976652823
 31
0.0
  0
LINE
  5
24B
330
79
100
AcDbEntity
  8
Camada 1
 62
    18
420
        0
370
    15
100
AcDbLine
 10
38.62114686053251
 20
-58.95783398389492
 30
0.0
 11
37.56133520063262
 21
-58.95783398389492
 31
0.0
  0
LINE
  5
24C
330
79
100
AcDbEntity
  8
Camada 1
 62
    18
420
        0
370
    15
100
AcDbLine
 10
38.62114686053251
 20
-58.54999761138824
 30
0.0
 11
37.56133520063262
 21
-58.54999761138824
 31
0.0
  0
LINE
  5
24D
330
79
100
AcDbEntity
  8
Camada 1
 62
    18
420
        0
370
    15
100
AcDbLine
 10
38.62929367073657
 20
-58.20720302491469
 30
0.0
 11
37.5685671097342
 21
-58.20720302491469
 31
0.0
  0
LWPOLYLINE
  5
24E
330
79
100
AcDbEntity
  8
Camada 1
 62
    18
420
        0
370
    15
100
AcDbPolyline
 90
        4
 70
     0
 43
0.0
 10
32.32307592061153
 20
-65.13182058875449
 10
32.16745543341303
 20
-66.3991995633492
 10
29.07956992780763
 20
-66.3991995633492
 10
28.92394944061297
 20
-65.13182058875449
  0
LINE
  5
24F
330
79
100
AcDbEntity
  8
Camada 1
 62
    18
420
        0
370
    15
100
AcDbLine
 10
32.58401130230942
 20
-64.89255649043006
 30
0.0
 11
34.90570205421934
 21
-64.81291819062073
 31
0.0
  0
LINE
  5
250
330
79
100
AcDbEntity
  8
Camada 1
 62
    18
420
        0
370
    15
100
AcDbLine
 10
28.66308389869494
 20
-64.89274156584548
 30
0.0
 11
26.3413896547933
 21
-64.81768126353776
 31
0.0
  0
SPLINE
  5
251
330
79
100
AcDbEntity
  8
Camada 1
 62
    18
420
        0
370
    15
100
AcDbSpline
210
0.0
220
0.0
230
1.0
 70
     8
 71
     3
 72
     8
 73
     4
 74
     0
 42
0.0000000001
 43
0.0000000001
 40
0.0
 40
0.0
 40
0.0
 40
0.0
 40
1.0
 40
1.0
 40
1.0
 40
1.0
 10
26.34127791115174
 20
-59.85886490660361
 30
0.0
 10
26.34127791115174
 20
-59.71263088568231
 30
0.0
 10
26.39917508780644
 20
-59.58630469371891
 30
0.0
 10
26.61383812403355
 20
-59.58630469371891
 30
0.0
  0
SPLINE
  5
252
330
79
100
AcDbEntity
  8
Camada 1
 62
    18
420
        0
370
    15
100
AcDbSpline
210
0.0
220
0.0
230
1.0
 70
     8
 71
     3
 72
     8
 73
     4
 74
     0
 42
0.0000000001
 43
0.0000000001
 40
0.0
 40
0.0
 40
0.0
 40
0.0
 40
1.0
 40
1.0
 40
1.0
 40
1.0
 10
34.90579633791826
 20
-59.85886490660361
 30
0.0
 10
34.90579633791826
 20
-59.71263088568231
 30
0.0
 10
34.84789566927502
 20
-59.58630469371891
 30
0.0
 10
34.6332326330447
 20
-59.58630469371891
 30
0.0
  0
SPLINE
  5
253
330
79
100
AcDbEntity
  8
Camada 1
 62
    18
420
        0
370
    15
100
AcDbSpline
210
0.0
220
0.0
230
1.0
 70
     9
 71
     3
 72
    17
 73
    13
 74
     0
 42
0.0000000001
 43
0.0000000001
 40
0.0
 40
0.0
 40
0.0
 40
0.0
 40
1.0
 40
1.0
 40
1.0
 40
2.0
 40
2.0
 40
2.0
 40
3.0
 40
3.0
 40
3.0
 40
4.0
 40
4.0
 40
4.0
 40
4.0
 10
26.13023257546775
 20
-61.39342643111318
 30
0.0
 10
26.13023257546775
 20
-61.61770291289749
 30
0.0
 10
26.31216869132787
 20
-61.79963902876018
 30
0.0
 10
26.53666866040525
 20
-61.79963902876018
 30
0.0
 10
26.76117212147083
 20
-61.79963902876018
 30
0.0
 10
26.94288125805256
 20
-61.61770291289749
 30
0.0
 10
26.94288125805256
 20
-61.39342643111318
 30
0.0
 10
26.94288125805256
 20
-61.16892646203613
 30
0.0
 10
26.76117212147083
 20
-60.98699034617215
 30
0.0
 10
26.53666866040525
 20
-60.98699034617215
 30
0.0
 10
26.31216869132787
 20
-60.98699034617215
 30
0.0
 10
26.13023257546775
 20
-61.16892646203613
 30
0.0
 10
26.13023257546775
 20
-61.39342643111318
 30
0.0
  0
SPLINE
  5
254
330
79
100
AcDbEntity
  8
Camada 1
 62
    18
420
        0
370
    15
100
AcDbSpline
210
0.0
220
0.0
230
1.0
 70
     9
 71
     3
 72
    17
 73
    13
 74
     0
 42
0.0000000001
 43
0.0000000001
 40
0.0
 40
0.0
 40
0.0
 40
0.0
 40
1.0
 40
1.0
 40
1.0
 40
2.0
 40
2.0
 40
2.0
 40
3.0
 40
3.0
 40
3.0
 40
4.0
 40
4.0
 40
4.0
 40
4.0
 10
34.30414759516047
 20
-61.39646795348148
 30
0.0
 10
34.30414759516047
 20
-61.62074443526578
 30
0.0
 10
34.48608371102444
 20
-61.80268055112975
 30
0.0
 10
34.71035670081926
 20
-61.80268055112975
 30
0.0
 10
34.93508714116355
 20
-61.80268055112975
 30
0.0
 10
35.11679627774848
 20
-61.62074443526578
 30
0.0
 10
35.11679627774848
 20
-61.39646795348148
 30
0.0
 10
35.11679627774848
 20
-61.17196798440442
 30
0.0
 10
34.93508714116355
 20
-60.99003186854044
 30
0.0
 10
34.71035670081926
 20
-60.99003186854044
 30
0.0
 10
34.48608371102444
 20
-60.99003186854044
 30
0.0
 10
34.30414759516047
 20
-61.17196798440442
 30
0.0
 10
34.30414759516047
 20
-61.39646795348148
 30
0.0
  0
LINE
  5
255
330
79
100
AcDbEntity
  8
Camada 1
  6
AI-Linetype-4
 62
    18
420
        0
370
    15
100
AcDbLine
 10
26.53667215239377
 20
-60.77971635854643
 30
0.0
 11
26.53667215239377
 21
-62.02832938456763
 31
0.0
  0
LINE
  5
257
330
79
100
AcDbEntity
  8
Camada 1
  6
AI-Linetype-5
 62
    18
420
        0
370
    15
100
AcDbLine
 10
25.91229754559837
 20
-61.40406652141829
 30
0.0
 11
27.16090707963234
 21
-61.40406652141829
 31
0.0
  0
LINE
  5
259
330
79
100
AcDbEntity
  8
Camada 1
  6
AI-Linetype-6
 62
    18
420
        0
370
    15
100
AcDbLine
 10
34.71042654059559
 20
-60.77962556683378
 30
0.0
 11
34.71042654059559
 21
-62.0284655721366
 31
0.0
  0
LINE
  5
25B
330
79
100
AcDbEntity
  8
Camada 1
  6
AI-Linetype-7
 62
    18
420
        0
370
    15
100
AcDbLine
 10
34.08607637772309
 20
-61.40397572970693
 30
0.0
 11
35.33468591175705
 21
-61.40397572970693
 31
0.0
  0
LINE
  5
25D
330
79
100
AcDbEntity
  8
Camada 1
 62
    18
420
        0
370
    15
100
AcDbLine
 10
57.17073123993047
 20
-58.02993220627742
 30
0.0
 11
57.47097943313774
 21
-63.75830261026862
 31
0.0
  0
LINE
  5
25E
330
79
100
AcDbEntity
  8
Camada 1
 62
    18
420
        0
370
    15
100
AcDbLine
 10
57.31525069428267
 20
-65.08268481235184
 30
0.0
 11
56.98684310224989
 21
-71.34931388384075
 31
0.0
  0
LINE
  5
25F
330
79
100
AcDbEntity
  8
Camada 1
 62
    18
420
        0
370
    15
100
AcDbLine
 10
56.76010127627084
 20
-71.56450071840996
 30
0.0
 11
78.48812947020345
 21
-71.56450071840996
 31
0.0
  0
LINE
  5
260
330
79
100
AcDbEntity
  8
Camada 1
 62
    18
420
        0
370
    15
100
AcDbLine
 10
80.08915052825733
 20
-69.8734317415121
 30
0.0
 11
78.17892781735325
 21
-69.77342467020398
 31
0.0
  0
LINE
  5
261
330
79
100
AcDbEntity
  8
Camada 1
 62
    18
420
        0
370
    15
100
AcDbLine
 10
67.64686568119542
 20
-66.39958717412169
 30
0.0
 11
67.4912417020084
 21
-65.2111655614928
 31
0.0
  0
LINE
  5
262
330
79
100
AcDbEntity
  8
Camada 1
 62
    18
420
        0
370
    15
100
AcDbLine
 10
68.14635279547395
 20
-66.39958717412169
 30
0.0
 11
68.14635279547395
 21
-65.42834632174738
 31
0.0
  0
LINE
  5
263
330
79
100
AcDbEntity
  8
Camada 1
 62
    18
420
        0
370
    15
100
AcDbLine
 10
71.15789294683574
 20
-64.34770843979858
 30
0.0
 11
71.77693179453104
 21
-64.32619778791664
 31
0.0
  0
LINE
  5
264
330
79
100
AcDbEntity
  8
Camada 1
 62
    18
420
        0
370
    15
100
AcDbLine
 10
70.30045601407818
 20
-65.14307876110382
 30
0.0
 11
71.77700163430737
 21
-64.82200085385814
 31
0.0
  0
LINE
  5
265
330
79
100
AcDbEntity
  8
Camada 1
 62
    18
420
        0
370
    15
100
AcDbLine
 10
67.24566408767822
 20
-64.34770843979858
 30
0.0
 11
71.13590040048369
 21
-64.34770843979858
 31
0.0
  0
LINE
  5
266
330
79
100
AcDbEntity
  8
Camada 1
 62
    18
420
        0
370
    15
100
AcDbLine
 10
57.87842470288114
 20
-64.56662821054614
 30
0.0
 11
57.84386798030788
 21
-64.56662821054614
 31
0.0
  0
LINE
  5
267
330
79
100
AcDbEntity
  8
Camada 1
 62
    18
420
        0
370
    15
100
AcDbLine
 10
67.08256026818101
 20
-64.89319901639624
 30
0.0
 11
57.87839676696971
 21
-64.56663170253499
 31
0.0
  0
LINE
  5
268
330
79
100
AcDbEntity
  8
Camada 1
 62
    18
420
        0
370
    15
100
AcDbLine
 10
67.22369249325668
 20
-64.34770843979858
 30
0.0
 11
57.733465257925
 21
-64.01633265716526
 31
0.0
  0
LINE
  5
269
330
79
100
AcDbEntity
  8
Camada 1
 62
    18
420
        0
370
    15
100
AcDbLine
 10
70.2352116926886
 20
-66.39958717412169
 30
0.0
 11
70.2352116926886
 21
-65.87826465299187
 31
0.0
  0
LINE
  5
26A
330
79
100
AcDbEntity
  8
Camada 1
 62
    18
420
        0
370
    15
100
AcDbLine
 10
70.73472674287791
 20
-66.39958717412169
 30
0.0
 11
70.74090057932457
 21
-66.3485552477253
 31
0.0
  0
LINE
  5
26B
330
79
100
AcDbEntity
  8
Camada 1
 62
    18
420
        0
370
    15
100
AcDbLine
 10
72.03949444307167
 20
-64.06805250538415
 30
0.0
 11
72.26261856850439
 21
-59.81028086445451
 31
0.0
  0
LINE
  5
26C
330
79
100
AcDbEntity
  8
Camada 1
 62
    18
420
        0
370
    15
100
AcDbLine
 10
72.40277303667797
 20
-64.06805250538415
 30
0.0
 11
72.62589716211452
 21
-59.72446174421698
 31
0.0
  0
LINE
  5
26D
330
79
100
AcDbEntity
  8
Camada 1
 62
    18
420
        0
370
    15
100
AcDbLine
 10
72.29119002202948
 20
-59.26547820967933
 30
0.0
 11
72.35595244894636
 21
-58.02991474633317
 31
0.0
  0
LINE
  5
26E
330
79
100
AcDbEntity
  8
Camada 1
 62
    18
420
        0
370
    15
100
AcDbLine
 10
72.65451051950453
 20
-59.36106791497547
 30
0.0
 11
72.6991311542029
 21
-58.4983022070913
 31
0.0
  0
LINE
  5
26F
330
79
100
AcDbEntity
  8
Camada 1
 62
    18
420
        0
370
    15
100
AcDbLine
 10
73.61534524483367
 20
-64.36720770605089
 30
0.0
 11
73.91879908388769
 21
-58.57476279696467
 31
0.0
  0
LINE
  5
270
330
79
100
AcDbEntity
  8
Camada 1
 62
    18
420
        0
370
    15
100
AcDbLine
 10
73.25213649100373
 20
-64.36720770605089
 30
0.0
 11
73.54872507979911
 21
-58.49832665101453
 31
0.0
  0
LINE
  5
271
330
79
100
AcDbEntity
  8
Camada 1
 62
    18
420
        0
370
    15
100
AcDbLine
 10
77.65179113463656
 20
-59.7158330395415
 30
0.0
 11
80.08905275256571
 21
-59.58813449592453
 31
0.0
  0
LINE
  5
272
330
79
100
AcDbEntity
  8
Camada 1
 62
    18
420
        0
370
    15
100
AcDbLine
 10
75.20759442666156
 20
-58.31663846636654
 30
0.0
 11
75.20759442666156
 21
-57.77174501987744
 31
0.0
  0
LINE
  5
273
330
79
100
AcDbEntity
  8
Camada 1
 62
    18
420
        0
370
    15
100
AcDbLine
 10
72.62588319416042
 20
-59.72434650858239
 30
0.0
 11
72.35331948928622
 21
-59.72434650858239
 31
0.0
  0
LINE
  5
274
330
79
100
AcDbEntity
  8
Camada 1
 62
    18
420
        0
370
    15
100
AcDbLine
 10
72.65451051950453
 20
-59.36106791497547
 30
0.0
 11
72.38194681463032
 21
-59.36106791497547
 31
0.0
  0
LINE
  5
275
330
79
100
AcDbEntity
  8
Camada 1
 62
    18
420
        0
370
    15
100
AcDbLine
 10
76.79691732175894
 20
-58.31663846636654
 30
0.0
 11
76.79691732175894
 21
-57.77174501987744
 31
0.0
  0
LINE
  5
276
330
79
100
AcDbEntity
  8
Camada 1
 62
    18
420
        0
370
    15
100
AcDbLine
 10
75.20759442666156
 20
-58.31663846636654
 30
0.0
 11
74.19103454179918
 21
-58.31663846636654
 31
0.0
  0
LINE
  5
277
330
79
100
AcDbEntity
  8
Camada 1
 62
    18
420
        0
370
    15
100
AcDbLine
 10
73.37712874319217
 20
-58.31663846636654
 30
0.0
 11
72.88074949907327
 21
-58.31663846636654
 31
0.0
  0
LINE
  5
278
330
79
100
AcDbEntity
  8
Camada 1
 62
    18
420
        0
370
    15
100
AcDbLine
 10
56.8986214936214
 20
-57.7717205759555
 30
0.0
 11
72.65478289464373
 21
-57.7717205759555
 31
0.0
  0
LINE
  5
279
330
79
100
AcDbEntity
  8
Camada 1
 62
    18
420
        0
370
    15
100
AcDbLine
 10
78.26147843593897
 20
-71.34931388384075
 30
0.0
 11
78.17885797757307
 21
-69.77321864285676
 31
0.0
  0
LINE
  5
27A
330
79
100
AcDbEntity
  8
Camada 1
 62
    18
420
        0
370
    15
100
AcDbLine
 10
77.65179113463656
 20
-59.7158330395415
 30
0.0
 11
77.59205717179566
 21
-58.57478374889776
 31
0.0
  0
LINE
  5
27B
330
79
100
AcDbEntity
  8
Camada 1
 62
    18
420
        0
370
    15
100
AcDbLine
 10
78.27275756022203
 20
-62.77312173803712
 30
0.0
 11
78.27275756022203
 21
-59.68317595895726
 31
0.0
  0
LINE
  5
27C
330
79
100
AcDbEntity
  8
Camada 1
 62
    18
420
        0
370
    15
100
AcDbLine
 10
80.08915052825733
 20
-69.87018069980647
 30
0.0
 11
80.08915052825733
 21
-59.58813449592453
 31
0.0
  0
SPLINE
  5
27D
330
79
100
AcDbEntity
  8
Camada 1
 62
    18
420
        0
370
    15
100
AcDbSpline
210
0.0
220
0.0
230
1.0
 70
     8
 71
     3
 72
     8
 73
     4
 74
     0
 42
0.0000000001
 43
0.0000000001
 40
0.0
 40
0.0
 40
0.0
 40
0.0
 40
1.0
 40
1.0
 40
1.0
 40
1.0
 10
77.0241899300565
 20
-69.25933056618401
 30
0.0
 10
76.78618294775171
 20
-65.6114487619177
 30
0.0
 10
76.54108024391719
 20
-61.96379044494287
 30
0.0
 10
76.28957323236559
 20
-58.31659307051022
 30
0.0
  0
SPLINE
  5
27E
330
79
100
AcDbEntity
  8
Camada 1
 62
    18
420
        0
370
    15
100
AcDbSpline
210
0.0
220
0.0
230
1.0
 70
     8
 71
     3
 72
     8
 73
     4
 74
     0
 42
0.0000000001
 43
0.0000000001
 40
0.0
 40
0.0
 40
0.0
 40
0.0
 40
1.0
 40
1.0
 40
1.0
 40
1.0
 10
57.84398670793388
 20
-64.56651297491156
 30
0.0
 10
57.56020673458039
 20
-64.57452359754409
 30
0.0
 10
57.32998688761796
 20
-64.79902705860999
 30
0.0
 10
57.31511101472229
 20
-65.08257306870611
 30
0.0
  0
SPLINE
  5
27F
330
79
100
AcDbEntity
  8
Camada 1
 62
    18
420
        0
370
    15
100
AcDbSpline
210
0.0
220
0.0
230
1.0
 70
     8
 71
     3
 72
     8
 73
     4
 74
     0
 42
0.0000000001
 43
0.0000000001
 40
0.0
 40
0.0
 40
0.0
 40
0.0
 40
1.0
 40
1.0
 40
1.0
 40
1.0
 10
55.17638651541311
 20
-61.50730019050882
 30
0.0
 10
55.0928511559444
 20
-61.63042422861304
 30
0.0
 10
55.0928511559444
 20
-61.7919915729782
 30
0.0
 10
55.17638651541311
 20
-61.91511561108113
 30
0.0
  0
SPLINE
  5
280
330
79
100
AcDbEntity
  8
Camada 1
 62
    18
420
        0
370
    15
100
AcDbSpline
210
0.0
220
0.0
230
1.0
 70
     8
 71
     3
 72
     8
 73
     4
 74
     0
 42
0.0000000001
 43
0.0000000001
 40
0.0
 40
0.0
 40
0.0
 40
0.0
 40
1.0
 40
1.0
 40
1.0
 40
1.0
 10
55.17638651541311
 20
-62.24653678957205
 30
0.0
 10
55.0928511559444
 20
-62.36966082767497
 30
0.0
 10
55.0928511559444
 20
-62.53122817204014
 30
0.0
 10
55.17638651541311
 20
-62.65435221014434
 30
0.0
  0
SPLINE
  5
281
330
79
100
AcDbEntity
  8
Camada 1
 62
    18
420
        0
370
    15
100
AcDbSpline
210
0.0
220
0.0
230
1.0
 70
     8
 71
     3
 72
     8
 73
     4
 74
     0
 42
0.0000000001
 43
0.0000000001
 40
0.0
 40
0.0
 40
0.0
 40
0.0
 40
1.0
 40
1.0
 40
1.0
 40
1.0
 10
55.17638651541311
 20
-62.98574894471075
 30
0.0
 10
55.0928511559444
 20
-63.10887298281496
 30
0.0
 10
55.0928511559444
 20
-63.27044032718013
 30
0.0
 10
55.17638651541311
 20
-63.39356436528305
 30
0.0
  0
SPLINE
  5
282
330
79
100
AcDbEntity
  8
Camada 1
 62
    18
420
        0
370
    15
100
AcDbSpline
210
0.0
220
0.0
230
1.0
 70
     8
 71
     3
 72
     8
 73
     4
 74
     0
 42
0.0000000001
 43
0.0000000001
 40
0.0
 40
0.0
 40
0.0
 40
0.0
 40
1.0
 40
1.0
 40
1.0
 40
1.0
 10
55.17638651541311
 20
-63.72495760786189
 30
0.0
 10
55.0928511559444
 20
-63.84808164596481
 30
0.0
 10
55.0928511559444
 20
-64.00964899033126
 30
0.0
 10
55.17638651541311
 20
-64.13277302843418
 30
0.0
  0
SPLINE
  5
283
330
79
100
AcDbEntity
  8
Camada 1
 62
    18
420
        0
370
    15
100
AcDbSpline
210
0.0
220
0.0
230
1.0
 70
     8
 71
     3
 72
     8
 73
     4
 74
     0
 42
0.0000000001
 43
0.0000000001
 40
0.0
 40
0.0
 40
0.0
 40
0.0
 40
1.0
 40
1.0
 40
1.0
 40
1.0
 10
55.17638651541311
 20
-64.46419420692382
 30
0.0
 10
55.0928511559444
 20
-64.58731824502803
 30
0.0
 10
55.0928511559444
 20
-64.74888558939319
 30
0.0
 10
55.17638651541311
 20
-64.87200962749611
 30
0.0
  0
SPLINE
  5
284
330
79
100
AcDbEntity
  8
Camada 1
 62
    18
420
        0
370
    15
100
AcDbSpline
210
0.0
220
0.0
230
1.0
 70
     8
 71
     3
 72
     8
 73
     4
 74
     0
 42
0.0000000001
 43
0.0000000001
 40
0.0
 40
0.0
 40
0.0
 40
0.0
 40
1.0
 40
1.0
 40
1.0
 40
1.0
 10
55.17638651541311
 20
-65.2034063620638
 30
0.0
 10
55.0928511559444
 20
-65.32653040016673
 30
0.0
 10
55.0928511559444
 20
-65.48809774453317
 30
0.0
 10
55.17638651541311
 20
-65.61122178263611
 30
0.0
  0
SPLINE
  5
285
330
79
100
AcDbEntity
  8
Camada 1
 62
    18
420
        0
370
    15
100
AcDbSpline
210
0.0
220
0.0
230
1.0
 70
     8
 71
     3
 72
     8
 73
     4
 74
     0
 42
0.0000000001
 43
0.0000000001
 40
0.0
 40
0.0
 40
0.0
 40
0.0
 40
1.0
 40
1.0
 40
1.0
 40
1.0
 10
55.17638651541311
 20
-65.94261851720379
 30
0.0
 10
55.0928511559444
 20
-66.06574255530673
 30
0.0
 10
55.0928511559444
 20
-66.22730989967188
 30
0.0
 10
55.17638651541311
 20
-66.35043393777609
 30
0.0
  0
SPLINE
  5
286
330
79
100
AcDbEntity
  8
Camada 1
 62
    18
420
        0
370
    15
100
AcDbSpline
210
0.0
220
0.0
230
1.0
 70
     8
 71
     3
 72
     8
 73
     4
 74
     0
 42
0.0000000001
 43
0.0000000001
 40
0.0
 40
0.0
 40
0.0
 40
0.0
 40
1.0
 40
1.0
 40
1.0
 40
1.0
 10
55.17638651541311
 20
-66.68185162427687
 30
0.0
 10
55.0928511559444
 20
-66.8049756623798
 30
0.0
 10
55.0928511559444
 20
-66.96654300674497
 30
0.0
 10
55.17638651541311
 20
-67.08966704484918
 30
0.0
  0
SPLINE
  5
287
330
79
100
AcDbEntity
  8
Camada 1
 62
    18
420
        0
370
    15
100
AcDbSpline
210
0.0
220
0.0
230
1.0
 70
     8
 71
     3
 72
     8
 73
     4
 74
     0
 42
0.0000000001
 43
0.0000000001
 40
0.0
 40
0.0
 40
0.0
 40
0.0
 40
1.0
 40
1.0
 40
1.0
 40
1.0
 10
55.17638651541311
 20
-67.42106377941687
 30
0.0
 10
55.0928511559444
 20
-67.54418781751978
 30
0.0
 10
55.0928511559444
 20
-67.70575516188495
 30
0.0
 10
55.17638651541311
 20
-67.82887919998916
 30
0.0
  0
SPLINE
  5
288
330
79
100
AcDbEntity
  8
Camada 1
 62
    18
420
        0
370
    15
100
AcDbSpline
210
0.0
220
0.0
230
1.0
 70
     8
 71
     3
 72
     8
 73
     4
 74
     0
 42
0.0000000001
 43
0.0000000001
 40
0.0
 40
0.0
 40
0.0
 40
0.0
 40
1.0
 40
1.0
 40
1.0
 40
1.0
 10
55.17638651541311
 20
-68.16027593455557
 30
0.0
 10
55.0928511559444
 20
-68.28339997265977
 30
0.0
 10
55.0928511559444
 20
-68.44496731702495
 30
0.0
 10
55.17638651541311
 20
-68.56809135512786
 30
0.0
  0
SPLINE
  5
289
330
79
100
AcDbEntity
  8
Camada 1
 62
    18
420
        0
370
    15
100
AcDbSpline
210
0.0
220
0.0
230
1.0
 70
     8
 71
     3
 72
     8
 73
     4
 74
     0
 42
0.0000000001
 43
0.0000000001
 40
0.0
 40
0.0
 40
0.0
 40
0.0
 40
1.0
 40
1.0
 40
1.0
 40
1.0
 10
55.17638651541311
 20
-68.89948459770671
 30
0.0
 10
55.0928511559444
 20
-69.02260863580963
 30
0.0
 10
55.0928511559444
 20
-69.1841759801748
 30
0.0
 10
55.17638651541311
 20
-69.307300018279
 30
0.0
  0
SPLINE
  5
28A
330
79
100
AcDbEntity
  8
Camada 1
 62
    18
420
        0
370
    15
100
AcDbSpline
210
0.0
220
0.0
230
1.0
 70
     8
 71
     3
 72
     8
 73
     4
 74
     0
 42
0.0000000001
 43
0.0000000001
 40
0.0
 40
0.0
 40
0.0
 40
0.0
 40
1.0
 40
1.0
 40
1.0
 40
1.0
 10
55.17638651541311
 20
-69.63872119676864
 30
0.0
 10
55.0928511559444
 20
-69.76184523487157
 30
0.0
 10
55.0928511559444
 20
-69.92341257923802
 30
0.0
 10
55.17638651541311
 20
-70.04653661734093
 30
0.0
  0
SPLINE
  5
28B
330
79
100
AcDbEntity
  8
Camada 1
 62
    18
420
        0
370
    15
100
AcDbSpline
210
0.0
220
0.0
230
1.0
 70
     8
 71
     3
 72
     8
 73
     4
 74
     0
 42
0.0000000001
 43
0.0000000001
 40
0.0
 40
0.0
 40
0.0
 40
0.0
 40
1.0
 40
1.0
 40
1.0
 40
1.0
 10
55.17638651541311
 20
-70.37793335190862
 30
0.0
 10
55.0928511559444
 20
-70.50105739001155
 30
0.0
 10
55.0928511559444
 20
-70.66262473437672
 30
0.0
 10
55.17638651541311
 20
-70.78574877248093
 30
0.0
  0
SPLINE
  5
28C
330
79
100
AcDbEntity
  8
Camada 1
 62
    18
420
        0
370
    15
100
AcDbSpline
210
0.0
220
0.0
230
1.0
 70
     8
 71
     3
 72
     8
 73
     4
 74
     0
 42
0.0000000001
 43
0.0000000001
 40
0.0
 40
0.0
 40
0.0
 40
0.0
 40
1.0
 40
1.0
 40
1.0
 40
1.0
 10
55.17638651541311
 20
-62.24653678957205
 30
0.0
 10
55.24435458818122
 20
-62.14652971826391
 30
0.0
 10
55.24435458818122
 20
-62.01517157023442
 30
0.0
 10
55.17638651541311
 20
-61.91516100693744
 30
0.0
  0
SPLINE
  5
28D
330
79
100
AcDbEntity
  8
Camada 1
 62
    18
420
        0
370
    15
100
AcDbSpline
210
0.0
220
0.0
230
1.0
 70
     8
 71
     3
 72
     8
 73
     4
 74
     0
 42
0.0000000001
 43
0.0000000001
 40
0.0
 40
0.0
 40
0.0
 40
0.0
 40
1.0
 40
1.0
 40
1.0
 40
1.0
 10
55.17638651541311
 20
-62.98574894471075
 30
0.0
 10
55.24435458818122
 20
-62.8857418734039
 30
0.0
 10
55.24435458818122
 20
-62.75438372537441
 30
0.0
 10
55.17638651541311
 20
-62.65437316207743
 30
0.0
  0
SPLINE
  5
28E
330
79
100
AcDbEntity
  8
Camada 1
 62
    18
420
        0
370
    15
100
AcDbSpline
210
0.0
220
0.0
230
1.0
 70
     8
 71
     3
 72
     8
 73
     4
 74
     0
 42
0.0000000001
 43
0.0000000001
 40
0.0
 40
0.0
 40
0.0
 40
0.0
 40
1.0
 40
1.0
 40
1.0
 40
1.0
 10
55.17638651541311
 20
-63.72495760786189
 30
0.0
 10
55.24435458818122
 20
-63.62495053655376
 30
0.0
 10
55.24435458818122
 20
-63.49359238852427
 30
0.0
 10
55.17638651541311
 20
-63.39358182522857
 30
0.0
  0
SPLINE
  5
28F
330
79
100
AcDbEntity
  8
Camada 1
 62
    18
420
        0
370
    15
100
AcDbSpline
210
0.0
220
0.0
230
1.0
 70
     8
 71
     3
 72
     8
 73
     4
 74
     0
 42
0.0000000001
 43
0.0000000001
 40
0.0
 40
0.0
 40
0.0
 40
0.0
 40
1.0
 40
1.0
 40
1.0
 40
1.0
 10
55.17638651541311
 20
-64.46419420692382
 30
0.0
 10
55.24435458818122
 20
-64.36418713561569
 30
0.0
 10
55.24435458818122
 20
-64.23282898758748
 30
0.0
 10
55.17638651541311
 20
-64.1328184242905
 30
0.0
  0
SPLINE
  5
290
330
79
100
AcDbEntity
  8
Camada 1
 62
    18
420
        0
370
    15
100
AcDbSpline
210
0.0
220
0.0
230
1.0
 70
     8
 71
     3
 72
     8
 73
     4
 74
     0
 42
0.0000000001
 43
0.0000000001
 40
0.0
 40
0.0
 40
0.0
 40
0.0
 40
1.0
 40
1.0
 40
1.0
 40
1.0
 10
55.17638651541311
 20
-65.2034063620638
 30
0.0
 10
55.24435458818122
 20
-65.10339929075567
 30
0.0
 10
55.24435458818122
 20
-64.97204114272747
 30
0.0
 10
55.17638651541311
 20
-64.8720305794305
 30
0.0
  0
SPLINE
  5
291
330
79
100
AcDbEntity
  8
Camada 1
 62
    18
420
        0
370
    15
100
AcDbSpline
210
0.0
220
0.0
230
1.0
 70
     8
 71
     3
 72
     8
 73
     4
 74
     0
 42
0.0000000001
 43
0.0000000001
 40
0.0
 40
0.0
 40
0.0
 40
0.0
 40
1.0
 40
1.0
 40
1.0
 40
1.0
 10
55.17638651541311
 20
-65.94261851720379
 30
0.0
 10
55.24435458818122
 20
-65.84261144589567
 30
0.0
 10
55.24435458818122
 20
-65.71125329786617
 30
0.0
 10
55.17638651541311
 20
-65.61124273457048
 30
0.0
  0
SPLINE
  5
292
330
79
100
AcDbEntity
  8
Camada 1
 62
    18
420
        0
370
    15
100
AcDbSpline
210
0.0
220
0.0
230
1.0
 70
     8
 71
     3
 72
     8
 73
     4
 74
     0
 42
0.0000000001
 43
0.0000000001
 40
0.0
 40
0.0
 40
0.0
 40
0.0
 40
1.0
 40
1.0
 40
1.0
 40
1.0
 10
55.17638651541311
 20
-66.68185162427687
 30
0.0
 10
55.24435458818122
 20
-66.58184455296875
 30
0.0
 10
55.24435458818122
 20
-66.45048640494053
 30
0.0
 10
55.17638651541311
 20
-66.35047584164356
 30
0.0
  0
SPLINE
  5
293
330
79
100
AcDbEntity
  8
Camada 1
 62
    18
420
        0
370
    15
100
AcDbSpline
210
0.0
220
0.0
230
1.0
 70
     8
 71
     3
 72
     8
 73
     4
 74
     0
 42
0.0000000001
 43
0.0000000001
 40
0.0
 40
0.0
 40
0.0
 40
0.0
 40
1.0
 40
1.0
 40
1.0
 40
1.0
 10
55.17638651541311
 20
-67.42106377941687
 30
0.0
 10
55.24435458818122
 20
-67.32105670810874
 30
0.0
 10
55.24435458818122
 20
-67.18969856007925
 30
0.0
 10
55.17638651541311
 20
-67.08968799678228
 30
0.0
  0
SPLINE
  5
294
330
79
100
AcDbEntity
  8
Camada 1
 62
    18
420
        0
370
    15
100
AcDbSpline
210
0.0
220
0.0
230
1.0
 70
     8
 71
     3
 72
     8
 73
     4
 74
     0
 42
0.0000000001
 43
0.0000000001
 40
0.0
 40
0.0
 40
0.0
 40
0.0
 40
1.0
 40
1.0
 40
1.0
 40
1.0
 10
55.17638651541311
 20
-68.16027593455557
 30
0.0
 10
55.24435458818122
 20
-68.06026886324744
 30
0.0
 10
55.24435458818122
 20
-67.92891071521923
 30
0.0
 10
55.17638651541311
 20
-67.82890015192226
 30
0.0
  0
SPLINE
  5
295
330
79
100
AcDbEntity
  8
Camada 1
 62
    18
420
        0
370
    15
100
AcDbSpline
210
0.0
220
0.0
230
1.0
 70
     8
 71
     3
 72
     8
 73
     4
 74
     0
 42
0.0000000001
 43
0.0000000001
 40
0.0
 40
0.0
 40
0.0
 40
0.0
 40
1.0
 40
1.0
 40
1.0
 40
1.0
 10
55.17638651541311
 20
-68.89948459770671
 30
0.0
 10
55.24435458818122
 20
-68.79947752639859
 30
0.0
 10
55.24435458818122
 20
-68.66811937836908
 30
0.0
 10
55.17638651541311
 20
-68.5681088150734
 30
0.0
  0
SPLINE
  5
296
330
79
100
AcDbEntity
  8
Camada 1
 62
    18
420
        0
370
    15
100
AcDbSpline
210
0.0
220
0.0
230
1.0
 70
     8
 71
     3
 72
     8
 73
     4
 74
     0
 42
0.0000000001
 43
0.0000000001
 40
0.0
 40
0.0
 40
0.0
 40
0.0
 40
1.0
 40
1.0
 40
1.0
 40
1.0
 10
55.17638651541311
 20
-69.63872119676864
 30
0.0
 10
55.24435458818122
 20
-69.53871412546051
 30
0.0
 10
55.24435458818122
 20
-69.40735597743231
 30
0.0
 10
55.17638651541311
 20
-69.30734541413532
 30
0.0
  0
SPLINE
  5
297
330
79
100
AcDbEntity
  8
Camada 1
 62
    18
420
        0
370
    15
100
AcDbSpline
210
0.0
220
0.0
230
1.0
 70
     8
 71
     3
 72
     8
 73
     4
 74
     0
 42
0.0000000001
 43
0.0000000001
 40
0.0
 40
0.0
 40
0.0
 40
0.0
 40
1.0
 40
1.0
 40
1.0
 40
1.0
 10
55.17638651541311
 20
-70.37793335190862
 30
0.0
 10
55.24435458818122
 20
-70.2779262806005
 30
0.0
 10
55.24435458818122
 20
-70.1465681325723
 30
0.0
 10
55.17638651541311
 20
-70.04655756927532
 30
0.0
  0
SPLINE
  5
298
330
79
100
AcDbEntity
  8
Camada 1
 62
    18
420
        0
370
    15
100
AcDbSpline
210
0.0
220
0.0
230
1.0
 70
     8
 71
     3
 72
     8
 73
     4
 74
     0
 42
0.0000000001
 43
0.0000000001
 40
0.0
 40
0.0
 40
0.0
 40
0.0
 40
1.0
 40
1.0
 40
1.0
 40
1.0
 10
55.16823621322405
 20
-71.12856431088757
 30
0.0
 10
55.24375396608316
 20
-71.02787280974708
 30
0.0
 10
55.24695961192992
 20
-70.8901033700215
 30
0.0
 10
55.17647032315061
 20
-70.78574877248093
 30
0.0
  0
SPLINE
  5
299
330
79
100
AcDbEntity
  8
Camada 1
 62
    18
420
        0
370
    15
100
AcDbSpline
210
0.0
220
0.0
230
1.0
 70
     8
 71
     3
 72
     8
 73
     4
 74
     0
 42
0.0000000001
 43
0.0000000001
 40
0.0
 40
0.0
 40
0.0
 40
0.0
 40
1.0
 40
1.0
 40
1.0
 40
1.0
 10
57.47093752926899
 20
-63.75828165833425
 30
0.0
 10
57.47825673809274
 20
-63.89948372319074
 30
0.0
 10
57.59245176046698
 20
-64.01139149281309
 30
0.0
 10
57.73342335405624
 20
-64.01642694086675
 30
0.0
  0
SPLINE
  5
29A
330
79
100
AcDbEntity
  8
Camada 1
 62
    18
420
        0
370
    15
100
AcDbSpline
210
0.0
220
0.0
230
1.0
 70
     8
 71
     3
 72
    11
 73
     7
 74
     0
 42
0.0000000001
 43
0.0000000001
 40
0.0
 40
0.0
 40
0.0
 40
0.0
 40
1.0
 40
1.0
 40
1.0
 40
2.0
 40
2.0
 40
2.0
 40
2.0
 10
55.16823621322405
 20
-71.12856431088757
 30
0.0
 10
55.07783560349285
 20
-71.24894015369449
 30
0.0
 10
55.10232142995558
 20
-71.4198939643359
 30
0.0
 10
55.22269727276444
 20
-71.51006061080458
 30
0.0
 10
55.26983912347785
 20
-71.5453052551952
 30
0.0
 10
55.32728234157481
 20
-71.56452865432203
 30
0.0
 10
55.38632489060374
 20
-71.56452865432203
 30
0.0
  0
SPLINE
  5
29B
330
79
100
AcDbEntity
  8
Camada 1
 62
    18
420
        0
370
    15
100
AcDbSpline
210
0.0
220
0.0
230
1.0
 70
     8
 71
     3
 72
     8
 73
     4
 74
     0
 42
0.0000000001
 43
0.0000000001
 40
0.0
 40
0.0
 40
0.0
 40
0.0
 40
1.0
 40
1.0
 40
1.0
 40
1.0
 10
56.76010127627084
 20
-71.56450071840996
 30
0.0
 10
56.88093107763712
 20
-71.56450071840996
 30
0.0
 10
56.98048069839448
 20
-71.46998654570754
 30
0.0
 10
56.98666151882461
 20
-71.34938372362029
 30
0.0
  0
SPLINE
  5
29C
330
79
100
AcDbEntity
  8
Camada 1
 62
    18
420
        0
370
    15
100
AcDbSpline
210
0.0
220
0.0
230
1.0
 70
     8
 71
     3
 72
     8
 73
     4
 74
     0
 42
0.0000000001
 43
0.0000000001
 40
0.0
 40
0.0
 40
0.0
 40
0.0
 40
1.0
 40
1.0
 40
1.0
 40
1.0
 10
72.27347167014082
 20
-65.92549729542049
 30
0.0
 10
73.02341121530457
 20
-65.77239802423992
 30
0.0
 10
73.5751734040437
 20
-65.13161456140598
 30
0.0
 10
73.61521953323062
 20
-64.36725310190721
 30
0.0
  0
SPLINE
  5
29D
330
79
100
AcDbEntity
  8
Camada 1
 62
    18
420
        0
370
    15
100
AcDbSpline
210
0.0
220
0.0
230
1.0
 70
     8
 71
     3
 72
     8
 73
     4
 74
     0
 42
0.0000000001
 43
0.0000000001
 40
0.0
 40
0.0
 40
0.0
 40
0.0
 40
1.0
 40
1.0
 40
1.0
 40
1.0
 10
67.4912417020084
 20
-65.21105032585822
 30
0.0
 10
67.46560351919855
 20
-65.03414965804791
 30
0.0
 10
67.29236594778768
 20
-64.89935539290121
 30
0.0
 10
67.08251138033135
 20
-64.89317806446186
 30
0.0
  0
SPLINE
  5
29E
330
79
100
AcDbEntity
  8
Camada 1
 62
    18
420
        0
370
    15
100
AcDbSpline
210
0.0
220
0.0
230
1.0
 70
     8
 71
     3
 72
     8
 73
     4
 74
     0
 42
0.0000000001
 43
0.0000000001
 40
0.0
 40
0.0
 40
0.0
 40
0.0
 40
1.0
 40
1.0
 40
1.0
 40
1.0
 10
71.77691084259665
 20
-64.32610350421516
 30
0.0
 10
71.91810592347609
 20
-64.32107154815034
 30
0.0
 10
72.03207745856015
 20
-64.20916377852799
 30
0.0
 10
72.03939666738391
 20
-64.06796171367151
 30
0.0
  0
SPLINE
  5
29F
330
79
100
AcDbEntity
  8
Camada 1
 62
    18
420
        0
370
    15
100
AcDbSpline
210
0.0
220
0.0
230
1.0
 70
     8
 71
     3
 72
     8
 73
     4
 74
     0
 42
0.0000000001
 43
0.0000000001
 40
0.0
 40
0.0
 40
0.0
 40
0.0
 40
1.0
 40
1.0
 40
1.0
 40
1.0
 10
78.26147843593897
 20
-71.34931388384075
 30
0.0
 10
78.26765227238883
 20
-71.46992019791813
 30
0.0
 10
78.36743236441664
 20
-71.56443437062055
 30
0.0
 10
78.48803867849274
 20
-71.56443437062055
 30
0.0
  0
SPLINE
  5
2A0
330
79
100
AcDbEntity
  8
Camada 1
 62
    18
420
        0
370
    15
100
AcDbSpline
210
0.0
220
0.0
230
1.0
 70
     8
 71
     3
 72
     8
 73
     4
 74
     0
 42
0.0000000001
 43
0.0000000001
 40
0.0
 40
0.0
 40
0.0
 40
0.0
 40
1.0
 40
1.0
 40
1.0
 40
1.0
 10
70.93620752084794
 20
-66.15123692057231
 30
0.0
 10
70.83390621280447
 20
-66.16497091308099
 30
0.0
 10
70.75358348316341
 20
-66.24598156454389
 30
0.0
 10
70.74099137103849
 20
-66.34850985186898
 30
0.0
  0
SPLINE
  5
2A1
330
79
100
AcDbEntity
  8
Camada 1
 62
    18
420
        0
370
    15
100
AcDbSpline
210
0.0
220
0.0
230
1.0
 70
     8
 71
     3
 72
     8
 73
     4
 74
     0
 42
0.0000000001
 43
0.0000000001
 40
0.0
 40
0.0
 40
0.0
 40
0.0
 40
1.0
 40
1.0
 40
1.0
 40
1.0
 10
79.90751123145578
 20
-71.56450071840996
 30
0.0
 10
80.00774528204166
 20
-71.56450071840996
 30
0.0
 10
80.08921338405661
 20
-71.48303261639502
 30
0.0
 10
80.08921338405661
 20
-71.38279507381644
 30
0.0
  0
SPLINE
  5
2A2
330
79
100
AcDbEntity
  8
Camada 1
 62
    18
420
        0
370
    15
100
AcDbSpline
210
0.0
220
0.0
230
1.0
 70
     8
 71
     3
 72
     8
 73
     4
 74
     0
 42
0.0000000001
 43
0.0000000001
 40
0.0
 40
0.0
 40
0.0
 40
0.0
 40
1.0
 40
1.0
 40
1.0
 40
1.0
 10
67.32855692118396
 20
-64.40295170486102
 30
0.0
 10
67.30384062345014
 20
-64.36954035466358
 30
0.0
 10
67.26516335392732
 20
-64.34917507515492
 30
0.0
 10
67.22374138109929
 20
-64.34779923151122
 30
0.0
  0
SPLINE
  5
2A3
330
79
100
AcDbEntity
  8
Camada 1
 62
    18
420
        0
370
    15
100
AcDbSpline
210
0.0
220
0.0
230
1.0
 70
     8
 71
     3
 72
     8
 73
     4
 74
     0
 42
0.0000000001
 43
0.0000000001
 40
0.0
 40
0.0
 40
0.0
 40
0.0
 40
1.0
 40
1.0
 40
1.0
 40
1.0
 10
71.15789294683574
 20
-64.34770843979858
 30
0.0
 10
71.11646399003129
 20
-64.34908428344228
 30
0.0
 10
71.07779370448874
 20
-64.36944956295095
 30
0.0
 10
71.05307740675492
 20
-64.40309138441755
 30
0.0
  0
SPLINE
  5
2A4
330
79
100
AcDbEntity
  8
Camada 1
 62
    18
420
        0
370
    15
100
AcDbSpline
210
0.0
220
0.0
230
1.0
 70
     8
 71
     3
 72
     8
 73
     4
 74
     0
 42
0.0000000001
 43
0.0000000001
 40
0.0
 40
0.0
 40
0.0
 40
0.0
 40
1.0
 40
1.0
 40
1.0
 40
1.0
 10
78.27275756022203
 20
-62.77312173803712
 30
0.0
 10
78.8780659073917
 20
-62.80310395509247
 30
0.0
 10
79.48360472583951
 20
-62.83171032850413
 30
0.0
 10
80.08914354428027
 20
-62.85871387899304
 30
0.0
  0
SPLINE
  5
2A5
330
79
100
AcDbEntity
  8
Camada 1
 62
    18
420
        0
370
    15
100
AcDbSpline
210
0.0
220
0.0
230
1.0
 70
     8
 71
     3
 72
     8
 73
     4
 74
     0
 42
0.0000000001
 43
0.0000000001
 40
0.0
 40
0.0
 40
0.0
 40
0.0
 40
1.0
 40
1.0
 40
1.0
 40
1.0
 10
70.93620752084794
 20
-66.15123692057231
 30
0.0
 10
71.38452302917035
 20
-66.09127947043929
 30
0.0
 10
71.83032430545091
 20
-66.01598869686242
 30
0.0
 10
72.27361134969735
 20
-65.925591579122
 30
0.0
  0
SPLINE
  5
2A6
330
79
100
AcDbEntity
  8
Camada 1
 62
    18
420
        0
370
    15
100
AcDbSpline
210
0.0
220
0.0
230
1.0
 70
     8
 71
     3
 72
     8
 73
     4
 74
     0
 42
0.0000000001
 43
0.0000000001
 40
0.0
 40
0.0
 40
0.0
 40
0.0
 40
1.0
 40
1.0
 40
1.0
 40
1.0
 10
70.2352116926886
 20
-65.87833100078258
 30
0.0
 10
70.91832853746518
 20
-65.79434517473952
 30
0.0
 10
71.59824672037142
 20
-65.68907218410728
 30
0.0
 10
72.27358341378272
 20
-65.56251901286358
 30
0.0
  0
SPLINE
  5
2A7
330
79
100
AcDbEntity
  8
Camada 1
 62
    18
420
        0
370
    15
100
AcDbSpline
210
0.0
220
0.0
230
1.0
 70
     8
 71
     3
 72
     8
 73
     4
 74
     0
 42
0.0000000001
 43
0.0000000001
 40
0.0
 40
0.0
 40
0.0
 40
0.0
 40
1.0
 40
1.0
 40
1.0
 40
1.0
 10
55.17638651541311
 20
-58.55043411000592
 30
0.0
 10
55.0928511559444
 20
-58.67355814811013
 30
0.0
 10
55.0928511559444
 20
-58.83512549247528
 30
0.0
 10
55.17638651541311
 20
-58.95824953057822
 30
0.0
  0
SPLINE
  5
2A8
330
79
100
AcDbEntity
  8
Camada 1
 62
    18
420
        0
370
    15
100
AcDbSpline
210
0.0
220
0.0
230
1.0
 70
     8
 71
     3
 72
     8
 73
     4
 74
     0
 42
0.0000000001
 43
0.0000000001
 40
0.0
 40
0.0
 40
0.0
 40
0.0
 40
1.0
 40
1.0
 40
1.0
 40
1.0
 10
55.17638651541311
 20
-59.28966721708028
 30
0.0
 10
55.0928511559444
 20
-59.4127912551832
 30
0.0
 10
55.0928511559444
 20
-59.57435859954837
 30
0.0
 10
55.17638651541311
 20
-59.69748263765129
 30
0.0
  0
SPLINE
  5
2A9
330
79
100
AcDbEntity
  8
Camada 1
 62
    18
420
        0
370
    15
100
AcDbSpline
210
0.0
220
0.0
230
1.0
 70
     8
 71
     3
 72
     8
 73
     4
 74
     0
 42
0.0000000001
 43
0.0000000001
 40
0.0
 40
0.0
 40
0.0
 40
0.0
 40
1.0
 40
1.0
 40
1.0
 40
1.0
 10
55.17638651541311
 20
-60.02887937221899
 30
0.0
 10
55.0928511559444
 20
-60.15200341032319
 30
0.0
 10
55.0928511559444
 20
-60.31357075468708
 30
0.0
 10
55.17638651541311
 20
-60.43669479279128
 30
0.0
  0
SPLINE
  5
2AA
330
79
100
AcDbEntity
  8
Camada 1
 62
    18
420
        0
370
    15
100
AcDbSpline
210
0.0
220
0.0
230
1.0
 70
     8
 71
     3
 72
     8
 73
     4
 74
     0
 42
0.0000000001
 43
0.0000000001
 40
0.0
 40
0.0
 40
0.0
 40
0.0
 40
1.0
 40
1.0
 40
1.0
 40
1.0
 10
55.17638651541311
 20
-60.76809152735897
 30
0.0
 10
55.0928511559444
 20
-60.8912155654619
 30
0.0
 10
55.0928511559444
 20
-61.05278290982706
 30
0.0
 10
55.17638651541311
 20
-61.17590694793127
 30
0.0
  0
SPLINE
  5
2AB
330
79
100
AcDbEntity
  8
Camada 1
 62
    18
420
        0
370
    15
100
AcDbSpline
210
0.0
220
0.0
230
1.0
 70
     8
 71
     3
 72
     8
 73
     4
 74
     0
 42
0.0000000001
 43
0.0000000001
 40
0.0
 40
0.0
 40
0.0
 40
0.0
 40
1.0
 40
1.0
 40
1.0
 40
1.0
 10
55.17638651541311
 20
-58.55043411000592
 30
0.0
 10
55.24709929148644
 20
-58.44607951246533
 30
0.0
 10
55.24389364563969
 20
-58.30854054400893
 30
0.0
 10
55.16814542150948
 20
-58.20761857159927
 30
0.0
  0
SPLINE
  5
2AC
330
79
100
AcDbEntity
  8
Camada 1
 62
    18
420
        0
370
    15
100
AcDbSpline
210
0.0
220
0.0
230
1.0
 70
     8
 71
     3
 72
     8
 73
     4
 74
     0
 42
0.0000000001
 43
0.0000000001
 40
0.0
 40
0.0
 40
0.0
 40
0.0
 40
1.0
 40
1.0
 40
1.0
 40
1.0
 10
55.17638651541311
 20
-59.28966721708028
 30
0.0
 10
55.24435458818122
 20
-59.18966014577215
 30
0.0
 10
55.24435458818122
 20
-59.05830199774266
 30
0.0
 10
55.17638651541311
 20
-58.95829143444569
 30
0.0
  0
SPLINE
  5
2AD
330
79
100
AcDbEntity
  8
Camada 1
 62
    18
420
        0
370
    15
100
AcDbSpline
210
0.0
220
0.0
230
1.0
 70
     8
 71
     3
 72
     8
 73
     4
 74
     0
 42
0.0000000001
 43
0.0000000001
 40
0.0
 40
0.0
 40
0.0
 40
0.0
 40
1.0
 40
1.0
 40
1.0
 40
1.0
 10
55.17638651541311
 20
-60.02887937221899
 30
0.0
 10
55.24435458818122
 20
-59.92887230091086
 30
0.0
 10
55.24435458818122
 20
-59.79751415288265
 30
0.0
 10
55.17638651541311
 20
-59.69750358958567
 30
0.0
  0
SPLINE
  5
2AE
330
79
100
AcDbEntity
  8
Camada 1
 62
    18
420
        0
370
    15
100
AcDbSpline
210
0.0
220
0.0
230
1.0
 70
     8
 71
     3
 72
     8
 73
     4
 74
     0
 42
0.0000000001
 43
0.0000000001
 40
0.0
 40
0.0
 40
0.0
 40
0.0
 40
1.0
 40
1.0
 40
1.0
 40
1.0
 10
55.17638651541311
 20
-60.76809152735897
 30
0.0
 10
55.24435458818122
 20
-60.66808445605085
 30
0.0
 10
55.24435458818122
 20
-60.53672630802135
 30
0.0
 10
55.17638651541311
 20
-60.43671574472437
 30
0.0
  0
SPLINE
  5
2AF
330
79
100
AcDbEntity
  8
Camada 1
 62
    18
420
        0
370
    15
100
AcDbSpline
210
0.0
220
0.0
230
1.0
 70
     8
 71
     3
 72
     8
 73
     4
 74
     0
 42
0.0000000001
 43
0.0000000001
 40
0.0
 40
0.0
 40
0.0
 40
0.0
 40
1.0
 40
1.0
 40
1.0
 40
1.0
 10
55.17638651541311
 20
-61.50730019050882
 30
0.0
 10
55.24435458818122
 20
-61.4072931192007
 30
0.0
 10
55.24435458818122
 20
-61.27593497117249
 30
0.0
 10
55.17638651541311
 20
-61.17592440787551
 30
0.0
  0
SPLINE
  5
2B0
330
79
100
AcDbEntity
  8
Camada 1
 62
    18
420
        0
370
    15
100
AcDbSpline
210
0.0
220
0.0
230
1.0
 70
     8
 71
     3
 72
     8
 73
     4
 74
     0
 42
0.0000000001
 43
0.0000000001
 40
0.0
 40
0.0
 40
0.0
 40
0.0
 40
1.0
 40
1.0
 40
1.0
 40
1.0
 10
77.59199431599253
 20
-58.57482914475536
 30
0.0
 10
77.58443765192062
 20
-58.42996747548763
 30
0.0
 10
77.46474623894798
 20
-58.31668735421042
 30
0.0
 10
77.31988456968347
 20
-58.31668735421042
 30
0.0
  0
SPLINE
  5
2B1
330
79
100
AcDbEntity
  8
Camada 1
 62
    18
420
        0
370
    15
100
AcDbSpline
210
0.0
220
0.0
230
1.0
 70
     8
 71
     3
 72
     8
 73
     4
 74
     0
 42
0.0000000001
 43
0.0000000001
 40
0.0
 40
0.0
 40
0.0
 40
0.0
 40
1.0
 40
1.0
 40
1.0
 40
1.0
 10
74.19099263793427
 20
-58.31663846636654
 30
0.0
 10
74.04590049739545
 20
-58.31663846636654
 30
0.0
 10
73.92643955569326
 20
-58.43014905891291
 30
0.0
 10
73.91888289162135
 20
-58.57478374889776
 30
0.0
  0
SPLINE
  5
2B2
330
79
100
AcDbEntity
  8
Camada 1
 62
    18
420
        0
370
    15
100
AcDbSpline
210
0.0
220
0.0
230
1.0
 70
     8
 71
     3
 72
     8
 73
     4
 74
     0
 42
0.0000000001
 43
0.0000000001
 40
0.0
 40
0.0
 40
0.0
 40
0.0
 40
1.0
 40
1.0
 40
1.0
 40
1.0
 10
57.17073123993047
 20
-58.02993220627742
 30
0.0
 10
57.16317457585921
 20
-57.88507053700969
 30
0.0
 10
57.04348316288593
 20
-57.77179041573376
 30
0.0
 10
56.8986214936214
 20
-57.77179041573376
 30
0.0
  0
SPLINE
  5
2B3
330
79
100
AcDbEntity
  8
Camada 1
 62
    18
420
        0
370
    15
100
AcDbSpline
210
0.0
220
0.0
230
1.0
 70
     8
 71
     3
 72
     8
 73
     4
 74
     0
 42
0.0000000001
 43
0.0000000001
 40
0.0
 40
0.0
 40
0.0
 40
0.0
 40
1.0
 40
1.0
 40
1.0
 40
1.0
 10
72.62801330741346
 20
-57.7717205759555
 30
0.0
 10
72.48292116687784
 20
-57.7717205759555
 30
0.0
 10
72.36346022517245
 20
-57.88523116850186
 30
0.0
 10
72.35590356110119
 20
-58.02986585848801
 30
0.0
  0
SPLINE
  5
2B4
330
79
100
AcDbEntity
  8
Camada 1
 62
    18
420
        0
370
    15
100
AcDbSpline
210
0.0
220
0.0
230
1.0
 70
     8
 71
     3
 72
    11
 73
     7
 74
     0
 42
0.0000000001
 43
0.0000000001
 40
0.0
 40
0.0
 40
0.0
 40
0.0
 40
1.0
 40
1.0
 40
1.0
 40
2.0
 40
2.0
 40
2.0
 40
2.0
 10
55.38622013093506
 20
-57.7717205759555
 30
0.0
 10
55.23586207107213
 20
-57.7717205759555
 30
0.0
 10
55.11365642606151
 20
-57.89369924168517
 30
0.0
 10
55.11365642606151
 20
-58.04428428082905
 30
0.0
 10
55.11365642606151
 20
-58.10309985057767
 30
0.0
 10
55.13287633319692
 20
-58.16053957668385
 30
0.0
 10
55.16812446957896
 20
-58.20768491938869
 30
0.0
  0
SPLINE
  5
2B5
330
79
100
AcDbEntity
  8
Camada 1
 62
    18
420
        0
370
    15
100
AcDbSpline
210
0.0
220
0.0
230
1.0
 70
     8
 71
     3
 72
     8
 73
     4
 74
     0
 42
0.0000000001
 43
0.0000000001
 40
0.0
 40
0.0
 40
0.0
 40
0.0
 40
1.0
 40
1.0
 40
1.0
 40
1.0
 10
80.08915052825733
 20
-57.95335987275833
 30
0.0
 10
80.08915052825733
 20
-57.85312582216988
 30
0.0
 10
80.00767544226532
 20
-57.7716542281648
 30
0.0
 10
79.90744139167239
 20
-57.7716542281648
 30
0.0
  0
SPLINE
  5
2B6
330
79
100
AcDbEntity
  8
Camada 1
 62
    18
420
        0
370
    15
100
AcDbSpline
210
0.0
220
0.0
230
1.0
 70
     8
 71
     3
 72
     8
 73
     4
 74
     0
 42
0.0000000001
 43
0.0000000001
 40
0.0
 40
0.0
 40
0.0
 40
0.0
 40
1.0
 40
1.0
 40
1.0
 40
1.0
 10
72.35331948928622
 20
-59.72434650858239
 30
0.0
 10
72.30502528221542
 20
-59.72434650858239
 30
0.0
 10
72.26520962430282
 20
-59.76210887699984
 30
0.0
 10
72.26268840828779
 20
-59.8103961000891
 30
0.0
  0
SPLINE
  5
2B7
330
79
100
AcDbEntity
  8
Camada 1
 62
    18
420
        0
370
    15
100
AcDbSpline
210
0.0
220
0.0
230
1.0
 70
     8
 71
     3
 72
    11
 73
     7
 74
     0
 42
0.0000000001
 43
0.0000000001
 40
0.0
 40
0.0
 40
0.0
 40
0.0
 40
1.0
 40
1.0
 40
1.0
 40
2.0
 40
2.0
 40
2.0
 40
2.0
 10
72.29119002202948
 20
-59.26547820967933
 30
0.0
 10
72.28866880601059
 20
-59.31559872696176
 30
0.0
 10
72.32711560426619
 20
-59.3581660721637
 30
0.0
 10
72.37700914226508
 20
-59.36091077547214
 30
0.0
 10
72.37860847320345
 20
-59.36091077547214
 30
0.0
 10
72.38020780413863
 20
-59.36114124674258
 30
0.0
 10
72.38181411905086
 20
-59.36114124674258
 30
0.0
  0
SPLINE
  5
2B8
330
79
100
AcDbEntity
  8
Camada 1
 62
    18
420
        0
370
    15
100
AcDbSpline
210
0.0
220
0.0
230
1.0
 70
     8
 71
     3
 72
     8
 73
     4
 74
     0
 42
0.0000000001
 43
0.0000000001
 40
0.0
 40
0.0
 40
0.0
 40
0.0
 40
1.0
 40
1.0
 40
1.0
 40
1.0
 10
67.32855692118396
 20
-64.40295170486102
 30
0.0
 10
67.3548725498491
 20
-64.43865379980239
 30
0.0
 10
67.37775904537409
 20
-64.47710059805348
 30
0.0
 10
67.39858526742494
 20
-64.51646229740738
 30
0.0
  0
SPLINE
  5
2B9
330
79
100
AcDbEntity
  8
Camada 1
 62
    18
420
        0
370
    15
100
AcDbSpline
210
0.0
220
0.0
230
1.0
 70
     8
 71
     3
 72
     8
 73
     4
 74
     0
 42
0.0000000001
 43
0.0000000001
 40
0.0
 40
0.0
 40
0.0
 40
0.0
 40
1.0
 40
1.0
 40
1.0
 40
1.0
 10
70.98311890029734
 20
-64.51644134547301
 30
0.0
 10
71.00371465107068
 20
-64.47731011738956
 30
0.0
 10
71.02659416262182
 20
-64.43886331913976
 30
0.0
 10
71.05291677526402
 20
-64.40293424491549
 30
0.0
  0
SPLINE
  5
2BA
330
79
100
AcDbEntity
  8
Camada 1
 62
    18
420
        0
370
    15
100
AcDbSpline
210
0.0
220
0.0
230
1.0
 70
     8
 71
     3
 72
    17
 73
    13
 74
     0
 42
0.0000000001
 43
0.0000000001
 40
0.0
 40
0.0
 40
0.0
 40
0.0
 40
1.0
 40
1.0
 40
1.0
 40
2.0
 40
2.0
 40
2.0
 40
3.0
 40
3.0
 40
3.0
 40
4.0
 40
4.0
 40
4.0
 40
4.0
 10
67.39846653979959
 20
-64.51644134547301
 30
0.0
 10
67.42066162151516
 20
-64.55878171139463
 30
0.0
 10
67.4458318778064
 20
-64.60088811405568
 30
0.0
 10
67.4785587981734
 20
-64.63521785734349
 30
0.0
 10
67.51151618980762
 20
-64.67000155919449
 30
0.0
 10
67.55247722009734
 20
-64.69654765913135
 30
0.0
 10
67.59367570563135
 20
-64.72172140741337
 30
0.0
 10
67.63486720719214
 20
-64.74689515569668
 30
0.0
 10
67.67651965128743
 20
-64.77000863050261
 30
0.0
 10
67.71679625174542
 20
-64.79563982933668
 30
0.0
 10
67.75707285220342
 20
-64.82127102817074
 30
0.0
 10
67.79620408028751
 20
-64.84941995103163
 30
0.0
 10
67.83396644870368
 20
-64.87871424626577
 30
0.0
  0
SPLINE
  5
2BB
330
79
100
AcDbEntity
  8
Camada 1
 62
    18
420
        0
370
    15
100
AcDbSpline
210
0.0
220
0.0
230
1.0
 70
     8
 71
     3
 72
    17
 73
    13
 74
     0
 42
0.0000000001
 43
0.0000000001
 40
0.0
 40
0.0
 40
0.0
 40
0.0
 40
1.0
 40
1.0
 40
1.0
 40
2.0
 40
2.0
 40
2.0
 40
3.0
 40
3.0
 40
3.0
 40
4.0
 40
4.0
 40
4.0
 40
4.0
 10
70.5476189913894
 20
-64.87880154598828
 30
0.0
 10
70.58537437582915
 20
-64.84928027147382
 30
0.0
 10
70.62428211662242
 20
-64.82136181988209
 30
0.0
 10
70.66478918834765
 20
-64.79573062104932
 30
0.0
 10
70.70506578880179
 20
-64.77009942221525
 30
0.0
 10
70.74671823290413
 20
-64.74675547613758
 30
0.0
 10
70.78790973446174
 20
-64.72181219912602
 30
0.0
 10
70.82933170728977
 20
-64.69663845084401
 30
0.0
 10
70.8700692502893
 20
-64.66986187963668
 30
0.0
 10
70.90301965794262
 20
-64.63530515706728
 30
0.0
 10
70.93574657830962
 20
-64.60097890576832
 30
0.0
 10
70.96069334731068
 20
-64.55864203183683
 30
0.0
 10
70.98311890029734
 20
-64.51653213718564
 30
0.0
  0
SPLINE
  5
2BC
330
79
100
AcDbEntity
  8
Camada 1
 62
    18
420
        0
370
    15
100
AcDbSpline
210
0.0
220
0.0
230
1.0
 70
     8
 71
     3
 72
    14
 73
    10
 74
     0
 42
0.0000000001
 43
0.0000000001
 40
0.0
 40
0.0
 40
0.0
 40
0.0
 40
1.0
 40
1.0
 40
1.0
 40
2.0
 40
2.0
 40
2.0
 40
3.0
 40
3.0
 40
3.0
 40
3.0
 10
67.83394549676929
 20
-64.87880154598828
 30
0.0
 10
67.9206795181077
 20
-64.94631566019193
 30
0.0
 10
68.00558373724435
 20
-65.02160643376879
 30
0.0
 10
68.06439581500604
 20
-65.11497872608682
 30
0.0
 10
68.09368661824747
 20
-65.16097520443082
 30
0.0
 10
68.11634264250137
 20
-65.21155317226529
 30
0.0
 10
68.12938871319078
 20
-65.264187921587
 30
0.0
 10
68.14288874244081
 20
-65.31774106400034
 30
0.0
 10
68.1463248595593
 20
-65.37335098790092
 30
0.0
 10
68.1463248595593
 20
-65.42827298997899
 30
0.0
  0
SPLINE
  5
2BD
330
79
100
AcDbEntity
  8
Camada 1
 62
    18
420
        0
370
    15
100
AcDbSpline
210
0.0
220
0.0
230
1.0
 70
     8
 71
     3
 72
     8
 73
     4
 74
     0
 42
0.0000000001
 43
0.0000000001
 40
0.0
 40
0.0
 40
0.0
 40
0.0
 40
1.0
 40
1.0
 40
1.0
 40
1.0
 10
70.30045601407818
 20
-65.14307876110382
 30
0.0
 10
70.36041346421312
 20
-65.03666389008589
 30
0.0
 10
70.45446669437594
 20
-64.95450786624974
 30
0.0
 10
70.54761200741236
 20
-64.87875615013196
 30
0.0
  0
SPLINE
  5
2BE
330
79
100
AcDbEntity
  8
Camada 1
 62
    18
420
        0
370
    15
100
AcDbSpline
210
0.0
220
0.0
230
1.0
 70
     8
 71
     3
 72
    11
 73
     7
 74
     0
 42
0.0000000001
 43
0.0000000001
 40
0.0
 40
0.0
 40
0.0
 40
0.0
 40
1.0
 40
1.0
 40
1.0
 40
2.0
 40
2.0
 40
2.0
 40
2.0
 10
77.0241899300565
 20
-69.25933056618401
 30
0.0
 10
77.03242403998307
 20
-69.3808517813629
 30
0.0
 10
77.07934240340631
 20
-69.49916735069376
 30
0.0
 10
77.16195587779515
 20
-69.59757509106544
 30
0.0
 10
77.22053748428575
 20
-69.6673729660379
 30
0.0
 10
77.29720759349518
 20
-69.72710343688932
 30
0.0
 10
77.38325020102161
 20
-69.73168143439221
 30
0.0
  0
SPLINE
  5
2BF
330
79
100
AcDbEntity
  8
Camada 1
 62
    18
420
        0
370
    15
100
AcDbSpline
210
0.0
220
0.0
230
1.0
 70
     8
 71
     3
 72
    17
 73
    13
 74
     0
 42
0.0000000001
 43
0.0000000001
 40
0.0
 40
0.0
 40
0.0
 40
0.0
 40
1.0
 40
1.0
 40
1.0
 40
2.0
 40
2.0
 40
2.0
 40
3.0
 40
3.0
 40
3.0
 40
4.0
 40
4.0
 40
4.0
 40
4.0
 10
72.25965037790834
 20
-59.81041705202219
 30
0.0
 10
72.25598378952006
 20
-59.81019007274187
 30
0.0
 10
72.25804406299291
 20
-59.80423972358412
 30
0.0
 10
72.2594199066379
 20
-59.79897729624886
 30
0.0
 10
72.2635404535881
 20
-59.78410142335705
 30
0.0
 10
72.26124970884352
 20
-59.77563335017246
 30
0.0
 10
72.2603348077375
 20
-59.76602339660347
 30
0.0
 10
72.25895896409572
 20
-59.75091705244121
 30
0.0
 10
72.26101923756921
 20
-59.73215110386771
 30
0.0
 10
72.26239508121421
 20
-59.71407307711414
 30
0.0
 10
72.26422488341983
 20
-59.69118658158851
 30
0.0
 10
72.26422488341983
 20
-59.66967592970658
 30
0.0
 10
72.26537025579372
 20
-59.64770433528505
 30
0.0
  0
SPLINE
  5
2C0
330
79
100
AcDbEntity
  8
Camada 1
 62
    18
420
        0
370
    15
100
AcDbSpline
210
0.0
220
0.0
230
1.0
 70
     8
 71
     3
 72
    23
 73
    19
 74
     0
 42
0.0000000001
 43
0.0000000001
 40
0.0
 40
0.0
 40
0.0
 40
0.0
 40
1.0
 40
1.0
 40
1.0
 40
2.0
 40
2.0
 40
2.0
 40
3.0
 40
3.0
 40
3.0
 40
4.0
 40
4.0
 40
4.0
 40
5.0
 40
5.0
 40
5.0
 40
6.0
 40
6.0
 40
6.0
 40
6.0
 10
72.26537025579372
 20
-59.64765893942873
 30
0.0
 10
72.26742354529017
 20
-59.60372273456078
 30
0.0
 10
72.26971429003732
 20
-59.55978303770399
 30
0.0
 10
72.27200503478191
 20
-59.51584334084847
 30
0.0
 10
72.27428879555266
 20
-59.47327599564653
 30
0.0
 10
72.27612558173212
 20
-59.4307086504433
 30
0.0
 10
72.27910075631164
 20
-59.38928667761462
 30
0.0
 10
72.28046961597957
 20
-59.37235402323559
 30
0.0
 10
72.28184545962071
 20
-59.35541787686643
 30
0.0
 10
72.28252988945243
 20
-59.33779730066619
 30
0.0
 10
72.28276036072351
 20
-59.32406680014635
 30
0.0
 10
72.28276036072351
 20
-59.30987535708689
 30
0.0
 10
72.28527459276534
 20
-59.29843560131229
 30
0.0
 10
72.28641996513539
 20
-59.29133987978256
 30
0.0
 10
72.28894118115043
 20
-59.28515905935565
 30
0.0
 10
72.28710439497096
 20
-59.27394628286264
 30
0.0
 10
72.28641996513539
 20
-59.27005620718095
 30
0.0
 10
72.28527459276534
 20
-59.26570868094851
 30
0.0
 10
72.28824976734101
 20
-59.26547820967933
 30
0.0
  0
SPLINE
  5
2C1
330
79
100
AcDbEntity
  8
Camada 1
 62
    18
420
        0
370
    15
100
AcDbSpline
210
0.0
220
0.0
230
1.0
 70
     8
 71
     3
 72
     8
 73
     4
 74
     0
 42
0.0000000001
 43
0.0000000001
 40
0.0
 40
0.0
 40
0.0
 40
0.0
 40
1.0
 40
1.0
 40
1.0
 40
1.0
 10
72.40277303667797
 20
-64.06805250538415
 30
0.0
 10
72.36454972572348
 20
-64.41659490565706
 30
0.0
 10
72.15103555385526
 20
-64.70700616601246
 30
0.0
 10
71.77686195475084
 20
-64.82211958148285
 30
0.0
  0
SPLINE
  5
2C2
330
79
100
AcDbEntity
  8
Camada 1
 62
    18
420
        0
370
    15
100
AcDbSpline
210
0.0
220
0.0
230
1.0
 70
     8
 71
     3
 72
     8
 73
     4
 74
     0
 42
0.0000000001
 43
0.0000000001
 40
0.0
 40
0.0
 40
0.0
 40
0.0
 40
1.0
 40
1.0
 40
1.0
 40
1.0
 10
73.25213649100373
 20
-64.36720770605089
 30
0.0
 10
73.18576774917397
 20
-65.01279963765688
 30
0.0
 10
72.79534941751046
 20
-65.4283917176037
 30
0.0
 10
72.2735694458286
 20
-65.56249806092918
 30
0.0
  0
SPLINE
  5
2C3
330
79
100
AcDbEntity
  8
Camada 1
 62
    18
420
        0
370
    15
100
AcDbSpline
210
0.0
220
0.0
230
1.0
 70
     8
 71
     3
 72
     8
 73
     4
 74
     0
 42
0.0000000001
 43
0.0000000001
 40
0.0
 40
0.0
 40
0.0
 40
0.0
 40
1.0
 40
1.0
 40
1.0
 40
1.0
 10
73.54865524001891
 20
-58.49827776316936
 30
0.0
 10
73.54865524001891
 20
-58.39781324131047
 30
0.0
 10
73.46741062529416
 20
-58.31657211857584
 30
0.0
 10
73.3669461034372
 20
-58.31657211857584
 30
0.0
  0
SPLINE
  5
2C4
330
79
100
AcDbEntity
  8
Camada 1
 62
    18
420
        0
370
    15
100
AcDbSpline
210
0.0
220
0.0
230
1.0
 70
     8
 71
     3
 72
     8
 73
     4
 74
     0
 42
0.0000000001
 43
0.0000000001
 40
0.0
 40
0.0
 40
0.0
 40
0.0
 40
1.0
 40
1.0
 40
1.0
 40
1.0
 10
72.69902639453808
 20
-58.49827776316936
 30
0.0
 10
72.69902639453808
 20
-58.39781324131047
 30
0.0
 10
72.78026402528194
 20
-58.31657211857584
 30
0.0
 10
72.88072854714211
 20
-58.31657211857584
 30
0.0
  0
LINE
  5
2C5
330
79
100
AcDbEntity
  8
Camada 1
 62
    18
420
        0
370
    15
100
AcDbLine
 10
78.17888591348451
 20
-69.77330943456812
 30
0.0
 11
77.38339686455519
 21
-69.73166048245784
 31
0.0
  0
LINE
  5
2C6
330
79
100
AcDbEntity
  8
Camada 1
 62
    18
420
        0
370
    15
100
AcDbLine
 10
78.48819930998364
 20
-71.56450071840996
 30
0.0
 11
79.90753218338631
 21
-71.56450071840996
 31
0.0
  0
LINE
  5
2C7
330
79
100
AcDbEntity
  8
Camada 1
 62
    18
420
        0
370
    15
100
AcDbLine
 10
80.08915052825733
 20
-69.87018069980647
 30
0.0
 11
80.08915052825733
 21
-71.38288586552907
 31
0.0
  0
LINE
  5
2C8
330
79
100
AcDbEntity
  8
Camada 1
 62
    18
420
        0
370
    15
100
AcDbLine
 10
72.65485273442006
 20
-57.7717205759555
 30
0.0
 11
75.20768521837613
 21
-57.7717205759555
 31
0.0
  0
LINE
  5
2C9
330
79
100
AcDbEntity
  8
Camada 1
 62
    18
420
        0
370
    15
100
AcDbLine
 10
76.79691732175894
 20
-57.7717205759555
 30
0.0
 11
75.2075455388196
 21
-57.7717205759555
 31
0.0
  0
LINE
  5
2CA
330
79
100
AcDbEntity
  8
Camada 1
 62
    18
420
        0
370
    15
100
AcDbLine
 10
79.90751123145578
 20
-57.7717205759555
 30
0.0
 11
76.79696620960476
 21
-57.7717205759555
 31
0.0
  0
LINE
  5
2CB
330
79
100
AcDbEntity
  8
Camada 1
 62
    18
420
        0
370
    15
100
AcDbLine
 10
75.20759442666156
 20
-58.31663846636654
 30
0.0
 11
76.7969592256277
 21
-58.31663846636654
 31
0.0
  0
LINE
  5
2CC
330
79
100
AcDbEntity
  8
Camada 1
 62
    18
420
        0
370
    15
100
AcDbLine
 10
77.29318482222954
 20
-58.31663846636654
 30
0.0
 11
76.79680557811384
 21
-58.31663846636654
 31
0.0
  0
LINE
  5
2CD
330
79
100
AcDbEntity
  8
Camada 1
 62
    18
420
        0
370
    15
100
AcDbLine
 10
80.08915052825733
 20
-57.95335987275833
 30
0.0
 11
80.08915052825733
 21
-59.58827417548234
 31
0.0
  0
LINE
  5
2CE
330
79
100
AcDbEntity
  8
Camada 1
 62
    18
420
        0
370
    15
100
AcDbLine
 10
55.38622013093506
 20
-57.7717205759555
 30
0.0
 11
56.89869133339773
 21
-57.7717205759555
 31
0.0
  0
LINE
  5
2CF
330
79
100
AcDbEntity
  8
Camada 1
 62
    18
420
        0
370
    15
100
AcDbLine
 10
55.38622013093506
 20
-71.56450071840996
 30
0.0
 11
56.76001048455628
 21
-71.56450071840996
 31
0.0
  0
LINE
  5
2D0
330
79
100
AcDbEntity
  8
Camada 1
 62
    18
420
        0
370
    15
100
AcDbLine
 10
67.64686568119542
 20
-66.39958717412169
 30
0.0
 11
68.14644358718145
 21
-66.39958717412169
 31
0.0
  0
LINE
  5
2D1
330
79
100
AcDbEntity
  8
Camada 1
 62
    18
420
        0
370
    15
100
AcDbLine
 10
68.14635279547395
 20
-66.39958717412169
 30
0.0
 11
70.23507201313208
 21
-66.39958717412169
 31
0.0
  0
LINE
  5
2D2
330
79
100
AcDbEntity
  8
Camada 1
 62
    18
420
        0
370
    15
100
AcDbLine
 10
70.73472674287791
 20
-66.39958717412169
 30
0.0
 11
70.23514185290841
 21
-66.39958717412169
 31
0.0
  0
LWPOLYLINE
  5
2D3
330
79
100
AcDbEntity
  8
Camada 1
 62
    18
420
        0
370
    15
100
AcDbPolyline
 90
        4
 70
     0
 43
0.0
 10
22.8424446708899
 20
-71.56404326785791
 10
26.34798252991947
 20
-71.56404326785791
 10
26.34134425893955
 20
-71.56404326785791
 10
26.34134425893955
 20
-62.85809579695009
  0
LINE
  5
2D4
330
79
100
AcDbEntity
  8
Camada 1
 62
    18
420
        0
370
    15
100
AcDbLine
 10
26.34796157798188
 20
-71.59910283683569
 30
0.0
 11
34.90584173377553
 21
-71.59910283683569
 31
0.0
  0
ENDBLK
  5
7C
330
79
100
AcDbEntity
  8
0
100
AcDbBlockEnd
  0
ENDSEC
  0
SECTION
  2
ENTITIES
  0
INSERT
  5
7A
330
70
100
AcDbEntity
  8
Camada 1
100
AcDbBlockReference
  2
Block_0
 10
0.0
 20
0.0
 30
0.0
  0
ENDSEC
  0
SECTION
  2
OBJECTS
  0
DICTIONARY
  5
C
330
0
100
AcDbDictionary
281
     1
  3
ACAD_COLOR
350
63
  3
ACAD_DETAILVIEWSTYLE
350
6A
  3
ACAD_GROUP
350
D
  3
ACAD_LAYOUT
350
62
  3
ACAD_MATERIAL
350
10
  3
ACAD_MLEADERSTYLE
350
66
  3
ACAD_MLINESTYLE
350
5F
  3
ACAD_PLOTSETTINGS
350
61
  3
ACAD_PLOTSTYLENAME
350
E
  3
ACAD_SCALELIST
350
42
  3
ACAD_SECTIONVIEWSTYLE
350
68
  3
ACAD_TABLESTYLE
350
64
  3
ACAD_VISUALSTYLE
350
29
  3
ACDB_RECOMPOSE_DATA
350
2DD
  3
AcDbVariableDictionary
350
2D5
  0
DICTIONARY
  5
63
102
{ACAD_REACTORS
330
C
102
}
330
C
100
AcDbDictionary
281
     1
  0
DICTIONARY
  5
6A
102
{ACAD_REACTORS
330
C
102
}
330
C
100
AcDbDictionary
281
     1
  3
Imperial24
350
6B
  0
DICTIONARY
  5
D
102
{ACAD_REACTORS
330
C
102
}
330
C
100
AcDbDictionary
281
     1
  0
DICTIONARY
  5
62
102
{ACAD_REACTORS
330
C
102
}
330
C
100
AcDbDictionary
281
     1
  3
Layout1
350
6F
  3
Layout2
350
77
  3
Model
350
73
  0
DICTIONARY
  5
10
102
{ACAD_REACTORS
330
C
102
}
330
C
100
AcDbDictionary
281
     1
  3
ByBlock
350
19
  3
ByLayer
350
11
  3
Global
350
21
  0
DICTIONARY
  5
66
102
{ACAD_REACTORS
330
C
102
}
330
C
100
AcDbDictionary
281
     1
  3
Standard
350
67
  0
DICTIONARY
  5
5F
102
{ACAD_REACTORS
330
C
102
}
330
C
100
AcDbDictionary
281
     1
  3
Standard
350
60
  0
DICTIONARY
  5
61
102
{ACAD_REACTORS
330
C
102
}
330
C
100
AcDbDictionary
281
     1
  0
ACDBDICTIONARYWDFLT
  5
E
102
{ACAD_REACTORS
330
C
102
}
330
C
100
AcDbDictionary
281
     1
  3
Normal
350
F
100
AcDbDictionaryWithDefault
340
F
  0
DICTIONARY
  5
42
102
{ACAD_REACTORS
330
C
102
}
330
C
100
AcDbDictionary
281
     1
  3
A0
350
43
  3
A1
350
44
  3
A2
350
45
  3
A3
350
46
  3
A4
350
47
  3
A5
350
48
  3
A6
350
49
  3
A7
350
4A
  3
A8
350
4B
  3
A9
350
4C
  3
B0
350
4D
  3
B1
350
4E
  3
B2
350
4F
  3
B3
350
50
  3
B4
350
51
  3
B5
350
52
  3
B6
350
53
  0
DICTIONARY
  5
68
102
{ACAD_REACTORS
330
C
102
}
330
C
100
AcDbDictionary
281
     1
  3
Imperial24
350
69
  0
DICTIONARY
  5
64
102
{ACAD_REACTORS
330
C
102
}
330
C
100
AcDbDictionary
281
     1
  3
Standard
350
65
  0
DICTIONARY
  5
29
102
{ACAD_REACTORS
330
C
102
}
330
C
100
AcDbDictionary
281
     1
  3
2dWireframe
350
2F
  3
Basic
350
2E
  3
Brighten
350
35
  3
ColorChange
350
39
  3
Conceptual
350
32
  3
Dim
350
34
  3
EdgeColorOff
350
41
  3
Facepattern
350
38
  3
Flat
350
2A
  3
FlatWithEdges
350
2B
  3
Gouraud
350
2C
  3
GouraudWithEdges
350
2D
  3
Hidden
350
31
  3
JitterOff
350
3F
  3
Linepattern
350
37
  3
OverhangOff
350
40
  3
Realistic
350
33
  3
Shaded
350
3E
  3
Shaded with edges
350
3D
  3
Shades of Gray
350
3A
  3
Sketchy
350
3B
  3
Thicken
350
36
  3
Wireframe
350
30
  3
X-Ray
350
3C
  0
XRECORD
  5
2DD
102
{ACAD_REACTORS
330
C
102
}
330
C
100
AcDbXrecord
280
     1
 90
        1
330
65
  0
DICTIONARY
  5
2D5
102
{ACAD_REACTORS
330
C
102
}
330
C
100
AcDbDictionary
281
     1
  3
CANNOSCALE
350
2DA
  3
CMLEADERSTYLE
350
2D7
  3
CTABLESTYLE
350
2D6
  3
CVIEWDETAILSTYLE
350
2D8
  3
CVIEWSECTIONSTYLE
350
2D9
  0
ACDBDETAILVIEWSTYLE
  5
6B
102
{ACAD_REACTORS
330
6A
102
}
330
6A
100
AcDbModelDocViewStyle
 70
     0
  3
Imperial24
290
     1
300
Imperial24
 90
        0
100
AcDbDetailViewStyle
 70
     0
 71
     0
 90
        3
 71
     1
340
55
 62
   256
 40
0.24
340
0
 62
   256
 40
0.24
300

 40
0.36
280
     3
 71
     2
340
5D
 90
       25
 62
   256
 71
     3
340
55
 62
   256
 40
0.24
 90
        1
 40
0.75
 90
        1
300
%<\AcVar ViewType \f "%tc1">% %<\AcVar ViewDetailId>%\PSCALE %<\AcVar ViewScale \f "%sn">%
 71
     4
340
5D
 90
       25
 62
   256
340
5D
 90
       25
 62
   256
280
     0
  0
LAYOUT
  5
6F
102
{ACAD_REACTORS
330
62
102
}
330
62
100
AcDbPlotSettings
  1

  2

  4

  6

 40
0.0
 41
0.0
 42
0.0
 43
0.0
 44
0.0
 45
0.0
 46
0.0
 47
0.0
 48
0.0
 49
0.0
140
0.0
141
0.0
142
1.0
143
1.0
 70
   688
 72
     0
 73
     0
 74
     5
  7

 75
    16
147
1.0
 76
     0
 77
     2
 78
   300
148
0.0
149
0.0
100
AcDbLayout
  1
Layout1
 70
     1
 71
     1
 10
0.0
 20
0.0
 11
12.0
 21
9.0
 12
0.0
 22
0.0
 32
0.0
 14
0.0
 24
0.0
 34
0.0
 15
0.0
 25
0.0
 35
0.0
146
0.0
 13
0.0
 23
0.0
 33
0.0
 16
1.0
 26
0.0
 36
0.0
 17
0.0
 27
1.0
 37
0.0
 76
     0
330
6C
  0
LAYOUT
  5
77
102
{ACAD_REACTORS
330
62
102
}
330
62
100
AcDbPlotSettings
  1

  2

  4

  6

 40
0.0
 41
0.0
 42
0.0
 43
0.0
 44
0.0
 45
0.0
 46
0.0
 47
0.0
 48
0.0
 49
0.0
140
0.0
141
0.0
142
1.0
143
1.0
 70
   688
 72
     0
 73
     0
 74
     5
  7

 75
    16
147
1.0
 76
     0
 77
     2
 78
   300
148
0.0
149
0.0
100
AcDbLayout
  1
Layout2
 70
     1
 71
     2
 10
0.0
 20
0.0
 11
12.0
 21
9.0
 12
0.0
 22
0.0
 32
0.0
 14
0.0
 24
0.0
 34
0.0
 15
0.0
 25
0.0
 35
0.0
146
0.0
 13
0.0
 23
0.0
 33
0.0
 16
1.0
 26
0.0
 36
0.0
 17
0.0
 27
1.0
 37
0.0
 76
     0
330
74
  0
LAYOUT
  5
73
102
{ACAD_REACTORS
330
62
102
}
330
62
100
AcDbPlotSettings
  1

  2

  4

  6

 40
0.0
 41
0.0
 42
0.0
 43
0.0
 44
0.0
 45
0.0
 46
0.0
 47
0.0
 48
0.0
 49
0.0
140
0.0
141
0.0
142
1.0
143
1.0
 70
  1712
 72
     0
 73
     0
 74
     0
  7

 75
     0
147
1.0
 76
     0
 77
     2
 78
   300
148
0.0
149
0.0
100
AcDbLayout
  1
Model
 70
     1
 71
     0
 10
0.0
 20
0.0
 11
12.0
 21
9.0
 12
0.0
 22
0.0
 32
0.0
 14
0.0
 24
0.0
 34
0.0
 15
0.0
 25
0.0
 35
0.0
146
0.0
 13
0.0
 23
0.0
 33
0.0
 16
1.0
 26
0.0
 36
0.0
 17
0.0
 27
1.0
 37
0.0
 76
     0
330
70
  0
MATERIAL
  5
19
102
{ACAD_XDICTIONARY
360
1A
102
}
102
{ACAD_REACTORS
330
10
102
}
330
10
100
AcDbMaterial
  1
ByBlock
 72
     0
 43
0.0208333333333333
 43
0.0
 43
0.0
 43
0.0
 43
0.0
 43
0.0208333333333333
 43
0.0
 43
0.0
 43
0.0
 43
0.0
 43
1.0
 43
0.0
 43
0.0
 43
0.0
 43
0.0
 43
1.0
 77
     0
 47
0.0208333333333333
 47
0.0
 47
0.0
 47
0.0
 47
0.0
 47
0.0208333333333333
 47
0.0
 47
0.0
 47
0.0
 47
0.0
 47
1.0
 47
0.0
 47
0.0
 47
0.0
 47
0.0
 47
1.0
171
     0
 49
0.0208333333333333
 49
0.0
 49
0.0
 49
0.0
 49
0.0
 49
0.0208333333333333
 49
0.0
 49
0.0
 49
0.0
 49
0.0
 49
1.0
 49
0.0
 49
0.0
 49
0.0
 49
0.0
 49
1.0
175
     0
142
0.0208333333333333
142
0.0
142
0.0
142
0.0
142
0.0
142
0.0208333333333333
142
0.0
142
0.0
142
0.0
142
0.0
142
1.0
142
0.0
142
0.0
142
0.0
142
0.0
142
1.0
179
     0
144
0.0208333333333333
144
0.0
144
0.0
144
0.0
144
0.0
144
0.0208333333333333
144
0.0
144
0.0
144
0.0
144
0.0
144
1.0
144
0.0
144
0.0
144
0.0
144
0.0
144
1.0
147
0.0208333333333333
147
0.0
147
0.0
147
0.0
147
0.0
147
0.0208333333333333
147
0.0
147
0.0
147
0.0
147
0.0
147
1.0
147
0.0
147
0.0
147
0.0
147
0.0
147
1.0
  0
MATERIAL
  5
11
102
{ACAD_XDICTIONARY
360
12
102
}
102
{ACAD_REACTORS
330
10
102
}
330
10
100
AcDbMaterial
  1
ByLayer
 72
     0
 43
0.0208333333333333
 43
0.0
 43
0.0
 43
0.0
 43
0.0
 43
0.0208333333333333
 43
0.0
 43
0.0
 43
0.0
 43
0.0
 43
1.0
 43
0.0
 43
0.0
 43
0.0
 43
0.0
 43
1.0
 77
     0
 47
0.0208333333333333
 47
0.0
 47
0.0
 47
0.0
 47
0.0
 47
0.0208333333333333
 47
0.0
 47
0.0
 47
0.0
 47
0.0
 47
1.0
 47
0.0
 47
0.0
 47
0.0
 47
0.0
 47
1.0
171
     0
 49
0.0208333333333333
 49
0.0
 49
0.0
 49
0.0
 49
0.0
 49
0.0208333333333333
 49
0.0
 49
0.0
 49
0.0
 49
0.0
 49
1.0
 49
0.0
 49
0.0
 49
0.0
 49
0.0
 49
1.0
175
     0
142
0.0208333333333333
142
0.0
142
0.0
142
0.0
142
0.0
142
0.0208333333333333
142
0.0
142
0.0
142
0.0
142
0.0
142
1.0
142
0.0
142
0.0
142
0.0
142
0.0
142
1.0
179
     0
144
0.0208333333333333
144
0.0
144
0.0
144
0.0
144
0.0
144
0.0208333333333333
144
0.0
144
0.0
144
0.0
144
0.0
144
1.0
144
0.0
144
0.0
144
0.0
144
0.0
144
1.0
147
0.0208333333333333
147
0.0
147
0.0
147
0.0
147
0.0
147
0.0208333333333333
147
0.0
147
0.0
147
0.0
147
0.0
147
1.0
147
0.0
147
0.0
147
0.0
147
0.0
147
1.0
  0
MATERIAL
  5
21
102
{ACAD_XDICTIONARY
360
22
102
}
102
{ACAD_REACTORS
330
10
102
}
330
10
100
AcDbMaterial
  1
Global
 72
     0
 43
0.0208333333333333
 43
0.0
 43
0.0
 43
0.0
 43
0.0
 43
0.0208333333333333
 43
0.0
 43
0.0
 43
0.0
 43
0.0
 43
1.0
 43
0.0
 43
0.0
 43
0.0
 43
0.0
 43
1.0
 77
     0
 47
0.0208333333333333
 47
0.0
 47
0.0
 47
0.0
 47
0.0
 47
0.0208333333333333
 47
0.0
 47
0.0
 47
0.0
 47
0.0
 47
1.0
 47
0.0
 47
0.0
 47
0.0
 47
0.0
 47
1.0
171
     0
 49
0.0208333333333333
 49
0.0
 49
0.0
 49
0.0
 49
0.0
 49
0.0208333333333333
 49
0.0
 49
0.0
 49
0.0
 49
0.0
 49
1.0
 49
0.0
 49
0.0
 49
0.0
 49
0.0
 49
1.0
175
     0
142
0.0208333333333333
142
0.0
142
0.0
142
0.0
142
0.0
142
0.0208333333333333
142
0.0
142
0.0
142
0.0
142
0.0
142
1.0
142
0.0
142
0.0
142
0.0
142
0.0
142
1.0
179
     0
144
0.0208333333333333
144
0.0
144
0.0
144
0.0
144
0.0
144
0.0208333333333333
144
0.0
144
0.0
144
0.0
144
0.0
144
1.0
144
0.0
144
0.0
144
0.0
144
0.0
144
1.0
147
0.0208333333333333
147
0.0
147
0.0
147
0.0
147
0.0
147
0.0208333333333333
147
0.0
147
0.0
147
0.0
147
0.0
147
1.0
147
0.0
147
0.0
147
0.0
147
0.0
147
1.0
  0
MLEADERSTYLE
  5
67
102
{ACAD_REACTORS
330
66
102
}
330
66
100
AcDbMLeaderStyle
179
     2
170
     2
171
     1
172
     0
 90
        2
 40
0.0
 41
0.0
173
     1
 91
-1056964608
340
5B
 92
       -2
290
     1
 42
0.09
291
     1
 43
0.36
  3
Standard
 44
0.18
300

342
55
174
     1
178
     6
175
     1
176
     0
 93
-1056964608
 45
0.18
292
     0
297
     0
 46
0.18
 94
-1056964608
 47
1.0
 49
1.0
140
1.0
293
     1
141
0.0
294
     1
177
     0
142
1.0
295
     1
296
     0
143
0.125
271
     0
272
     9
273
     9
298
     1
  0
MLINESTYLE
  5
60
102
{ACAD_REACTORS
330
5F
102
}
330
5F
100
AcDbMlineStyle
  2
STANDARD
 70
     0
  3

 62
   256
 51
90.0
 52
90.0
 71
     2
 49
0.5
 62
   256
  6
BYLAYER
 49
-0.5
 62
   256
  6
BYLAYER
  0
ACDBPLACEHOLDER
  5
F
102
{ACAD_REACTORS
330
E
102
}
330
E
  0
SCALE
  5
43
102
{ACAD_REACTORS
330
42
102
}
330
42
100
AcDbScale
 70
     0
300
1:1
140
1.0
141
1.0
290
     1
  0
SCALE
  5
44
102
{ACAD_REACTORS
330
42
102
}
330
42
100
AcDbScale
 70
     0
300
1/128" = 1'-0"
140
0.0078125
141
12.0
290
     0
  0
SCALE
  5
45
102
{ACAD_REACTORS
330
42
102
}
330
42
100
AcDbScale
 70
     0
300
1/64" = 1'-0"
140
0.015625
141
12.0
290
     0
  0
SCALE
  5
46
102
{ACAD_REACTORS
330
42
102
}
330
42
100
AcDbScale
 70
     0
300
1/32" = 1'-0"
140
0.03125
141
12.0
290
     0
  0
SCALE
  5
47
102
{ACAD_REACTORS
330
42
102
}
330
42
100
AcDbScale
 70
     0
300
1/16" = 1'-0"
140
0.0625
141
12.0
290
     0
  0
SCALE
  5
48
102
{ACAD_REACTORS
330
42
102
}
330
42
100
AcDbScale
 70
     0
300
3/32" = 1'-0"
140
0.09375
141
12.0
290
     0
  0
SCALE
  5
49
102
{ACAD_REACTORS
330
42
102
}
330
42
100
AcDbScale
 70
     0
300
1/8" = 1'-0"
140
0.125
141
12.0
290
     0
  0
SCALE
  5
4A
102
{ACAD_REACTORS
330
42
102
}
330
42
100
AcDbScale
 70
     0
300
3/16" = 1'-0"
140
0.1875
141
12.0
290
     0
  0
SCALE
  5
4B
102
{ACAD_REACTORS
330
42
102
}
330
42
100
AcDbScale
 70
     0
300
1/4" = 1'-0"
140
0.25
141
12.0
290
     0
  0
SCALE
  5
4C
102
{ACAD_REACTORS
330
42
102
}
330
42
100
AcDbScale
 70
     0
300
3/8" = 1'-0"
140
0.375
141
12.0
290
     0
  0
SCALE
  5
4D
102
{ACAD_REACTORS
330
42
102
}
330
42
100
AcDbScale
 70
     0
300
1/2" = 1'-0"
140
0.5
141
12.0
290
     0
  0
SCALE
  5
4E
102
{ACAD_REACTORS
330
42
102
}
330
42
100
AcDbScale
 70
     0
300
3/4" = 1'-0"
140
0.75
141
12.0
290
     0
  0
SCALE
  5
4F
102
{ACAD_REACTORS
330
42
102
}
330
42
100
AcDbScale
 70
     0
300
1" = 1'-0"
140
1.0
141
12.0
290
     0
  0
SCALE
  5
50
102
{ACAD_REACTORS
330
42
102
}
330
42
100
AcDbScale
 70
     0
300
1-1/2" = 1'-0"
140
1.5
141
12.0
290
     0
  0
SCALE
  5
51
102
{ACAD_REACTORS
330
42
102
}
330
42
100
AcDbScale
 70
     0
300
3" = 1'-0"
140
3.0
141
12.0
290
     0
  0
SCALE
  5
52
102
{ACAD_REACTORS
330
42
102
}
330
42
100
AcDbScale
 70
     0
300
6" = 1'-0"
140
6.0
141
12.0
290
     0
  0
SCALE
  5
53
102
{ACAD_REACTORS
330
42
102
}
330
42
100
AcDbScale
 70
     0
300
1'-0" = 1'-0"
140
12.0
141
12.0
290
     0
  0
ACDBSECTIONVIEWSTYLE
  5
69
102
{ACAD_REACTORS
330
68
102
}
330
68
100
AcDbModelDocViewStyle
 70
     0
  3
Imperial24
290
     1
300
Imperial24
 90
        0
100
AcDbSectionViewStyle
 70
     0
 71
     0
 90
       78
 71
     1
340
55
 62
   256
 40
0.24
340
0
340
0
 62
   256
 40
0.24
300
I, O, Q, S, X, Z
 40
0.48
 90
        3
 40
0.18
 90
        1
 71
     2
340
5D
 90
       25
 62
   256
340
5D
 90
       50
 62
   256
 40
0.24
 40
0.0
 40
0.24
 71
     3
340
55
 62
   256
 40
0.24
 90
        1
 40
0.75
 90
        1
300
%<\AcVar ViewType \f "%tc1">% %<\AcVar ViewSectionStartId>%-%<\AcVar ViewSectionEndId>%\PSCALE %<\AcVar ViewScale \f "%sn">%
 71
     4
 62
   256
 62
   257
300
ANSI31
 40
1.0
 90
        0
290
     0
290
     0
 90
        6
 40
0.0
 40
1.570796326794896
 40
0.2617993877991494
 40
1.308996938995747
 40
-0.2617993877991494
 40
1.832595714594046
  0
TABLESTYLE
  5
65
102
{ACAD_XDICTIONARY
360
2DB
102
}
102
{ACAD_REACTORS
330
64
102
}
330
64
100
AcDbTableStyle
280
     0
  3
Standard
 70
     0
 71
     0
 40
0.06
 41
0.06
280
     0
281
     0
  7
Standard
140
0.18
170
     2
 62
     0
 63
     7
283
     0
 90
      512
 91
        0
  1

274
    -2
284
     1
 64
     0
275
    -2
285
     1
 65
     0
276
    -2
286
     1
 66
     0
277
    -2
287
     1
 67
     0
278
    -2
288
     1
 68
     0
279
    -2
289
     1
 69
     0
  7
Standard
140
0.25
170
     5
 62
     0
 63
     7
283
     0
 90
      512
 91
        0
  1

274
    -2
284
     1
 64
     0
275
    -2
285
     1
 65
     0
276
    -2
286
     1
 66
     0
277
    -2
287
     1
 67
     0
278
    -2
288
     1
 68
     0
279
    -2
289
     1
 69
     0
  7
Standard
140
0.18
170
     5
 62
     0
 63
     7
283
     0
 90
      512
 91
        0
  1

274
    -2
284
     1
 64
     0
275
    -2
285
     1
 65
     0
276
    -2
286
     1
 66
     0
277
    -2
287
     1
 67
     0
278
    -2
288
     1
 68
     0
279
    -2
289
     1
 69
     0
  0
VISUALSTYLE
  5
2F
102
{ACAD_REACTORS
330
29
102
}
330
29
100
AcDbVisualStyle
  2
2dWireframe
 70
     4
177
     3
291
     0
 70
    58
 90
        0
176
     1
 90
        2
176
     1
 90
        0
176
     1
 90
        0
176
     1
 40
0.6
176
     1
 40
30.0
176
     1
 62
     7
420
 16777215
176
     1
 90
        1
176
     1
 90
        4
176
     1
 62
     7
176
     1
 62
   257
176
     1
 90
        1
176
     1
 90
        1
176
     1
 40
1.0
176
     1
 90
        0
176
     1
 62
   257
176
     1
 40
1.0
176
     1
 90
        1
176
     1
 90
        6
176
     1
 90
        2
176
     1
 62
     7
176
     1
 90
        5
176
     1
 90
        0
176
     1
 90
        0
176
     1
290
     0
176
     1
 90
        1
176
     1
 40
0.0
176
     1
 90
        0
176
     1
290
     1
176
     1
290
     1
176
     1
290
     0
176
     1
290
     0
176
     1
290
     0
176
     1
290
     0
176
     1
290
     0
176
     1
290
     0
176
     1
290
     0
176
     1
 90
       50
176
     1
 40
0.0
176
     1
 40
1.0
176
     1
 90
        0
176
     1
 62
    18
420
        0
176
     1
 90
       50
176
     1
 90
        3
176
     1
 62
     5
420
      255
176
     1
290
     0
176
     1
 90
       50
176
     1
 90
       50
176
     1
 90
       50
176
     1
290
     0
176
     1
 90
       50
176
     1
 62
   256
176
     0
 40
1.0
176
     0
 90
        2
176
     1
  1
strokes_ogs.tif
176
     1
290
     0
176
     1
 40
1.0
176
     1
 40
1.0
176
     1
  0
VISUALSTYLE
  5
2E
102
{ACAD_REACTORS
330
29
102
}
330
29
100
AcDbVisualStyle
  2
Basic
 70
     7
177
     3
291
     1
 70
    58
 90
        1
176
     1
 90
        0
176
     1
 90
        1
176
     1
 90
        0
176
     1
 40
0.6
176
     1
 40
30.0
176
     1
 62
     7
420
 16777215
176
     1
 90
        0
176
     1
 90
        4
176
     1
 62
     7
176
     1
 62
   257
176
     1
 90
        1
176
     1
 90
        1
176
     1
 40
1.0
176
     1
 90
        8
176
     1
 62
     7
176
     1
 40
1.0
176
     1
 90
        1
176
     1
 90
        6
176
     1
 90
        2
176
     1
 62
     7
176
     1
 90
        5
176
     1
 90
        0
176
     1
 90
        0
176
     1
290
     0
176
     1
 90
        1
176
     1
 40
0.0
176
     1
 90
        0
176
     1
290
     0
176
     1
290
     1
176
     1
290
     1
176
     1
290
     0
176
     1
290
     0
176
     1
290
     0
176
     1
290
     0
176
     1
290
     0
176
     1
290
     0
176
     1
 90
       50
176
     1
 40
0.0
176
     1
 40
1.0
176
     1
 90
        0
176
     1
 62
    18
420
        0
176
     1
 90
       50
176
     1
 90
        3
176
     1
 62
     5
420
      255
176
     1
290
     0
176
     1
 90
       50
176
     1
 90
       50
176
     1
 90
       50
176
     1
290
     0
176
     1
 90
       50
176
     1
 62
   256
176
     0
 40
1.0
176
     0
 90
        2
176
     1
  1
strokes_ogs.tif
176
     1
290
     0
176
     1
 40
1.0
176
     1
 40
1.0
176
     1
  0
VISUALSTYLE
  5
35
102
{ACAD_REACTORS
330
29
102
}
330
29
100
AcDbVisualStyle
  2
Brighten
 70
    12
177
     3
291
     1
 70
    58
 90
        2
176
     1
 90
        2
176
     1
 90
        0
176
     1
 90
        0
176
     1
 40
0.6
176
     1
 40
30.0
176
     1
 62
     7
420
 16777215
176
     1
 90
        1
176
     1
 90
        4
176
     1
 62
     7
176
     1
 62
   257
176
     1
 90
        1
176
     1
 90
        1
176
     1
 40
1.0
176
     1
 90
        8
176
     1
 62
     7
176
     1
 40
1.0
176
     1
 90
        1
176
     1
 90
        6
176
     1
 90
        2
176
     1
 62
     7
176
     1
 90
        5
176
     1
 90
        0
176
     1
 90
        0
176
     1
290
     0
176
     1
 90
        1
176
     1
 40
50.0
176
     1
 90
        0
176
     1
290
     0
176
     1
290
     1
176
     1
290
     1
176
     1
290
     0
176
     1
290
     0
176
     1
290
     0
176
     1
290
     0
176
     1
290
     0
176
     1
290
     0
176
     1
 90
       50
176
     1
 40
0.0
176
     1
 40
1.0
176
     1
 90
        0
176
     1
 62
    18
420
        0
176
     1
 90
       50
176
     1
 90
        3
176
     1
 62
     5
420
      255
176
     1
290
     0
176
     1
 90
       50
176
     1
 90
       50
176
     1
 90
       50
176
     1
290
     0
176
     1
 90
       50
176
     1
 62
   256
176
     0
 40
1.0
176
     0
 90
        2
176
     1
  1
strokes_ogs.tif
176
     1
290
     0
176
     1
 40
1.0
176
     1
 40
1.0
176
     1
  0
VISUALSTYLE
  5
39
102
{ACAD_REACTORS
330
29
102
}
330
29
100
AcDbVisualStyle
  2
ColorChange
 70
    16
177
     3
291
     1
 70
    58
 90
        2
176
     1
 90
        2
176
     1
 90
        3
176
     1
 90
        0
176
     1
 40
0.6
176
     1
 40
30.0
176
     1
 62
     8
420
  8421504
176
     1
 90
        1
176
     1
 90
        4
176
     1
 62
     7
176
     1
 62
   257
176
     1
 90
        1
176
     1
 90
        1
176
     1
 40
1.0
176
     1
 90
        8
176
     1
 62
     8
420
  8421504
176
     1
 40
1.0
176
     1
 90
        1
176
     1
 90
        6
176
     1
 90
        2
176
     1
 62
     7
176
     1
 90
        5
176
     1
 90
        0
176
     1
 90
        0
176
     1
290
     0
176
     1
 90
        1
176
     1
 40
0.0
176
     1
 90
        0
176
     1
290
     0
176
     1
290
     1
176
     1
290
     1
176
     1
290
     0
176
     1
290
     0
176
     1
290
     0
176
     1
290
     0
176
     1
290
     0
176
     1
290
     0
176
     1
 90
       50
176
     1
 40
0.0
176
     1
 40
1.0
176
     1
 90
        0
176
     1
 62
    18
420
        0
176
     1
 90
       50
176
     1
 90
        3
176
     1
 62
     5
420
      255
176
     1
290
     0
176
     1
 90
       50
176
     1
 90
       50
176
     1
 90
       50
176
     1
290
     0
176
     1
 90
       50
176
     1
 62
   256
176
     0
 40
1.0
176
     0
 90
        2
176
     1
  1
strokes_ogs.tif
176
     1
290
     0
176
     1
 40
1.0
176
     1
 40
1.0
176
     1
  0
VISUALSTYLE
  5
32
102
{ACAD_REACTORS
330
29
102
}
330
29
100
AcDbVisualStyle
  2
Conceptual
 70
     9
177
     3
291
     0
 70
    58
 90
        3
176
     1
 90
        2
176
     1
 90
        0
176
     1
 90
        0
176
     1
 40
0.6
176
     1
 40
30.0
176
     1
 62
     7
420
 16777215
176
     1
 90
        2
176
     1
 90
        2
176
     1
 62
     7
176
     1
 62
   257
176
     1
 90
        1
176
     1
 90
        1
176
     1
 40
179.0
176
     1
 90
        8
176
     1
 62
     7
176
     1
 40
1.0
176
     1
 90
        1
176
     1
 90
        6
176
     1
 90
        2
176
     1
 62
     7
176
     1
 90
        3
176
     1
 90
        0
176
     1
 90
        0
176
     1
290
     0
176
     1
 90
        1
176
     1
 40
0.0
176
     1
 90
        0
176
     1
290
     0
176
     1
290
     1
176
     1
290
     1
176
     1
290
     0
176
     1
290
     0
176
     1
290
     0
176
     1
290
     0
176
     1
290
     0
176
     1
290
     0
176
     1
 90
       50
176
     1
 40
0.0
176
     1
 40
1.0
176
     1
 90
        0
176
     1
 62
    18
420
        0
176
     1
 90
       50
176
     1
 90
        3
176
     1
 62
     5
420
      255
176
     1
290
     0
176
     1
 90
       50
176
     1
 90
       50
176
     1
 90
       50
176
     1
290
     0
176
     1
 90
       50
176
     1
 62
   256
176
     0
 40
1.0
176
     0
 90
        2
176
     1
  1
strokes_ogs.tif
176
     1
290
     0
176
     1
 40
1.0
176
     1
 40
1.0
176
     1
  0
VISUALSTYLE
  5
34
102
{ACAD_REACTORS
330
29
102
}
330
29
100
AcDbVisualStyle
  2
Dim
 70
    11
177
     3
291
     1
 70
    58
 90
        2
176
     1
 90
        2
176
     1
 90
        0
176
     1
 90
        0
176
     1
 40
0.6
176
     1
 40
30.0
176
     1
 62
     7
420
 16777215
176
     1
 90
        1
176
     1
 90
        4
176
     1
 62
     7
176
     1
 62
   257
176
     1
 90
        1
176
     1
 90
        1
176
     1
 40
1.0
176
     1
 90
        8
176
     1
 62
     7
176
     1
 40
1.0
176
     1
 90
        1
176
     1
 90
        6
176
     1
 90
        2
176
     1
 62
     7
176
     1
 90
        5
176
     1
 90
        0
176
     1
 90
        0
176
     1
290
     0
176
     1
 90
        1
176
     1
 40
-50.0
176
     1
 90
        0
176
     1
290
     0
176
     1
290
     1
176
     1
290
     1
176
     1
290
     0
176
     1
290
     0
176
     1
290
     0
176
     1
290
     0
176
     1
290
     0
176
     1
290
     0
176
     1
 90
       50
176
     1
 40
0.0
176
     1
 40
1.0
176
     1
 90
        0
176
     1
 62
    18
420
        0
176
     1
 90
       50
176
     1
 90
        3
176
     1
 62
     5
420
      255
176
     1
290
     0
176
     1
 90
       50
176
     1
 90
       50
176
     1
 90
       50
176
     1
290
     0
176
     1
 90
       50
176
     1
 62
   256
176
     0
 40
1.0
176
     0
 90
        2
176
     1
  1
strokes_ogs.tif
176
     1
290
     0
176
     1
 40
1.0
176
     1
 40
1.0
176
     1
  0
VISUALSTYLE
  5
41
102
{ACAD_REACTORS
330
29
102
}
330
29
100
AcDbVisualStyle
  2
EdgeColorOff
 70
    22
177
     3
291
     1
 70
    58
 90
        2
176
     0
 90
        2
176
     0
 90
        0
176
     0
 90
        0
176
     0
 40
0.6
176
     0
 40
30.0
176
     0
 62
     7
420
 16777215
176
     0
 90
        1
176
     0
 90
        4
176
     0
 62
     7
176
     0
 62
   257
176
     0
 90
        1
176
     0
 90
        1
176
     0
 40
1.0
176
     0
 90
        8
176
     2
 62
     7
176
     0
 40
1.0
176
     0
 90
        1
176
     0
 90
        6
176
     0
 90
        2
176
     0
 62
     7
176
     0
 90
        5
176
     0
 90
        0
176
     0
 90
        0
176
     0
290
     0
176
     0
 90
        1
176
     0
 40
0.0
176
     0
 90
        0
176
     0
290
     0
176
     0
290
     1
176
     0
290
     1
176
     0
290
     0
176
     0
290
     0
176
     0
290
     0
176
     0
290
     0
176
     0
290
     0
176
     0
290
     0
176
     0
 90
       50
176
     0
 40
0.0
176
     0
 40
1.0
176
     0
 90
        0
176
     0
 62
    18
420
        0
176
     0
 90
       50
176
     0
 90
        3
176
     0
 62
     5
420
      255
176
     0
290
     0
176
     0
 90
       50
176
     0
 90
       50
176
     0
 90
       50
176
     0
290
     0
176
     0
 90
       50
176
     0
 62
   256
176
     0
 40
1.0
176
     0
 90
        2
176
     0
  1
strokes_ogs.tif
176
     0
290
     0
176
     0
 40
1.0
176
     0
 40
1.0
176
     0
  0
VISUALSTYLE
  5
38
102
{ACAD_REACTORS
330
29
102
}
330
29
100
AcDbVisualStyle
  2
Facepattern
 70
    15
177
     3
291
     1
 70
    58
 90
        2
176
     1
 90
        2
176
     1
 90
        0
176
     1
 90
        0
176
     1
 40
0.6
176
     1
 40
30.0
176
     1
 62
     7
420
 16777215
176
     1
 90
        1
176
     1
 90
        4
176
     1
 62
     7
176
     1
 62
   257
176
     1
 90
        1
176
     1
 90
        1
176
     1
 40
1.0
176
     1
 90
        8
176
     1
 62
     7
176
     1
 40
1.0
176
     1
 90
        1
176
     1
 90
        6
176
     1
 90
        2
176
     1
 62
     7
176
     1
 90
        5
176
     1
 90
        0
176
     1
 90
        0
176
     1
290
     0
176
     1
 90
        1
176
     1
 40
0.0
176
     1
 90
        0
176
     1
290
     0
176
     1
290
     1
176
     1
290
     1
176
     1
290
     0
176
     1
290
     0
176
     1
290
     0
176
     1
290
     0
176
     1
290
     0
176
     1
290
     0
176
     1
 90
       50
176
     1
 40
0.0
176
     1
 40
1.0
176
     1
 90
        0
176
     1
 62
    18
420
        0
176
     1
 90
       50
176
     1
 90
        3
176
     1
 62
     5
420
      255
176
     1
290
     0
176
     1
 90
       50
176
     1
 90
       50
176
     1
 90
       50
176
     1
290
     0
176
     1
 90
       50
176
     1
 62
   256
176
     0
 40
1.0
176
     0
 90
        2
176
     1
  1
strokes_ogs.tif
176
     1
290
     0
176
     1
 40
1.0
176
     1
 40
1.0
176
     1
  0
VISUALSTYLE
  5
2A
102
{ACAD_REACTORS
330
29
102
}
330
29
100
AcDbVisualStyle
  2
Flat
 70
     0
177
     3
291
     1
 70
    58
 90
        2
176
     1
 90
        1
176
     1
 90
        1
176
     1
 90
        2
176
     1
 40
0.6
176
     1
 40
30.0
176
     1
 62
     7
420
 16777215
176
     1
 90
        0
176
     1
 90
        0
176
     1
 62
     7
176
     1
 62
   257
176
     1
 90
        1
176
     1
 90
        1
176
     1
 40
1.0
176
     1
 90
        8
176
     1
 62
     7
176
     1
 40
1.0
176
     1
 90
        1
176
     1
 90
        6
176
     1
 90
        2
176
     1
 62
     7
176
     1
 90
        5
176
     1
 90
        0
176
     1
 90
        0
176
     1
290
     0
176
     1
 90
       13
176
     1
 40
0.0
176
     1
 90
        0
176
     1
290
     0
176
     1
290
     1
176
     1
290
     1
176
     1
290
     0
176
     1
290
     0
176
     1
290
     0
176
     1
290
     0
176
     1
290
     0
176
     1
290
     0
176
     1
 90
       50
176
     1
 40
0.0
176
     1
 40
1.0
176
     1
 90
        0
176
     1
 62
    18
420
        0
176
     1
 90
       50
176
     1
 90
        3
176
     1
 62
     5
420
      255
176
     1
290
     0
176
     1
 90
       50
176
     1
 90
       50
176
     1
 90
       50
176
     1
290
     0
176
     1
 90
       50
176
     1
 62
   256
176
     0
 40
1.0
176
     0
 90
        2
176
     1
  1
strokes_ogs.tif
176
     1
290
     0
176
     1
 40
1.0
176
     1
 40
1.0
176
     1
  0
VISUALSTYLE
  5
2B
102
{ACAD_REACTORS
330
29
102
}
330
29
100
AcDbVisualStyle
  2
FlatWithEdges
 70
     1
177
     3
291
     1
 70
    58
 90
        2
176
     1
 90
        1
176
     1
 90
        1
176
     1
 90
        2
176
     1
 40
0.6
176
     1
 40
30.0
176
     1
 62
     7
420
 16777215
176
     1
 90
        1
176
     1
 90
        0
176
     1
 62
     7
176
     1
 62
   257
176
     1
 90
        1
176
     1
 90
        1
176
     1
 40
1.0
176
     1
 90
        0
176
     1
 62
   257
176
     1
 40
1.0
176
     1
 90
        1
176
     1
 90
        6
176
     1
 90
        2
176
     1
 62
     7
176
     1
 90
        5
176
     1
 90
        0
176
     1
 90
        0
176
     1
290
     0
176
     1
 90
       13
176
     1
 40
0.0
176
     1
 90
        0
176
     1
290
     0
176
     1
290
     1
176
     1
290
     1
176
     1
290
     0
176
     1
290
     0
176
     1
290
     0
176
     1
290
     0
176
     1
290
     0
176
     1
290
     0
176
     1
 90
       50
176
     1
 40
0.0
176
     1
 40
1.0
176
     1
 90
        0
176
     1
 62
    18
420
        0
176
     1
 90
       50
176
     1
 90
        3
176
     1
 62
     5
420
      255
176
     1
290
     0
176
     1
 90
       50
176
     1
 90
       50
176
     1
 90
       50
176
     1
290
     0
176
     1
 90
       50
176
     1
 62
   256
176
     0
 40
1.0
176
     0
 90
        2
176
     1
  1
strokes_ogs.tif
176
     1
290
     0
176
     1
 40
1.0
176
     1
 40
1.0
176
     1
  0
VISUALSTYLE
  5
2C
102
{ACAD_REACTORS
330
29
102
}
330
29
100
AcDbVisualStyle
  2
Gouraud
 70
     2
177
     3
291
     1
 70
    58
 90
        2
176
     1
 90
        2
176
     1
 90
        1
176
     1
 90
        2
176
     1
 40
0.6
176
     1
 40
30.0
176
     1
 62
     7
420
 16777215
176
     1
 90
        0
176
     1
 90
        0
176
     1
 62
     7
176
     1
 62
   257
176
     1
 90
        1
176
     1
 90
        1
176
     1
 40
1.0
176
     1
 90
        0
176
     1
 62
     7
176
     1
 40
1.0
176
     1
 90
        1
176
     1
 90
        6
176
     1
 90
        2
176
     1
 62
     7
176
     1
 90
        5
176
     1
 90
        0
176
     1
 90
        0
176
     1
290
     0
176
     1
 90
       13
176
     1
 40
0.0
176
     1
 90
        0
176
     1
290
     0
176
     1
290
     1
176
     1
290
     1
176
     1
290
     0
176
     1
290
     0
176
     1
290
     0
176
     1
290
     0
176
     1
290
     0
176
     1
290
     0
176
     1
 90
       50
176
     1
 40
0.0
176
     1
 40
1.0
176
     1
 90
        0
176
     1
 62
    18
420
        0
176
     1
 90
       50
176
     1
 90
        3
176
     1
 62
     5
420
      255
176
     1
290
     0
176
     1
 90
       50
176
     1
 90
       50
176
     1
 90
       50
176
     1
290
     0
176
     1
 90
       50
176
     1
 62
   256
176
     0
 40
1.0
176
     0
 90
        2
176
     1
  1
strokes_ogs.tif
176
     1
290
     0
176
     1
 40
1.0
176
     1
 40
1.0
176
     1
  0
VISUALSTYLE
  5
2D
102
{ACAD_REACTORS
330
29
102
}
330
29
100
AcDbVisualStyle
  2
GouraudWithEdges
 70
     3
177
     3
291
     1
 70
    58
 90
        2
176
     1
 90
        2
176
     1
 90
        1
176
     1
 90
        2
176
     1
 40
0.6
176
     1
 40
30.0
176
     1
 62
     7
420
 16777215
176
     1
 90
        1
176
     1
 90
        0
176
     1
 62
     7
176
     1
 62
   257
176
     1
 90
        1
176
     1
 90
        1
176
     1
 40
1.0
176
     1
 90
        0
176
     1
 62
   257
176
     1
 40
1.0
176
     1
 90
        1
176
     1
 90
        6
176
     1
 90
        2
176
     1
 62
     7
176
     1
 90
        5
176
     1
 90
        0
176
     1
 90
        0
176
     1
290
     0
176
     1
 90
       13
176
     1
 40
0.0
176
     1
 90
        0
176
     1
290
     0
176
     1
290
     1
176
     1
290
     1
176
     1
290
     0
176
     1
290
     0
176
     1
290
     0
176
     1
290
     0
176
     1
290
     0
176
     1
290
     0
176
     1
 90
       50
176
     1
 40
0.0
176
     1
 40
1.0
176
     1
 90
        0
176
     1
 62
    18
420
        0
176
     1
 90
       50
176
     1
 90
        3
176
     1
 62
     5
420
      255
176
     1
290
     0
176
     1
 90
       50
176
     1
 90
       50
176
     1
 90
       50
176
     1
290
     0
176
     1
 90
       50
176
     1
 62
   256
176
     0
 40
1.0
176
     0
 90
        2
176
     1
  1
strokes_ogs.tif
176
     1
290
     0
176
     1
 40
1.0
176
     1
 40
1.0
176
     1
  0
VISUALSTYLE
  5
31
102
{ACAD_REACTORS
330
29
102
}
330
29
100
AcDbVisualStyle
  2
Hidden
 70
     6
177
     3
291
     0
 70
    58
 90
        1
176
     1
 90
        2
176
     1
 90
        2
176
     1
 90
        0
176
     1
 40
0.6
176
     1
 40
30.0
176
     1
 62
     7
420
 16777215
176
     1
 90
        2
176
     1
 90
        2
176
     1
 62
     7
176
     1
 62
   257
176
     1
 90
        2
176
     1
 90
        1
176
     1
 40
40.0
176
     1
 90
        0
176
     1
 62
   257
176
     1
 40
1.0
176
     1
 90
        1
176
     1
 90
        6
176
     1
 90
        2
176
     1
 62
     7
176
     1
 90
        3
176
     1
 90
        0
176
     1
 90
        0
176
     1
290
     0
176
     1
 90
        1
176
     1
 40
0.0
176
     1
 90
        0
176
     1
290
     0
176
     1
290
     1
176
     1
290
     1
176
     1
290
     0
176
     1
290
     0
176
     1
290
     0
176
     1
290
     0
176
     1
290
     0
176
     1
290
     0
176
     1
 90
       50
176
     1
 40
0.0
176
     1
 40
1.0
176
     1
 90
        0
176
     1
 62
    18
420
        0
176
     1
 90
       50
176
     1
 90
        3
176
     1
 62
     5
420
      255
176
     1
290
     0
176
     1
 90
       50
176
     1
 90
       50
176
     1
 90
       50
176
     1
290
     0
176
     1
 90
       50
176
     1
 62
   256
176
     0
 40
1.0
176
     0
 90
        2
176
     1
  1
strokes_ogs.tif
176
     1
290
     0
176
     1
 40
1.0
176
     1
 40
1.0
176
     1
  0
VISUALSTYLE
  5
3F
102
{ACAD_REACTORS
330
29
102
}
330
29
100
AcDbVisualStyle
  2
JitterOff
 70
    20
177
     3
291
     1
 70
    58
 90
        2
176
     0
 90
        2
176
     0
 90
        0
176
     0
 90
        0
176
     0
 40
0.6
176
     0
 40
30.0
176
     0
 62
     7
420
 16777215
176
     0
 90
        1
176
     0
 90
        4
176
     0
 62
     7
176
     0
 62
   257
176
     0
 90
        1
176
     0
 90
        1
176
     0
 40
1.0
176
     0
 90
       10
176
     2
 62
     7
176
     0
 40
1.0
176
     0
 90
        1
176
     0
 90
        6
176
     0
 90
        2
176
     0
 62
     7
176
     0
 90
        5
176
     0
 90
        0
176
     0
 90
        0
176
     0
290
     0
176
     0
 90
        1
176
     0
 40
0.0
176
     0
 90
        0
176
     0
290
     0
176
     0
290
     1
176
     0
290
     1
176
     0
290
     0
176
     0
290
     0
176
     0
290
     0
176
     0
290
     0
176
     0
290
     0
176
     0
290
     0
176
     0
 90
       50
176
     0
 40
0.0
176
     0
 40
1.0
176
     0
 90
        0
176
     0
 62
    18
420
        0
176
     0
 90
       50
176
     0
 90
        3
176
     0
 62
     5
420
      255
176
     0
290
     0
176
     0
 90
       50
176
     0
 90
       50
176
     0
 90
       50
176
     0
290
     0
176
     0
 90
       50
176
     0
 62
   256
176
     0
 40
1.0
176
     0
 90
        2
176
     0
  1
strokes_ogs.tif
176
     0
290
     0
176
     0
 40
1.0
176
     0
 40
1.0
176
     0
  0
VISUALSTYLE
  5
37
102
{ACAD_REACTORS
330
29
102
}
330
29
100
AcDbVisualStyle
  2
Linepattern
 70
    14
177
     3
291
     1
 70
    58
 90
        2
176
     1
 90
        2
176
     1
 90
        0
176
     1
 90
        0
176
     1
 40
0.6
176
     1
 40
30.0
176
     1
 62
     7
420
 16777215
176
     1
 90
        1
176
     1
 90
        4
176
     1
 62
     7
176
     1
 62
   257
176
     1
 90
        7
176
     1
 90
        7
176
     1
 40
1.0
176
     1
 90
        8
176
     1
 62
     7
176
     1
 40
1.0
176
     1
 90
        1
176
     1
 90
        6
176
     1
 90
        2
176
     1
 62
     7
176
     1
 90
        5
176
     1
 90
        0
176
     1
 90
        0
176
     1
290
     0
176
     1
 90
        1
176
     1
 40
0.0
176
     1
 90
        0
176
     1
290
     0
176
     1
290
     1
176
     1
290
     1
176
     1
290
     0
176
     1
290
     0
176
     1
290
     0
176
     1
290
     0
176
     1
290
     0
176
     1
290
     0
176
     1
 90
       50
176
     1
 40
0.0
176
     1
 40
1.0
176
     1
 90
        0
176
     1
 62
    18
420
        0
176
     1
 90
       50
176
     1
 90
        3
176
     1
 62
     5
420
      255
176
     1
290
     0
176
     1
 90
       50
176
     1
 90
       50
176
     1
 90
       50
176
     1
290
     0
176
     1
 90
       50
176
     1
 62
   256
176
     0
 40
1.0
176
     0
 90
        2
176
     1
  1
strokes_ogs.tif
176
     1
290
     0
176
     1
 40
1.0
176
     1
 40
1.0
176
     1
  0
VISUALSTYLE
  5
40
102
{ACAD_REACTORS
330
29
102
}
330
29
100
AcDbVisualStyle
  2
OverhangOff
 70
    21
177
     3
291
     1
 70
    58
 90
        2
176
     0
 90
        2
176
     0
 90
        0
176
     0
 90
        0
176
     0
 40
0.6
176
     0
 40
30.0
176
     0
 62
     7
420
 16777215
176
     0
 90
        1
176
     0
 90
        4
176
     0
 62
     7
176
     0
 62
   257
176
     0
 90
        1
176
     0
 90
        1
176
     0
 40
1.0
176
     0
 90
        9
176
     2
 62
     7
176
     0
 40
1.0
176
     0
 90
        1
176
     0
 90
        6
176
     0
 90
        2
176
     0
 62
     7
176
     0
 90
        5
176
     0
 90
        0
176
     0
 90
        0
176
     0
290
     0
176
     0
 90
        1
176
     0
 40
0.0
176
     0
 90
        0
176
     0
290
     0
176
     0
290
     1
176
     0
290
     1
176
     0
290
     0
176
     0
290
     0
176
     0
290
     0
176
     0
290
     0
176
     0
290
     0
176
     0
290
     0
176
     0
 90
       50
176
     0
 40
0.0
176
     0
 40
1.0
176
     0
 90
        0
176
     0
 62
    18
420
        0
176
     0
 90
       50
176
     0
 90
        3
176
     0
 62
     5
420
      255
176
     0
290
     0
176
     0
 90
       50
176
     0
 90
       50
176
     0
 90
       50
176
     0
290
     0
176
     0
 90
       50
176
     0
 62
   256
176
     0
 40
1.0
176
     0
 90
        2
176
     0
  1
strokes_ogs.tif
176
     0
290
     0
176
     0
 40
1.0
176
     0
 40
1.0
176
     0
  0
VISUALSTYLE
  5
33
102
{ACAD_REACTORS
330
29
102
}
330
29
100
AcDbVisualStyle
  2
Realistic
 70
     8
177
     3
291
     0
 70
    58
 90
        2
176
     1
 90
        3
176
     1
 90
        0
176
     1
 90
        2
176
     1
 40
0.6
176
     1
 40
30.0
176
     1
 62
     7
420
 16777215
176
     1
 90
        0
176
     1
 90
        0
176
     1
 62
     7
176
     1
 62
   257
176
     1
 90
        1
176
     1
 90
        1
176
     1
 40
1.0
176
     1
 90
        8
176
     1
 62
   257
176
     1
 40
1.0
176
     1
 90
        1
176
     1
 90
        6
176
     1
 90
        2
176
     1
 62
     7
176
     1
 90
        3
176
     1
 90
        0
176
     1
 90
        0
176
     1
290
     0
176
     1
 90
       13
176
     1
 40
0.0
176
     1
 90
        0
176
     1
290
     0
176
     1
290
     1
176
     1
290
     1
176
     1
290
     0
176
     1
290
     0
176
     1
290
     0
176
     1
290
     0
176
     1
290
     0
176
     1
290
     0
176
     1
 90
       50
176
     1
 40
0.0
176
     1
 40
1.0
176
     1
 90
        0
176
     1
 62
    18
420
        0
176
     1
 90
       50
176
     1
 90
        3
176
     1
 62
     5
420
      255
176
     1
290
     0
176
     1
 90
       50
176
     1
 90
       50
176
     1
 90
       50
176
     1
290
     0
176
     1
 90
       50
176
     1
 62
   256
176
     0
 40
1.0
176
     0
 90
        2
176
     1
  1
strokes_ogs.tif
176
     1
290
     0
176
     1
 40
1.0
176
     1
 40
1.0
176
     1
  0
VISUALSTYLE
  5
3E
102
{ACAD_REACTORS
330
29
102
}
330
29
100
AcDbVisualStyle
  2
Shaded
 70
    27
177
     3
291
     0
 70
    58
 90
        2
176
     1
 90
        2
176
     1
 90
        1
176
     1
 90
        2
176
     1
 40
0.6
176
     1
 40
30.0
176
     1
 62
     7
420
 16777215
176
     1
 90
        0
176
     1
 90
        4
176
     1
 62
     7
176
     1
 62
   257
176
     1
 90
        1
176
     1
 90
        1
176
     1
 40
1.0
176
     1
 90
        8
176
     1
 62
   257
176
     1
 40
1.0
176
     1
 90
        1
176
     1
 90
        6
176
     1
 90
        2
176
     1
 62
     8
420
  7895160
176
     1
 90
        3
176
     1
 90
        0
176
     1
 90
        0
176
     1
290
     0
176
     1
 90
        5
176
     1
 40
0.0
176
     1
 90
        0
176
     1
290
     0
176
     1
290
     1
176
     1
290
     1
176
     1
290
     0
176
     1
290
     0
176
     1
290
     0
176
     1
290
     0
176
     1
290
     0
176
     1
290
     0
176
     1
 90
       50
176
     1
 40
0.0
176
     1
 40
1.0
176
     1
 90
        0
176
     1
 62
    18
420
        0
176
     1
 90
       50
176
     1
 90
        3
176
     1
 62
     5
420
      255
176
     1
290
     0
176
     1
 90
       50
176
     1
 90
       50
176
     1
 90
       50
176
     1
290
     0
176
     1
 90
       50
176
     1
 62
   256
176
     0
 40
1.0
176
     0
 90
        2
176
     1
  1
strokes_ogs.tif
176
     1
290
     0
176
     1
 40
1.0
176
     1
 40
1.0
176
     1
  0
VISUALSTYLE
  5
3D
102
{ACAD_REACTORS
330
29
102
}
330
29
100
AcDbVisualStyle
  2
Shaded with edges
 70
    26
177
     3
291
     0
 70
    58
 90
        2
176
     1
 90
        2
176
     1
 90
        1
176
     1
 90
        2
176
     1
 40
0.6
176
     1
 40
30.0
176
     1
 62
     7
420
 16777215
176
     1
 90
        1
176
     1
 90
        2
176
     1
 62
     7
176
     1
 62
   257
176
     1
 90
        2
176
     1
 90
        1
176
     1
 40
1.0
176
     1
 90
        8
176
     1
 62
   257
176
     1
 40
1.0
176
     1
 90
        1
176
     1
 90
        6
176
     1
 90
        2
176
     1
 62
     7
176
     1
 90
        3
176
     1
 90
        0
176
     1
 90
        0
176
     1
290
     0
176
     1
 90
        5
176
     1
 40
0.0
176
     1
 90
        0
176
     1
290
     0
176
     1
290
     1
176
     1
290
     1
176
     1
290
     0
176
     1
290
     0
176
     1
290
     0
176
     1
290
     0
176
     1
290
     0
176
     1
290
     0
176
     1
 90
       50
176
     1
 40
0.0
176
     1
 40
1.0
176
     1
 90
        0
176
     1
 62
    18
420
        0
176
     1
 90
       50
176
     1
 90
        3
176
     1
 62
     5
420
      255
176
     1
290
     0
176
     1
 90
       50
176
     1
 90
       50
176
     1
 90
       50
176
     1
290
     0
176
     1
 90
       50
176
     1
 62
   256
176
     0
 40
1.0
176
     0
 90
        2
176
     1
  1
strokes_ogs.tif
176
     1
290
     0
176
     1
 40
1.0
176
     1
 40
1.0
176
     1
  0
VISUALSTYLE
  5
3A
102
{ACAD_REACTORS
330
29
102
}
330
29
100
AcDbVisualStyle
  2
Shades of Gray
 70
    23
177
     3
291
     0
 70
    58
 90
        2
176
     1
 90
        2
176
     1
 90
        3
176
     1
 90
        0
176
     1
 40
0.6
176
     1
 40
30.0
176
     1
 62
     7
420
 16777215
176
     1
 90
        2
176
     1
 90
        2
176
     1
 62
     7
176
     1
 62
     7
176
     1
 90
        1
176
     1
 90
        1
176
     1
 40
40.0
176
     1
 90
        8
176
     1
 62
     7
176
     1
 40
1.0
176
     1
 90
        1
176
     1
 90
        6
176
     1
 90
        2
176
     1
 62
     7
176
     1
 90
        3
176
     1
 90
        0
176
     1
 90
        0
176
     1
290
     0
176
     1
 90
        1
176
     1
 40
0.0
176
     1
 90
        0
176
     1
290
     0
176
     1
290
     1
176
     1
290
     1
176
     1
290
     0
176
     1
290
     0
176
     1
290
     0
176
     1
290
     0
176
     1
290
     0
176
     1
290
     0
176
     1
 90
       50
176
     1
 40
0.0
176
     1
 40
1.0
176
     1
 90
        0
176
     1
 62
    18
420
        0
176
     1
 90
       50
176
     1
 90
        3
176
     1
 62
     5
420
      255
176
     1
290
     0
176
     1
 90
       50
176
     1
 90
       50
176
     1
 90
       50
176
     1
290
     0
176
     1
 90
       50
176
     1
 62
   256
176
     0
 40
1.0
176
     0
 90
        2
176
     1
  1
strokes_ogs.tif
176
     1
290
     0
176
     1
 40
1.0
176
     1
 40
1.0
176
     1
  0
VISUALSTYLE
  5
3B
102
{ACAD_REACTORS
330
29
102
}
330
29
100
AcDbVisualStyle
  2
Sketchy
 70
    24
177
     3
291
     0
 70
    58
 90
        1
176
     1
 90
        2
176
     1
 90
        2
176
     1
 90
        0
176
     1
 40
0.6
176
     1
 40
30.0
176
     1
 62
     7
420
 16777215
176
     1
 90
        2
176
     1
 90
        2
176
     1
 62
     7
176
     1
 62
     7
176
     1
 90
        1
176
     1
 90
        1
176
     1
 40
40.0
176
     1
 90
       11
176
     1
 62
     7
176
     1
 40
1.0
176
     1
 90
        1
176
     1
 90
        6
176
     1
 90
        2
176
     1
 62
     7
176
     1
 90
        6
176
     1
 90
        0
176
     1
 90
        0
176
     1
290
     0
176
     1
 90
        1
176
     1
 40
0.0
176
     1
 90
        0
176
     1
290
     0
176
     1
290
     1
176
     1
290
     1
176
     1
290
     0
176
     1
290
     0
176
     1
290
     0
176
     1
290
     0
176
     1
290
     0
176
     1
290
     0
176
     1
 90
       50
176
     1
 40
0.0
176
     1
 40
1.0
176
     1
 90
        0
176
     1
 62
    18
420
        0
176
     1
 90
       50
176
     1
 90
        3
176
     1
 62
     5
420
      255
176
     1
290
     0
176
     1
 90
       50
176
     1
 90
       50
176
     1
 90
       50
176
     1
290
     0
176
     1
 90
       50
176
     1
 62
   256
176
     0
 40
1.0
176
     0
 90
        2
176
     1
  1
strokes_ogs.tif
176
     1
290
     0
176
     1
 40
1.0
176
     1
 40
1.0
176
     1
  0
VISUALSTYLE
  5
36
102
{ACAD_REACTORS
330
29
102
}
330
29
100
AcDbVisualStyle
  2
Thicken
 70
    13
177
     3
291
     1
 70
    58
 90
        2
176
     1
 90
        2
176
     1
 90
        0
176
     1
 90
        0
176
     1
 40
0.6
176
     1
 40
30.0
176
     1
 62
     7
420
 16777215
176
     1
 90
        1
176
     1
 90
        4
176
     1
 62
     7
176
     1
 62
   257
176
     1
 90
        1
176
     1
 90
        1
176
     1
 40
1.0
176
     1
 90
       12
176
     1
 62
     7
176
     1
 40
1.0
176
     1
 90
        1
176
     1
 90
        6
176
     1
 90
        2
176
     1
 62
     7
176
     1
 90
        5
176
     1
 90
        0
176
     1
 90
        0
176
     1
290
     0
176
     1
 90
        1
176
     1
 40
0.0
176
     1
 90
        0
176
     1
290
     0
176
     1
290
     1
176
     1
290
     1
176
     1
290
     0
176
     1
290
     0
176
     1
290
     0
176
     1
290
     0
176
     1
290
     0
176
     1
290
     0
176
     1
 90
       50
176
     1
 40
0.0
176
     1
 40
1.0
176
     1
 90
        0
176
     1
 62
    18
420
        0
176
     1
 90
       50
176
     1
 90
        3
176
     1
 62
     5
420
      255
176
     1
290
     0
176
     1
 90
       50
176
     1
 90
       50
176
     1
 90
       50
176
     1
290
     0
176
     1
 90
       50
176
     1
 62
   256
176
     0
 40
1.0
176
     0
 90
        2
176
     1
  1
strokes_ogs.tif
176
     1
290
     0
176
     1
 40
1.0
176
     1
 40
1.0
176
     1
  0
VISUALSTYLE
  5
30
102
{ACAD_REACTORS
330
29
102
}
330
29
100
AcDbVisualStyle
  2
Wireframe
 70
     5
177
     3
291
     0
 70
    58
 90
        0
176
     1
 90
        2
176
     1
 90
        0
176
     1
 90
        0
176
     1
 40
0.6
176
     1
 40
30.0
176
     1
 62
     7
420
 16777215
176
     1
 90
        1
176
     1
 90
        4
176
     1
 62
     7
176
     1
 62
   257
176
     1
 90
        1
176
     1
 90
        1
176
     1
 40
1.0
176
     1
 90
        0
176
     1
 62
   257
176
     1
 40
1.0
176
     1
 90
        1
176
     1
 90
        6
176
     1
 90
        2
176
     1
 62
     7
176
     1
 90
        3
176
     1
 90
        0
176
     1
 90
        0
176
     1
290
     0
176
     1
 90
        1
176
     1
 40
0.0
176
     1
 90
        0
176
     1
290
     0
176
     1
290
     1
176
     1
290
     1
176
     1
290
     0
176
     1
290
     0
176
     1
290
     0
176
     1
290
     0
176
     1
290
     0
176
     1
290
     0
176
     1
 90
       50
176
     1
 40
0.0
176
     1
 40
1.0
176
     1
 90
        0
176
     1
 62
    18
420
        0
176
     1
 90
       50
176
     1
 90
        3
176
     1
 62
     5
420
      255
176
     1
290
     0
176
     1
 90
       50
176
     1
 90
       50
176
     1
 90
       50
176
     1
290
     0
176
     1
 90
       50
176
     1
 62
   256
176
     0
 40
1.0
176
     0
 90
        2
176
     1
  1
strokes_ogs.tif
176
     1
290
     0
176
     1
 40
1.0
176
     1
 40
1.0
176
     1
  0
VISUALSTYLE
  5
3C
102
{ACAD_REACTORS
330
29
102
}
330
29
100
AcDbVisualStyle
  2
X-Ray
 70
    25
177
     3
291
     0
 70
    58
 90
        2
176
     1
 90
        2
176
     1
 90
        1
176
     1
 90
        1
176
     1
 40
0.5
176
     1
 40
30.0
176
     1
 62
     7
420
 16777215
176
     1
 90
        1
176
     1
 90
        0
176
     1
 62
     7
176
     1
 62
   257
176
     1
 90
        1
176
     1
 90
        1
176
     1
 40
1.0
176
     1
 90
        8
176
     1
 62
     7
176
     1
 40
1.0
176
     1
 90
        1
176
     1
 90
        6
176
     1
 90
        2
176
     1
 62
     7
176
     1
 90
        3
176
     1
 90
        0
176
     1
 90
        0
176
     1
290
     0
176
     1
 90
       13
176
     1
 40
0.0
176
     1
 90
        0
176
     1
290
     0
176
     1
290
     1
176
     1
290
     1
176
     1
290
     0
176
     1
290
     0
176
     1
290
     0
176
     1
290
     0
176
     1
290
     0
176
     1
290
     0
176
     1
 90
       50
176
     1
 40
0.0
176
     1
 40
1.0
176
     1
 90
        0
176
     1
 62
    18
420
        0
176
     1
 90
       50
176
     1
 90
        3
176
     1
 62
     5
420
      255
176
     1
290
     0
176
     1
 90
       50
176
     1
 90
       50
176
     1
 90
       50
176
     1
290
     0
176
     1
 90
       50
176
     1
 62
   256
176
     0
 40
1.0
176
     0
 90
        2
176
     1
  1
strokes_ogs.tif
176
     1
290
     0
176
     1
 40
1.0
176
     1
 40
1.0
176
     1
  0
DICTIONARYVAR
  5
2DA
102
{ACAD_REACTORS
330
2D5
102
}
330
2D5
100
DictionaryVariables
280
     0
  1
1:1
  0
DICTIONARYVAR
  5
2D7
102
{ACAD_REACTORS
330
2D5
102
}
330
2D5
100
DictionaryVariables
280
     0
  1
STANDARD
  0
DICTIONARYVAR
  5
2D6
102
{ACAD_REACTORS
330
2D5
102
}
330
2D5
100
DictionaryVariables
280
     0
  1
STANDARD
  0
DICTIONARYVAR
  5
2D8
102
{ACAD_REACTORS
330
2D5
102
}
330
2D5
100
DictionaryVariables
280
     0
  1
Imperial24
  0
DICTIONARYVAR
  5
2D9
102
{ACAD_REACTORS
330
2D5
102
}
330
2D5
100
DictionaryVariables
280
     0
  1
Imperial24
  0
DICTIONARY
  5
1A
330
19
100
AcDbDictionary
280
     1
281
     1
  3
BUMPTILE
360
1C
  3
DIFFUSETILE
360
1B
  3
OPACITYTILE
360
1F
  3
REFLECTIONTILE
360
1E
  3
REFRACTIONTILE
360
20
  3
SPECULARTILE
360
1D
  0
DICTIONARY
  5
12
330
11
100
AcDbDictionary
280
     1
281
     1
  3
BUMPTILE
360
14
  3
DIFFUSETILE
360
13
  3
OPACITYTILE
360
17
  3
REFLECTIONTILE
360
16
  3
REFRACTIONTILE
360
18
  3
SPECULARTILE
360
15
  0
DICTIONARY
  5
22
330
21
100
AcDbDictionary
280
     1
281
     1
  3
BUMPTILE
360
24
  3
DIFFUSETILE
360
23
  3
OPACITYTILE
360
27
  3
REFLECTIONTILE
360
26
  3
REFRACTIONTILE
360
28
  3
SPECULARTILE
360
25
  0
DICTIONARY
  5
2DB
330
65
100
AcDbDictionary
280
     1
281
     1
  3
ACAD_ROUNDTRIP_2008_TABLESTYLE_CELLSTYLEMAP
360
2DC
  0
XRECORD
  5
1C
102
{ACAD_REACTORS
330
1A
102
}
330
1A
100
AcDbXrecord
280
     1
270
     1
271
     1
  0
XRECORD
  5
1B
102
{ACAD_REACTORS
330
1A
102
}
330
1A
100
AcDbXrecord
280
     1
270
     1
271
     1
  0
XRECORD
  5
1F
102
{ACAD_REACTORS
330
1A
102
}
330
1A
100
AcDbXrecord
280
     1
270
     1
271
     1
  0
XRECORD
  5
1E
102
{ACAD_REACTORS
330
1A
102
}
330
1A
100
AcDbXrecord
280
     1
270
     1
271
     1
  0
XRECORD
  5
20
102
{ACAD_REACTORS
330
1A
102
}
330
1A
100
AcDbXrecord
280
     1
270
     1
271
     1
  0
XRECORD
  5
1D
102
{ACAD_REACTORS
330
1A
102
}
330
1A
100
AcDbXrecord
280
     1
270
     1
271
     1
  0
XRECORD
  5
14
102
{ACAD_REACTORS
330
12
102
}
330
12
100
AcDbXrecord
280
     1
270
     1
271
     1
  0
XRECORD
  5
13
102
{ACAD_REACTORS
330
12
102
}
330
12
100
AcDbXrecord
280
     1
270
     1
271
     1
  0
XRECORD
  5
17
102
{ACAD_REACTORS
330
12
102
}
330
12
100
AcDbXrecord
280
     1
270
     1
271
     1
  0
XRECORD
  5
16
102
{ACAD_REACTORS
330
12
102
}
330
12
100
AcDbXrecord
280
     1
270
     1
271
     1
  0
XRECORD
  5
18
102
{ACAD_REACTORS
330
12
102
}
330
12
100
AcDbXrecord
280
     1
270
     1
271
     1
  0
XRECORD
  5
15
102
{ACAD_REACTORS
330
12
102
}
330
12
100
AcDbXrecord
280
     1
270
     1
271
     1
  0
XRECORD
  5
24
102
{ACAD_REACTORS
330
22
102
}
330
22
100
AcDbXrecord
280
     1
270
     1
271
     1
  0
XRECORD
  5
23
102
{ACAD_REACTORS
330
22
102
}
330
22
100
AcDbXrecord
280
     1
270
     1
271
     1
  0
XRECORD
  5
27
102
{ACAD_REACTORS
330
22
102
}
330
22
100
AcDbXrecord
280
     1
270
     1
271
     1
  0
XRECORD
  5
26
102
{ACAD_REACTORS
330
22
102
}
330
22
100
AcDbXrecord
280
     1
270
     1
271
     1
  0
XRECORD
  5
28
102
{ACAD_REACTORS
330
22
102
}
330
22
100
AcDbXrecord
280
     1
270
     1
271
     1
  0
XRECORD
  5
25
102
{ACAD_REACTORS
330
22
102
}
330
22
100
AcDbXrecord
280
     1
270
     1
271
     1
  0
CELLSTYLEMAP
  5
2DC
102
{ACAD_REACTORS
330
2DB
102
}
330
2DB
100
AcDbCellStyleMap
 90
        3
300
CELLSTYLE
  1
TABLEFORMAT_BEGIN
 90
        5
170
     1
 91
        0
 92
    32768
 62
   257
 93
        1
300
CONTENTFORMAT
  1
CONTENTFORMAT_BEGIN
 90
        0
 91
        0
 92
      512
 93
        0
300

 40
0.0
140
1.0
 94
        5
 62
     0
340
55
144
0.25
309
CONTENTFORMAT_END
171
     0
 94
        0
309
TABLEFORMAT_END
  1
CELLSTYLE_BEGIN
 90
        1
 91
        1
300
_TITLE
309
CELLSTYLE_END
300
CELLSTYLE
  1
TABLEFORMAT_BEGIN
 90
        5
170
     1
 91
        0
 92
        0
 62
   257
 93
        1
300
CONTENTFORMAT
  1
CONTENTFORMAT_BEGIN
 90
        0
 91
        0
 92
      512
 93
        0
300

 40
0.0
140
1.0
 94
        5
 62
     0
340
55
144
0.18
309
CONTENTFORMAT_END
171
     0
 94
        0
309
TABLEFORMAT_END
  1
CELLSTYLE_BEGIN
 90
        2
 91
        1
300
_HEADER
309
CELLSTYLE_END
300
CELLSTYLE
  1
TABLEFORMAT_BEGIN
 90
        5
170
     1
 91
        0
 92
        0
 62
   257
 93
        1
300
CONTENTFORMAT
  1
CONTENTFORMAT_BEGIN
 90
        0
 91
        0
 92
      512
 93
        0
300

 40
0.0
140
1.0
 94
        2
 62
     0
340
55
144
0.18
309
CONTENTFORMAT_END
171
     0
 94
        0
309
TABLEFORMAT_END
  1
CELLSTYLE_BEGIN
 90
        3
 91
        2
300
_DATA
309
CELLSTYLE_END
  0
ENDSEC
  0
EOF
