  0
SECTION
  2
HEADER
  9
$ACADVER
  1
AC1032
  9
$ACADMAINTVER
 90
      228
  9
$DWGCODEPAGE
  3
ANSI_1252
  9
$REQUIREDVERSIONS
160
                 0
  9
$INSBASE
 10
0.0
 20
0.0
 30
0.0
  9
$EXTMIN
 10
1.000000000000000E+20
 20
1.000000000000000E+20
 30
1.000000000000000E+20
  9
$EXTMAX
 10
-1.000000000000000E+20
 20
-1.000000000000000E+20
 30
-1.000000000000000E+20
  9
$LIMMIN
 10
0.0
 20
0.0
  9
$LIMMAX
 10
12.0
 20
9.0
  9
$ORTHOMODE
 70
     0
  9
$REGENMODE
 70
     1
  9
$FILLMODE
 70
     1
  9
$QTEXTMODE
 70
     0
  9
$MIRRTEXT
 70
     0
  9
$LTSCALE
 40
1.0
  9
$ATTMODE
 70
     1
  9
$TEXTSIZE
 40
0.2
  9
$TRACEWID
 40
0.05
  9
$TEXTSTYLE
  7
Standard
  9
$CLAYER
  8
0
  9
$CELTYPE
  6
ByLayer
  9
$CECOLOR
 62
   256
  9
$CELTSCALE
 40
1.0
  9
$DISPSILH
 70
     0
  9
$DIMSCALE
 40
1.0
  9
$DIMASZ
 40
0.18
  9
$DIMEXO
 40
0.0625
  9
$DIMDLI
 40
0.38
  9
$DIMRND
 40
0.0
  9
$DIMDLE
 40
0.0
  9
$DIMEXE
 40
0.18
  9
$DIMTP
 40
0.0
  9
$DIMTM
 40
0.0
  9
$DIMTXT
 40
0.18
  9
$DIMCEN
 40
0.09
  9
$DIMTSZ
 40
0.0
  9
$DIMTOL
 70
     0
  9
$DIMLIM
 70
     0
  9
$DIMTIH
 70
     1
  9
$DIMTOH
 70
     1
  9
$DIMSE1
 70
     0
  9
$DIMSE2
 70
     0
  9
$DIMTAD
 70
     0
  9
$DIMZIN
 70
     0
  9
$DIMBLK
  1

  9
$DIMASO
 70
     1
  9
$DIMSHO
 70
     1
  9
$DIMPOST
  1

  9
$DIMAPOST
  1

  9
$DIMALT
 70
     0
  9
$DIMALTD
 70
     2
  9
$DIMALTF
 40
25.4
  9
$DIMLFAC
 40
1.0
  9
$DIMTOFL
 70
     0
  9
$DIMTVP
 40
0.0
  9
$DIMTIX
 70
     0
  9
$DIMSOXD
 70
     0
  9
$DIMSAH
 70
     0
  9
$DIMBLK1
  1

  9
$DIMBLK2
  1

  9
$DIMSTYLE
  2
Standard
  9
$DIMCLRD
 70
     0
  9
$DIMCLRE
 70
     0
  9
$DIMCLRT
 70
     0
  9
$DIMTFAC
 40
1.0
  9
$DIMGAP
 40
0.09
  9
$DIMJUST
 70
     0
  9
$DIMSD1
 70
     0
  9
$DIMSD2
 70
     0
  9
$DIMTOLJ
 70
     1
  9
$DIMTZIN
 70
     0
  9
$DIMALTZ
 70
     0
  9
$DIMALTTZ
 70
     0
  9
$DIMUPT
 70
     0
  9
$DIMDEC
 70
     4
  9
$DIMTDEC
 70
     4
  9
$DIMALTU
 70
     2
  9
$DIMALTTD
 70
     2
  9
$DIMTXSTY
  7
Standard
  9
$DIMAUNIT
 70
     0
  9
$DIMADEC
 70
     0
  9
$DIMALTRND
 40
0.0
  9
$DIMAZIN
 70
     0
  9
$DIMDSEP
 70
    46
  9
$DIMATFIT
 70
     3
  9
$DIMFRAC
 70
     0
  9
$DIMLDRBLK
  1

  9
$DIMLUNIT
 70
     2
  9
$DIMLWD
 70
    -2
  9
$DIMLWE
 70
    -2
  9
$DIMTMOVE
 70
     0
  9
$DIMFXL
 40
1.0
  9
$DIMFXLON
 70
     0
  9
$DIMJOGANG
 40
0.7853981633974483
  9
$DIMTFILL
 70
     0
  9
$DIMTFILLCLR
 70
     0
  9
$DIMARCSYM
 70
     0
  9
$DIMLTYPE
  6

  9
$DIMLTEX1
  6

  9
$DIMLTEX2
  6

  9
$DIMTXTDIRECTION
 70
     0
  9
$LUNITS
 70
     2
  9
$LUPREC
 70
     4
  9
$SKETCHINC
 40
0.1
  9
$FILLETRAD
 40
0.0
  9
$AUNITS
 70
     0
  9
$AUPREC
 70
     0
  9
$MENU
  1
.
  9
$ELEVATION
 40
0.0
  9
$PELEVATION
 40
0.0
  9
$THICKNESS
 40
0.0
  9
$LIMCHECK
 70
     0
  9
$CHAMFERA
 40
0.0
  9
$CHAMFERB
 40
0.0
  9
$CHAMFERC
 40
0.0
  9
$CHAMFERD
 40
0.0
  9
$SKPOLY
 70
     0
  9
$TDCREATE
 40
2460145.435011574
  9
$TDUCREATE
 40
2460145.393344908
  9
$TDUPDATE
 40
2460145.435011574
  9
$TDUUPDATE
 40
2460145.393344908
  9
$TDINDWG
 40
0.0000000000
  9
$TDUSRTIMER
 40
0.0000000000
  9
$USRTIMER
 70
     1
  9
$ANGBASE
 50
0.0
  9
$ANGDIR
 70
     0
  9
$PDMODE
 70
     0
  9
$PDSIZE
 40
0.0
  9
$PLINEWID
 40
0.0
  9
$SPLFRAME
 70
     0
  9
$SPLINETYPE
 70
     6
  9
$SPLINESEGS
 70
     8
  9
$HANDSEED
  5
124
  9
$SURFTAB1
 70
     6
  9
$SURFTAB2
 70
     6
  9
$SURFTYPE
 70
     6
  9
$SURFU
 70
     6
  9
$SURFV
 70
     6
  9
$UCSBASE
  2

  9
$UCSNAME
  2

  9
$UCSORG
 10
0.0
 20
0.0
 30
0.0
  9
$UCSXDIR
 10
1.0
 20
0.0
 30
0.0
  9
$UCSYDIR
 10
0.0
 20
1.0
 30
0.0
  9
$UCSORTHOREF
  2

  9
$UCSORTHOVIEW
 70
     0
  9
$UCSORGTOP
 10
0.0
 20
0.0
 30
0.0
  9
$UCSORGBOTTOM
 10
0.0
 20
0.0
 30
0.0
  9
$UCSORGLEFT
 10
0.0
 20
0.0
 30
0.0
  9
$UCSORGRIGHT
 10
0.0
 20
0.0
 30
0.0
  9
$UCSORGFRONT
 10
0.0
 20
0.0
 30
0.0
  9
$UCSORGBACK
 10
0.0
 20
0.0
 30
0.0
  9
$PUCSBASE
  2

  9
$PUCSNAME
  2

  9
$PUCSORG
 10
0.0
 20
0.0
 30
0.0
  9
$PUCSXDIR
 10
1.0
 20
0.0
 30
0.0
  9
$PUCSYDIR
 10
0.0
 20
1.0
 30
0.0
  9
$PUCSORTHOREF
  2

  9
$PUCSORTHOVIEW
 70
     0
  9
$PUCSORGTOP
 10
0.0
 20
0.0
 30
0.0
  9
$PUCSORGBOTTOM
 10
0.0
 20
0.0
 30
0.0
  9
$PUCSORGLEFT
 10
0.0
 20
0.0
 30
0.0
  9
$PUCSORGRIGHT
 10
0.0
 20
0.0
 30
0.0
  9
$PUCSORGFRONT
 10
0.0
 20
0.0
 30
0.0
  9
$PUCSORGBACK
 10
0.0
 20
0.0
 30
0.0
  9
$USERI1
 70
     0
  9
$USERI2
 70
     0
  9
$USERI3
 70
     0
  9
$USERI4
 70
     0
  9
$USERI5
 70
     0
  9
$USERR1
 40
0.0
  9
$USERR2
 40
0.0
  9
$USERR3
 40
0.0
  9
$USERR4
 40
0.0
  9
$USERR5
 40
0.0
  9
$WORLDVIEW
 70
     1
  9
$SHADEDGE
 70
     3
  9
$SHADEDIF
 70
    70
  9
$TILEMODE
 70
     1
  9
$MAXACTVP
 70
    64
  9
$PINSBASE
 10
0.0
 20
0.0
 30
0.0
  9
$PLIMCHECK
 70
     0
  9
$PEXTMIN
 10
1.000000000000000E+20
 20
1.000000000000000E+20
 30
1.000000000000000E+20
  9
$PEXTMAX
 10
-1.000000000000000E+20
 20
-1.000000000000000E+20
 30
-1.000000000000000E+20
  9
$PLIMMIN
 10
0.0
 20
0.0
  9
$PLIMMAX
 10
12.0
 20
9.0
  9
$UNITMODE
 70
     0
  9
$VISRETAIN
 70
     1
  9
$PLINEGEN
 70
     0
  9
$PSLTSCALE
 70
     1
  9
$TREEDEPTH
 70
  3020
  9
$CMLSTYLE
  2
Standard
  9
$CMLJUST
 70
     0
  9
$CMLSCALE
 40
1.0
  9
$PROXYGRAPHICS
 70
     1
  9
$MEASUREMENT
 70
     0
  9
$CELWEIGHT
370
    -1
  9
$ENDCAPS
280
     0
  9
$JOINSTYLE
280
     0
  9
$LWDISPLAY
290
     1
  9
$INSUNITS
 70
     0
  9
$HYPERLINKBASE
  1

  9
$STYLESHEET
  1

  9
$XEDIT
290
     1
  9
$CEPSNTYPE
380
     0
  9
$PSTYLEMODE
290
     1
  9
$FINGERPRINTGUID
  2
{ABE6B740-AFDB-EF47-A65D-F5E3DD4BD229}
  9
$VERSIONGUID
  2
{D6173828-C055-164B-B8B0-16D2BAFD88EB}
  9
$EXTNAMES
290
     1
  9
$PSVPSCALE
 40
0.0
  9
$OLESTARTUP
290
     0
  9
$SORTENTS
280
   127
  9
$INDEXCTL
280
     0
  9
$HIDETEXT
280
     1
  9
$XCLIPFRAME
280
     2
  9
$HALOGAP
280
     0
  9
$OBSCOLOR
 70
   257
  9
$OBSLTYPE
280
     0
  9
$INTERSECTIONDISPLAY
280
     0
  9
$INTERSECTIONCOLOR
 70
   257
  9
$DIMASSOC
280
     2
  9
$PROJECTNAME
  1

  9
$CAMERADISPLAY
290
     0
  9
$LENSLENGTH
 40
50.0
  9
$CAMERAHEIGHT
 40
0.0
  9
$STEPSPERSEC
 40
2.0
  9
$STEPSIZE
 40
6.0
  9
$3DDWFPREC
 40
2.0
  9
$PSOLWIDTH
 40
0.25
  9
$PSOLHEIGHT
 40
4.0
  9
$LOFTANG1
 40
1.570796326794896
  9
$LOFTANG2
 40
1.570796326794896
  9
$LOFTMAG1
 40
0.0
  9
$LOFTMAG2
 40
0.0
  9
$LOFTPARAM
 70
     7
  9
$LOFTNORMALS
280
     1
  9
$LATITUDE
 40
37.795
  9
$LONGITUDE
 40
-122.394
  9
$NORTHDIRECTION
 40
0.0
  9
$TIMEZONE
 70
 -8000
  9
$LIGHTGLYPHDISPLAY
280
     1
  9
$TILEMODELIGHTSYNCH
280
     1
  9
$CMATERIAL
347
11
  9
$SOLIDHIST
280
     0
  9
$SHOWHIST
280
     1
  9
$DWFFRAME
280
     2
  9
$DGNFRAME
280
     0
  9
$REALWORLDSCALE
290
     1
  9
$INTERFERECOLOR
 62
     1
  9
$INTERFEREOBJVS
345
33
  9
$INTERFEREVPVS
346
30
  9
$CSHADOW
280
     0
  9
$SHADOWPLANELOCATION
 40
0.0
  0
ENDSEC
  0
SECTION
  2
CLASSES
  0
CLASS
  1
ACDBDICTIONARYWDFLT
  2
AcDbDictionaryWithDefault
  3
ObjectDBX Classes
 90
        0
 91
        1
280
     0
281
     0
  0
CLASS
  1
MATERIAL
  2
AcDbMaterial
  3
ObjectDBX Classes
 90
     1153
 91
        3
280
     0
281
     0
  0
CLASS
  1
VISUALSTYLE
  2
AcDbVisualStyle
  3
ObjectDBX Classes
 90
     4095
 91
       24
280
     0
281
     0
  0
CLASS
  1
SCALE
  2
AcDbScale
  3
ObjectDBX Classes
 90
     1153
 91
       17
280
     0
281
     0
  0
CLASS
  1
TABLESTYLE
  2
AcDbTableStyle
  3
ObjectDBX Classes
 90
     4095
 91
        1
280
     0
281
     0
  0
CLASS
  1
MLEADERSTYLE
  2
AcDbMLeaderStyle
  3
ACDB_MLEADERSTYLE_CLASS
 90
     4095
 91
        1
280
     0
281
     0
  0
CLASS
  1
ACDBSECTIONVIEWSTYLE
  2
AcDbSectionViewStyle
  3
ObjectDBX Classes
 90
     1025
 91
        1
280
     0
281
     0
  0
CLASS
  1
ACDBDETAILVIEWSTYLE
  2
AcDbDetailViewStyle
  3
ObjectDBX Classes
 90
     1025
 91
        1
280
     0
281
     0
  0
CLASS
  1
DICTIONARYVAR
  2
AcDbDictionaryVar
  3
ObjectDBX Classes
 90
        0
 91
        5
280
     0
281
     0
  0
CLASS
  1
CELLSTYLEMAP
  2
AcDbCellStyleMap
  3
ObjectDBX Classes
 90
     1152
 91
        1
280
     0
281
     0
  0
ENDSEC
  0
SECTION
  2
TABLES
  0
TABLE
  2
VPORT
  5
8
330
0
100
AcDbSymbolTable
 70
     1
  0
VPORT
  5
57
330
8
100
AcDbSymbolTableRecord
100
AcDbViewportTableRecord
  2
*Active
 70
     0
 10
0.0
 20
0.0
 11
1.0
 21
1.0
 12
0.0
 22
0.0
 13
0.0
 23
0.0
 14
1.0
 24
1.0
 15
0.0
 25
0.0
 16
0.0
 26
0.0
 36
1.0
 17
50.00000000000046
 27
-50.00000000000046
 37
0.0
 40
289.1338582677167
 41
1.0
 42
50.0
 43
0.0
 44
0.0
 50
0.0
 51
0.0
 71
     0
 72
   100
 73
     1
 74
     1
 75
     0
 76
     0
 77
     0
 78
     0
281
     0
 65
     1
110
0.0
120
0.0
130
0.0
111
1.0
121
0.0
131
0.0
112
0.0
122
1.0
132
0.0
 79
     0
146
0.0
 60
     3
 61
     5
292
     1
282
     1
141
0.0
142
0.0
 63
   250
421
  3355443
  0
ENDTAB
  0
TABLE
  2
LTYPE
  5
5
330
0
100
AcDbSymbolTable
 70
     5
  0
LTYPE
  5
5B
330
5
100
AcDbSymbolTableRecord
100
AcDbLinetypeTableRecord
  2
ByBlock
 70
     0
  3

 72
    65
 73
     0
 40
0.0
  0
LTYPE
  5
5C
330
5
100
AcDbSymbolTableRecord
100
AcDbLinetypeTableRecord
  2
ByLayer
 70
     0
  3

 72
    65
 73
     0
 40
0.0
  0
LTYPE
  5
5D
330
5
100
AcDbSymbolTableRecord
100
AcDbLinetypeTableRecord
  2
Continuous
 70
     0
  3
Solid line
 72
    65
 73
     0
 40
0.0
  0
LTYPE
  5
8B
330
5
100
AcDbSymbolTableRecord
100
AcDbLinetypeTableRecord
  2
AI-Linetype-0
 70
     0
  3
Adobe Illustrator Linetype No. 0
 72
    65
 73
     2
 40
3.981999993324279
 49
2.891000032424926
 74
     0
 49
-1.090999960899353
 74
     0
  0
LTYPE
  5
91
330
5
100
AcDbSymbolTableRecord
100
AcDbLinetypeTableRecord
  2
AI-Linetype-1
 70
     0
  3
Adobe Illustrator Linetype No. 1
 72
    65
 73
     2
 40
3.981999993324279
 49
2.891000032424926
 74
     0
 49
-1.090999960899353
 74
     0
  0
LTYPE
  5
F1
330
5
100
AcDbSymbolTableRecord
100
AcDbLinetypeTableRecord
  2
AI-Linetype-2
 70
     0
  3
Adobe Illustrator Linetype No. 2
 72
    65
 73
     2
 40
3.981999993324279
 49
2.891000032424926
 74
     0
 49
-1.090999960899353
 74
     0
  0
LTYPE
  5
F7
330
5
100
AcDbSymbolTableRecord
100
AcDbLinetypeTableRecord
  2
AI-Linetype-3
 70
     0
  3
Adobe Illustrator Linetype No. 3
 72
    65
 73
     2
 40
3.981999993324279
 49
2.891000032424926
 74
     0
 49
-1.090999960899353
 74
     0
  0
ENDTAB
  0
TABLE
  2
LAYER
  5
2
330
0
100
AcDbSymbolTable
 70
     2
  0
LAYER
  5
54
330
2
100
AcDbSymbolTableRecord
100
AcDbLayerTableRecord
  2
0
 70
     0
 62
     7
  6
Continuous
370
    -3
390
F
347
21
348
0
  0
LAYER
  5
78
330
2
100
AcDbSymbolTableRecord
100
AcDbLayerTableRecord
  2
Camada 1
 70
     0
 62
     7
  6
Continuous
370
     0
390
F
347
21
348
0
  0
ENDTAB
  0
TABLE
  2
STYLE
  5
3
330
0
100
AcDbSymbolTable
 70
     2
  0
STYLE
  5
55
330
3
100
AcDbSymbolTableRecord
100
AcDbTextStyleTableRecord
  2
Standard
 70
     0
 40
0.0
 41
1.0
 50
0.0
 71
     0
 42
0.2
  3
txt
  4

  0
STYLE
  5
5A
330
3
100
AcDbSymbolTableRecord
100
AcDbTextStyleTableRecord
  2
Annotative
 70
     0
 40
0.0
 41
1.0
 50
0.0
 71
     0
 42
0.2
  3
txt
  4

1001
AcadAnnotative
1000
AnnotativeData
1002
{
1070
     1
1070
     1
1002
}
  0
ENDTAB
  0
TABLE
  2
VIEW
  5
6
330
0
100
AcDbSymbolTable
 70
     0
  0
ENDTAB
  0
TABLE
  2
UCS
  5
7
330
0
100
AcDbSymbolTable
 70
     0
  0
ENDTAB
  0
TABLE
  2
APPID
  5
9
330
0
100
AcDbSymbolTable
 70
     2
  0
APPID
  5
56
330
9
100
AcDbSymbolTableRecord
100
AcDbRegAppTableRecord
  2
ACAD
 70
     0
  0
APPID
  5
5E
330
9
100
AcDbSymbolTableRecord
100
AcDbRegAppTableRecord
  2
AcadAnnotative
 70
     0
  0
ENDTAB
  0
TABLE
  2
DIMSTYLE
  5
A
330
0
100
AcDbSymbolTable
 70
     2
100
AcDbDimStyleTable
 71
     0
  0
DIMSTYLE
105
58
330
A
100
AcDbSymbolTableRecord
100
AcDbDimStyleTableRecord
  2
Standard
 70
     0
340
55
  0
DIMSTYLE
105
59
330
A
100
AcDbSymbolTableRecord
100
AcDbDimStyleTableRecord
  2
Annotative
 70
     0
340
55
1001
AcadAnnotative
1000
AnnotativeData
1002
{
1070
     1
1070
     1
1002
}
  0
ENDTAB
  0
TABLE
  2
BLOCK_RECORD
  5
1
330
0
100
AcDbSymbolTable
 70
     1
  0
BLOCK_RECORD
  5
70
330
1
100
AcDbSymbolTableRecord
100
AcDbBlockTableRecord
  2
*Model_Space
340
73
 70
     0
280
     1
281
     0
  0
BLOCK_RECORD
  5
6C
330
1
100
AcDbSymbolTableRecord
100
AcDbBlockTableRecord
  2
*Paper_Space
340
6F
 70
     0
280
     1
281
     0
  0
BLOCK_RECORD
  5
74
330
1
100
AcDbSymbolTableRecord
100
AcDbBlockTableRecord
  2
*Paper_Space0
340
77
 70
     0
280
     1
281
     0
  0
ENDTAB
  0
ENDSEC
  0
SECTION
  2
BLOCKS
  0
BLOCK
  5
71
330
70
100
AcDbEntity
  8
0
100
AcDbBlockBegin
  2
*Model_Space
 70
     0
 10
0.0
 20
0.0
 30
0.0
  3
*Model_Space
  1

  0
ENDBLK
  5
72
330
70
100
AcDbEntity
  8
0
100
AcDbBlockEnd
  0
BLOCK
  5
6D
330
6C
100
AcDbEntity
 67
     1
  8
0
100
AcDbBlockBegin
  2
*Paper_Space
 70
     0
 10
0.0
 20
0.0
 30
0.0
  3
*Paper_Space
  1

  0
ENDBLK
  5
6E
330
6C
100
AcDbEntity
 67
     1
  8
0
100
AcDbBlockEnd
  0
BLOCK
  5
75
330
74
100
AcDbEntity
 67
     1
  8
0
100
AcDbBlockBegin
  2
*Paper_Space0
 70
     0
 10
0.0
 20
0.0
 30
0.0
  3
*Paper_Space0
  1

  0
ENDBLK
  5
76
330
74
100
AcDbEntity
 67
     1
  8
0
100
AcDbBlockEnd
  0
ENDSEC
  0
SECTION
  2
ENTITIES
  0
LWPOLYLINE
  5
79
330
70
100
AcDbEntity
  8
Camada 1
 62
   250
420
  1907995
370
     9
100
AcDbPolyline
 90
        4
 70
     0
 43
0.0
 10
-21.86856911348877
 20
-15.80615071028842
 10
-21.86856911348877
 20
-12.11814717024936
 10
-27.51957009005128
 20
-12.11814717024936
 10
-27.51957009005128
 20
-15.80615071028842
  0
LWPOLYLINE
  5
7A
330
70
100
AcDbEntity
  8
Camada 1
 62
   250
420
  1907995
370
     9
100
AcDbPolyline
 90
        3
 70
     0
 43
0.0
 10
-22.65356896090088
 20
-11.88215473860873
 10
-22.65356896090088
 20
-3.015150344077483
 10
-23.1245696322876
 20
-3.015150344077483
  0
LWPOLYLINE
  5
7B
330
70
100
AcDbEntity
  8
Camada 1
 62
   250
420
  1907995
370
     9
100
AcDbPolyline
 90
        7
 70
     0
 43
0.0
 10
-26.34156868624268
 20
-3.015150344077483
 10
-26.8125693576294
 20
-3.015150344077483
 10
-26.8125693576294
 20
-6.703153884116545
 10
-29.16756889986573
 20
-6.703153884116545
 10
-29.16756889986573
 20
-8.900160109702483
 10
-26.8125693576294
 20
-8.900160109702483
 10
-26.8125693576294
 20
-11.88215473860873
  0
LWPOLYLINE
  5
7C
330
70
100
AcDbEntity
  8
Camada 1
 62
   250
420
  1907995
370
     9
100
AcDbPolyline
 90
        4
 70
     1
 43
0.0
 10
-9.861569144008171
 20
-15.80615071028842
 10
-39.52556870150147
 20
-15.80615071028842
 10
-39.52556870150147
 20
-17.4541457054056
 10
-9.861569144008171
 20
-17.4541457054056
  0
LWPOLYLINE
  5
7D
330
70
100
AcDbEntity
  8
Camada 1
 62
   250
420
  1907995
370
     9
100
AcDbPolyline
 90
        4
 70
     1
 43
0.0
 10
-34.50356934237061
 20
-24.83115986556186
 10
-31.28556893038331
 20
-24.83115986556186
 10
-31.28556893038331
 20
-32.6791670677103
 10
-34.50356934237061
 20
-32.6791670677103
  0
LWPOLYLINE
  5
7E
330
70
100
AcDbEntity
  8
Camada 1
 62
   250
420
  1907995
370
     9
100
AcDbPolyline
 90
        4
 70
     1
 43
0.0
 10
-30.50156853365479
 20
-23.57514790267123
 10
-35.28856918978272
 20
-23.57514790267123
 10
-35.28856918978272
 20
-54.7311461326517
 10
-30.50156853365479
 20
-54.7311461326517
  0
LWPOLYLINE
  5
7F
330
70
100
AcDbEntity
  8
Camada 1
 62
   250
420
  1907995
370
     9
100
AcDbPolyline
 90
        4
 70
     0
 43
0.0
 10
-34.58256981539307
 20
-54.73115376204623
 10
-34.50356934237061
 20
-55.28015736312045
 10
-31.2865683810669
 20
-55.28015736312045
 10
-31.20756981539307
 20
-54.73115376204623
  0
LWPOLYLINE
  5
80
330
70
100
AcDbEntity
  8
Camada 1
 62
   250
420
  1907995
370
     9
100
AcDbPolyline
 90
        4
 70
     0
 43
0.0
 10
-34.50356934237061
 20
-55.28015736312045
 10
-34.50356934237061
 20
-56.53615406722201
 10
-31.2865683810669
 20
-56.53615406722201
 10
-31.2865683810669
 20
-55.28015736312045
  0
SPLINE
  5
81
330
70
100
AcDbEntity
  8
Camada 1
 62
   250
420
  1907995
370
     9
100
AcDbSpline
210
0.0
220
0.0
230
1.0
 70
    11
 71
     3
 72
    53
 73
    49
 74
     0
 42
0.0000000001
 43
0.0000000001
 40
0.0
 40
0.0
 40
0.0
 40
0.0
 40
1.0
 40
1.0
 40
1.0
 40
2.0
 40
2.0
 40
2.0
 40
3.0
 40
3.0
 40
3.0
 40
4.0
 40
4.0
 40
4.0
 40
5.0
 40
5.0
 40
5.0
 40
6.0
 40
6.0
 40
6.0
 40
7.0
 40
7.0
 40
7.0
 40
8.0
 40
8.0
 40
8.0
 40
9.0
 40
9.0
 40
9.0
 40
10.0
 40
10.0
 40
10.0
 40
11.0
 40
11.0
 40
11.0
 40
12.0
 40
12.0
 40
12.0
 40
13.0
 40
13.0
 40
13.0
 40
14.0
 40
14.0
 40
14.0
 40
15.0
 40
15.0
 40
15.0
 40
16.0
 40
16.0
 40
16.0
 40
16.0
 10
-34.66356918978272
 20
-56.85315540999545
 30
0.0
 10
-34.66356918978272
 20
-56.85315540999545
 30
0.0
 10
-34.66356918978272
 20
-56.85315540999545
 30
0.0
 10
-34.66356918978272
 20
-56.85315540999545
 30
0.0
 10
-34.66356918978272
 20
-56.85315540999545
 30
0.0
 10
-34.74156830477296
 20
-56.85315540999545
 30
0.0
 10
-34.74156830477296
 20
-56.85315540999545
 30
0.0
 10
-34.74156830477296
 20
-56.85315540999545
 30
0.0
 10
-34.74156830477296
 20
-56.93115071028842
 30
0.0
 10
-34.74156830477296
 20
-56.93115071028842
 30
0.0
 10
-34.74156830477296
 20
-56.93115071028842
 30
0.0
 10
-34.82056877779541
 20
-56.93115071028842
 30
0.0
 10
-34.82056877779541
 20
-56.93115071028842
 30
0.0
 10
-34.82056877779541
 20
-56.93115071028842
 30
0.0
 10
-34.82056877779541
 20
-57.08815602034701
 30
0.0
 10
-34.82056877779541
 20
-57.08815602034701
 30
0.0
 10
-34.82056877779541
 20
-57.08815602034701
 30
0.0
 10
-34.82056877779541
 20
-61.87515095442904
 30
0.0
 10
-34.82056877779541
 20
-61.87515095442904
 30
0.0
 10
-34.82056877779541
 20
-61.87515095442904
 30
0.0
 10
-34.82056877779541
 20
-62.03215626448764
 30
0.0
 10
-34.82056877779541
 20
-62.03215626448764
 30
0.0
 10
-34.82056877779541
 20
-62.03215626448764
 30
0.0
 10
-34.74156830477296
 20
-62.1111510154642
 30
0.0
 10
-34.74156830477296
 20
-62.1111510154642
 30
0.0
 10
-34.74156830477296
 20
-62.1111510154642
 30
0.0
 10
-34.66356918978272
 20
-62.1111510154642
 30
0.0
 10
-34.66356918978272
 20
-62.1111510154642
 30
0.0
 10
-34.66356918978272
 20
-62.1111510154642
 30
0.0
 10
-33.56156990694581
 20
-62.10815266341342
 30
0.0
 10
-33.56156990694581
 20
-62.10815266341342
 30
0.0
 10
-32.85656998323975
 20
-61.94615772933139
 30
0.0
 10
-32.13956902193604
 20
-62.05815724105014
 30
0.0
 10
-31.41356918978272
 20
-62.42215565413608
 30
0.0
 10
-31.41356918978272
 20
-62.42215565413608
 30
0.0
 10
-28.46056816744385
 20
-62.42215565413608
 30
0.0
 10
-28.46056816744385
 20
-62.42215565413608
 30
0.0
 10
-28.46056816744385
 20
-62.42215565413608
 30
0.0
 10
-28.46056816744385
 20
-56.53615406722201
 30
0.0
 10
-28.46056816744385
 20
-56.53615406722201
 30
0.0
 10
-28.46056816744385
 20
-56.53615406722201
 30
0.0
 10
-31.20756981539307
 20
-56.53615406722201
 30
0.0
 10
-31.20756981539307
 20
-56.53615406722201
 30
0.0
 10
-31.98456833529053
 20
-57.04215077132357
 30
0.0
 10
-32.89256928133545
 20
-57.1691573020853
 30
0.0
 10
-33.95456955599366
 20
-56.85015705794467
 30
0.0
 10
-33.95456955599366
 20
-56.85015705794467
 30
0.0
 10
-34.66356918978272
 20
-56.85315540999545
 30
0.0
 10
-34.66356918978272
 20
-56.85315540999545
 30
0.0
  0
LWPOLYLINE
  5
82
330
70
100
AcDbEntity
  8
Camada 1
 62
   250
420
  1907995
370
     9
100
AcDbPolyline
 90
        7
 70
     0
 43
0.0
 10
-39.60456917452393
 20
-135.3271544334329
 10
-39.60456917452393
 20
-133.6001532432474
 10
-39.68256828951417
 20
-133.5221541282571
 10
-40.70357010531006
 20
-133.5221541282571
 10
-40.78156922030029
 20
-133.5221541282571
 10
-40.78156922030029
 20
-133.6001532432474
 10
-40.78156922030029
 20
-135.3271544334329
  0
LWPOLYLINE
  5
83
330
70
100
AcDbEntity
  8
Camada 1
 62
   250
420
  1907995
370
     9
100
AcDbPolyline
 90
        4
 70
     0
 43
0.0
 10
-26.10656807589112
 20
-143.0961535331644
 10
-26.10656807589112
 20
-144.2731535789407
 10
-23.35957024263917
 20
-144.2731535789407
 10
-23.35957024263917
 20
-143.0961535331644
  0
LWPOLYLINE
  5
84
330
70
100
AcDbEntity
  8
Camada 1
 62
   250
420
  1907995
370
     9
100
AcDbPolyline
 90
       12
 70
     1
 43
0.0
 10
-5.781567312948027
 20
-141.2131541129983
 10
-5.781567312948027
 20
-135.3271544334329
 10
-8.292568899867546
 20
-135.3271544334329
 10
-8.292568899867546
 20
-134.1501524803079
 10
-8.292568899867546
 20
-134.0711539146341
 10
-8.370568014857781
 20
-134.0711539146341
 10
-9.390568472617815
 20
-134.0711539146341
 10
-9.469570852987089
 20
-134.0711539146341
 10
-9.469570852987089
 20
-134.1501524803079
 10
-9.469570852987089
 20
-135.3271544334329
 10
-11.66656944918213
 20
-135.3271544334329
 10
-11.66656944918213
 20
-141.2131541129983
  0
LWPOLYLINE
  5
85
330
70
100
AcDbEntity
  8
Camada 1
 62
   250
420
  1907995
370
     9
100
AcDbPolyline
 90
        4
 70
     1
 43
0.0
 10
-22.65356896090088
 20
-131.8741553184427
 10
-26.8125693576294
 20
-131.8741553184427
 10
-26.8125693576294
 20
-134.3071539756693
 10
-22.65356896090088
 20
-134.3071539756693
  0
LWPOLYLINE
  5
86
330
70
100
AcDbEntity
  8
Camada 1
 62
   250
420
  1907995
370
     9
100
AcDbPolyline
 90
        4
 70
     0
 43
0.0
 10
-23.04557106661377
 20
-141.2131541129983
 10
-23.04557106661377
 20
-143.0961535331644
 10
-26.34156868624268
 20
-143.0961535331644
 10
-26.34156868624268
 20
-141.2131541129983
  0
LWPOLYLINE
  5
87
330
70
100
AcDbEntity
  8
Camada 1
 62
   250
420
  1907995
370
     9
100
AcDbPolyline
 90
        4
 70
     1
 43
0.0
 10
-41.80156967806397
 20
-141.2131541129983
 10
-37.79956886934815
 20
-141.2131541129983
 10
-37.79956886934815
 20
-135.3271544334329
 10
-41.80156967806397
 20
-135.3271544334329
  0
LINE
  5
88
330
70
100
AcDbEntity
  8
Camada 1
 62
   250
420
  1907995
370
     9
100
AcDbLine
 10
-15.9907691256958
 20
8.740449631508454
 30
0.0
 11
-19.25177071260987
 21
9.827439987953766
 31
0.0
  0
LINE
  5
89
330
70
100
AcDbEntity
  8
Camada 1
 62
   250
420
  1907995
370
     9
100
AcDbLine
 10
-19.25106880831299
 20
9.827241623695954
 30
0.0
 11
-21.42507240938721
 21
7.653230393227204
 31
0.0
  0
LINE
  5
8A
330
70
100
AcDbEntity
  8
Camada 1
  6
AI-Linetype-0
 62
   250
420
  1907995
370
     9
100
AcDbLine
 10
-21.42466805147706
 20
7.653749192055329
 30
0.0
 11
-27.94566795992432
 21
9.827745163735016
 31
0.0
  0
LINE
  5
8C
330
70
100
AcDbEntity
  8
Camada 1
 62
   250
420
  1907995
370
     9
100
AcDbLine
 10
-27.94526741671143
 20
9.827241623695954
 30
0.0
 11
-30.11926911043702
 21
7.653230393227204
 31
0.0
  0
LINE
  5
8D
330
70
100
AcDbEntity
  8
Camada 1
 62
   250
420
  1907995
370
     9
100
AcDbLine
 10
-30.11886856722413
 20
7.653749192055329
 30
0.0
 11
-33.37987015413819
 21
8.740739548500641
 31
0.0
  0
LINE
  5
8E
330
70
100
AcDbEntity
  8
Camada 1
 62
   250
420
  1907995
370
     9
100
AcDbLine
 10
-15.9907691256958
 20
15.41414042740689
 30
0.0
 11
-19.25177071260987
 21
16.5011307838522
 31
0.0
  0
LINE
  5
8F
330
70
100
AcDbEntity
  8
Camada 1
 62
   250
420
  1907995
370
     9
100
AcDbLine
 10
-19.25106880831299
 20
16.50094767838345
 30
0.0
 11
-21.42507240938721
 21
14.3269364479147
 31
0.0
  0
LINE
  5
90
330
70
100
AcDbEntity
  8
Camada 1
  6
AI-Linetype-1
 62
   250
420
  1907995
370
     9
100
AcDbLine
 10
-21.42466805147706
 20
14.32743998795376
 30
0.0
 11
-27.94566795992432
 21
16.50143595963345
 31
0.0
  0
LINE
  5
92
330
70
100
AcDbEntity
  8
Camada 1
 62
   250
420
  1907995
370
     9
100
AcDbLine
 10
-27.94526741671143
 20
16.50094767838345
 30
0.0
 11
-30.11926911043702
 21
14.3269364479147
 31
0.0
  0
LINE
  5
93
330
70
100
AcDbEntity
  8
Camada 1
 62
   250
420
  1907995
370
     9
100
AcDbLine
 10
-30.11886856722413
 20
14.32743998795376
 30
0.0
 11
-33.37987015413819
 21
15.41443034439908
 31
0.0
  0
LINE
  5
94
330
70
100
AcDbEntity
  8
Camada 1
 62
   250
420
  1907995
370
     9
100
AcDbLine
 10
-26.13097069429932
 20
-10.26025227278842
 30
0.0
 11
-23.23896858858643
 21
-10.26025227278842
 31
0.0
  0
LINE
  5
95
330
70
100
AcDbEntity
  8
Camada 1
 62
   250
420
  1907995
370
     9
100
AcDbLine
 10
-26.31596825289307
 20
-9.59326008528842
 30
0.0
 11
-23.05397102999268
 21
-9.59326008528842
 31
0.0
  0
LWPOLYLINE
  5
96
330
70
100
AcDbEntity
  8
Camada 1
 62
   250
420
  1907995
370
     9
100
AcDbPolyline
 90
        6
 70
     1
 43
0.0
 10
-26.13097069429932
 20
-10.26025227278842
 10
-25.98296806978761
 20
-10.40824726790561
 10
-23.38697121309815
 20
-10.40824726790561
 10
-23.23896858858643
 20
-10.26025227278842
 10
-23.23996803927002
 20
-7.44225910872592
 10
-26.13097069429932
 20
-7.44225910872592
  0
LWPOLYLINE
  5
97
330
70
100
AcDbEntity
  8
Camada 1
 62
   250
420
  1907995
370
     9
100
AcDbPolyline
 90
        6
 70
     1
 43
0.0
 10
-26.24297020601807
 20
-9.667249953452483
 10
-26.31596825289307
 20
-9.59326008528842
 10
-26.31596825289307
 20
-8.743253981772795
 10
-23.0459677951294
 20
-8.743253981772795
 10
-23.05397102999268
 20
-9.59326008528842
 10
-23.12796852755127
 20
-9.667249953452483
  0
LWPOLYLINE
  5
98
330
70
100
AcDbEntity
  8
Camada 1
 62
   250
420
  1907995
370
     9
100
AcDbPolyline
 90
        8
 70
     1
 43
0.0
 10
-22.96796868013917
 20
-9.842253005210295
 10
-22.96796868013917
 20
-8.743253981772795
 10
-26.4989707248169
 20
-8.743253981772795
 10
-26.4989707248169
 20
-9.842253005210295
 10
-26.4209677951294
 20
-9.842253005210295
 10
-26.4209677951294
 20
-10.70525959700717
 10
-23.0459677951294
 20
-10.70525959700717
 10
-23.0459677951294
 20
-9.842253005210295
  0
SPLINE
  5
99
330
70
100
AcDbEntity
  8
Camada 1
 62
   250
420
  1907995
370
     9
100
AcDbSpline
210
0.0
220
0.0
230
1.0
 70
     8
 71
     3
 72
    11
 73
     7
 74
     0
 42
0.0000000001
 43
0.0000000001
 40
0.0
 40
0.0
 40
0.0
 40
0.0
 40
1.0
 40
1.0
 40
1.0
 40
2.0
 40
2.0
 40
2.0
 40
2.0
 10
-22.65396950411378
 20
-4.741255080405608
 30
0.0
 10
-22.65396950411378
 20
-4.741255080405608
 30
0.0
 10
-20.94897148775635
 20
-5.521253859702483
 30
0.0
 10
-21.00597069429932
 20
-7.91125324935092
 30
0.0
 10
-21.06296990084229
 20
-10.30026081771029
 30
0.0
 10
-22.65396950411378
 20
-10.7462599632181
 30
0.0
 10
-22.65396950411378
 20
-10.7462599632181
 30
0.0
  0
SPLINE
  5
9A
330
70
100
AcDbEntity
  8
Camada 1
 62
   250
420
  1907995
370
     9
100
AcDbSpline
210
0.0
220
0.0
230
1.0
 70
     8
 71
     3
 72
     8
 73
     4
 74
     0
 42
0.0000000001
 43
0.0000000001
 40
0.0
 40
0.0
 40
0.0
 40
0.0
 40
1.0
 40
1.0
 40
1.0
 40
1.0
 10
-28.22596810030518
 20
-8.900251662436858
 30
0.0
 10
-28.05696938204346
 20
-9.595258986655608
 30
0.0
 10
-27.57597038912354
 20
-10.24825886458529
 30
0.0
 10
-26.81296990084229
 20
-10.86225727767123
 30
0.0
  0
SPLINE
  5
9B
330
70
100
AcDbEntity
  8
Camada 1
 62
   250
420
  1907995
370
     9
100
AcDbSpline
210
0.0
220
0.0
230
1.0
 70
     8
 71
     3
 72
     8
 73
     4
 74
     0
 42
0.0000000001
 43
0.0000000001
 40
0.0
 40
0.0
 40
0.0
 40
0.0
 40
1.0
 40
1.0
 40
1.0
 40
1.0
 10
-26.81296990084229
 20
-4.741255080405608
 30
0.0
 10
-27.58496925997315
 20
-5.220258986655608
 30
0.0
 10
-28.01397011446534
 20
-5.899259841147795
 30
0.0
 10
-28.22596810030518
 20
-6.703260695639983
 30
0.0
  0
SPLINE
  5
9C
330
70
100
AcDbEntity
  8
Camada 1
 62
   250
420
  1907995
370
     9
100
AcDbSpline
210
0.0
220
0.0
230
1.0
 70
     8
 71
     3
 72
     8
 73
     4
 74
     0
 42
0.0000000001
 43
0.0000000001
 40
0.0
 40
0.0
 40
0.0
 40
0.0
 40
1.0
 40
1.0
 40
1.0
 40
1.0
 10
-31.20796845125733
 20
-8.900251662436858
 30
0.0
 10
-30.84096787142335
 20
-8.691252028647795
 30
0.0
 10
-30.47496864962159
 20
-8.691252028647795
 30
0.0
 10
-30.10896942781983
 20
-8.900251662436858
 30
0.0
  0
LWPOLYLINE
  5
9D
330
70
100
AcDbEntity
  8
Camada 1
 62
   250
420
  1907995
370
     9
100
AcDbPolyline
 90
        8
 70
     1
 43
0.0
 10
-30.10896942781983
 20
-12.35325459212436
 10
-30.10896942781983
 20
-8.900251662436858
 10
-29.48096916842042
 20
-8.900251662436858
 10
-29.48096916842042
 20
-6.703260695639983
 10
-31.67896912264405
 20
-6.703260695639983
 10
-31.67896912264405
 20
-8.900251662436858
 10
-31.20796845125733
 20
-8.900251662436858
 10
-31.20796845125733
 20
-12.35325459212436
  0
LINE
  5
9E
330
70
100
AcDbEntity
  8
Camada 1
 62
   250
420
  1907995
370
     9
100
AcDbLine
 10
-23.1239707248169
 20
-8.743253981772795
 30
0.0
 11
-23.1239707248169
 21
8.128740036781891
 31
0.0
  0
LINE
  5
9F
330
70
100
AcDbEntity
  8
Camada 1
 62
   250
420
  1907995
370
     9
100
AcDbLine
 10
-26.34196922945557
 20
9.227739060219391
 30
0.0
 11
-26.34196922945557
 21
-8.743253981772795
 31
0.0
  0
LINE
  5
A0
330
70
100
AcDbEntity
  8
Camada 1
 62
   250
420
  1907995
370
     9
100
AcDbLine
 10
-27.51897118258057
 20
29.23974772721158
 30
0.0
 11
-21.86896965670166
 21
29.23974772721158
 31
0.0
  0
SPLINE
  5
A1
330
70
100
AcDbEntity
  8
Camada 1
 62
   250
420
  1907995
370
     9
100
AcDbSpline
210
0.0
220
0.0
230
1.0
 70
     8
 71
     3
 72
     8
 73
     4
 74
     0
 42
0.0000000001
 43
0.0000000001
 40
0.0
 40
0.0
 40
0.0
 40
0.0
 40
1.0
 40
1.0
 40
1.0
 40
1.0
 10
-22.57497093843995
 20
32.06474467545377
 30
0.0
 10
-22.57497093843995
 20
32.06474467545377
 30
0.0
 10
-22.62696907686768
 20
32.49774333268033
 30
0.0
 10
-23.1239707248169
 20
32.69275065689908
 30
0.0
  0
SPLINE
  5
A2
330
70
100
AcDbEntity
  8
Camada 1
 62
   250
420
  1907995
370
     9
100
AcDbSpline
210
0.0
220
0.0
230
1.0
 70
     8
 71
     3
 72
     8
 73
     4
 74
     0
 42
0.0000000001
 43
0.0000000001
 40
0.0
 40
0.0
 40
0.0
 40
0.0
 40
1.0
 40
1.0
 40
1.0
 40
1.0
 10
-26.89096901583253
 20
32.06474467545377
 30
0.0
 10
-26.89096901583253
 20
32.06474467545377
 30
0.0
 10
-26.73397133516846
 20
32.61374064713346
 30
0.0
 10
-26.34196922945557
 20
32.69275065689908
 30
0.0
  0
LWPOLYLINE
  5
A3
330
70
100
AcDbEntity
  8
Camada 1
 62
   250
420
  1907995
370
     9
100
AcDbPolyline
 90
        4
 70
     1
 43
0.0
 10
-9.851967550986955
 20
28.37574931412564
 10
-39.51596710848389
 20
28.37574931412564
 10
-39.51596710848389
 20
26.64973613053189
 10
-9.851967550986955
 20
26.64973613053189
  0
LWPOLYLINE
  5
A4
330
70
100
AcDbEntity
  8
Camada 1
 62
   250
420
  1907995
370
     9
100
AcDbPolyline
 90
        4
 70
     0
 43
0.0
 10
-21.86896965670166
 20
28.37574931412564
 10
-21.85897133516846
 20
32.06474467545377
 10
-27.5099684970337
 20
32.06474467545377
 10
-27.51897118258057
 20
28.37574931412564
  0
LWPOLYLINE
  5
A5
330
70
100
AcDbEntity
  8
Camada 1
 62
   250
420
  1907995
370
     9
100
AcDbPolyline
 90
        4
 70
     0
 43
0.0
 10
-22.96796868013917
 20
34.26175090103971
 10
-22.96796868013917
 20
35.36074992447721
 10
-26.48996803927003
 20
35.36074992447721
 10
-26.48996803927003
 20
34.26175090103971
  0
LINE
  5
A6
330
70
100
AcDbEntity
  8
Camada 1
 62
   250
420
  1907995
370
     9
100
AcDbLine
 10
-23.1239707248169
 20
35.36074992447721
 30
0.0
 11
-23.1239707248169
 21
47.83874675064907
 31
0.0
  0
SPLINE
  5
A7
330
70
100
AcDbEntity
  8
Camada 1
 62
   250
420
  1907995
370
     9
100
AcDbSpline
210
0.0
220
0.0
230
1.0
 70
     8
 71
     3
 72
    11
 73
     7
 74
     0
 42
0.0000000001
 43
0.0000000001
 40
0.0
 40
0.0
 40
0.0
 40
0.0
 40
1.0
 40
1.0
 40
1.0
 40
2.0
 40
2.0
 40
2.0
 40
2.0
 10
-23.1239707248169
 20
47.75973674088345
 30
0.0
 10
-23.1239707248169
 20
49.7777421119772
 30
0.0
 10
-26.34196922945557
 20
49.99374552994595
 30
0.0
 10
-26.34196922945557
 20
47.75973674088345
 30
0.0
 10
-26.34196922945557
 20
47.75973674088345
 30
0.0
 10
-26.34196922945557
 20
35.36074992447721
 30
0.0
 10
-26.34196922945557
 20
35.36074992447721
 30
0.0
  0
LINE
  5
A8
330
70
100
AcDbEntity
  8
Camada 1
 62
   250
420
  1907995
370
     9
100
AcDbLine
 10
-23.11496803927003
 20
14.79974528580533
 30
0.0
 11
-23.11496803927003
 21
26.64973613053189
 31
0.0
  0
LWPOLYLINE
  5
A9
330
70
100
AcDbEntity
  8
Camada 1
 62
   250
420
  1907995
370
     9
100
AcDbPolyline
 90
        4
 70
     0
 43
0.0
 10
-26.34196922945557
 20
33.39874430924283
 10
-26.34196922945557
 20
32.69275065689908
 10
-23.1239707248169
 20
32.69275065689908
 10
-23.1239707248169
 20
33.39874430924283
  0
LINE
  5
AA
330
70
100
AcDbEntity
  8
Camada 1
 62
   250
420
  1907995
370
     9
100
AcDbLine
 10
-26.33297035860596
 20
26.64973613053189
 30
0.0
 11
-26.33297035860596
 21
15.8977372291647
 31
0.0
  0
LWPOLYLINE
  5
AB
330
70
100
AcDbEntity
  8
Camada 1
 62
   250
420
  1907995
370
     9
100
AcDbPolyline
 90
        4
 70
     0
 43
0.0
 10
-23.0459677951294
 20
34.26175090103971
 10
-23.0459677951294
 20
33.39874430924283
 10
-26.4109694735962
 20
33.39874430924283
 10
-26.4109694735962
 20
34.26175090103971
  0
LINE
  5
AC
330
70
100
AcDbEntity
  8
Camada 1
 62
   250
420
  1907995
370
     9
100
AcDbLine
 10
-25.9453704135376
 20
3.680436814125641
 30
0.0
 11
-25.9453704135376
 21
-8.925550734702483
 31
0.0
  0
LINE
  5
AD
330
70
100
AcDbEntity
  8
Camada 1
 62
   250
420
  1907995
370
     9
100
AcDbLine
 10
-23.42437050509034
 20
-8.925550734702483
 30
0.0
 11
-23.43037102388917
 21
3.548448288735016
 31
0.0
  0
LINE
  5
AE
330
70
100
AcDbEntity
  8
Camada 1
 62
   250
420
  1907995
370
     9
100
AcDbLine
 10
69.22152640653258
 20
-12.11106709212436
 30
0.0
 11
72.12452628446226
 21
-12.11106709212436
 31
0.0
  0
LWPOLYLINE
  5
AF
330
70
100
AcDbEntity
  8
Camada 1
 62
   250
420
  1907995
370
     9
100
AcDbPolyline
 90
        8
 70
     1
 43
0.0
 10
69.22152640653258
 20
-8.502058303061858
 10
65.68952872586123
 20
-8.502058303061858
 10
65.68952872586123
 20
-6.853071486655608
 10
63.88452842069273
 20
-6.853071486655608
 10
63.88452842069273
 20
-14.30906513899936
 10
65.68952872586123
 20
-14.30906513899936
 10
65.68952872586123
 20
-12.66107014388217
 10
69.22152640653258
 20
-12.66107014388217
  0
SPLINE
  5
B0
330
70
100
AcDbEntity
  8
Camada 1
 62
   250
420
  1907995
370
     9
100
AcDbSpline
210
0.0
220
0.0
230
1.0
 70
     8
 71
     3
 72
    26
 73
    22
 74
     0
 42
0.0000000001
 43
0.0000000001
 40
0.0
 40
0.0
 40
0.0
 40
0.0
 40
1.0
 40
1.0
 40
1.0
 40
2.0
 40
2.0
 40
2.0
 40
3.0
 40
3.0
 40
3.0
 40
4.0
 40
4.0
 40
4.0
 40
5.0
 40
5.0
 40
5.0
 40
6.0
 40
6.0
 40
6.0
 40
7.0
 40
7.0
 40
7.0
 40
7.0
 10
72.20352103544247
 20
-12.19006184310092
 30
0.0
 10
72.20352103544247
 20
-12.19006184310092
 30
0.0
 10
72.20352103544247
 20
-16.50607136458529
 30
0.0
 10
72.20352103544247
 20
-16.50607136458529
 30
0.0
 10
72.20352103544247
 20
-16.50607136458529
 30
0.0
 10
76.36251761747189
 20
-16.50607136458529
 30
0.0
 10
76.36251761747189
 20
-16.50607136458529
 30
0.0
 10
76.36251761747189
 20
-16.50607136458529
 30
0.0
 10
76.36251761747189
 20
-5.83306721419467
 30
0.0
 10
76.36251761747189
 20
-5.83306721419467
 30
0.0
 10
76.36251761747189
 20
-5.83306721419467
 30
0.0
 10
72.20352103544247
 20
-5.83306721419467
 30
0.0
 10
72.20352103544247
 20
-5.83306721419467
 30
0.0
 10
72.20352103544247
 20
-5.83306721419467
 30
0.0
 10
72.20352103544247
 20
-8.972059523764983
 30
0.0
 10
72.20352103544247
 20
-8.972059523764983
 30
0.0
 10
72.20352103544247
 20
-9.15106037825717
 30
0.0
 10
72.04652335477113
 20
-9.129057204429045
 30
0.0
 10
72.04652335477113
 20
-9.129057204429045
 30
0.0
 10
72.04652335477113
 20
-9.129057204429045
 30
0.0
 10
69.22152640653258
 20
-9.133070265952483
 30
0.0
 10
69.22152640653258
 20
-9.129057204429045
 30
0.0
  0
LINE
  5
B1
330
70
100
AcDbEntity
  8
Camada 1
 62
   250
420
  1907995
370
     9
100
AcDbLine
 10
72.51751639676149
 20
-16.50607136458529
 30
0.0
 11
72.51751639676149
 21
-26.39405659407748
 31
0.0
  0
LINE
  5
B2
330
70
100
AcDbEntity
  8
Camada 1
 62
   250
420
  1907995
370
     9
100
AcDbLine
 10
76.12652518583309
 20
-26.39405659407748
 30
0.0
 11
76.12652518583309
 21
-16.50607136458529
 31
0.0
  0
LWPOLYLINE
  5
B3
330
70
100
AcDbEntity
  8
Camada 1
 62
   250
420
  1907995
370
     9
100
AcDbPolyline
 90
        4
 70
     0
 43
0.0
 10
72.67352225614195
 20
-57.55006245345248
 10
72.67352225614195
 20
-58.09905842513217
 10
75.97051932645263
 20
-58.09905842513217
 10
75.97051932645263
 20
-57.55006245345248
  0
LWPOLYLINE
  5
B4
330
70
100
AcDbEntity
  8
Camada 1
 62
   250
420
  1907995
370
     9
100
AcDbPolyline
 90
        4
 70
     0
 43
0.0
 10
72.67352225614195
 20
-58.09905842513217
 10
72.67352225614195
 20
-59.35506275862826
 10
75.89152457547243
 20
-59.35506275862826
 10
75.97051932645263
 20
-58.09905842513217
  0
LWPOLYLINE
  5
B5
330
70
100
AcDbEntity
  8
Camada 1
 62
   250
420
  1907995
370
     9
100
AcDbPolyline
 90
        9
 70
     0
 43
0.0
 10
76.67652823758181
 20
-27.65006855696811
 10
76.04852225614195
 20
-27.65006855696811
 10
76.04852225614195
 20
-35.49806050032748
 10
76.67652823758181
 20
-35.49806050032748
 10
76.67652823758181
 20
-26.39405659407748
 10
71.96752860379274
 20
-26.39405659407748
 10
71.96752860379274
 20
-57.47106007308139
 10
76.67652823758181
 20
-57.47106007308139
 10
76.67652823758181
 20
-35.49806050032748
  0
SPLINE
  5
B6
330
70
100
AcDbEntity
  8
Camada 1
 62
   250
420
  1907995
370
     9
100
AcDbSpline
210
0.0
220
0.0
230
1.0
 70
     9
 71
     3
 72
    11
 73
     7
 74
     0
 42
0.0000000001
 43
0.0000000001
 40
0.0
 40
0.0
 40
0.0
 40
0.0
 40
1.0
 40
1.0
 40
1.0
 40
2.0
 40
2.0
 40
2.0
 40
2.0
 10
75.65652396512269
 20
-64.92705372542514
 30
0.0
 10
77.85652091336124
 20
-63.43505696028842
 30
0.0
 10
77.55451896024169
 20
-60.64805439681186
 30
0.0
 10
75.65652396512269
 20
-59.66905811995639
 30
0.0
 10
75.65652396512269
 20
-59.66905811995639
 30
0.0
 10
75.65652396512269
 20
-64.92705372542514
 30
0.0
 10
75.65652396512269
 20
-64.92705372542514
 30
0.0
  0
LINE
  5
B7
330
70
100
AcDbEntity
  8
Camada 1
 62
   250
420
  1907995
370
     9
100
AcDbLine
 10
72.51751639676149
 20
-64.63706043929232
 30
0.0
 11
72.51751639676149
 21
-134.6930525657571
 31
0.0
  0
LINE
  5
B8
330
70
100
AcDbEntity
  8
Camada 1
 62
   250
420
  1907995
370
     9
100
AcDbLine
 10
76.12652518583309
 20
-134.6930525657571
 30
0.0
 11
76.12652518583309
 21
-64.55406025618685
 31
0.0
  0
LWPOLYLINE
  5
B9
330
70
100
AcDbEntity
  8
Camada 1
 62
   250
420
  1907995
370
     9
100
AcDbPolyline
 90
        3
 70
     0
 43
0.0
 10
72.90951468778257
 20
-145.9150526878275
 10
72.90951468778257
 20
-147.0920546409525
 10
73.14451529813232
 20
-147.0920546409525
  0
LWPOLYLINE
  5
BA
330
70
100
AcDbEntity
  8
Camada 1
 62
   250
420
  1907995
370
     9
100
AcDbPolyline
 90
        3
 70
     0
 43
0.0
 10
75.49952628446226
 20
-147.0920546409525
 10
75.734526894812
 20
-147.0920546409525
 10
75.734526894812
 20
-145.9150526878275
  0
SPLINE
  5
BB
330
70
100
AcDbEntity
  8
Camada 1
 62
   250
420
  1907995
370
     9
100
AcDbSpline
210
0.0
220
0.0
230
1.0
 70
     8
 71
     3
 72
    14
 73
    10
 74
     0
 42
0.0000000001
 43
0.0000000001
 40
0.0
 40
0.0
 40
0.0
 40
0.0
 40
1.0
 40
1.0
 40
1.0
 40
2.0
 40
2.0
 40
2.0
 40
3.0
 40
3.0
 40
3.0
 40
3.0
 10
73.14451529813232
 20
-143.8910506126321
 30
0.0
 10
72.58051993680237
 20
-143.8910506126321
 30
0.0
 10
72.4385216457922
 20
-144.2670576927103
 30
0.0
 10
72.4385216457922
 20
-144.2670576927103
 30
0.0
 10
72.4385216457922
 20
-144.2670576927103
 30
0.0
 10
72.4385216457922
 20
-145.6790602561868
 30
0.0
 10
72.4385216457922
 20
-145.6790602561868
 30
0.0
 10
72.4385216457922
 20
-145.6790602561868
 30
0.0
 10
72.53152396512269
 20
-145.952055251304
 30
0.0
 10
73.06652762723206
 20
-145.9150526878275
 30
0.0
  0
SPLINE
  5
BC
330
70
100
AcDbEntity
  8
Camada 1
 62
   250
420
  1907995
370
     9
100
AcDbSpline
210
0.0
220
0.0
230
1.0
 70
     8
 71
     3
 72
    14
 73
    10
 74
     0
 42
0.0000000001
 43
0.0000000001
 40
0.0
 40
0.0
 40
0.0
 40
0.0
 40
1.0
 40
1.0
 40
1.0
 40
2.0
 40
2.0
 40
2.0
 40
3.0
 40
3.0
 40
3.0
 40
3.0
 10
75.57752921415158
 20
-145.9180586692728
 30
0.0
 10
76.27952506376278
 20
-145.8720534202493
 30
0.0
 10
76.20551993680237
 20
-145.6790602561868
 30
0.0
 10
76.20551993680237
 20
-145.6790602561868
 30
0.0
 10
76.20551993680237
 20
-145.6790602561868
 30
0.0
 10
76.20551993680237
 20
-144.2670576927103
 30
0.0
 10
76.20551993680237
 20
-144.2670576927103
 30
0.0
 10
76.20551993680237
 20
-144.2670576927103
 30
0.0
 10
76.10052420926149
 20
-143.9130537864603
 30
0.0
 10
75.49952628446226
 20
-143.8910506126321
 30
0.0
  0
LWPOLYLINE
  5
BD
330
70
100
AcDbEntity
  8
Camada 1
 62
   250
420
  1907995
370
     9
100
AcDbPolyline
 90
        3
 70
     0
 43
0.0
 10
76.36251761747189
 20
-138.6950514671243
 10
76.36251761747189
 20
-137.5180647727884
 10
75.49952628446226
 20
-137.5180647727884
  0
LWPOLYLINE
  5
BE
330
70
100
AcDbEntity
  8
Camada 1
 62
   250
420
  1907995
370
     9
100
AcDbPolyline
 90
        3
 70
     0
 43
0.0
 10
73.14451529813232
 20
-137.5180647727884
 10
72.20352103544247
 20
-137.5180647727884
 10
72.20352103544247
 20
-138.4600508567728
  0
LWPOLYLINE
  5
BF
330
70
100
AcDbEntity
  8
Camada 1
 62
   250
420
  1907995
370
     9
100
AcDbPolyline
 90
        3
 70
     0
 43
0.0
 10
72.20352103544247
 20
-135.7910597679056
 10
72.20352103544247
 20
-137.1250594016947
 10
73.14451529813232
 20
-137.1250594016947
  0
LWPOLYLINE
  5
C0
330
70
100
AcDbEntity
  8
Camada 1
 62
   250
420
  1907995
370
     9
100
AcDbPolyline
 90
        3
 70
     0
 43
0.0
 10
75.49952628446226
 20
-137.1250594016947
 10
76.36251761747189
 20
-137.1250594016947
 10
76.36251761747189
 20
-135.7910597679056
  0
LWPOLYLINE
  5
C1
330
70
100
AcDbEntity
  8
Camada 1
 62
   250
420
  1907995
370
     9
100
AcDbPolyline
 90
        3
 70
     0
 43
0.0
 10
73.14451529813232
 20
-134.6930525657571
 10
72.28152396512268
 20
-134.6930525657571
 10
72.28152396512268
 20
-135.7910597679056
  0
LWPOLYLINE
  5
C2
330
70
100
AcDbEntity
  8
Camada 1
 62
   250
420
  1907995
370
     9
100
AcDbPolyline
 90
        3
 70
     0
 43
0.0
 10
76.28352286649169
 20
-135.7910597679056
 10
76.28352286649169
 20
-134.6930525657571
 10
75.50152518583309
 20
-134.6930525657571
  0
LINE
  5
C3
330
70
100
AcDbEntity
  8
Camada 1
 62
   250
420
  1907995
370
     9
100
AcDbLine
 10
68.24052359891175
 20
-142.6190626975931
 30
0.0
 11
68.357527993443
 21
-142.6190626975931
 31
0.0
  0
LINE
  5
C4
330
70
100
AcDbEntity
  8
Camada 1
 62
   250
420
  1907995
370
     9
100
AcDbLine
 10
68.357527993443
 20
-139.6370528098978
 30
0.0
 11
68.25552298856201
 21
-139.6370528098978
 31
0.0
  0
LINE
  5
C5
330
70
100
AcDbEntity
  8
Camada 1
 62
   250
420
  1907995
370
     9
100
AcDbLine
 10
65.14052512479247
 20
-143.0110609886087
 30
0.0
 11
66.08252646756227
 21
-143.0110609886087
 31
0.0
  0
LINE
  5
C6
330
70
100
AcDbEntity
  8
Camada 1
 62
   250
420
  1907995
370
     9
100
AcDbLine
 10
66.08252646756227
 20
-139.1660597679056
 30
0.0
 11
65.14052512479247
 21
-139.1660597679056
 31
0.0
  0
LWPOLYLINE
  5
C7
330
70
100
AcDbEntity
  8
Camada 1
 62
   250
420
  1907995
370
     9
100
AcDbPolyline
 90
        6
 70
     0
 43
0.0
 10
73.0725243313318
 20
-138.3810561057962
 10
71.81051566434144
 20
-138.7740614768899
 10
68.357527993443
 20
-139.0090620872415
 10
68.357527993443
 20
-143.1680586692728
 10
71.81051566434144
 20
-143.4040511009134
 10
73.14451529813232
 20
-143.7720625755228
  0
LWPOLYLINE
  5
C8
330
70
100
AcDbEntity
  8
Camada 1
 62
   250
420
  1907995
370
     9
100
AcDbPolyline
 90
       16
 70
     1
 43
0.0
 10
64.90452506376278
 20
-145.5220625755228
 10
64.90452506376278
 20
-145.5220625755228
 10
64.98352744413205
 20
-145.5220625755228
 10
65.06152274442138
 20
-145.5220625755228
 10
65.06152274442138
 20
-145.4440596458353
 10
65.14052512479247
 20
-145.4440596458353
 10
65.14052512479247
 20
-145.3660567161478
 10
65.14052512479247
 20
-145.2870619651712
 10
65.14052512479247
 20
-136.9680617210306
 10
65.14052512479247
 20
-136.8900587913431
 10
65.14052512479247
 20
-136.8120558616556
 10
65.06152274442138
 20
-136.733061110679
 10
64.98352744413205
 20
-136.6550581809915
 10
64.90452506376278
 20
-136.6550581809915
 10
61.76552512479247
 20
-136.6550581809915
 10
61.76552512479247
 20
-145.5220625755228
  0
LWPOLYLINE
  5
C9
330
70
100
AcDbEntity
  8
Camada 1
 62
   250
420
  1907995
370
     9
100
AcDbPolyline
 90
        6
 70
     0
 43
0.0
 10
61.76552512479247
 20
-137.7530501243509
 10
59.80352713895263
 20
-137.7530501243509
 10
59.64652945829221
 20
-137.910063063804
 10
59.64652945829221
 20
-140.6570570823587
 10
59.80352713895263
 20
-140.7350600120462
 10
61.76552512479247
 20
-140.7350600120462
  0
SPLINE
  5
CA
330
70
100
AcDbEntity
  8
Camada 1
 62
   250
420
  1907995
370
     9
100
AcDbSpline
210
0.0
220
0.0
230
1.0
 70
     8
 71
     3
 72
    38
 73
    34
 74
     0
 42
0.0000000001
 43
0.0000000001
 40
0.0
 40
0.0
 40
0.0
 40
0.0
 40
1.0
 40
1.0
 40
1.0
 40
2.0
 40
2.0
 40
2.0
 40
3.0
 40
3.0
 40
3.0
 40
4.0
 40
4.0
 40
4.0
 40
5.0
 40
5.0
 40
5.0
 40
6.0
 40
6.0
 40
6.0
 40
7.0
 40
7.0
 40
7.0
 40
8.0
 40
8.0
 40
8.0
 40
9.0
 40
9.0
 40
9.0
 40
10.0
 40
10.0
 40
10.0
 40
11.0
 40
11.0
 40
11.0
 40
11.0
 10
-34.03247139620362
 20
-62.10806111067904
 30
0.0
 10
-34.03247139620362
 20
-62.10806111067904
 30
0.0
 10
-33.90447113680421
 20
-69.00705555647983
 30
0.0
 10
-33.77747032808839
 20
-71.14505604476107
 30
0.0
 10
-33.64947006868897
 20
-73.28405598372592
 30
0.0
 10
-33.57247040438233
 20
-79.99706104964388
 30
0.0
 10
-35.13147041964112
 20
-84.63105610579622
 30
0.0
 10
-36.69047043489991
 20
-89.2650587913431
 30
0.0
 10
-39.4104697482544
 20
-95.64905384749545
 30
0.0
 10
-42.11146996187745
 20
-100.358061110679
 30
0.0
 10
-44.81247017550049
 20
-105.0680601951517
 30
0.0
 10
-50.50046990084229
 20
-114.7780592796243
 30
0.0
 10
-52.40247032808838
 20
-118.4260542747415
 30
0.0
 10
-54.30347130465088
 20
-122.0740568992532
 30
0.0
 10
-59.2744719760376
 20
-131.9780562278665
 30
0.0
 10
-60.43346855806885
 20
-138.1640608665384
 30
0.0
 10
-61.59347222017823
 20
-144.3500502464212
 30
0.0
 10
-62.73947212862549
 20
-148.6650526878275
 30
0.0
 10
-59.20246956514893
 20
-156.5600569602884
 30
0.0
 10
-55.66447136568604
 20
-164.4540541526712
 30
0.0
 10
-47.75147125887452
 20
-167.6060622093118
 30
0.0
 10
-45.99346993135987
 20
-168.0540602561868
 30
0.0
 10
-44.23646996187744
 20
-168.5020583030618
 30
0.0
 10
-38.80747101473389
 20
-170.2880537864603
 30
0.0
 10
-31.12547180819092
 20
-166.8440535423196
 30
0.0
 10
-23.44347069429932
 20
-163.4010603782571
 30
0.0
 10
-21.04147408175049
 20
-157.7470534202493
 30
0.0
 10
-21.31947395968018
 20
-155.2520583030618
 30
0.0
 10
-21.59747383760987
 20
-152.7580550071634
 30
0.0
 10
-23.51647255587159
 20
-149.0960524436868
 30
0.0
 10
-23.51647255587159
 20
-147.5900557395853
 30
0.0
 10
-23.51647255587159
 20
-147.5900557395853
 30
0.0
 10
-23.51647255587159
 20
-144.2730543968118
 30
0.0
 10
-23.51647255587159
 20
-144.2730543968118
 30
0.0
  0
SPLINE
  5
CB
330
70
100
AcDbEntity
  8
Camada 1
 62
   250
420
  1907995
370
     9
100
AcDbSpline
210
0.0
220
0.0
230
1.0
 70
     8
 71
     3
 72
    35
 73
    31
 74
     0
 42
0.0000000001
 43
0.0000000001
 40
0.0
 40
0.0
 40
0.0
 40
0.0
 40
1.0
 40
1.0
 40
1.0
 40
2.0
 40
2.0
 40
2.0
 40
3.0
 40
3.0
 40
3.0
 40
4.0
 40
4.0
 40
4.0
 40
5.0
 40
5.0
 40
5.0
 40
6.0
 40
6.0
 40
6.0
 40
7.0
 40
7.0
 40
7.0
 40
8.0
 40
8.0
 40
8.0
 40
9.0
 40
9.0
 40
9.0
 40
10.0
 40
10.0
 40
10.0
 40
10.0
 10
-25.94947121309815
 20
-144.2730543968118
 30
0.0
 10
-25.94947121309815
 20
-144.2730543968118
 30
0.0
 10
-26.26147148775635
 20
-147.3970625755228
 30
0.0
 10
-25.51847145723878
 20
-149.4530623313822
 30
0.0
 10
-24.77447197603761
 20
-151.5090620872415
 30
0.0
 10
-21.45647118258057
 20
-156.6890547630228
 30
0.0
 10
-26.41047356295167
 20
-160.8220503684915
 30
0.0
 10
-31.36547157930909
 20
-164.9560530540384
 30
0.0
 10
-37.26347038912354
 20
-168.3140547630228
 30
0.0
 10
-45.71847031282959
 20
-165.6710646507181
 30
0.0
 10
-54.17446968721924
 20
-163.0280592796243
 30
0.0
 10
-57.61447212862549
 20
-155.1720564720072
 30
0.0
 10
-58.47847054171143
 20
-151.7780592796243
 30
0.0
 10
-59.34146950411378
 20
-148.3840620872415
 30
0.0
 10
-59.57447121309815
 20
-140.087065016929
 30
0.0
 10
-55.68346855806885
 20
-130.9680617210306
 30
0.0
 10
-51.79246971773682
 20
-121.8490584251322
 30
0.0
 10
-43.35747025179443
 20
-107.2210600730814
 30
0.0
 10
-42.10647080111084
 20
-105.1240599510111
 30
0.0
 10
-40.85647080111084
 20
-103.0260603782571
 30
0.0
 10
-35.17647049593506
 20
-92.95706013411654
 30
0.0
 10
-33.49747154879151
 20
-87.53505543440951
 30
0.0
 10
-31.81947014498291
 20
-82.11205891341341
 30
0.0
 10
-31.58047173189698
 20
-79.46305683821811
 30
0.0
 10
-31.49147102999268
 20
-77.62105396956576
 30
0.0
 10
-31.40247032808839
 20
-75.77805927962436
 30
0.0
 10
-31.53447029757081
 20
-69.58805683821811
 30
0.0
 10
-31.56847069429932
 20
-67.03005818099154
 30
0.0
 10
-31.60247109102784
 20
-64.47305897444858
 30
0.0
 10
-31.67847130465089
 20
-62.34305409163607
 30
0.0
 10
-31.67847130465089
 20
-62.34305409163607
 30
0.0
  0
SPLINE
  5
CC
330
70
100
AcDbEntity
  8
Camada 1
 62
   250
420
  1907995
370
     9
100
AcDbSpline
210
0.0
220
0.0
230
1.0
 70
     8
 71
     3
 72
     8
 73
     4
 74
     0
 42
0.0000000001
 43
0.0000000001
 40
0.0
 40
0.0
 40
0.0
 40
0.0
 40
1.0
 40
1.0
 40
1.0
 40
1.0
 10
-39.21246979403077
 20
-141.2130568382181
 30
0.0
 10
-37.35947106051026
 20
-143.2650587913431
 30
0.0
 10
-34.16747162508546
 20
-143.2490523216165
 30
0.0
 10
-32.54147026705323
 20
-141.2130568382181
 30
0.0
  0
SPLINE
  5
CD
330
70
100
AcDbEntity
  8
Camada 1
 62
   250
420
  1907995
370
     9
100
AcDbSpline
210
0.0
220
0.0
230
1.0
 70
     8
 71
     3
 72
     8
 73
     4
 74
     0
 42
0.0000000001
 43
0.0000000001
 40
0.0
 40
0.0
 40
0.0
 40
0.0
 40
1.0
 40
1.0
 40
1.0
 40
1.0
 10
-39.21246979403077
 20
-135.327055251304
 30
0.0
 10
-37.14847061800538
 20
-133.2210524436868
 30
0.0
 10
-34.13547012972413
 20
-133.5220625755228
 30
0.0
 10
-32.54147026705323
 20
-135.327055251304
 30
0.0
  0
SPLINE
  5
CE
330
70
100
AcDbEntity
  8
Camada 1
 62
   250
420
  1907995
370
     9
100
AcDbSpline
210
0.0
220
0.0
230
1.0
 70
     8
 71
     3
 72
     8
 73
     4
 74
     0
 42
0.0000000001
 43
0.0000000001
 40
0.0
 40
0.0
 40
0.0
 40
0.0
 40
1.0
 40
1.0
 40
1.0
 40
1.0
 10
-24.69447395968018
 20
-142.8610518333353
 30
0.0
 10
-24.69447395968018
 20
-142.8610518333353
 30
0.0
 10
-23.85247109102784
 20
-143.3860609886087
 30
0.0
 10
-23.04647133516846
 20
-142.8610518333353
 30
0.0
  0
SPLINE
  5
CF
330
70
100
AcDbEntity
  8
Camada 1
 62
   250
420
  1907995
370
     9
100
AcDbSpline
210
0.0
220
0.0
230
1.0
 70
     8
 71
     3
 72
     8
 73
     4
 74
     0
 42
0.0000000001
 43
0.0000000001
 40
0.0
 40
0.0
 40
0.0
 40
0.0
 40
1.0
 40
1.0
 40
1.0
 40
1.0
 10
-24.69447395968018
 20
-141.4480574485696
 30
0.0
 10
-24.69447395968018
 20
-141.4480574485696
 30
0.0
 10
-24.0504729526001
 20
-140.9280531761087
 30
0.0
 10
-23.04647133516846
 20
-141.4480574485696
 30
0.0
  0
SPLINE
  5
D0
330
70
100
AcDbEntity
  8
Camada 1
 62
   250
420
  1907995
370
     9
100
AcDbSpline
210
0.0
220
0.0
230
1.0
 70
     8
 71
     3
 72
     8
 73
     4
 74
     0
 42
0.0000000001
 43
0.0000000001
 40
0.0
 40
0.0
 40
0.0
 40
0.0
 40
1.0
 40
1.0
 40
1.0
 40
1.0
 10
-26.34247276949464
 20
-142.8610518333353
 30
0.0
 10
-26.34247276949464
 20
-142.8610518333353
 30
0.0
 10
-25.30747292208253
 20
-143.4070570823587
 30
0.0
 10
-24.77247307467042
 20
-142.8610518333353
 30
0.0
  0
SPLINE
  5
D1
330
70
100
AcDbEntity
  8
Camada 1
 62
   250
420
  1907995
370
     9
100
AcDbSpline
210
0.0
220
0.0
230
1.0
 70
     8
 71
     3
 72
     8
 73
     4
 74
     0
 42
0.0000000001
 43
0.0000000001
 40
0.0
 40
0.0
 40
0.0
 40
0.0
 40
1.0
 40
1.0
 40
1.0
 40
1.0
 10
-26.34247276949464
 20
-141.4480574485696
 30
0.0
 10
-26.34247276949464
 20
-141.4480574485696
 30
0.0
 10
-25.52347252535401
 20
-140.9280531761087
 30
0.0
 10
-24.77247307467042
 20
-141.4480574485696
 30
0.0
  0
SPLINE
  5
D2
330
70
100
AcDbEntity
  8
Camada 1
 62
   250
420
  1907995
370
     9
100
AcDbSpline
210
0.0
220
0.0
230
1.0
 70
     8
 71
     3
 72
    14
 73
    10
 74
     0
 42
0.0000000001
 43
0.0000000001
 40
0.0
 40
0.0
 40
0.0
 40
0.0
 40
1.0
 40
1.0
 40
1.0
 40
2.0
 40
2.0
 40
2.0
 40
3.0
 40
3.0
 40
3.0
 40
3.0
 10
-26.34247276949464
 20
-141.2130568382181
 30
0.0
 10
-26.34247276949464
 20
-141.2130568382181
 30
0.0
 10
-25.79247353243409
 20
-141.2130568382181
 30
0.0
 10
-25.79247353243409
 20
-141.2130568382181
 30
0.0
 10
-25.06047127413331
 20
-140.8990614768899
 30
0.0
 10
-24.3274733798462
 20
-140.8990614768899
 30
0.0
 10
-23.59547112154542
 20
-141.2130568382181
 30
0.0
 10
-23.59547112154542
 20
-141.2130568382181
 30
0.0
 10
-23.04647133516846
 20
-141.2130568382181
 30
0.0
 10
-23.04647133516846
 20
-141.2130568382181
 30
0.0
  0
LWPOLYLINE
  5
D3
330
70
100
AcDbEntity
  8
Camada 1
 62
   250
420
  1907995
370
     9
100
AcDbPolyline
 90
        4
 70
     1
 43
0.0
 10
-24.77247307467042
 20
-141.4480574485696
 10
-24.69447395968018
 20
-141.4480574485696
 10
-24.69447395968018
 20
-142.8610518333353
 10
-24.77247307467042
 20
-142.8610518333353
  0
SPLINE
  5
D4
330
70
100
AcDbEntity
  8
Camada 1
 62
   250
420
  1907995
370
     9
100
AcDbSpline
210
0.0
220
0.0
230
1.0
 70
     8
 71
     3
 72
     8
 73
     4
 74
     0
 42
0.0000000001
 43
0.0000000001
 40
0.0
 40
0.0
 40
0.0
 40
0.0
 40
1.0
 40
1.0
 40
1.0
 40
1.0
 10
-16.92447350191651
 20
-141.2130568382181
 30
0.0
 10
-15.2744719760376
 20
-143.222059523765
 30
0.0
 10
-11.81847069429932
 20
-143.222059523765
 30
0.0
 10
-10.25447151827393
 20
-141.2130568382181
 30
0.0
  0
SPLINE
  5
D5
330
70
100
AcDbEntity
  8
Camada 1
 62
   250
420
  1907995
370
     9
100
AcDbSpline
210
0.0
220
0.0
230
1.0
 70
     8
 71
     3
 72
     8
 73
     4
 74
     0
 42
0.0000000001
 43
0.0000000001
 40
0.0
 40
0.0
 40
0.0
 40
0.0
 40
1.0
 40
1.0
 40
1.0
 40
1.0
 10
-16.92447350191651
 20
-135.327055251304
 30
0.0
 10
-15.0254714267212
 20
-133.275053298179
 30
0.0
 10
-12.15247032808838
 20
-133.3940565940775
 30
0.0
 10
-10.25447151827393
 20
-135.327055251304
 30
0.0
  0
SPLINE
  5
D6
330
70
100
AcDbEntity
  8
Camada 1
 62
   250
420
  1907995
370
     9
100
AcDbSpline
210
0.0
220
0.0
230
1.0
 70
     8
 71
     3
 72
     8
 73
     4
 74
     0
 42
0.0000000001
 43
0.0000000001
 40
0.0
 40
0.0
 40
0.0
 40
0.0
 40
1.0
 40
1.0
 40
1.0
 40
1.0
 10
-9.469471670858183
 20
-135.327055251304
 30
0.0
 10
-9.095471121547234
 20
-135.5230543968118
 30
0.0
 10
-8.701470114467156
 20
-135.5060561057962
 30
0.0
 10
-8.292473532437725
 20
-135.327055251304
 30
0.0
  0
LINE
  5
D7
330
70
100
AcDbEntity
  8
Camada 1
 62
   250
420
  1907995
370
     9
100
AcDbLine
 10
-37.72147057222901
 20
-141.2130568382181
 30
0.0
 11
-11.74547264742432
 21
-141.2130568382181
 31
0.0
  0
SPLINE
  5
D8
330
70
100
AcDbEntity
  8
Camada 1
 62
   250
420
  1907995
370
     9
100
AcDbSpline
210
0.0
220
0.0
230
1.0
 70
     8
 71
     3
 72
   131
 73
   127
 74
     0
 42
0.0000000001
 43
0.0000000001
 40
0.0
 40
0.0
 40
0.0
 40
0.0
 40
1.0
 40
1.0
 40
1.0
 40
2.0
 40
2.0
 40
2.0
 40
3.0
 40
3.0
 40
3.0
 40
4.0
 40
4.0
 40
4.0
 40
5.0
 40
5.0
 40
5.0
 40
6.0
 40
6.0
 40
6.0
 40
7.0
 40
7.0
 40
7.0
 40
8.0
 40
8.0
 40
8.0
 40
9.0
 40
9.0
 40
9.0
 40
10.0
 40
10.0
 40
10.0
 40
11.0
 40
11.0
 40
11.0
 40
12.0
 40
12.0
 40
12.0
 40
13.0
 40
13.0
 40
13.0
 40
14.0
 40
14.0
 40
14.0
 40
15.0
 40
15.0
 40
15.0
 40
16.0
 40
16.0
 40
16.0
 40
17.0
 40
17.0
 40
17.0
 40
18.0
 40
18.0
 40
18.0
 40
19.0
 40
19.0
 40
19.0
 40
20.0
 40
20.0
 40
20.0
 40
21.0
 40
21.0
 40
21.0
 40
22.0
 40
22.0
 40
22.0
 40
23.0
 40
23.0
 40
23.0
 40
24.0
 40
24.0
 40
24.0
 40
25.0
 40
25.0
 40
25.0
 40
26.0
 40
26.0
 40
26.0
 40
27.0
 40
27.0
 40
27.0
 40
28.0
 40
28.0
 40
28.0
 40
29.0
 40
29.0
 40
29.0
 40
30.0
 40
30.0
 40
30.0
 40
31.0
 40
31.0
 40
31.0
 40
32.0
 40
32.0
 40
32.0
 40
33.0
 40
33.0
 40
33.0
 40
34.0
 40
34.0
 40
34.0
 40
35.0
 40
35.0
 40
35.0
 40
36.0
 40
36.0
 40
36.0
 40
37.0
 40
37.0
 40
37.0
 40
38.0
 40
38.0
 40
38.0
 40
39.0
 40
39.0
 40
39.0
 40
40.0
 40
40.0
 40
40.0
 40
41.0
 40
41.0
 40
41.0
 40
42.0
 40
42.0
 40
42.0
 40
42.0
 10
-37.72147057222901
 20
-141.2130568382181
 30
0.0
 10
-37.72147057222901
 20
-141.2130568382181
 30
0.0
 10
-37.72147057222901
 20
-141.2130568382181
 30
0.0
 10
-37.72147057222901
 20
-141.2130568382181
 30
0.0
 10
-37.72147057222901
 20
-141.2130568382181
 30
0.0
 10
-37.72147057222901
 20
-141.1340620872415
 30
0.0
 10
-37.72147057222901
 20
-141.1340620872415
 30
0.0
 10
-37.72147057222901
 20
-141.1340620872415
 30
0.0
 10
-37.72147057222901
 20
-140.9770644065775
 30
0.0
 10
-37.72147057222901
 20
-140.9770644065775
 30
0.0
 10
-37.72147057222901
 20
-140.9770644065775
 30
0.0
 10
-37.72147057222901
 20
-140.8200514671243
 30
0.0
 10
-37.72147057222901
 20
-140.8200514671243
 30
0.0
 10
-37.72147057222901
 20
-140.8200514671243
 30
0.0
 10
-37.72147057222901
 20
-140.5850508567728
 30
0.0
 10
-37.72147057222901
 20
-140.5850508567728
 30
0.0
 10
-37.72147057222901
 20
-140.5850508567728
 30
0.0
 10
-37.72147057222901
 20
-140.2710554954446
 30
0.0
 10
-37.72147057222901
 20
-140.2710554954446
 30
0.0
 10
-37.72147057222901
 20
-140.2710554954446
 30
0.0
 10
-37.72147057222901
 20
-139.9570601341165
 30
0.0
 10
-37.72147057222901
 20
-139.9570601341165
 30
0.0
 10
-37.72147057222901
 20
-139.9570601341165
 30
0.0
 10
-37.72147057222901
 20
-139.6430647727884
 30
0.0
 10
-37.72147057222901
 20
-139.6430647727884
 30
0.0
 10
-37.72147057222901
 20
-139.6430647727884
 30
0.0
 10
-37.72147057222901
 20
-139.2510512229837
 30
0.0
 10
-37.72147057222901
 20
-139.2510512229837
 30
0.0
 10
-37.72147057222901
 20
-139.2510512229837
 30
0.0
 10
-37.72147057222901
 20
-138.8590529319681
 30
0.0
 10
-37.72147057222901
 20
-138.8590529319681
 30
0.0
 10
-37.72147057222901
 20
-138.8590529319681
 30
0.0
 10
-37.72147057222901
 20
-138.4660628196634
 30
0.0
 10
-37.72147057222901
 20
-138.4660628196634
 30
0.0
 10
-37.72147057222901
 20
-138.4660628196634
 30
0.0
 10
-37.72147057222901
 20
-138.0740645286478
 30
0.0
 10
-37.72147057222901
 20
-138.0740645286478
 30
0.0
 10
-37.72147057222901
 20
-138.0740645286478
 30
0.0
 10
-37.72147057222901
 20
-137.681059157554
 30
0.0
 10
-37.72147057222901
 20
-137.681059157554
 30
0.0
 10
-37.72147057222901
 20
-137.681059157554
 30
0.0
 10
-37.72147057222901
 20
-137.2890608665384
 30
0.0
 10
-37.72147057222901
 20
-137.2890608665384
 30
0.0
 10
-37.72147057222901
 20
-137.2890608665384
 30
0.0
 10
-37.72147057222901
 20
-136.8970625755228
 30
0.0
 10
-37.72147057222901
 20
-136.8970625755228
 30
0.0
 10
-37.72147057222901
 20
-136.8970625755228
 30
0.0
 10
-37.72147057222901
 20
-136.5830519554056
 30
0.0
 10
-37.72147057222901
 20
-136.5830519554056
 30
0.0
 10
-37.72147057222901
 20
-136.5830519554056
 30
0.0
 10
-37.72147057222901
 20
-136.2690565940775
 30
0.0
 10
-37.72147057222901
 20
-136.2690565940775
 30
0.0
 10
-37.72147057222901
 20
-136.2690565940775
 30
0.0
 10
-37.72147057222901
 20
-135.9550612327493
 30
0.0
 10
-37.72147057222901
 20
-135.9550612327493
 30
0.0
 10
-37.72147057222901
 20
-135.9550612327493
 30
0.0
 10
-37.72147057222901
 20
-135.7190535423197
 30
0.0
 10
-37.72147057222901
 20
-135.7190535423197
 30
0.0
 10
-37.72147057222901
 20
-135.7190535423197
 30
0.0
 10
-37.72147057222901
 20
-135.5620558616556
 30
0.0
 10
-37.72147057222901
 20
-135.5620558616556
 30
0.0
 10
-37.72147057222901
 20
-135.5620558616556
 30
0.0
 10
-37.72147057222901
 20
-135.4060500022806
 30
0.0
 10
-37.72147057222901
 20
-135.4060500022806
 30
0.0
 10
-37.72147057222901
 20
-135.4060500022806
 30
0.0
 10
-37.72147057222901
 20
-135.327055251304
 30
0.0
 10
-37.72147057222901
 20
-135.327055251304
 30
0.0
 10
-37.72147057222901
 20
-135.327055251304
 30
0.0
 10
-27.51947090792237
 20
-135.327055251304
 30
0.0
 10
-27.51947090792237
 20
-135.327055251304
 30
0.0
 10
-27.51947090792237
 20
-135.327055251304
 30
0.0
 10
-26.81247399019776
 20
-135.1510603782571
 30
0.0
 10
-26.81247399019776
 20
-134.6990645286478
 30
0.0
 10
-26.81247399019776
 20
-134.6990645286478
 30
0.0
 10
-26.4994704501587
 20
-134.6990645286478
 30
0.0
 10
-26.4994704501587
 20
-134.6990645286478
 30
0.0
 10
-26.4994704501587
 20
-134.6990645286478
 30
0.0
 10
-26.34247276949464
 20
-134.6990645286478
 30
0.0
 10
-26.34247276949464
 20
-134.6990645286478
 30
0.0
 10
-26.34247276949464
 20
-134.6990645286478
 30
0.0
 10
-26.10647270845948
 20
-134.6990645286478
 30
0.0
 10
-26.10647270845948
 20
-134.6990645286478
 30
0.0
 10
-26.10647270845948
 20
-134.6990645286478
 30
0.0
 10
-25.79247353243409
 20
-134.6990645286478
 30
0.0
 10
-25.79247353243409
 20
-134.6990645286478
 30
0.0
 10
-25.79247353243409
 20
-134.6990645286478
 30
0.0
 10
-25.55747292208252
 20
-134.6990645286478
 30
0.0
 10
-25.55747292208252
 20
-134.6990645286478
 30
0.0
 10
-25.55747292208252
 20
-134.6990645286478
 30
0.0
 10
-25.24347374605714
 20
-134.6990645286478
 30
0.0
 10
-25.24347374605714
 20
-134.6990645286478
 30
0.0
 10
-25.24347374605714
 20
-134.6990645286478
 30
0.0
 10
-24.85147164034425
 20
-134.6990645286478
 30
0.0
 10
-24.85147164034425
 20
-134.6990645286478
 30
0.0
 10
-24.85147164034425
 20
-134.6990645286478
 30
0.0
 10
-24.53747246431885
 20
-134.6990645286478
 30
0.0
 10
-24.53747246431885
 20
-134.6990645286478
 30
0.0
 10
-24.53747246431885
 20
-134.6990645286478
 30
0.0
 10
-24.22347328829346
 20
-134.6990645286478
 30
0.0
 10
-24.22347328829346
 20
-134.6990645286478
 30
0.0
 10
-24.22347328829346
 20
-134.6990645286478
 30
0.0
 10
-23.90947411226807
 20
-134.6990645286478
 30
0.0
 10
-23.90947411226807
 20
-134.6990645286478
 30
0.0
 10
-23.90947411226807
 20
-134.6990645286478
 30
0.0
 10
-23.59547112154542
 20
-134.6990645286478
 30
0.0
 10
-23.59547112154542
 20
-134.6990645286478
 30
0.0
 10
-23.59547112154542
 20
-134.6990645286478
 30
0.0
 10
-23.35947106051026
 20
-134.6990645286478
 30
0.0
 10
-23.35947106051026
 20
-134.6990645286478
 30
0.0
 10
-23.35947106051026
 20
-134.6990645286478
 30
0.0
 10
-23.1244704501587
 20
-134.6990645286478
 30
0.0
 10
-23.1244704501587
 20
-134.6990645286478
 30
0.0
 10
-23.1244704501587
 20
-134.6990645286478
 30
0.0
 10
-22.96747276949464
 20
-134.6990645286478
 30
0.0
 10
-22.96747276949464
 20
-134.6990645286478
 30
0.0
 10
-22.96747276949464
 20
-134.6990645286478
 30
0.0
 10
-22.65347359346924
 20
-134.6990645286478
 30
0.0
 10
-22.65347359346924
 20
-134.6990645286478
 30
0.0
 10
-22.65347359346924
 20
-134.6990645286478
 30
0.0
 10
-22.48647377657471
 20
-135.327055251304
 30
0.0
 10
-21.94747231173096
 20
-135.327055251304
 30
0.0
 10
-21.94747231173096
 20
-135.327055251304
 30
0.0
 10
-11.74547264742432
 20
-135.327055251304
 30
0.0
 10
-11.74547264742432
 20
-135.327055251304
 30
0.0
 10
-11.74547264742432
 20
-135.327055251304
 30
0.0
 10
-11.74547264742432
 20
-141.2130568382181
 30
0.0
 10
-11.74547264742432
 20
-141.2130568382181
 30
0.0
  0
LWPOLYLINE
  5
D9
330
70
100
AcDbEntity
  8
Camada 1
 62
   250
420
  1907995
370
     9
100
AcDbPolyline
 90
        4
 70
     0
 43
0.0
 10
-22.0254714267212
 20
-56.53606251448763
 10
-22.0254714267212
 20
-55.4430601951517
 10
-19.98547051119385
 20
-55.4430601951517
 10
-19.98547051119385
 20
-56.53606251448763
  0
LWPOLYLINE
  5
DA
330
70
100
AcDbEntity
  8
Camada 1
 62
   250
420
  1907995
370
     9
100
AcDbPolyline
 90
        4
 70
     0
 43
0.0
 10
-28.46047280001221
 20
-62.42205647200717
 10
-28.46047280001221
 20
-62.50005940169467
 10
-28.22547218966065
 20
-62.50005940169467
 10
-28.22547218966065
 20
-62.42205647200717
  0
SPLINE
  5
DB
330
70
100
AcDbEntity
  8
Camada 1
 62
   250
420
  1907995
370
     9
100
AcDbSpline
210
0.0
220
0.0
230
1.0
 70
     8
 71
     3
 72
     8
 73
     4
 74
     0
 42
0.0000000001
 43
0.0000000001
 40
0.0
 40
0.0
 40
0.0
 40
0.0
 40
1.0
 40
1.0
 40
1.0
 40
1.0
 10
-26.5774733798462
 20
-56.37905720442905
 30
0.0
 10
-25.27047035860596
 20
-57.35105732649936
 30
0.0
 10
-24.04047081636964
 20
-57.35105732649936
 30
0.0
 10
-22.8894736545044
 20
-56.37905720442905
 30
0.0
  0
LWPOLYLINE
  5
DC
330
70
100
AcDbEntity
  8
Camada 1
 62
   250
420
  1907995
370
     9
100
AcDbPolyline
 90
        4
 70
     0
 43
0.0
 10
-22.49647209810792
 20
-56.53606251448763
 10
-22.49647209810792
 20
-56.37905720442905
 10
-22.8894736545044
 20
-56.37905720442905
 10
-22.8894736545044
 20
-17.45406941146029
  0
LWPOLYLINE
  5
DD
330
70
100
AcDbEntity
  8
Camada 1
 62
   250
420
  1907995
370
     9
100
AcDbPolyline
 90
        4
 70
     0
 43
0.0
 10
-26.5774733798462
 20
-17.45406941146029
 10
-26.5774733798462
 20
-56.37905720442905
 10
-26.89147255587159
 20
-56.37905720442905
 10
-26.89147255587159
 20
-56.53606251448763
  0
SPLINE
  5
DE
330
70
100
AcDbEntity
  8
Camada 1
 62
   250
420
  1907995
370
     9
100
AcDbSpline
210
0.0
220
0.0
230
1.0
 70
     8
 71
     3
 72
     8
 73
     4
 74
     0
 42
0.0000000001
 43
0.0000000001
 40
0.0
 40
0.0
 40
0.0
 40
0.0
 40
1.0
 40
1.0
 40
1.0
 40
1.0
 10
-26.5774733798462
 20
-62.57905415267123
 30
0.0
 10
-25.39547035860596
 20
-61.66305378646029
 30
0.0
 10
-24.16347191500245
 20
-61.69905689925326
 30
0.0
 10
-22.8894736545044
 20
-62.57905415267123
 30
0.0
  0
LWPOLYLINE
  5
DF
330
70
100
AcDbEntity
  8
Camada 1
 62
   250
420
  1907995
370
     9
100
AcDbPolyline
 90
        4
 70
     0
 43
0.0
 10
-22.8894736545044
 20
-131.8740523216165
 10
-22.8894736545044
 20
-62.57905415267123
 10
-22.49647209810792
 20
-62.57905415267123
 10
-22.49647209810792
 20
-62.42205647200717
  0
LWPOLYLINE
  5
E0
330
70
100
AcDbEntity
  8
Camada 1
 62
   250
420
  1907995
370
     9
100
AcDbPolyline
 90
        4
 70
     0
 43
0.0
 10
-26.96947167086182
 20
-62.42205647200717
 10
-26.96947167086182
 20
-62.57905415267123
 10
-26.5774733798462
 20
-62.57905415267123
 10
-26.5774733798462
 20
-131.8740523216165
  0
SPLINE
  5
E1
330
70
100
AcDbEntity
  8
Camada 1
 62
   250
420
  1907995
370
     9
100
AcDbSpline
210
0.0
220
0.0
230
1.0
 70
    11
 71
     3
 72
    35
 73
    31
 74
     0
 42
0.0000000001
 43
0.0000000001
 40
0.0
 40
0.0
 40
0.0
 40
0.0
 40
1.0
 40
1.0
 40
1.0
 40
2.0
 40
2.0
 40
2.0
 40
3.0
 40
3.0
 40
3.0
 40
4.0
 40
4.0
 40
4.0
 40
5.0
 40
5.0
 40
5.0
 40
6.0
 40
6.0
 40
6.0
 40
7.0
 40
7.0
 40
7.0
 40
8.0
 40
8.0
 40
8.0
 40
9.0
 40
9.0
 40
9.0
 40
10.0
 40
10.0
 40
10.0
 40
10.0
 10
-28.22547218966065
 20
-62.42205647200717
 30
0.0
 10
-28.22547218966065
 20
-62.42205647200717
 30
0.0
 10
-28.22547218966065
 20
-56.53606251448763
 30
0.0
 10
-28.22547218966065
 20
-56.53606251448763
 30
0.0
 10
-28.22547218966065
 20
-56.53606251448763
 30
0.0
 10
-26.89147255587159
 20
-56.53606251448763
 30
0.0
 10
-26.89147255587159
 20
-56.53606251448763
 30
0.0
 10
-25.46047280001221
 20
-57.77306202620639
 30
0.0
 10
-23.98647377657471
 20
-57.79705647200717
 30
0.0
 10
-22.49647209810792
 20
-56.53606251448763
 30
0.0
 10
-22.49647209810792
 20
-56.53606251448763
 30
0.0
 10
-21.94747231173096
 20
-56.53606251448763
 30
0.0
 10
-21.94747231173096
 20
-56.53606251448763
 30
0.0
 10
-21.56447289156495
 20
-56.7710631248392
 30
0.0
 10
-20.31747124361573
 20
-56.73206165999545
 30
0.0
 10
-19.90647194552002
 20
-56.53606251448763
 30
0.0
 10
-19.90647194552002
 20
-56.53606251448763
 30
0.0
 10
-17.47447273897705
 20
-56.53606251448763
 30
0.0
 10
-17.47447273897705
 20
-56.53606251448763
 30
0.0
 10
-17.47447273897705
 20
-56.53606251448763
 30
0.0
 10
-17.47447273897705
 20
-62.42205647200717
 30
0.0
 10
-17.47447273897705
 20
-62.42205647200717
 30
0.0
 10
-17.47447273897705
 20
-62.42205647200717
 30
0.0
 10
-22.49647209810792
 20
-62.42205647200717
 30
0.0
 10
-22.49647209810792
 20
-62.42205647200717
 30
0.0
 10
-24.10847160982667
 20
-61.17605427474154
 30
0.0
 10
-25.58047173189698
 20
-61.37206104964389
 30
0.0
 10
-26.96947167086182
 20
-62.42205647200717
 30
0.0
 10
-26.96947167086182
 20
-62.42205647200717
 30
0.0
 10
-28.22547218966065
 20
-62.42205647200717
 30
0.0
 10
-28.22547218966065
 20
-62.42205647200717
 30
0.0
  0
LINE
  5
E2
330
70
100
AcDbEntity
  8
Camada 1
 62
   250
420
  1907995
370
     9
100
AcDbLine
 10
-28.22547218966065
 20
-56.53606251448763
 30
0.0
 11
-28.46047280001221
 21
-56.53606251448763
 31
0.0
  0
LINE
  5
E3
330
70
100
AcDbEntity
  8
Camada 1
 62
   250
420
  1907995
370
     9
100
AcDbLine
 10
-31.28647110628663
 20
-56.53606251448763
 30
0.0
 11
-31.28647110628663
 21
-56.58505848616733
 31
0.0
  0
LINE
  5
E4
330
70
100
AcDbEntity
  8
Camada 1
 62
   250
420
  1907995
370
     9
100
AcDbLine
 10
-34.50347016024171
 20
-56.53606251448763
 30
0.0
 11
-34.42547104525147
 21
-56.85205677718295
 31
0.0
  0
LINE
  5
E5
330
70
100
AcDbEntity
  8
Camada 1
 62
   250
420
  1907995
370
     9
100
AcDbLine
 10
-27.51947090792237
 20
-14.86506489485873
 30
0.0
 11
-21.86847374605713
 21
-14.86506489485873
 31
0.0
  0
SPLINE
  5
E6
330
70
100
AcDbEntity
  8
Camada 1
 62
   250
420
  1907995
370
     9
100
AcDbSpline
210
0.0
220
0.0
230
1.0
 70
     8
 71
     3
 72
     8
 73
     4
 74
     0
 42
0.0000000001
 43
0.0000000001
 40
0.0
 40
0.0
 40
0.0
 40
0.0
 40
1.0
 40
1.0
 40
1.0
 40
1.0
 10
-22.57547066378174
 20
-12.11807087630404
 30
0.0
 10
-22.57547066378174
 20
-12.11807087630404
 30
0.0
 10
-22.81047127413331
 20
-11.33306721419467
 30
0.0
 10
-23.43847344088135
 20
-11.33306721419467
 30
0.0
  0
SPLINE
  5
E7
330
70
100
AcDbEntity
  8
Camada 1
 62
   250
420
  1907995
370
     9
100
AcDbSpline
210
0.0
220
0.0
230
1.0
 70
     8
 71
     3
 72
     8
 73
     4
 74
     0
 42
0.0000000001
 43
0.0000000001
 40
0.0
 40
0.0
 40
0.0
 40
0.0
 40
1.0
 40
1.0
 40
1.0
 40
1.0
 10
-26.89147255587159
 20
-12.11807087630404
 30
0.0
 10
-26.89147255587159
 20
-12.11807087630404
 30
0.0
 10
-26.5774733798462
 20
-11.33306721419467
 30
0.0
 10
-25.94947121309815
 20
-11.33306721419467
 30
0.0
  0
LWPOLYLINE
  5
E8
330
70
100
AcDbEntity
  8
Camada 1
 62
   250
420
  1907995
370
     9
100
AcDbPolyline
 90
        4
 70
     0
 43
0.0
 10
-25.94947121309815
 20
-10.70506123274935
 10
-25.94947121309815
 20
-11.33306721419467
 10
-23.43847344088135
 20
-11.33306721419467
 10
-23.43847344088135
 20
-10.70506123274935
  0
ELLIPSE
  5
E9
330
70
100
AcDbEntity
  8
Camada 1
 62
   250
420
  1907995
370
     9
100
AcDbEllipse
 10
-24.68447277712403
 20
3.685933792885407
 30
0.0
 11
-0.0024101668617959
 21
1.254991128065338
 31
0.0
210
0.0
220
0.0
230
1.0
 40
0.999208934299539
 41
0.0
 42
6.283185307179586
  0
ELLIPSE
  5
EA
330
70
100
AcDbEntity
  8
Camada 1
 62
   250
420
  1907995
370
     9
100
AcDbEllipse
 10
-24.73347160982667
 20
3.676938736733063
 30
0.0
 11
0.0000000000000001
 21
1.628002166940633
 31
0.0
210
0.0
220
0.0
230
1.0
 40
0.9883286350404302
 41
0.0
 42
6.283185307179586
  0
LINE
  5
EB
330
70
100
AcDbEntity
  8
Camada 1
 62
   250
420
  1907995
370
     9
100
AcDbLine
 10
72.71052481961124
 20
-12.41145161360873
 30
0.0
 11
72.71052481961124
 21
-12.41145161360873
 31
0.0
  0
LINE
  5
EC
330
70
100
AcDbEntity
  8
Camada 1
 62
   250
420
  1907995
370
     9
100
AcDbLine
 10
72.71052481961124
 20
-12.41145161360873
 30
0.0
 11
72.71052481961124
 21
-12.41145161360873
 31
0.0
  0
SPLINE
  5
ED
330
70
100
AcDbEntity
  8
Camada 1
 62
   250
420
  1907995
370
     9
100
AcDbSpline
210
0.0
220
0.0
230
1.0
 70
     8
 71
     3
 72
    44
 73
    40
 74
     0
 42
0.0000000001
 43
0.0000000001
 40
0.0
 40
0.0
 40
0.0
 40
0.0
 40
1.0
 40
1.0
 40
1.0
 40
2.0
 40
2.0
 40
2.0
 40
3.0
 40
3.0
 40
3.0
 40
4.0
 40
4.0
 40
4.0
 40
5.0
 40
5.0
 40
5.0
 40
6.0
 40
6.0
 40
6.0
 40
7.0
 40
7.0
 40
7.0
 40
8.0
 40
8.0
 40
8.0
 40
9.0
 40
9.0
 40
9.0
 40
10.0
 40
10.0
 40
10.0
 40
11.0
 40
11.0
 40
11.0
 40
12.0
 40
12.0
 40
12.0
 40
13.0
 40
13.0
 40
13.0
 40
13.0
 10
132.3167259914917
 20
-11.56205586165561
 30
0.0
 10
132.3167259914917
 20
-11.56205586165561
 30
0.0
 10
132.3167259914917
 20
-5.83306721419467
 30
0.0
 10
132.3167259914917
 20
-5.83306721419467
 30
0.0
 10
132.3167259914917
 20
-0.5640700218118582
 30
0.0
 10
127.8427117092615
 20
2.484941208656891
 30
0.0
 10
123.9977257473529
 20
2.484941208656891
 30
0.0
 10
123.9977257473529
 20
2.484941208656891
 30
0.0
 10
80.9927208645422
 20
2.484941208656891
 30
0.0
 10
80.9927208645422
 20
2.484941208656891
 30
0.0
 10
76.36271598172243
 20
2.484941208656891
 30
0.0
 10
73.080718301062
 20
-0.9050581809915456
 30
0.0
 10
72.70971610379274
 20
-4.874067580405608
 30
0.0
 10
72.70971610379274
 20
-4.874067580405608
 30
0.0
 10
72.70971610379274
 20
-12.41107014388217
 30
0.0
 10
72.70971610379274
 20
-12.41107014388217
 30
0.0
 10
72.70971610379274
 20
-12.41107014388217
 30
0.0
 10
72.7847130520422
 20
-12.48506001204623
 30
0.0
 10
72.7847130520422
 20
-12.48506001204623
 30
0.0
 10
72.7847130520422
 20
-12.48506001204623
 30
0.0
 10
75.89872672391175
 20
-12.48606709212436
 30
0.0
 10
75.89872672391175
 20
-12.48606709212436
 30
0.0
 10
75.89872672391175
 20
-12.48606709212436
 30
0.0
 10
75.97271659208309
 20
-12.41107014388217
 30
0.0
 10
75.97271659208309
 20
-12.41107014388217
 30
0.0
 10
75.97271659208309
 20
-12.41107014388217
 30
0.0
 10
75.97271659208309
 20
-5.812055861655608
 30
0.0
 10
75.97271659208309
 20
-5.812055861655608
 30
0.0
 10
76.10171439481201
 20
-3.105070388022795
 30
0.0
 10
78.04571463895263
 20
-1.03405598372592
 30
0.0
 10
80.44372489286251
 20
-0.8110640403665456
 30
0.0
 10
80.44372489286251
 20
-0.8110640403665456
 30
0.0
 10
123.9977257473529
 20
-0.8110640403665456
 30
0.0
 10
123.9977257473529
 20
-0.8110640403665456
 30
0.0
 10
126.870711587193
 20
-0.9210646507181081
 30
0.0
 10
128.8237145168823
 20
-2.63805988997592
 30
0.0
 10
129.0207207424719
 20
-5.83306721419467
 30
0.0
 10
129.0207207424719
 20
-5.83306721419467
 30
0.0
 10
129.0207207424719
 20
-11.56205586165561
 30
0.0
 10
129.0207207424719
 20
-11.56205586165561
 30
0.0
  0
LINE
  5
EE
330
70
100
AcDbEntity
  8
Camada 1
 62
   250
420
  1907995
370
     9
100
AcDbLine
 10
83.03573539090212
 20
5.921846115883454
 30
0.0
 11
79.77473380399169
 21
7.008836472328766
 31
0.0
  0
LINE
  5
EF
330
70
100
AcDbEntity
  8
Camada 1
 62
   250
420
  1907995
370
     9
100
AcDbLine
 10
79.77532889676149
 20
7.008744919594391
 30
0.0
 11
77.60131766629275
 21
4.834733689125641
 31
0.0
  0
LINE
  5
F0
330
70
100
AcDbEntity
  8
Camada 1
  6
AI-Linetype-2
 62
   250
420
  1907995
370
     9
100
AcDbLine
 10
77.59052970243283
 20
4.823945725258454
 30
0.0
 11
71.06951834989195
 21
6.997941696938141
 31
0.0
  0
LINE
  5
F2
330
70
100
AcDbEntity
  8
Camada 1
 62
   250
420
  1907995
370
     9
100
AcDbLine
 10
71.06982352567138
 20
6.997544968422516
 30
0.0
 11
68.89581229520263
 21
4.823533737953766
 31
0.0
  0
LINE
  5
F3
330
70
100
AcDbEntity
  8
Camada 1
 62
   250
420
  1907995
370
     9
100
AcDbLine
 10
68.89613272977112
 20
4.823945725258454
 30
0.0
 11
65.63513114286251
 21
5.910936081703766
 31
0.0
  0
LINE
  5
F4
330
70
100
AcDbEntity
  8
Camada 1
 62
   250
420
  1907995
370
     9
100
AcDbLine
 10
83.03573539090212
 20
12.59564372330533
 30
0.0
 11
79.77473380399169
 21
13.68263407975064
 31
0.0
  0
LINE
  5
F5
330
70
100
AcDbEntity
  8
Camada 1
 62
   250
420
  1907995
370
     9
100
AcDbLine
 10
79.76412894559143
 20
13.6710526588522
 30
0.0
 11
77.59011771512269
 21
11.49704142838345
 31
0.0
  0
LINE
  5
F6
330
70
100
AcDbEntity
  8
Camada 1
  6
AI-Linetype-3
 62
   250
420
  1907995
370
     9
100
AcDbLine
 10
77.59052970243283
 20
11.49754496842251
 30
0.0
 11
71.06951834989195
 21
13.6715409401022
 31
0.0
  0
LINE
  5
F8
330
70
100
AcDbEntity
  8
Camada 1
 62
   250
420
  1907995
370
     9
100
AcDbLine
 10
71.06982352567138
 20
13.6710526588522
 30
0.0
 11
68.89581229520263
 21
11.49704142838345
 31
0.0
  0
LINE
  5
F9
330
70
100
AcDbEntity
  8
Camada 1
 62
   250
420
  1907995
370
     9
100
AcDbLine
 10
68.89613272977112
 20
11.49754496842251
 30
0.0
 11
65.63513114286251
 21
12.58453532486783
 31
0.0
  0
LINE
  5
FA
330
70
100
AcDbEntity
  8
Camada 1
 62
   250
420
  1907995
370
     9
100
AcDbLine
 10
127.8440239651227
 20
26.42114421158658
 30
0.0
 11
133.4940178616125
 21
26.42114421158658
 31
0.0
  0
SPLINE
  5
FB
330
70
100
AcDbEntity
  8
Camada 1
 62
   250
420
  1907995
370
     9
100
AcDbSpline
210
0.0
220
0.0
230
1.0
 70
     8
 71
     3
 72
     8
 73
     4
 74
     0
 42
0.0000000001
 43
0.0000000001
 40
0.0
 40
0.0
 40
0.0
 40
0.0
 40
1.0
 40
1.0
 40
1.0
 40
1.0
 10
132.8810265286029
 20
29.24614115982877
 30
0.0
 10
132.8810265286029
 20
29.24614115982877
 30
0.0
 10
132.7340233547711
 20
29.95215007096158
 30
0.0
 10
131.9240257961828
 20
29.95215007096158
 30
0.0
  0
SPLINE
  5
FC
330
70
100
AcDbEntity
  8
Camada 1
 62
   250
420
  1907995
370
     9
100
AcDbSpline
210
0.0
220
0.0
230
1.0
 70
     8
 71
     3
 72
     8
 73
     4
 74
     0
 42
0.0000000001
 43
0.0000000001
 40
0.0
 40
0.0
 40
0.0
 40
0.0
 40
1.0
 40
1.0
 40
1.0
 40
1.0
 10
128.4740135891516
 20
29.24614115982877
 30
0.0
 10
128.4740135891516
 20
29.24614115982877
 30
0.0
 10
128.5700218899328
 20
29.95215007096158
 30
0.0
 10
129.4130242092615
 20
29.95215007096158
 30
0.0
  0
SPLINE
  5
FD
330
70
100
AcDbEntity
  8
Camada 1
 62
   250
420
  1907995
370
     9
100
AcDbSpline
210
0.0
220
0.0
230
1.0
 70
     8
 71
     3
 72
    17
 73
    13
 74
     0
 42
0.0000000001
 43
0.0000000001
 40
0.0
 40
0.0
 40
0.0
 40
0.0
 40
1.0
 40
1.0
 40
1.0
 40
2.0
 40
2.0
 40
2.0
 40
3.0
 40
3.0
 40
3.0
 40
4.0
 40
4.0
 40
4.0
 40
4.0
 10
132.317015908482
 20
32.54214640885221
 30
0.0
 10
132.317015908482
 20
32.54214640885221
 30
0.0
 10
132.317015908482
 20
38.27115031510221
 30
0.0
 10
132.317015908482
 20
38.27115031510221
 30
0.0
 10
132.317015908482
 20
42.93113871842251
 30
0.0
 10
128.4320214016515
 20
46.3651444557272
 30
0.0
 10
124.7040245754724
 20
46.5891434791647
 30
0.0
 10
124.7040245754724
 20
46.5891434791647
 30
0.0
 10
80.28602530790157
 20
46.5891434791647
 30
0.0
 10
80.28602530790157
 20
46.5891434791647
 30
0.0
 10
75.97001578641175
 20
46.17114421158658
 30
0.0
 10
73.07301261258181
 20
42.78314372330533
 30
0.0
 10
72.67402579618283
 20
38.97714396744595
 30
0.0
  0
SPLINE
  5
FE
330
70
100
AcDbEntity
  8
Camada 1
 62
   250
420
  1907995
370
     9
100
AcDbSpline
210
0.0
220
0.0
230
1.0
 70
     8
 71
     3
 72
    11
 73
     7
 74
     0
 42
0.0000000001
 43
0.0000000001
 40
0.0
 40
0.0
 40
0.0
 40
0.0
 40
1.0
 40
1.0
 40
1.0
 40
2.0
 40
2.0
 40
2.0
 40
2.0
 10
75.50201346708309
 20
-138.459852492515
 30
0.0
 10
75.50201346708309
 20
-138.459852492515
 30
0.0
 10
77.22102286649169
 20
-139.2448561546243
 30
0.0
 10
77.22601249051149
 20
-141.0488417503275
 30
0.0
 10
77.23002555204221
 20
-142.8538496848978
 30
0.0
 10
75.95001151395263
 20
-143.5868513938821
 30
0.0
 10
75.49902274442138
 20
-143.7178480979837
 30
0.0
  0
SPLINE
  5
FF
330
70
100
AcDbEntity
  8
Camada 1
 62
   250
420
  1907995
370
     9
100
AcDbSpline
210
0.0
220
0.0
230
1.0
 70
     8
 71
     3
 72
    11
 73
     7
 74
     0
 42
0.0000000001
 43
0.0000000001
 40
0.0
 40
0.0
 40
0.0
 40
0.0
 40
1.0
 40
1.0
 40
1.0
 40
2.0
 40
2.0
 40
2.0
 40
2.0
 10
73.14501883817138
 20
-138.3808424827493
 30
0.0
 10
73.14501883817138
 20
-138.3808424827493
 30
0.0
 10
71.34301688504274
 20
-138.8828566429056
 30
0.0
 10
71.34001090360289
 20
-141.1278517600931
 30
0.0
 10
71.33801200223206
 20
-142.9298537132181
 30
0.0
 10
73.14501883817138
 20
-143.7178480979837
 30
0.0
 10
73.14501883817138
 20
-143.7178480979837
 30
0.0
  0
SPLINE
  5
100
330
70
100
AcDbEntity
  8
Camada 1
 62
   250
420
  1907995
370
     9
100
AcDbSpline
210
0.0
220
0.0
230
1.0
 70
     9
 71
     3
 72
    17
 73
    13
 74
     0
 42
0.0000000001
 43
0.0000000001
 40
0.0
 40
0.0
 40
0.0
 40
0.0
 40
1.0
 40
1.0
 40
1.0
 40
2.0
 40
2.0
 40
2.0
 40
3.0
 40
3.0
 40
3.0
 40
4.0
 40
4.0
 40
4.0
 40
4.0
 10
66.08202292752139
 20
-143.32484272689
 30
0.0
 10
66.08202292752139
 20
-143.32484272689
 30
0.0
 10
66.08202292752139
 20
-139.0088484641947
 30
0.0
 10
66.08202292752139
 20
-139.0088484641947
 30
0.0
 10
66.81901480985288
 20
-138.4788496848978
 30
0.0
 10
67.53802420926149
 20
-138.491850173179
 30
0.0
 10
68.24002005887269
 20
-139.0088484641947
 30
0.0
 10
68.24002005887269
 20
-139.0088484641947
 30
0.0
 10
68.24002005887269
 20
-143.32484272689
 30
0.0
 10
68.24002005887269
 20
-143.32484272689
 30
0.0
 10
67.56101920438232
 20
-143.6118452903665
 30
0.0
 10
66.84901358915158
 20
-143.6658461448587
 30
0.0
 10
66.08202292752139
 20
-143.32484272689
 30
0.0
  0
SPLINE
  5
101
330
70
100
AcDbEntity
  8
Camada 1
 62
   250
420
  1907995
370
     9
100
AcDbSpline
210
0.0
220
0.0
230
1.0
 70
     8
 71
     3
 72
    14
 73
    10
 74
     0
 42
0.0000000001
 43
0.0000000001
 40
0.0
 40
0.0
 40
0.0
 40
0.0
 40
1.0
 40
1.0
 40
1.0
 40
2.0
 40
2.0
 40
2.0
 40
3.0
 40
3.0
 40
3.0
 40
3.0
 10
73.14501883817138
 20
-61.85784748763217
 30
0.0
 10
73.14501883817138
 20
-61.85784748763217
 30
0.0
 10
73.14501883817138
 20
-170.5568526145853
 30
0.0
 10
73.14501883817138
 20
-170.5568526145853
 30
0.0
 10
73.14501883817138
 20
-172.2288496848978
 30
0.0
 10
75.58901908231201
 20
-172.0558455345071
 30
0.0
 10
75.49902274442138
 20
-170.5568526145853
 30
0.0
 10
75.49902274442138
 20
-170.5568526145853
 30
0.0
 10
75.49902274442138
 20
-62.02284840315951
 30
0.0
 10
75.49902274442138
 20
-62.02284840315951
 30
0.0
  0
LINE
  5
102
330
70
100
AcDbEntity
  8
Camada 1
 62
   250
420
  1907995
370
     9
100
AcDbLine
 10
72.98802115751278
 20
-60.53185108870639
 30
0.0
 11
75.65602042508181
 21
-60.53185108870639
 31
0.0
  0
LINE
  5
103
330
70
100
AcDbEntity
  8
Camada 1
 62
   250
420
  1907995
370
     9
100
AcDbLine
 10
72.98802115751278
 20
-61.94484547347201
 30
0.0
 11
75.65602042508181
 21
-61.94484547347201
 31
0.0
  0
SPLINE
  5
104
330
70
100
AcDbEntity
  8
Camada 1
 62
   250
420
  1907995
370
     9
100
AcDbSpline
210
0.0
220
0.0
230
1.0
 70
     8
 71
     3
 72
    11
 73
     7
 74
     0
 42
0.0000000001
 43
0.0000000001
 40
0.0
 40
0.0
 40
0.0
 40
0.0
 40
1.0
 40
1.0
 40
1.0
 40
2.0
 40
2.0
 40
2.0
 40
2.0
 10
72.98802115751278
 20
-59.66885212630405
 30
0.0
 10
70.59901358915158
 20
-60.79884937972201
 30
0.0
 10
71.0310204250818
 20
-63.99584797591342
 30
0.0
 10
72.98802115751278
 20
-64.9268477317728
 30
0.0
 10
72.98802115751278
 20
-64.9268477317728
 30
0.0
 10
72.98802115751278
 20
-59.35484913558139
 30
0.0
 10
72.98802115751278
 20
-59.35484913558139
 30
0.0
  0
SPLINE
  5
105
330
70
100
AcDbEntity
  8
Camada 1
 62
   250
420
  1907995
370
     9
100
AcDbSpline
210
0.0
220
0.0
230
1.0
 70
     9
 71
     3
 72
    17
 73
    13
 74
     0
 42
0.0000000001
 43
0.0000000001
 40
0.0
 40
0.0
 40
0.0
 40
0.0
 40
1.0
 40
1.0
 40
1.0
 40
2.0
 40
2.0
 40
2.0
 40
3.0
 40
3.0
 40
3.0
 40
4.0
 40
4.0
 40
4.0
 40
4.0
 10
75.462020180943
 20
-10.57185200423373
 30
0.0
 10
75.462020180943
 20
-11.2058546897806
 30
0.0
 10
74.94801261258181
 20
-11.71885517806185
 30
0.0
 10
74.31501700711123
 20
-11.71885517806185
 30
0.0
 10
73.68202140165158
 20
-11.71885517806185
 30
0.0
 10
73.1680138332922
 20
-11.2058546897806
 30
0.0
 10
73.1680138332922
 20
-10.57185200423373
 30
0.0
 10
73.1680138332922
 20
-9.938856398764983
 30
0.0
 10
73.68202140165158
 20
-9.425855910483733
 30
0.0
 10
74.31501700711123
 20
-9.425855910483733
 30
0.0
 10
74.94801261258181
 20
-9.425855910483733
 30
0.0
 10
75.462020180943
 20
-9.938856398764983
 30
0.0
 10
75.462020180943
 20
-10.57185200423373
 30
0.0
  0
LINE
  5
106
330
70
100
AcDbEntity
  8
Camada 1
 62
   250
420
  1907995
370
     9
100
AcDbLine
 10
72.71002127958309
 20
-12.41085652083529
 30
0.0
 11
75.97201468778258
 21
-12.41184834212436
 31
0.0
  0
LWPOLYLINE
  5
107
330
70
100
AcDbEntity
  8
Camada 1
 62
   250
420
  1907995
370
     9
100
AcDbPolyline
 90
        4
 70
     0
 43
0.0
 10
73.77302481961123
 20
-11.62885884017123
 10
73.77302481961123
 20
-15.17185810774936
 10
74.79301383329221
 20
-15.17185810774936
 10
74.79301383329221
 20
-11.61485127181186
  0
LINE
  5
108
330
70
100
AcDbEntity
  8
Camada 1
 62
   250
420
  1907995
370
     9
100
AcDbLine
 10
65.69002463651305
 20
-12.66085652083529
 30
0.0
 11
65.69002463651305
 21
-8.501859938804045
 31
0.0
  0
LINE
  5
109
330
70
100
AcDbEntity
  8
Camada 1
 62
   250
420
  1907995
370
     9
100
AcDbLine
 10
127.8440239651227
 20
-17.64684895247592
 30
0.0
 11
133.5150139553625
 21
-17.67585591048373
 31
0.0
  0
LINE
  5
10A
330
70
100
AcDbEntity
  8
Camada 1
 62
   250
420
  1907995
370
     9
100
AcDbLine
 10
129.4130242092615
 20
-14.15185383528842
 30
0.0
 11
131.9240257961828
 21
-14.15185383528842
 31
0.0
  0
SPLINE
  5
10B
330
70
100
AcDbEntity
  8
Camada 1
 62
   250
420
  1907995
370
     9
100
AcDbSpline
210
0.0
220
0.0
230
1.0
 70
     8
 71
     3
 72
    11
 73
     7
 74
     0
 42
0.0000000001
 43
0.0000000001
 40
0.0
 40
0.0
 40
0.0
 40
0.0
 40
1.0
 40
1.0
 40
1.0
 40
2.0
 40
2.0
 40
2.0
 40
2.0
 10
132.8970177395422
 20
-14.93685749739779
 30
0.0
 10
132.8970177395422
 20
-14.93685749739779
 30
0.0
 10
132.7980187161029
 20
-14.18685749739779
 30
0.0
 10
131.9240257961828
 20
-14.15185383528842
 30
0.0
 10
131.9240257961828
 20
-14.15185383528842
 30
0.0
 10
131.9240257961828
 20
-13.52386311263217
 30
0.0
 10
131.9240257961828
 20
-13.52386311263217
 30
0.0
  0
SPLINE
  5
10C
330
70
100
AcDbEntity
  8
Camada 1
 62
   250
420
  1907995
370
     9
100
AcDbSpline
210
0.0
220
0.0
230
1.0
 70
     8
 71
     3
 72
    11
 73
     7
 74
     0
 42
0.0000000001
 43
0.0000000001
 40
0.0
 40
0.0
 40
0.0
 40
0.0
 40
1.0
 40
1.0
 40
1.0
 40
2.0
 40
2.0
 40
2.0
 40
2.0
 10
129.4130242092615
 20
-13.52386311263217
 30
0.0
 10
129.4130242092615
 20
-13.52386311263217
 30
0.0
 10
129.4130242092615
 20
-14.15185383528842
 30
0.0
 10
129.4130242092615
 20
-14.15185383528842
 30
0.0
 10
128.5700218899328
 20
-14.18685749739779
 30
0.0
 10
128.4740135891516
 20
-14.93685749739779
 30
0.0
 10
128.4740135891516
 20
-14.93685749739779
 30
0.0
  0
LWPOLYLINE
  5
10D
330
70
100
AcDbEntity
  8
Camada 1
 62
   250
420
  1907995
370
     9
100
AcDbPolyline
 90
        4
 70
     1
 43
0.0
 10
145.5010216457922
 20
-18.62486103743686
 10
115.837020180943
 20
-18.62486103743686
 10
115.837020180943
 20
-20.27285603255405
 10
145.5010216457922
 20
-20.27285603255405
  0
LWPOLYLINE
  5
10E
330
70
100
AcDbEntity
  8
Camada 1
 62
   250
420
  1907995
370
     9
100
AcDbPolyline
 90
        4
 70
     0
 43
0.0
 10
133.5620262844622
 20
-18.62486103743686
 10
133.4940178616125
 20
-14.93685749739779
 10
127.8440239651227
 20
-14.93685749739779
 10
127.8440239651227
 20
-18.62486103743686
  0
LWPOLYLINE
  5
10F
330
70
100
AcDbEntity
  8
Camada 1
 62
   250
420
  1907995
370
     9
100
AcDbPolyline
 90
        4
 70
     1
 43
0.0
 10
132.3950188381713
 20
-11.56185749739779
 10
128.942015908482
 20
-11.56185749739779
 10
128.942015908482
 20
-13.52386311263217
 10
132.3950188381713
 20
-13.52386311263217
  0
LWPOLYLINE
  5
110
330
70
100
AcDbEntity
  8
Camada 1
 62
   250
420
  1907995
370
     9
100
AcDbPolyline
 90
        4
 70
     1
 43
0.0
 10
145.5010216457922
 20
25.55714579850064
 10
115.837020180943
 20
25.55714579850064
 10
115.837020180943
 20
23.83114787369596
 10
145.5010216457922
 20
23.83114787369596
  0
LWPOLYLINE
  5
111
330
70
100
AcDbEntity
  8
Camada 1
 62
   250
420
  1907995
370
     9
100
AcDbPolyline
 90
        4
 70
     0
 43
0.0
 10
133.4940178616125
 20
25.55714579850064
 10
133.4940178616125
 20
29.24614115982877
 10
127.8440239651227
 20
29.24614115982877
 10
127.8440239651227
 20
25.55714579850064
  0
LWPOLYLINE
  5
112
330
70
100
AcDbEntity
  8
Camada 1
 62
   250
420
  1907995
370
     9
100
AcDbPolyline
 90
        4
 70
     1
 43
0.0
 10
132.3950188381713
 20
32.54214640885221
 10
128.942015908482
 20
32.54214640885221
 10
128.942015908482
 20
30.58014079361783
 10
132.3950188381713
 20
30.58014079361783
  0
LWPOLYLINE
  5
113
330
70
100
AcDbEntity
  8
Camada 1
 62
   250
420
  1907995
370
     9
100
AcDbPolyline
 90
        4
 70
     0
 43
0.0
 10
129.4130242092615
 20
30.58014079361783
 10
129.4130242092615
 20
29.95215007096158
 10
131.9240257961828
 20
29.95215007096158
 10
131.9240257961828
 20
30.58014079361783
  0
SPLINE
  5
114
330
70
100
AcDbEntity
  8
Camada 1
 62
   250
420
  1907995
370
     9
100
AcDbSpline
210
0.0
220
0.0
230
1.0
 70
     8
 71
     3
 72
    20
 73
    16
 74
     0
 42
0.0000000001
 43
0.0000000001
 40
0.0
 40
0.0
 40
0.0
 40
0.0
 40
1.0
 40
1.0
 40
1.0
 40
2.0
 40
2.0
 40
2.0
 40
3.0
 40
3.0
 40
3.0
 40
4.0
 40
4.0
 40
4.0
 40
5.0
 40
5.0
 40
5.0
 40
5.0
 10
75.97001578641175
 20
11.98114177018033
 30
0.0
 10
75.97001578641175
 20
11.98114177018033
 30
0.0
 10
75.97001578641175
 20
38.27115031510221
 30
0.0
 10
75.97001578641175
 20
38.27115031510221
 30
0.0
 10
75.87501456571226
 20
40.85714885025845
 30
0.0
 10
77.91601493192138
 20
43.07614299088345
 30
0.0
 10
80.443022988562
 20
43.29313823014127
 30
0.0
 10
80.443022988562
 20
43.29313823014127
 30
0.0
 10
124.547026894812
 20
43.29313823014127
 30
0.0
 10
124.547026894812
 20
43.29313823014127
 30
0.0
 10
126.9190209133612
 20
43.29313823014127
 30
0.0
 10
129.0210259182513
 20
40.90614482193814
 30
0.0
 10
129.0210259182513
 20
38.27115031510221
 30
0.0
 10
129.0210259182513
 20
38.27115031510221
 30
0.0
 10
129.0210259182513
 20
32.54214640885221
 30
0.0
 10
129.0210259182513
 20
32.54214640885221
 30
0.0
  0
SPLINE
  5
115
330
70
100
AcDbEntity
  8
Camada 1
 62
   250
420
  1907995
370
     9
100
AcDbSpline
210
0.0
220
0.0
230
1.0
 70
    27
 71
     3
 72
    11
 73
     7
 74
     0
 42
0.0000000001
 43
0.0000000001
 40
0.0
 40
0.0
 40
0.0
 40
0.0
 40
1.0
 40
1.0
 40
1.0
 40
2.0
 40
2.0
 40
2.0
 40
2.0
 10
72.67402579618283
 20
38.97714396744595
 30
0.0
 10
72.67402579618283
 20
38.97714396744595
 30
0.0
 10
72.67402579618283
 20
13.07914897232876
 30
0.0
 10
72.67402579618283
 20
13.07914897232876
 30
0.0
 10
72.67402579618283
 20
13.07914897232876
 30
0.0
 10
72.67402579618283
 20
38.97714396744595
 30
0.0
 10
72.67402579618283
 20
38.97714396744595
 30
0.0
  0
LINE
  5
116
330
70
100
AcDbEntity
  8
Camada 1
 62
   250
420
  1907995
370
     9
100
AcDbLine
 10
75.97001578641175
 20
0.8861405494772043
 30
0.0
 11
75.97001578641175
 21
5.310136521156891
 31
0.0
  0
LINE
  5
117
330
70
100
AcDbEntity
  8
Camada 1
 62
   250
420
  1907995
370
     9
100
AcDbLine
 10
72.67402579618283
 20
6.409150803383454
 30
0.0
 11
72.67402579618283
 21
-5.83386067122592
 31
0.0
  0
LINE
  5
118
330
70
100
AcDbEntity
  8
Camada 1
 62
   250
420
  1907995
370
     9
100
AcDbLine
 10
4.621893951732999
 20
-135.3435996612424
 30
0.0
 11
-6.805712021738145
 21
-135.3429779613761
 31
0.0
  0
LINE
  5
119
330
70
100
AcDbEntity
  8
Camada 1
 62
   250
420
  1907995
370
     9
100
AcDbLine
 10
4.692548241511758
 20
-141.226654171056
 30
0.0
 11
-6.735057731957567
 21
-141.2260324711897
 31
0.0
  0
LINE
  5
11A
330
70
100
AcDbEntity
  8
Camada 1
 62
   250
420
  1907995
370
     9
100
AcDbLine
 10
3.98341254069237
 20
-135.3466037268772
 30
0.0
 11
3.983076133461509
 21
-141.1259166746822
 31
0.0
  0
ENDSEC
  0
SECTION
  2
OBJECTS
  0
DICTIONARY
  5
C
330
0
100
AcDbDictionary
281
     1
  3
ACAD_COLOR
350
63
  3
ACAD_DETAILVIEWSTYLE
350
6A
  3
ACAD_GROUP
350
D
  3
ACAD_LAYOUT
350
62
  3
ACAD_MATERIAL
350
10
  3
ACAD_MLEADERSTYLE
350
66
  3
ACAD_MLINESTYLE
350
5F
  3
ACAD_PLOTSETTINGS
350
61
  3
ACAD_PLOTSTYLENAME
350
E
  3
ACAD_SCALELIST
350
42
  3
ACAD_SECTIONVIEWSTYLE
350
68
  3
ACAD_TABLESTYLE
350
64
  3
ACAD_VISUALSTYLE
350
29
  3
ACDB_RECOMPOSE_DATA
350
123
  3
AcDbVariableDictionary
350
11B
  0
DICTIONARY
  5
63
102
{ACAD_REACTORS
330
C
102
}
330
C
100
AcDbDictionary
281
     1
  0
DICTIONARY
  5
6A
102
{ACAD_REACTORS
330
C
102
}
330
C
100
AcDbDictionary
281
     1
  3
Imperial24
350
6B
  0
DICTIONARY
  5
D
102
{ACAD_REACTORS
330
C
102
}
330
C
100
AcDbDictionary
281
     1
  0
DICTIONARY
  5
62
102
{ACAD_REACTORS
330
C
102
}
330
C
100
AcDbDictionary
281
     1
  3
Layout1
350
6F
  3
Layout2
350
77
  3
Model
350
73
  0
DICTIONARY
  5
10
102
{ACAD_REACTORS
330
C
102
}
330
C
100
AcDbDictionary
281
     1
  3
ByBlock
350
19
  3
ByLayer
350
11
  3
Global
350
21
  0
DICTIONARY
  5
66
102
{ACAD_REACTORS
330
C
102
}
330
C
100
AcDbDictionary
281
     1
  3
Standard
350
67
  0
DICTIONARY
  5
5F
102
{ACAD_REACTORS
330
C
102
}
330
C
100
AcDbDictionary
281
     1
  3
Standard
350
60
  0
DICTIONARY
  5
61
102
{ACAD_REACTORS
330
C
102
}
330
C
100
AcDbDictionary
281
     1
  0
ACDBDICTIONARYWDFLT
  5
E
102
{ACAD_REACTORS
330
C
102
}
330
C
100
AcDbDictionary
281
     1
  3
Normal
350
F
100
AcDbDictionaryWithDefault
340
F
  0
DICTIONARY
  5
42
102
{ACAD_REACTORS
330
C
102
}
330
C
100
AcDbDictionary
281
     1
  3
A0
350
43
  3
A1
350
44
  3
A2
350
45
  3
A3
350
46
  3
A4
350
47
  3
A5
350
48
  3
A6
350
49
  3
A7
350
4A
  3
A8
350
4B
  3
A9
350
4C
  3
B0
350
4D
  3
B1
350
4E
  3
B2
350
4F
  3
B3
350
50
  3
B4
350
51
  3
B5
350
52
  3
B6
350
53
  0
DICTIONARY
  5
68
102
{ACAD_REACTORS
330
C
102
}
330
C
100
AcDbDictionary
281
     1
  3
Imperial24
350
69
  0
DICTIONARY
  5
64
102
{ACAD_REACTORS
330
C
102
}
330
C
100
AcDbDictionary
281
     1
  3
Standard
350
65
  0
DICTIONARY
  5
29
102
{ACAD_REACTORS
330
C
102
}
330
C
100
AcDbDictionary
281
     1
  3
2dWireframe
350
2F
  3
Basic
350
2E
  3
Brighten
350
35
  3
ColorChange
350
39
  3
Conceptual
350
32
  3
Dim
350
34
  3
EdgeColorOff
350
41
  3
Facepattern
350
38
  3
Flat
350
2A
  3
FlatWithEdges
350
2B
  3
Gouraud
350
2C
  3
GouraudWithEdges
350
2D
  3
Hidden
350
31
  3
JitterOff
350
3F
  3
Linepattern
350
37
  3
OverhangOff
350
40
  3
Realistic
350
33
  3
Shaded
350
3E
  3
Shaded with edges
350
3D
  3
Shades of Gray
350
3A
  3
Sketchy
350
3B
  3
Thicken
350
36
  3
Wireframe
350
30
  3
X-Ray
350
3C
  0
XRECORD
  5
123
102
{ACAD_REACTORS
330
C
102
}
330
C
100
AcDbXrecord
280
     1
 90
        1
330
65
  0
DICTIONARY
  5
11B
102
{ACAD_REACTORS
330
C
102
}
330
C
100
AcDbDictionary
281
     1
  3
CANNOSCALE
350
120
  3
CMLEADERSTYLE
350
11D
  3
CTABLESTYLE
350
11C
  3
CVIEWDETAILSTYLE
350
11E
  3
CVIEWSECTIONSTYLE
350
11F
  0
ACDBDETAILVIEWSTYLE
  5
6B
102
{ACAD_REACTORS
330
6A
102
}
330
6A
100
AcDbModelDocViewStyle
 70
     0
  3
Imperial24
290
     1
300
Imperial24
 90
        0
100
AcDbDetailViewStyle
 70
     0
 71
     0
 90
        3
 71
     1
340
55
 62
   256
 40
0.24
340
0
 62
   256
 40
0.24
300

 40
0.36
280
     3
 71
     2
340
5D
 90
       25
 62
   256
 71
     3
340
55
 62
   256
 40
0.24
 90
        1
 40
0.75
 90
        1
300
%<\AcVar ViewType \f "%tc1">% %<\AcVar ViewDetailId>%\PSCALE %<\AcVar ViewScale \f "%sn">%
 71
     4
340
5D
 90
       25
 62
   256
340
5D
 90
       25
 62
   256
280
     0
  0
LAYOUT
  5
6F
102
{ACAD_REACTORS
330
62
102
}
330
62
100
AcDbPlotSettings
  1

  2

  4

  6

 40
0.0
 41
0.0
 42
0.0
 43
0.0
 44
0.0
 45
0.0
 46
0.0
 47
0.0
 48
0.0
 49
0.0
140
0.0
141
0.0
142
1.0
143
1.0
 70
   688
 72
     0
 73
     0
 74
     5
  7

 75
    16
147
1.0
 76
     0
 77
     2
 78
   300
148
0.0
149
0.0
100
AcDbLayout
  1
Layout1
 70
     1
 71
     1
 10
0.0
 20
0.0
 11
12.0
 21
9.0
 12
0.0
 22
0.0
 32
0.0
 14
0.0
 24
0.0
 34
0.0
 15
0.0
 25
0.0
 35
0.0
146
0.0
 13
0.0
 23
0.0
 33
0.0
 16
1.0
 26
0.0
 36
0.0
 17
0.0
 27
1.0
 37
0.0
 76
     0
330
6C
  0
LAYOUT
  5
77
102
{ACAD_REACTORS
330
62
102
}
330
62
100
AcDbPlotSettings
  1

  2

  4

  6

 40
0.0
 41
0.0
 42
0.0
 43
0.0
 44
0.0
 45
0.0
 46
0.0
 47
0.0
 48
0.0
 49
0.0
140
0.0
141
0.0
142
1.0
143
1.0
 70
   688
 72
     0
 73
     0
 74
     5
  7

 75
    16
147
1.0
 76
     0
 77
     2
 78
   300
148
0.0
149
0.0
100
AcDbLayout
  1
Layout2
 70
     1
 71
     2
 10
0.0
 20
0.0
 11
12.0
 21
9.0
 12
0.0
 22
0.0
 32
0.0
 14
0.0
 24
0.0
 34
0.0
 15
0.0
 25
0.0
 35
0.0
146
0.0
 13
0.0
 23
0.0
 33
0.0
 16
1.0
 26
0.0
 36
0.0
 17
0.0
 27
1.0
 37
0.0
 76
     0
330
74
  0
LAYOUT
  5
73
102
{ACAD_REACTORS
330
62
102
}
330
62
100
AcDbPlotSettings
  1

  2

  4

  6

 40
0.0
 41
0.0
 42
0.0
 43
0.0
 44
0.0
 45
0.0
 46
0.0
 47
0.0
 48
0.0
 49
0.0
140
0.0
141
0.0
142
1.0
143
1.0
 70
  1712
 72
     0
 73
     0
 74
     0
  7

 75
     0
147
1.0
 76
     0
 77
     2
 78
   300
148
0.0
149
0.0
100
AcDbLayout
  1
Model
 70
     1
 71
     0
 10
0.0
 20
0.0
 11
12.0
 21
9.0
 12
0.0
 22
0.0
 32
0.0
 14
0.0
 24
0.0
 34
0.0
 15
0.0
 25
0.0
 35
0.0
146
0.0
 13
0.0
 23
0.0
 33
0.0
 16
1.0
 26
0.0
 36
0.0
 17
0.0
 27
1.0
 37
0.0
 76
     0
330
70
  0
MATERIAL
  5
19
102
{ACAD_XDICTIONARY
360
1A
102
}
102
{ACAD_REACTORS
330
10
102
}
330
10
100
AcDbMaterial
  1
ByBlock
 72
     0
 43
0.0208333333333333
 43
0.0
 43
0.0
 43
0.0
 43
0.0
 43
0.0208333333333333
 43
0.0
 43
0.0
 43
0.0
 43
0.0
 43
1.0
 43
0.0
 43
0.0
 43
0.0
 43
0.0
 43
1.0
 77
     0
 47
0.0208333333333333
 47
0.0
 47
0.0
 47
0.0
 47
0.0
 47
0.0208333333333333
 47
0.0
 47
0.0
 47
0.0
 47
0.0
 47
1.0
 47
0.0
 47
0.0
 47
0.0
 47
0.0
 47
1.0
171
     0
 49
0.0208333333333333
 49
0.0
 49
0.0
 49
0.0
 49
0.0
 49
0.0208333333333333
 49
0.0
 49
0.0
 49
0.0
 49
0.0
 49
1.0
 49
0.0
 49
0.0
 49
0.0
 49
0.0
 49
1.0
175
     0
142
0.0208333333333333
142
0.0
142
0.0
142
0.0
142
0.0
142
0.0208333333333333
142
0.0
142
0.0
142
0.0
142
0.0
142
1.0
142
0.0
142
0.0
142
0.0
142
0.0
142
1.0
179
     0
144
0.0208333333333333
144
0.0
144
0.0
144
0.0
144
0.0
144
0.0208333333333333
144
0.0
144
0.0
144
0.0
144
0.0
144
1.0
144
0.0
144
0.0
144
0.0
144
0.0
144
1.0
147
0.0208333333333333
147
0.0
147
0.0
147
0.0
147
0.0
147
0.0208333333333333
147
0.0
147
0.0
147
0.0
147
0.0
147
1.0
147
0.0
147
0.0
147
0.0
147
0.0
147
1.0
  0
MATERIAL
  5
11
102
{ACAD_XDICTIONARY
360
12
102
}
102
{ACAD_REACTORS
330
10
102
}
330
10
100
AcDbMaterial
  1
ByLayer
 72
     0
 43
0.0208333333333333
 43
0.0
 43
0.0
 43
0.0
 43
0.0
 43
0.0208333333333333
 43
0.0
 43
0.0
 43
0.0
 43
0.0
 43
1.0
 43
0.0
 43
0.0
 43
0.0
 43
0.0
 43
1.0
 77
     0
 47
0.0208333333333333
 47
0.0
 47
0.0
 47
0.0
 47
0.0
 47
0.0208333333333333
 47
0.0
 47
0.0
 47
0.0
 47
0.0
 47
1.0
 47
0.0
 47
0.0
 47
0.0
 47
0.0
 47
1.0
171
     0
 49
0.0208333333333333
 49
0.0
 49
0.0
 49
0.0
 49
0.0
 49
0.0208333333333333
 49
0.0
 49
0.0
 49
0.0
 49
0.0
 49
1.0
 49
0.0
 49
0.0
 49
0.0
 49
0.0
 49
1.0
175
     0
142
0.0208333333333333
142
0.0
142
0.0
142
0.0
142
0.0
142
0.0208333333333333
142
0.0
142
0.0
142
0.0
142
0.0
142
1.0
142
0.0
142
0.0
142
0.0
142
0.0
142
1.0
179
     0
144
0.0208333333333333
144
0.0
144
0.0
144
0.0
144
0.0
144
0.0208333333333333
144
0.0
144
0.0
144
0.0
144
0.0
144
1.0
144
0.0
144
0.0
144
0.0
144
0.0
144
1.0
147
0.0208333333333333
147
0.0
147
0.0
147
0.0
147
0.0
147
0.0208333333333333
147
0.0
147
0.0
147
0.0
147
0.0
147
1.0
147
0.0
147
0.0
147
0.0
147
0.0
147
1.0
  0
MATERIAL
  5
21
102
{ACAD_XDICTIONARY
360
22
102
}
102
{ACAD_REACTORS
330
10
102
}
330
10
100
AcDbMaterial
  1
Global
 72
     0
 43
0.0208333333333333
 43
0.0
 43
0.0
 43
0.0
 43
0.0
 43
0.0208333333333333
 43
0.0
 43
0.0
 43
0.0
 43
0.0
 43
1.0
 43
0.0
 43
0.0
 43
0.0
 43
0.0
 43
1.0
 77
     0
 47
0.0208333333333333
 47
0.0
 47
0.0
 47
0.0
 47
0.0
 47
0.0208333333333333
 47
0.0
 47
0.0
 47
0.0
 47
0.0
 47
1.0
 47
0.0
 47
0.0
 47
0.0
 47
0.0
 47
1.0
171
     0
 49
0.0208333333333333
 49
0.0
 49
0.0
 49
0.0
 49
0.0
 49
0.0208333333333333
 49
0.0
 49
0.0
 49
0.0
 49
0.0
 49
1.0
 49
0.0
 49
0.0
 49
0.0
 49
0.0
 49
1.0
175
     0
142
0.0208333333333333
142
0.0
142
0.0
142
0.0
142
0.0
142
0.0208333333333333
142
0.0
142
0.0
142
0.0
142
0.0
142
1.0
142
0.0
142
0.0
142
0.0
142
0.0
142
1.0
179
     0
144
0.0208333333333333
144
0.0
144
0.0
144
0.0
144
0.0
144
0.0208333333333333
144
0.0
144
0.0
144
0.0
144
0.0
144
1.0
144
0.0
144
0.0
144
0.0
144
0.0
144
1.0
147
0.0208333333333333
147
0.0
147
0.0
147
0.0
147
0.0
147
0.0208333333333333
147
0.0
147
0.0
147
0.0
147
0.0
147
1.0
147
0.0
147
0.0
147
0.0
147
0.0
147
1.0
  0
MLEADERSTYLE
  5
67
102
{ACAD_REACTORS
330
66
102
}
330
66
100
AcDbMLeaderStyle
179
     2
170
     2
171
     1
172
     0
 90
        2
 40
0.0
 41
0.0
173
     1
 91
-1056964608
340
5B
 92
       -2
290
     1
 42
0.09
291
     1
 43
0.36
  3
Standard
 44
0.18
300

342
55
174
     1
178
     6
175
     1
176
     0
 93
-1056964608
 45
0.18
292
     0
297
     0
 46
0.18
 94
-1056964608
 47
1.0
 49
1.0
140
1.0
293
     1
141
0.0
294
     1
177
     0
142
1.0
295
     1
296
     0
143
0.125
271
     0
272
     9
273
     9
298
     1
  0
MLINESTYLE
  5
60
102
{ACAD_REACTORS
330
5F
102
}
330
5F
100
AcDbMlineStyle
  2
STANDARD
 70
     0
  3

 62
   256
 51
90.0
 52
90.0
 71
     2
 49
0.5
 62
   256
  6
BYLAYER
 49
-0.5
 62
   256
  6
BYLAYER
  0
ACDBPLACEHOLDER
  5
F
102
{ACAD_REACTORS
330
E
102
}
330
E
  0
SCALE
  5
43
102
{ACAD_REACTORS
330
42
102
}
330
42
100
AcDbScale
 70
     0
300
1:1
140
1.0
141
1.0
290
     1
  0
SCALE
  5
44
102
{ACAD_REACTORS
330
42
102
}
330
42
100
AcDbScale
 70
     0
300
1/128" = 1'-0"
140
0.0078125
141
12.0
290
     0
  0
SCALE
  5
45
102
{ACAD_REACTORS
330
42
102
}
330
42
100
AcDbScale
 70
     0
300
1/64" = 1'-0"
140
0.015625
141
12.0
290
     0
  0
SCALE
  5
46
102
{ACAD_REACTORS
330
42
102
}
330
42
100
AcDbScale
 70
     0
300
1/32" = 1'-0"
140
0.03125
141
12.0
290
     0
  0
SCALE
  5
47
102
{ACAD_REACTORS
330
42
102
}
330
42
100
AcDbScale
 70
     0
300
1/16" = 1'-0"
140
0.0625
141
12.0
290
     0
  0
SCALE
  5
48
102
{ACAD_REACTORS
330
42
102
}
330
42
100
AcDbScale
 70
     0
300
3/32" = 1'-0"
140
0.09375
141
12.0
290
     0
  0
SCALE
  5
49
102
{ACAD_REACTORS
330
42
102
}
330
42
100
AcDbScale
 70
     0
300
1/8" = 1'-0"
140
0.125
141
12.0
290
     0
  0
SCALE
  5
4A
102
{ACAD_REACTORS
330
42
102
}
330
42
100
AcDbScale
 70
     0
300
3/16" = 1'-0"
140
0.1875
141
12.0
290
     0
  0
SCALE
  5
4B
102
{ACAD_REACTORS
330
42
102
}
330
42
100
AcDbScale
 70
     0
300
1/4" = 1'-0"
140
0.25
141
12.0
290
     0
  0
SCALE
  5
4C
102
{ACAD_REACTORS
330
42
102
}
330
42
100
AcDbScale
 70
     0
300
3/8" = 1'-0"
140
0.375
141
12.0
290
     0
  0
SCALE
  5
4D
102
{ACAD_REACTORS
330
42
102
}
330
42
100
AcDbScale
 70
     0
300
1/2" = 1'-0"
140
0.5
141
12.0
290
     0
  0
SCALE
  5
4E
102
{ACAD_REACTORS
330
42
102
}
330
42
100
AcDbScale
 70
     0
300
3/4" = 1'-0"
140
0.75
141
12.0
290
     0
  0
SCALE
  5
4F
102
{ACAD_REACTORS
330
42
102
}
330
42
100
AcDbScale
 70
     0
300
1" = 1'-0"
140
1.0
141
12.0
290
     0
  0
SCALE
  5
50
102
{ACAD_REACTORS
330
42
102
}
330
42
100
AcDbScale
 70
     0
300
1-1/2" = 1'-0"
140
1.5
141
12.0
290
     0
  0
SCALE
  5
51
102
{ACAD_REACTORS
330
42
102
}
330
42
100
AcDbScale
 70
     0
300
3" = 1'-0"
140
3.0
141
12.0
290
     0
  0
SCALE
  5
52
102
{ACAD_REACTORS
330
42
102
}
330
42
100
AcDbScale
 70
     0
300
6" = 1'-0"
140
6.0
141
12.0
290
     0
  0
SCALE
  5
53
102
{ACAD_REACTORS
330
42
102
}
330
42
100
AcDbScale
 70
     0
300
1'-0" = 1'-0"
140
12.0
141
12.0
290
     0
  0
ACDBSECTIONVIEWSTYLE
  5
69
102
{ACAD_REACTORS
330
68
102
}
330
68
100
AcDbModelDocViewStyle
 70
     0
  3
Imperial24
290
     1
300
Imperial24
 90
        0
100
AcDbSectionViewStyle
 70
     0
 71
     0
 90
       78
 71
     1
340
55
 62
   256
 40
0.24
340
0
340
0
 62
   256
 40
0.24
300
I, O, Q, S, X, Z
 40
0.48
 90
        3
 40
0.18
 90
        1
 71
     2
340
5D
 90
       25
 62
   256
340
5D
 90
       50
 62
   256
 40
0.24
 40
0.0
 40
0.24
 71
     3
340
55
 62
   256
 40
0.24
 90
        1
 40
0.75
 90
        1
300
%<\AcVar ViewType \f "%tc1">% %<\AcVar ViewSectionStartId>%-%<\AcVar ViewSectionEndId>%\PSCALE %<\AcVar ViewScale \f "%sn">%
 71
     4
 62
   256
 62
   257
300
ANSI31
 40
1.0
 90
        0
290
     0
290
     0
 90
        6
 40
0.0
 40
1.570796326794896
 40
0.2617993877991494
 40
1.308996938995747
 40
-0.2617993877991494
 40
1.832595714594046
  0
TABLESTYLE
  5
65
102
{ACAD_XDICTIONARY
360
121
102
}
102
{ACAD_REACTORS
330
64
102
}
330
64
100
AcDbTableStyle
280
     0
  3
Standard
 70
     0
 71
     0
 40
0.06
 41
0.06
280
     0
281
     0
  7
Standard
140
0.18
170
     2
 62
     0
 63
     7
283
     0
 90
      512
 91
        0
  1

274
    -2
284
     1
 64
     0
275
    -2
285
     1
 65
     0
276
    -2
286
     1
 66
     0
277
    -2
287
     1
 67
     0
278
    -2
288
     1
 68
     0
279
    -2
289
     1
 69
     0
  7
Standard
140
0.25
170
     5
 62
     0
 63
     7
283
     0
 90
      512
 91
        0
  1

274
    -2
284
     1
 64
     0
275
    -2
285
     1
 65
     0
276
    -2
286
     1
 66
     0
277
    -2
287
     1
 67
     0
278
    -2
288
     1
 68
     0
279
    -2
289
     1
 69
     0
  7
Standard
140
0.18
170
     5
 62
     0
 63
     7
283
     0
 90
      512
 91
        0
  1

274
    -2
284
     1
 64
     0
275
    -2
285
     1
 65
     0
276
    -2
286
     1
 66
     0
277
    -2
287
     1
 67
     0
278
    -2
288
     1
 68
     0
279
    -2
289
     1
 69
     0
  0
VISUALSTYLE
  5
2F
102
{ACAD_REACTORS
330
29
102
}
330
29
100
AcDbVisualStyle
  2
2dWireframe
 70
     4
177
     3
291
     0
 70
    58
 90
        0
176
     1
 90
        2
176
     1
 90
        0
176
     1
 90
        0
176
     1
 40
0.6
176
     1
 40
30.0
176
     1
 62
     7
420
 16777215
176
     1
 90
        1
176
     1
 90
        4
176
     1
 62
     7
176
     1
 62
   257
176
     1
 90
        1
176
     1
 90
        1
176
     1
 40
1.0
176
     1
 90
        0
176
     1
 62
   257
176
     1
 40
1.0
176
     1
 90
        1
176
     1
 90
        6
176
     1
 90
        2
176
     1
 62
     7
176
     1
 90
        5
176
     1
 90
        0
176
     1
 90
        0
176
     1
290
     0
176
     1
 90
        1
176
     1
 40
0.0
176
     1
 90
        0
176
     1
290
     1
176
     1
290
     1
176
     1
290
     0
176
     1
290
     0
176
     1
290
     0
176
     1
290
     0
176
     1
290
     0
176
     1
290
     0
176
     1
290
     0
176
     1
 90
       50
176
     1
 40
0.0
176
     1
 40
1.0
176
     1
 90
        0
176
     1
 62
    18
420
        0
176
     1
 90
       50
176
     1
 90
        3
176
     1
 62
     5
420
      255
176
     1
290
     0
176
     1
 90
       50
176
     1
 90
       50
176
     1
 90
       50
176
     1
290
     0
176
     1
 90
       50
176
     1
 62
   256
176
     0
 40
1.0
176
     0
 90
        2
176
     1
  1
strokes_ogs.tif
176
     1
290
     0
176
     1
 40
1.0
176
     1
 40
1.0
176
     1
  0
VISUALSTYLE
  5
2E
102
{ACAD_REACTORS
330
29
102
}
330
29
100
AcDbVisualStyle
  2
Basic
 70
     7
177
     3
291
     1
 70
    58
 90
        1
176
     1
 90
        0
176
     1
 90
        1
176
     1
 90
        0
176
     1
 40
0.6
176
     1
 40
30.0
176
     1
 62
     7
420
 16777215
176
     1
 90
        0
176
     1
 90
        4
176
     1
 62
     7
176
     1
 62
   257
176
     1
 90
        1
176
     1
 90
        1
176
     1
 40
1.0
176
     1
 90
        8
176
     1
 62
     7
176
     1
 40
1.0
176
     1
 90
        1
176
     1
 90
        6
176
     1
 90
        2
176
     1
 62
     7
176
     1
 90
        5
176
     1
 90
        0
176
     1
 90
        0
176
     1
290
     0
176
     1
 90
        1
176
     1
 40
0.0
176
     1
 90
        0
176
     1
290
     0
176
     1
290
     1
176
     1
290
     1
176
     1
290
     0
176
     1
290
     0
176
     1
290
     0
176
     1
290
     0
176
     1
290
     0
176
     1
290
     0
176
     1
 90
       50
176
     1
 40
0.0
176
     1
 40
1.0
176
     1
 90
        0
176
     1
 62
    18
420
        0
176
     1
 90
       50
176
     1
 90
        3
176
     1
 62
     5
420
      255
176
     1
290
     0
176
     1
 90
       50
176
     1
 90
       50
176
     1
 90
       50
176
     1
290
     0
176
     1
 90
       50
176
     1
 62
   256
176
     0
 40
1.0
176
     0
 90
        2
176
     1
  1
strokes_ogs.tif
176
     1
290
     0
176
     1
 40
1.0
176
     1
 40
1.0
176
     1
  0
VISUALSTYLE
  5
35
102
{ACAD_REACTORS
330
29
102
}
330
29
100
AcDbVisualStyle
  2
Brighten
 70
    12
177
     3
291
     1
 70
    58
 90
        2
176
     1
 90
        2
176
     1
 90
        0
176
     1
 90
        0
176
     1
 40
0.6
176
     1
 40
30.0
176
     1
 62
     7
420
 16777215
176
     1
 90
        1
176
     1
 90
        4
176
     1
 62
     7
176
     1
 62
   257
176
     1
 90
        1
176
     1
 90
        1
176
     1
 40
1.0
176
     1
 90
        8
176
     1
 62
     7
176
     1
 40
1.0
176
     1
 90
        1
176
     1
 90
        6
176
     1
 90
        2
176
     1
 62
     7
176
     1
 90
        5
176
     1
 90
        0
176
     1
 90
        0
176
     1
290
     0
176
     1
 90
        1
176
     1
 40
50.0
176
     1
 90
        0
176
     1
290
     0
176
     1
290
     1
176
     1
290
     1
176
     1
290
     0
176
     1
290
     0
176
     1
290
     0
176
     1
290
     0
176
     1
290
     0
176
     1
290
     0
176
     1
 90
       50
176
     1
 40
0.0
176
     1
 40
1.0
176
     1
 90
        0
176
     1
 62
    18
420
        0
176
     1
 90
       50
176
     1
 90
        3
176
     1
 62
     5
420
      255
176
     1
290
     0
176
     1
 90
       50
176
     1
 90
       50
176
     1
 90
       50
176
     1
290
     0
176
     1
 90
       50
176
     1
 62
   256
176
     0
 40
1.0
176
     0
 90
        2
176
     1
  1
strokes_ogs.tif
176
     1
290
     0
176
     1
 40
1.0
176
     1
 40
1.0
176
     1
  0
VISUALSTYLE
  5
39
102
{ACAD_REACTORS
330
29
102
}
330
29
100
AcDbVisualStyle
  2
ColorChange
 70
    16
177
     3
291
     1
 70
    58
 90
        2
176
     1
 90
        2
176
     1
 90
        3
176
     1
 90
        0
176
     1
 40
0.6
176
     1
 40
30.0
176
     1
 62
     8
420
  8421504
176
     1
 90
        1
176
     1
 90
        4
176
     1
 62
     7
176
     1
 62
   257
176
     1
 90
        1
176
     1
 90
        1
176
     1
 40
1.0
176
     1
 90
        8
176
     1
 62
     8
420
  8421504
176
     1
 40
1.0
176
     1
 90
        1
176
     1
 90
        6
176
     1
 90
        2
176
     1
 62
     7
176
     1
 90
        5
176
     1
 90
        0
176
     1
 90
        0
176
     1
290
     0
176
     1
 90
        1
176
     1
 40
0.0
176
     1
 90
        0
176
     1
290
     0
176
     1
290
     1
176
     1
290
     1
176
     1
290
     0
176
     1
290
     0
176
     1
290
     0
176
     1
290
     0
176
     1
290
     0
176
     1
290
     0
176
     1
 90
       50
176
     1
 40
0.0
176
     1
 40
1.0
176
     1
 90
        0
176
     1
 62
    18
420
        0
176
     1
 90
       50
176
     1
 90
        3
176
     1
 62
     5
420
      255
176
     1
290
     0
176
     1
 90
       50
176
     1
 90
       50
176
     1
 90
       50
176
     1
290
     0
176
     1
 90
       50
176
     1
 62
   256
176
     0
 40
1.0
176
     0
 90
        2
176
     1
  1
strokes_ogs.tif
176
     1
290
     0
176
     1
 40
1.0
176
     1
 40
1.0
176
     1
  0
VISUALSTYLE
  5
32
102
{ACAD_REACTORS
330
29
102
}
330
29
100
AcDbVisualStyle
  2
Conceptual
 70
     9
177
     3
291
     0
 70
    58
 90
        3
176
     1
 90
        2
176
     1
 90
        0
176
     1
 90
        0
176
     1
 40
0.6
176
     1
 40
30.0
176
     1
 62
     7
420
 16777215
176
     1
 90
        2
176
     1
 90
        2
176
     1
 62
     7
176
     1
 62
   257
176
     1
 90
        1
176
     1
 90
        1
176
     1
 40
179.0
176
     1
 90
        8
176
     1
 62
     7
176
     1
 40
1.0
176
     1
 90
        1
176
     1
 90
        6
176
     1
 90
        2
176
     1
 62
     7
176
     1
 90
        3
176
     1
 90
        0
176
     1
 90
        0
176
     1
290
     0
176
     1
 90
        1
176
     1
 40
0.0
176
     1
 90
        0
176
     1
290
     0
176
     1
290
     1
176
     1
290
     1
176
     1
290
     0
176
     1
290
     0
176
     1
290
     0
176
     1
290
     0
176
     1
290
     0
176
     1
290
     0
176
     1
 90
       50
176
     1
 40
0.0
176
     1
 40
1.0
176
     1
 90
        0
176
     1
 62
    18
420
        0
176
     1
 90
       50
176
     1
 90
        3
176
     1
 62
     5
420
      255
176
     1
290
     0
176
     1
 90
       50
176
     1
 90
       50
176
     1
 90
       50
176
     1
290
     0
176
     1
 90
       50
176
     1
 62
   256
176
     0
 40
1.0
176
     0
 90
        2
176
     1
  1
strokes_ogs.tif
176
     1
290
     0
176
     1
 40
1.0
176
     1
 40
1.0
176
     1
  0
VISUALSTYLE
  5
34
102
{ACAD_REACTORS
330
29
102
}
330
29
100
AcDbVisualStyle
  2
Dim
 70
    11
177
     3
291
     1
 70
    58
 90
        2
176
     1
 90
        2
176
     1
 90
        0
176
     1
 90
        0
176
     1
 40
0.6
176
     1
 40
30.0
176
     1
 62
     7
420
 16777215
176
     1
 90
        1
176
     1
 90
        4
176
     1
 62
     7
176
     1
 62
   257
176
     1
 90
        1
176
     1
 90
        1
176
     1
 40
1.0
176
     1
 90
        8
176
     1
 62
     7
176
     1
 40
1.0
176
     1
 90
        1
176
     1
 90
        6
176
     1
 90
        2
176
     1
 62
     7
176
     1
 90
        5
176
     1
 90
        0
176
     1
 90
        0
176
     1
290
     0
176
     1
 90
        1
176
     1
 40
-50.0
176
     1
 90
        0
176
     1
290
     0
176
     1
290
     1
176
     1
290
     1
176
     1
290
     0
176
     1
290
     0
176
     1
290
     0
176
     1
290
     0
176
     1
290
     0
176
     1
290
     0
176
     1
 90
       50
176
     1
 40
0.0
176
     1
 40
1.0
176
     1
 90
        0
176
     1
 62
    18
420
        0
176
     1
 90
       50
176
     1
 90
        3
176
     1
 62
     5
420
      255
176
     1
290
     0
176
     1
 90
       50
176
     1
 90
       50
176
     1
 90
       50
176
     1
290
     0
176
     1
 90
       50
176
     1
 62
   256
176
     0
 40
1.0
176
     0
 90
        2
176
     1
  1
strokes_ogs.tif
176
     1
290
     0
176
     1
 40
1.0
176
     1
 40
1.0
176
     1
  0
VISUALSTYLE
  5
41
102
{ACAD_REACTORS
330
29
102
}
330
29
100
AcDbVisualStyle
  2
EdgeColorOff
 70
    22
177
     3
291
     1
 70
    58
 90
        2
176
     0
 90
        2
176
     0
 90
        0
176
     0
 90
        0
176
     0
 40
0.6
176
     0
 40
30.0
176
     0
 62
     7
420
 16777215
176
     0
 90
        1
176
     0
 90
        4
176
     0
 62
     7
176
     0
 62
   257
176
     0
 90
        1
176
     0
 90
        1
176
     0
 40
1.0
176
     0
 90
        8
176
     2
 62
     7
176
     0
 40
1.0
176
     0
 90
        1
176
     0
 90
        6
176
     0
 90
        2
176
     0
 62
     7
176
     0
 90
        5
176
     0
 90
        0
176
     0
 90
        0
176
     0
290
     0
176
     0
 90
        1
176
     0
 40
0.0
176
     0
 90
        0
176
     0
290
     0
176
     0
290
     1
176
     0
290
     1
176
     0
290
     0
176
     0
290
     0
176
     0
290
     0
176
     0
290
     0
176
     0
290
     0
176
     0
290
     0
176
     0
 90
       50
176
     0
 40
0.0
176
     0
 40
1.0
176
     0
 90
        0
176
     0
 62
    18
420
        0
176
     0
 90
       50
176
     0
 90
        3
176
     0
 62
     5
420
      255
176
     0
290
     0
176
     0
 90
       50
176
     0
 90
       50
176
     0
 90
       50
176
     0
290
     0
176
     0
 90
       50
176
     0
 62
   256
176
     0
 40
1.0
176
     0
 90
        2
176
     0
  1
strokes_ogs.tif
176
     0
290
     0
176
     0
 40
1.0
176
     0
 40
1.0
176
     0
  0
VISUALSTYLE
  5
38
102
{ACAD_REACTORS
330
29
102
}
330
29
100
AcDbVisualStyle
  2
Facepattern
 70
    15
177
     3
291
     1
 70
    58
 90
        2
176
     1
 90
        2
176
     1
 90
        0
176
     1
 90
        0
176
     1
 40
0.6
176
     1
 40
30.0
176
     1
 62
     7
420
 16777215
176
     1
 90
        1
176
     1
 90
        4
176
     1
 62
     7
176
     1
 62
   257
176
     1
 90
        1
176
     1
 90
        1
176
     1
 40
1.0
176
     1
 90
        8
176
     1
 62
     7
176
     1
 40
1.0
176
     1
 90
        1
176
     1
 90
        6
176
     1
 90
        2
176
     1
 62
     7
176
     1
 90
        5
176
     1
 90
        0
176
     1
 90
        0
176
     1
290
     0
176
     1
 90
        1
176
     1
 40
0.0
176
     1
 90
        0
176
     1
290
     0
176
     1
290
     1
176
     1
290
     1
176
     1
290
     0
176
     1
290
     0
176
     1
290
     0
176
     1
290
     0
176
     1
290
     0
176
     1
290
     0
176
     1
 90
       50
176
     1
 40
0.0
176
     1
 40
1.0
176
     1
 90
        0
176
     1
 62
    18
420
        0
176
     1
 90
       50
176
     1
 90
        3
176
     1
 62
     5
420
      255
176
     1
290
     0
176
     1
 90
       50
176
     1
 90
       50
176
     1
 90
       50
176
     1
290
     0
176
     1
 90
       50
176
     1
 62
   256
176
     0
 40
1.0
176
     0
 90
        2
176
     1
  1
strokes_ogs.tif
176
     1
290
     0
176
     1
 40
1.0
176
     1
 40
1.0
176
     1
  0
VISUALSTYLE
  5
2A
102
{ACAD_REACTORS
330
29
102
}
330
29
100
AcDbVisualStyle
  2
Flat
 70
     0
177
     3
291
     1
 70
    58
 90
        2
176
     1
 90
        1
176
     1
 90
        1
176
     1
 90
        2
176
     1
 40
0.6
176
     1
 40
30.0
176
     1
 62
     7
420
 16777215
176
     1
 90
        0
176
     1
 90
        0
176
     1
 62
     7
176
     1
 62
   257
176
     1
 90
        1
176
     1
 90
        1
176
     1
 40
1.0
176
     1
 90
        8
176
     1
 62
     7
176
     1
 40
1.0
176
     1
 90
        1
176
     1
 90
        6
176
     1
 90
        2
176
     1
 62
     7
176
     1
 90
        5
176
     1
 90
        0
176
     1
 90
        0
176
     1
290
     0
176
     1
 90
       13
176
     1
 40
0.0
176
     1
 90
        0
176
     1
290
     0
176
     1
290
     1
176
     1
290
     1
176
     1
290
     0
176
     1
290
     0
176
     1
290
     0
176
     1
290
     0
176
     1
290
     0
176
     1
290
     0
176
     1
 90
       50
176
     1
 40
0.0
176
     1
 40
1.0
176
     1
 90
        0
176
     1
 62
    18
420
        0
176
     1
 90
       50
176
     1
 90
        3
176
     1
 62
     5
420
      255
176
     1
290
     0
176
     1
 90
       50
176
     1
 90
       50
176
     1
 90
       50
176
     1
290
     0
176
     1
 90
       50
176
     1
 62
   256
176
     0
 40
1.0
176
     0
 90
        2
176
     1
  1
strokes_ogs.tif
176
     1
290
     0
176
     1
 40
1.0
176
     1
 40
1.0
176
     1
  0
VISUALSTYLE
  5
2B
102
{ACAD_REACTORS
330
29
102
}
330
29
100
AcDbVisualStyle
  2
FlatWithEdges
 70
     1
177
     3
291
     1
 70
    58
 90
        2
176
     1
 90
        1
176
     1
 90
        1
176
     1
 90
        2
176
     1
 40
0.6
176
     1
 40
30.0
176
     1
 62
     7
420
 16777215
176
     1
 90
        1
176
     1
 90
        0
176
     1
 62
     7
176
     1
 62
   257
176
     1
 90
        1
176
     1
 90
        1
176
     1
 40
1.0
176
     1
 90
        0
176
     1
 62
   257
176
     1
 40
1.0
176
     1
 90
        1
176
     1
 90
        6
176
     1
 90
        2
176
     1
 62
     7
176
     1
 90
        5
176
     1
 90
        0
176
     1
 90
        0
176
     1
290
     0
176
     1
 90
       13
176
     1
 40
0.0
176
     1
 90
        0
176
     1
290
     0
176
     1
290
     1
176
     1
290
     1
176
     1
290
     0
176
     1
290
     0
176
     1
290
     0
176
     1
290
     0
176
     1
290
     0
176
     1
290
     0
176
     1
 90
       50
176
     1
 40
0.0
176
     1
 40
1.0
176
     1
 90
        0
176
     1
 62
    18
420
        0
176
     1
 90
       50
176
     1
 90
        3
176
     1
 62
     5
420
      255
176
     1
290
     0
176
     1
 90
       50
176
     1
 90
       50
176
     1
 90
       50
176
     1
290
     0
176
     1
 90
       50
176
     1
 62
   256
176
     0
 40
1.0
176
     0
 90
        2
176
     1
  1
strokes_ogs.tif
176
     1
290
     0
176
     1
 40
1.0
176
     1
 40
1.0
176
     1
  0
VISUALSTYLE
  5
2C
102
{ACAD_REACTORS
330
29
102
}
330
29
100
AcDbVisualStyle
  2
Gouraud
 70
     2
177
     3
291
     1
 70
    58
 90
        2
176
     1
 90
        2
176
     1
 90
        1
176
     1
 90
        2
176
     1
 40
0.6
176
     1
 40
30.0
176
     1
 62
     7
420
 16777215
176
     1
 90
        0
176
     1
 90
        0
176
     1
 62
     7
176
     1
 62
   257
176
     1
 90
        1
176
     1
 90
        1
176
     1
 40
1.0
176
     1
 90
        0
176
     1
 62
     7
176
     1
 40
1.0
176
     1
 90
        1
176
     1
 90
        6
176
     1
 90
        2
176
     1
 62
     7
176
     1
 90
        5
176
     1
 90
        0
176
     1
 90
        0
176
     1
290
     0
176
     1
 90
       13
176
     1
 40
0.0
176
     1
 90
        0
176
     1
290
     0
176
     1
290
     1
176
     1
290
     1
176
     1
290
     0
176
     1
290
     0
176
     1
290
     0
176
     1
290
     0
176
     1
290
     0
176
     1
290
     0
176
     1
 90
       50
176
     1
 40
0.0
176
     1
 40
1.0
176
     1
 90
        0
176
     1
 62
    18
420
        0
176
     1
 90
       50
176
     1
 90
        3
176
     1
 62
     5
420
      255
176
     1
290
     0
176
     1
 90
       50
176
     1
 90
       50
176
     1
 90
       50
176
     1
290
     0
176
     1
 90
       50
176
     1
 62
   256
176
     0
 40
1.0
176
     0
 90
        2
176
     1
  1
strokes_ogs.tif
176
     1
290
     0
176
     1
 40
1.0
176
     1
 40
1.0
176
     1
  0
VISUALSTYLE
  5
2D
102
{ACAD_REACTORS
330
29
102
}
330
29
100
AcDbVisualStyle
  2
GouraudWithEdges
 70
     3
177
     3
291
     1
 70
    58
 90
        2
176
     1
 90
        2
176
     1
 90
        1
176
     1
 90
        2
176
     1
 40
0.6
176
     1
 40
30.0
176
     1
 62
     7
420
 16777215
176
     1
 90
        1
176
     1
 90
        0
176
     1
 62
     7
176
     1
 62
   257
176
     1
 90
        1
176
     1
 90
        1
176
     1
 40
1.0
176
     1
 90
        0
176
     1
 62
   257
176
     1
 40
1.0
176
     1
 90
        1
176
     1
 90
        6
176
     1
 90
        2
176
     1
 62
     7
176
     1
 90
        5
176
     1
 90
        0
176
     1
 90
        0
176
     1
290
     0
176
     1
 90
       13
176
     1
 40
0.0
176
     1
 90
        0
176
     1
290
     0
176
     1
290
     1
176
     1
290
     1
176
     1
290
     0
176
     1
290
     0
176
     1
290
     0
176
     1
290
     0
176
     1
290
     0
176
     1
290
     0
176
     1
 90
       50
176
     1
 40
0.0
176
     1
 40
1.0
176
     1
 90
        0
176
     1
 62
    18
420
        0
176
     1
 90
       50
176
     1
 90
        3
176
     1
 62
     5
420
      255
176
     1
290
     0
176
     1
 90
       50
176
     1
 90
       50
176
     1
 90
       50
176
     1
290
     0
176
     1
 90
       50
176
     1
 62
   256
176
     0
 40
1.0
176
     0
 90
        2
176
     1
  1
strokes_ogs.tif
176
     1
290
     0
176
     1
 40
1.0
176
     1
 40
1.0
176
     1
  0
VISUALSTYLE
  5
31
102
{ACAD_REACTORS
330
29
102
}
330
29
100
AcDbVisualStyle
  2
Hidden
 70
     6
177
     3
291
     0
 70
    58
 90
        1
176
     1
 90
        2
176
     1
 90
        2
176
     1
 90
        0
176
     1
 40
0.6
176
     1
 40
30.0
176
     1
 62
     7
420
 16777215
176
     1
 90
        2
176
     1
 90
        2
176
     1
 62
     7
176
     1
 62
   257
176
     1
 90
        2
176
     1
 90
        1
176
     1
 40
40.0
176
     1
 90
        0
176
     1
 62
   257
176
     1
 40
1.0
176
     1
 90
        1
176
     1
 90
        6
176
     1
 90
        2
176
     1
 62
     7
176
     1
 90
        3
176
     1
 90
        0
176
     1
 90
        0
176
     1
290
     0
176
     1
 90
        1
176
     1
 40
0.0
176
     1
 90
        0
176
     1
290
     0
176
     1
290
     1
176
     1
290
     1
176
     1
290
     0
176
     1
290
     0
176
     1
290
     0
176
     1
290
     0
176
     1
290
     0
176
     1
290
     0
176
     1
 90
       50
176
     1
 40
0.0
176
     1
 40
1.0
176
     1
 90
        0
176
     1
 62
    18
420
        0
176
     1
 90
       50
176
     1
 90
        3
176
     1
 62
     5
420
      255
176
     1
290
     0
176
     1
 90
       50
176
     1
 90
       50
176
     1
 90
       50
176
     1
290
     0
176
     1
 90
       50
176
     1
 62
   256
176
     0
 40
1.0
176
     0
 90
        2
176
     1
  1
strokes_ogs.tif
176
     1
290
     0
176
     1
 40
1.0
176
     1
 40
1.0
176
     1
  0
VISUALSTYLE
  5
3F
102
{ACAD_REACTORS
330
29
102
}
330
29
100
AcDbVisualStyle
  2
JitterOff
 70
    20
177
     3
291
     1
 70
    58
 90
        2
176
     0
 90
        2
176
     0
 90
        0
176
     0
 90
        0
176
     0
 40
0.6
176
     0
 40
30.0
176
     0
 62
     7
420
 16777215
176
     0
 90
        1
176
     0
 90
        4
176
     0
 62
     7
176
     0
 62
   257
176
     0
 90
        1
176
     0
 90
        1
176
     0
 40
1.0
176
     0
 90
       10
176
     2
 62
     7
176
     0
 40
1.0
176
     0
 90
        1
176
     0
 90
        6
176
     0
 90
        2
176
     0
 62
     7
176
     0
 90
        5
176
     0
 90
        0
176
     0
 90
        0
176
     0
290
     0
176
     0
 90
        1
176
     0
 40
0.0
176
     0
 90
        0
176
     0
290
     0
176
     0
290
     1
176
     0
290
     1
176
     0
290
     0
176
     0
290
     0
176
     0
290
     0
176
     0
290
     0
176
     0
290
     0
176
     0
290
     0
176
     0
 90
       50
176
     0
 40
0.0
176
     0
 40
1.0
176
     0
 90
        0
176
     0
 62
    18
420
        0
176
     0
 90
       50
176
     0
 90
        3
176
     0
 62
     5
420
      255
176
     0
290
     0
176
     0
 90
       50
176
     0
 90
       50
176
     0
 90
       50
176
     0
290
     0
176
     0
 90
       50
176
     0
 62
   256
176
     0
 40
1.0
176
     0
 90
        2
176
     0
  1
strokes_ogs.tif
176
     0
290
     0
176
     0
 40
1.0
176
     0
 40
1.0
176
     0
  0
VISUALSTYLE
  5
37
102
{ACAD_REACTORS
330
29
102
}
330
29
100
AcDbVisualStyle
  2
Linepattern
 70
    14
177
     3
291
     1
 70
    58
 90
        2
176
     1
 90
        2
176
     1
 90
        0
176
     1
 90
        0
176
     1
 40
0.6
176
     1
 40
30.0
176
     1
 62
     7
420
 16777215
176
     1
 90
        1
176
     1
 90
        4
176
     1
 62
     7
176
     1
 62
   257
176
     1
 90
        7
176
     1
 90
        7
176
     1
 40
1.0
176
     1
 90
        8
176
     1
 62
     7
176
     1
 40
1.0
176
     1
 90
        1
176
     1
 90
        6
176
     1
 90
        2
176
     1
 62
     7
176
     1
 90
        5
176
     1
 90
        0
176
     1
 90
        0
176
     1
290
     0
176
     1
 90
        1
176
     1
 40
0.0
176
     1
 90
        0
176
     1
290
     0
176
     1
290
     1
176
     1
290
     1
176
     1
290
     0
176
     1
290
     0
176
     1
290
     0
176
     1
290
     0
176
     1
290
     0
176
     1
290
     0
176
     1
 90
       50
176
     1
 40
0.0
176
     1
 40
1.0
176
     1
 90
        0
176
     1
 62
    18
420
        0
176
     1
 90
       50
176
     1
 90
        3
176
     1
 62
     5
420
      255
176
     1
290
     0
176
     1
 90
       50
176
     1
 90
       50
176
     1
 90
       50
176
     1
290
     0
176
     1
 90
       50
176
     1
 62
   256
176
     0
 40
1.0
176
     0
 90
        2
176
     1
  1
strokes_ogs.tif
176
     1
290
     0
176
     1
 40
1.0
176
     1
 40
1.0
176
     1
  0
VISUALSTYLE
  5
40
102
{ACAD_REACTORS
330
29
102
}
330
29
100
AcDbVisualStyle
  2
OverhangOff
 70
    21
177
     3
291
     1
 70
    58
 90
        2
176
     0
 90
        2
176
     0
 90
        0
176
     0
 90
        0
176
     0
 40
0.6
176
     0
 40
30.0
176
     0
 62
     7
420
 16777215
176
     0
 90
        1
176
     0
 90
        4
176
     0
 62
     7
176
     0
 62
   257
176
     0
 90
        1
176
     0
 90
        1
176
     0
 40
1.0
176
     0
 90
        9
176
     2
 62
     7
176
     0
 40
1.0
176
     0
 90
        1
176
     0
 90
        6
176
     0
 90
        2
176
     0
 62
     7
176
     0
 90
        5
176
     0
 90
        0
176
     0
 90
        0
176
     0
290
     0
176
     0
 90
        1
176
     0
 40
0.0
176
     0
 90
        0
176
     0
290
     0
176
     0
290
     1
176
     0
290
     1
176
     0
290
     0
176
     0
290
     0
176
     0
290
     0
176
     0
290
     0
176
     0
290
     0
176
     0
290
     0
176
     0
 90
       50
176
     0
 40
0.0
176
     0
 40
1.0
176
     0
 90
        0
176
     0
 62
    18
420
        0
176
     0
 90
       50
176
     0
 90
        3
176
     0
 62
     5
420
      255
176
     0
290
     0
176
     0
 90
       50
176
     0
 90
       50
176
     0
 90
       50
176
     0
290
     0
176
     0
 90
       50
176
     0
 62
   256
176
     0
 40
1.0
176
     0
 90
        2
176
     0
  1
strokes_ogs.tif
176
     0
290
     0
176
     0
 40
1.0
176
     0
 40
1.0
176
     0
  0
VISUALSTYLE
  5
33
102
{ACAD_REACTORS
330
29
102
}
330
29
100
AcDbVisualStyle
  2
Realistic
 70
     8
177
     3
291
     0
 70
    58
 90
        2
176
     1
 90
        3
176
     1
 90
        0
176
     1
 90
        2
176
     1
 40
0.6
176
     1
 40
30.0
176
     1
 62
     7
420
 16777215
176
     1
 90
        0
176
     1
 90
        0
176
     1
 62
     7
176
     1
 62
   257
176
     1
 90
        1
176
     1
 90
        1
176
     1
 40
1.0
176
     1
 90
        8
176
     1
 62
   257
176
     1
 40
1.0
176
     1
 90
        1
176
     1
 90
        6
176
     1
 90
        2
176
     1
 62
     7
176
     1
 90
        3
176
     1
 90
        0
176
     1
 90
        0
176
     1
290
     0
176
     1
 90
       13
176
     1
 40
0.0
176
     1
 90
        0
176
     1
290
     0
176
     1
290
     1
176
     1
290
     1
176
     1
290
     0
176
     1
290
     0
176
     1
290
     0
176
     1
290
     0
176
     1
290
     0
176
     1
290
     0
176
     1
 90
       50
176
     1
 40
0.0
176
     1
 40
1.0
176
     1
 90
        0
176
     1
 62
    18
420
        0
176
     1
 90
       50
176
     1
 90
        3
176
     1
 62
     5
420
      255
176
     1
290
     0
176
     1
 90
       50
176
     1
 90
       50
176
     1
 90
       50
176
     1
290
     0
176
     1
 90
       50
176
     1
 62
   256
176
     0
 40
1.0
176
     0
 90
        2
176
     1
  1
strokes_ogs.tif
176
     1
290
     0
176
     1
 40
1.0
176
     1
 40
1.0
176
     1
  0
VISUALSTYLE
  5
3E
102
{ACAD_REACTORS
330
29
102
}
330
29
100
AcDbVisualStyle
  2
Shaded
 70
    27
177
     3
291
     0
 70
    58
 90
        2
176
     1
 90
        2
176
     1
 90
        1
176
     1
 90
        2
176
     1
 40
0.6
176
     1
 40
30.0
176
     1
 62
     7
420
 16777215
176
     1
 90
        0
176
     1
 90
        4
176
     1
 62
     7
176
     1
 62
   257
176
     1
 90
        1
176
     1
 90
        1
176
     1
 40
1.0
176
     1
 90
        8
176
     1
 62
   257
176
     1
 40
1.0
176
     1
 90
        1
176
     1
 90
        6
176
     1
 90
        2
176
     1
 62
     8
420
  7895160
176
     1
 90
        3
176
     1
 90
        0
176
     1
 90
        0
176
     1
290
     0
176
     1
 90
        5
176
     1
 40
0.0
176
     1
 90
        0
176
     1
290
     0
176
     1
290
     1
176
     1
290
     1
176
     1
290
     0
176
     1
290
     0
176
     1
290
     0
176
     1
290
     0
176
     1
290
     0
176
     1
290
     0
176
     1
 90
       50
176
     1
 40
0.0
176
     1
 40
1.0
176
     1
 90
        0
176
     1
 62
    18
420
        0
176
     1
 90
       50
176
     1
 90
        3
176
     1
 62
     5
420
      255
176
     1
290
     0
176
     1
 90
       50
176
     1
 90
       50
176
     1
 90
       50
176
     1
290
     0
176
     1
 90
       50
176
     1
 62
   256
176
     0
 40
1.0
176
     0
 90
        2
176
     1
  1
strokes_ogs.tif
176
     1
290
     0
176
     1
 40
1.0
176
     1
 40
1.0
176
     1
  0
VISUALSTYLE
  5
3D
102
{ACAD_REACTORS
330
29
102
}
330
29
100
AcDbVisualStyle
  2
Shaded with edges
 70
    26
177
     3
291
     0
 70
    58
 90
        2
176
     1
 90
        2
176
     1
 90
        1
176
     1
 90
        2
176
     1
 40
0.6
176
     1
 40
30.0
176
     1
 62
     7
420
 16777215
176
     1
 90
        1
176
     1
 90
        2
176
     1
 62
     7
176
     1
 62
   257
176
     1
 90
        2
176
     1
 90
        1
176
     1
 40
1.0
176
     1
 90
        8
176
     1
 62
   257
176
     1
 40
1.0
176
     1
 90
        1
176
     1
 90
        6
176
     1
 90
        2
176
     1
 62
     7
176
     1
 90
        3
176
     1
 90
        0
176
     1
 90
        0
176
     1
290
     0
176
     1
 90
        5
176
     1
 40
0.0
176
     1
 90
        0
176
     1
290
     0
176
     1
290
     1
176
     1
290
     1
176
     1
290
     0
176
     1
290
     0
176
     1
290
     0
176
     1
290
     0
176
     1
290
     0
176
     1
290
     0
176
     1
 90
       50
176
     1
 40
0.0
176
     1
 40
1.0
176
     1
 90
        0
176
     1
 62
    18
420
        0
176
     1
 90
       50
176
     1
 90
        3
176
     1
 62
     5
420
      255
176
     1
290
     0
176
     1
 90
       50
176
     1
 90
       50
176
     1
 90
       50
176
     1
290
     0
176
     1
 90
       50
176
     1
 62
   256
176
     0
 40
1.0
176
     0
 90
        2
176
     1
  1
strokes_ogs.tif
176
     1
290
     0
176
     1
 40
1.0
176
     1
 40
1.0
176
     1
  0
VISUALSTYLE
  5
3A
102
{ACAD_REACTORS
330
29
102
}
330
29
100
AcDbVisualStyle
  2
Shades of Gray
 70
    23
177
     3
291
     0
 70
    58
 90
        2
176
     1
 90
        2
176
     1
 90
        3
176
     1
 90
        0
176
     1
 40
0.6
176
     1
 40
30.0
176
     1
 62
     7
420
 16777215
176
     1
 90
        2
176
     1
 90
        2
176
     1
 62
     7
176
     1
 62
     7
176
     1
 90
        1
176
     1
 90
        1
176
     1
 40
40.0
176
     1
 90
        8
176
     1
 62
     7
176
     1
 40
1.0
176
     1
 90
        1
176
     1
 90
        6
176
     1
 90
        2
176
     1
 62
     7
176
     1
 90
        3
176
     1
 90
        0
176
     1
 90
        0
176
     1
290
     0
176
     1
 90
        1
176
     1
 40
0.0
176
     1
 90
        0
176
     1
290
     0
176
     1
290
     1
176
     1
290
     1
176
     1
290
     0
176
     1
290
     0
176
     1
290
     0
176
     1
290
     0
176
     1
290
     0
176
     1
290
     0
176
     1
 90
       50
176
     1
 40
0.0
176
     1
 40
1.0
176
     1
 90
        0
176
     1
 62
    18
420
        0
176
     1
 90
       50
176
     1
 90
        3
176
     1
 62
     5
420
      255
176
     1
290
     0
176
     1
 90
       50
176
     1
 90
       50
176
     1
 90
       50
176
     1
290
     0
176
     1
 90
       50
176
     1
 62
   256
176
     0
 40
1.0
176
     0
 90
        2
176
     1
  1
strokes_ogs.tif
176
     1
290
     0
176
     1
 40
1.0
176
     1
 40
1.0
176
     1
  0
VISUALSTYLE
  5
3B
102
{ACAD_REACTORS
330
29
102
}
330
29
100
AcDbVisualStyle
  2
Sketchy
 70
    24
177
     3
291
     0
 70
    58
 90
        1
176
     1
 90
        2
176
     1
 90
        2
176
     1
 90
        0
176
     1
 40
0.6
176
     1
 40
30.0
176
     1
 62
     7
420
 16777215
176
     1
 90
        2
176
     1
 90
        2
176
     1
 62
     7
176
     1
 62
     7
176
     1
 90
        1
176
     1
 90
        1
176
     1
 40
40.0
176
     1
 90
       11
176
     1
 62
     7
176
     1
 40
1.0
176
     1
 90
        1
176
     1
 90
        6
176
     1
 90
        2
176
     1
 62
     7
176
     1
 90
        6
176
     1
 90
        0
176
     1
 90
        0
176
     1
290
     0
176
     1
 90
        1
176
     1
 40
0.0
176
     1
 90
        0
176
     1
290
     0
176
     1
290
     1
176
     1
290
     1
176
     1
290
     0
176
     1
290
     0
176
     1
290
     0
176
     1
290
     0
176
     1
290
     0
176
     1
290
     0
176
     1
 90
       50
176
     1
 40
0.0
176
     1
 40
1.0
176
     1
 90
        0
176
     1
 62
    18
420
        0
176
     1
 90
       50
176
     1
 90
        3
176
     1
 62
     5
420
      255
176
     1
290
     0
176
     1
 90
       50
176
     1
 90
       50
176
     1
 90
       50
176
     1
290
     0
176
     1
 90
       50
176
     1
 62
   256
176
     0
 40
1.0
176
     0
 90
        2
176
     1
  1
strokes_ogs.tif
176
     1
290
     0
176
     1
 40
1.0
176
     1
 40
1.0
176
     1
  0
VISUALSTYLE
  5
36
102
{ACAD_REACTORS
330
29
102
}
330
29
100
AcDbVisualStyle
  2
Thicken
 70
    13
177
     3
291
     1
 70
    58
 90
        2
176
     1
 90
        2
176
     1
 90
        0
176
     1
 90
        0
176
     1
 40
0.6
176
     1
 40
30.0
176
     1
 62
     7
420
 16777215
176
     1
 90
        1
176
     1
 90
        4
176
     1
 62
     7
176
     1
 62
   257
176
     1
 90
        1
176
     1
 90
        1
176
     1
 40
1.0
176
     1
 90
       12
176
     1
 62
     7
176
     1
 40
1.0
176
     1
 90
        1
176
     1
 90
        6
176
     1
 90
        2
176
     1
 62
     7
176
     1
 90
        5
176
     1
 90
        0
176
     1
 90
        0
176
     1
290
     0
176
     1
 90
        1
176
     1
 40
0.0
176
     1
 90
        0
176
     1
290
     0
176
     1
290
     1
176
     1
290
     1
176
     1
290
     0
176
     1
290
     0
176
     1
290
     0
176
     1
290
     0
176
     1
290
     0
176
     1
290
     0
176
     1
 90
       50
176
     1
 40
0.0
176
     1
 40
1.0
176
     1
 90
        0
176
     1
 62
    18
420
        0
176
     1
 90
       50
176
     1
 90
        3
176
     1
 62
     5
420
      255
176
     1
290
     0
176
     1
 90
       50
176
     1
 90
       50
176
     1
 90
       50
176
     1
290
     0
176
     1
 90
       50
176
     1
 62
   256
176
     0
 40
1.0
176
     0
 90
        2
176
     1
  1
strokes_ogs.tif
176
     1
290
     0
176
     1
 40
1.0
176
     1
 40
1.0
176
     1
  0
VISUALSTYLE
  5
30
102
{ACAD_REACTORS
330
29
102
}
330
29
100
AcDbVisualStyle
  2
Wireframe
 70
     5
177
     3
291
     0
 70
    58
 90
        0
176
     1
 90
        2
176
     1
 90
        0
176
     1
 90
        0
176
     1
 40
0.6
176
     1
 40
30.0
176
     1
 62
     7
420
 16777215
176
     1
 90
        1
176
     1
 90
        4
176
     1
 62
     7
176
     1
 62
   257
176
     1
 90
        1
176
     1
 90
        1
176
     1
 40
1.0
176
     1
 90
        0
176
     1
 62
   257
176
     1
 40
1.0
176
     1
 90
        1
176
     1
 90
        6
176
     1
 90
        2
176
     1
 62
     7
176
     1
 90
        3
176
     1
 90
        0
176
     1
 90
        0
176
     1
290
     0
176
     1
 90
        1
176
     1
 40
0.0
176
     1
 90
        0
176
     1
290
     0
176
     1
290
     1
176
     1
290
     1
176
     1
290
     0
176
     1
290
     0
176
     1
290
     0
176
     1
290
     0
176
     1
290
     0
176
     1
290
     0
176
     1
 90
       50
176
     1
 40
0.0
176
     1
 40
1.0
176
     1
 90
        0
176
     1
 62
    18
420
        0
176
     1
 90
       50
176
     1
 90
        3
176
     1
 62
     5
420
      255
176
     1
290
     0
176
     1
 90
       50
176
     1
 90
       50
176
     1
 90
       50
176
     1
290
     0
176
     1
 90
       50
176
     1
 62
   256
176
     0
 40
1.0
176
     0
 90
        2
176
     1
  1
strokes_ogs.tif
176
     1
290
     0
176
     1
 40
1.0
176
     1
 40
1.0
176
     1
  0
VISUALSTYLE
  5
3C
102
{ACAD_REACTORS
330
29
102
}
330
29
100
AcDbVisualStyle
  2
X-Ray
 70
    25
177
     3
291
     0
 70
    58
 90
        2
176
     1
 90
        2
176
     1
 90
        1
176
     1
 90
        1
176
     1
 40
0.5
176
     1
 40
30.0
176
     1
 62
     7
420
 16777215
176
     1
 90
        1
176
     1
 90
        0
176
     1
 62
     7
176
     1
 62
   257
176
     1
 90
        1
176
     1
 90
        1
176
     1
 40
1.0
176
     1
 90
        8
176
     1
 62
     7
176
     1
 40
1.0
176
     1
 90
        1
176
     1
 90
        6
176
     1
 90
        2
176
     1
 62
     7
176
     1
 90
        3
176
     1
 90
        0
176
     1
 90
        0
176
     1
290
     0
176
     1
 90
       13
176
     1
 40
0.0
176
     1
 90
        0
176
     1
290
     0
176
     1
290
     1
176
     1
290
     1
176
     1
290
     0
176
     1
290
     0
176
     1
290
     0
176
     1
290
     0
176
     1
290
     0
176
     1
290
     0
176
     1
 90
       50
176
     1
 40
0.0
176
     1
 40
1.0
176
     1
 90
        0
176
     1
 62
    18
420
        0
176
     1
 90
       50
176
     1
 90
        3
176
     1
 62
     5
420
      255
176
     1
290
     0
176
     1
 90
       50
176
     1
 90
       50
176
     1
 90
       50
176
     1
290
     0
176
     1
 90
       50
176
     1
 62
   256
176
     0
 40
1.0
176
     0
 90
        2
176
     1
  1
strokes_ogs.tif
176
     1
290
     0
176
     1
 40
1.0
176
     1
 40
1.0
176
     1
  0
DICTIONARYVAR
  5
120
102
{ACAD_REACTORS
330
11B
102
}
330
11B
100
DictionaryVariables
280
     0
  1
1:1
  0
DICTIONARYVAR
  5
11D
102
{ACAD_REACTORS
330
11B
102
}
330
11B
100
DictionaryVariables
280
     0
  1
STANDARD
  0
DICTIONARYVAR
  5
11C
102
{ACAD_REACTORS
330
11B
102
}
330
11B
100
DictionaryVariables
280
     0
  1
STANDARD
  0
DICTIONARYVAR
  5
11E
102
{ACAD_REACTORS
330
11B
102
}
330
11B
100
DictionaryVariables
280
     0
  1
Imperial24
  0
DICTIONARYVAR
  5
11F
102
{ACAD_REACTORS
330
11B
102
}
330
11B
100
DictionaryVariables
280
     0
  1
Imperial24
  0
DICTIONARY
  5
1A
330
19
100
AcDbDictionary
280
     1
281
     1
  3
BUMPTILE
360
1C
  3
DIFFUSETILE
360
1B
  3
OPACITYTILE
360
1F
  3
REFLECTIONTILE
360
1E
  3
REFRACTIONTILE
360
20
  3
SPECULARTILE
360
1D
  0
DICTIONARY
  5
12
330
11
100
AcDbDictionary
280
     1
281
     1
  3
BUMPTILE
360
14
  3
DIFFUSETILE
360
13
  3
OPACITYTILE
360
17
  3
REFLECTIONTILE
360
16
  3
REFRACTIONTILE
360
18
  3
SPECULARTILE
360
15
  0
DICTIONARY
  5
22
330
21
100
AcDbDictionary
280
     1
281
     1
  3
BUMPTILE
360
24
  3
DIFFUSETILE
360
23
  3
OPACITYTILE
360
27
  3
REFLECTIONTILE
360
26
  3
REFRACTIONTILE
360
28
  3
SPECULARTILE
360
25
  0
DICTIONARY
  5
121
330
65
100
AcDbDictionary
280
     1
281
     1
  3
ACAD_ROUNDTRIP_2008_TABLESTYLE_CELLSTYLEMAP
360
122
  0
XRECORD
  5
1C
102
{ACAD_REACTORS
330
1A
102
}
330
1A
100
AcDbXrecord
280
     1
270
     1
271
     1
  0
XRECORD
  5
1B
102
{ACAD_REACTORS
330
1A
102
}
330
1A
100
AcDbXrecord
280
     1
270
     1
271
     1
  0
XRECORD
  5
1F
102
{ACAD_REACTORS
330
1A
102
}
330
1A
100
AcDbXrecord
280
     1
270
     1
271
     1
  0
XRECORD
  5
1E
102
{ACAD_REACTORS
330
1A
102
}
330
1A
100
AcDbXrecord
280
     1
270
     1
271
     1
  0
XRECORD
  5
20
102
{ACAD_REACTORS
330
1A
102
}
330
1A
100
AcDbXrecord
280
     1
270
     1
271
     1
  0
XRECORD
  5
1D
102
{ACAD_REACTORS
330
1A
102
}
330
1A
100
AcDbXrecord
280
     1
270
     1
271
     1
  0
XRECORD
  5
14
102
{ACAD_REACTORS
330
12
102
}
330
12
100
AcDbXrecord
280
     1
270
     1
271
     1
  0
XRECORD
  5
13
102
{ACAD_REACTORS
330
12
102
}
330
12
100
AcDbXrecord
280
     1
270
     1
271
     1
  0
XRECORD
  5
17
102
{ACAD_REACTORS
330
12
102
}
330
12
100
AcDbXrecord
280
     1
270
     1
271
     1
  0
XRECORD
  5
16
102
{ACAD_REACTORS
330
12
102
}
330
12
100
AcDbXrecord
280
     1
270
     1
271
     1
  0
XRECORD
  5
18
102
{ACAD_REACTORS
330
12
102
}
330
12
100
AcDbXrecord
280
     1
270
     1
271
     1
  0
XRECORD
  5
15
102
{ACAD_REACTORS
330
12
102
}
330
12
100
AcDbXrecord
280
     1
270
     1
271
     1
  0
XRECORD
  5
24
102
{ACAD_REACTORS
330
22
102
}
330
22
100
AcDbXrecord
280
     1
270
     1
271
     1
  0
XRECORD
  5
23
102
{ACAD_REACTORS
330
22
102
}
330
22
100
AcDbXrecord
280
     1
270
     1
271
     1
  0
XRECORD
  5
27
102
{ACAD_REACTORS
330
22
102
}
330
22
100
AcDbXrecord
280
     1
270
     1
271
     1
  0
XRECORD
  5
26
102
{ACAD_REACTORS
330
22
102
}
330
22
100
AcDbXrecord
280
     1
270
     1
271
     1
  0
XRECORD
  5
28
102
{ACAD_REACTORS
330
22
102
}
330
22
100
AcDbXrecord
280
     1
270
     1
271
     1
  0
XRECORD
  5
25
102
{ACAD_REACTORS
330
22
102
}
330
22
100
AcDbXrecord
280
     1
270
     1
271
     1
  0
CELLSTYLEMAP
  5
122
102
{ACAD_REACTORS
330
121
102
}
330
121
100
AcDbCellStyleMap
 90
        3
300
CELLSTYLE
  1
TABLEFORMAT_BEGIN
 90
        5
170
     1
 91
        0
 92
    32768
 62
   257
 93
        1
300
CONTENTFORMAT
  1
CONTENTFORMAT_BEGIN
 90
        0
 91
        0
 92
      512
 93
        0
300

 40
0.0
140
1.0
 94
        5
 62
     0
340
55
144
0.25
309
CONTENTFORMAT_END
171
     0
 94
        0
309
TABLEFORMAT_END
  1
CELLSTYLE_BEGIN
 90
        1
 91
        1
300
_TITLE
309
CELLSTYLE_END
300
CELLSTYLE
  1
TABLEFORMAT_BEGIN
 90
        5
170
     1
 91
        0
 92
        0
 62
   257
 93
        1
300
CONTENTFORMAT
  1
CONTENTFORMAT_BEGIN
 90
        0
 91
        0
 92
      512
 93
        0
300

 40
0.0
140
1.0
 94
        5
 62
     0
340
55
144
0.18
309
CONTENTFORMAT_END
171
     0
 94
        0
309
TABLEFORMAT_END
  1
CELLSTYLE_BEGIN
 90
        2
 91
        1
300
_HEADER
309
CELLSTYLE_END
300
CELLSTYLE
  1
TABLEFORMAT_BEGIN
 90
        5
170
     1
 91
        0
 92
        0
 62
   257
 93
        1
300
CONTENTFORMAT
  1
CONTENTFORMAT_BEGIN
 90
        0
 91
        0
 92
      512
 93
        0
300

 40
0.0
140
1.0
 94
        2
 62
     0
340
55
144
0.18
309
CONTENTFORMAT_END
171
     0
 94
        0
309
TABLEFORMAT_END
  1
CELLSTYLE_BEGIN
 90
        3
 91
        2
300
_DATA
309
CELLSTYLE_END
  0
ENDSEC
  0
EOF
