  0
SECTION
  2
HEADER
  9
$ACADVER
  1
AC1014
  9
$ACADMAINTVER
 70
     9
  9
$DWGCODEPAGE
  3
ANSI_1252
  9
$INSBASE
 10
0.0
 20
0.0
 30
0.0
  9
$EXTMIN
 10
1.000000000000000E+20
 20
1.000000000000000E+20
 30
1.000000000000000E+20
  9
$EXTMAX
 10
-1.000000000000000E+20
 20
-1.000000000000000E+20
 30
-1.000000000000000E+20
  9
$LIMMIN
 10
0.0
 20
0.0
  9
$LIMMAX
 10
12.0
 20
9.0
  9
$ORTHOMODE
 70
     0
  9
$REGENMODE
 70
     1
  9
$FILLMODE
 70
     1
  9
$QTEXTMODE
 70
     0
  9
$MIRRTEXT
 70
     1
  9
$DRAGMODE
 70
     2
  9
$LTSCALE
 40
1.0
  9
$OSMODE
 70
    37
  9
$ATTMODE
 70
     1
  9
$TEXTSIZE
 40
0.2
  9
$TRACEWID
 40
0.05
  9
$TEXTSTYLE
  7
STANDARD
  9
$CLAYER
  8
0
  9
$CELTYPE
  6
BYLAYER
  9
$CECOLOR
 62
   256
  9
$CELTSCALE
 40
1.0
  9
$DELOBJ
 70
     1
  9
$DISPSILH
 70
     0
  9
$DIMSCALE
 40
1.0
  9
$DIMASZ
 40
0.18
  9
$DIMEXO
 40
0.0625
  9
$DIMDLI
 40
0.38
  9
$DIMRND
 40
0.0
  9
$DIMDLE
 40
0.0
  9
$DIMEXE
 40
0.18
  9
$DIMTP
 40
0.0
  9
$DIMTM
 40
0.0
  9
$DIMTXT
 40
0.18
  9
$DIMCEN
 40
0.09
  9
$DIMTSZ
 40
0.0
  9
$DIMTOL
 70
     0
  9
$DIMLIM
 70
     0
  9
$DIMTIH
 70
     1
  9
$DIMTOH
 70
     1
  9
$DIMSE1
 70
     0
  9
$DIMSE2
 70
     0
  9
$DIMTAD
 70
     0
  9
$DIMZIN
 70
     0
  9
$DIMBLK
  1

  9
$DIMASO
 70
     1
  9
$DIMSHO
 70
     1
  9
$DIMPOST
  1

  9
$DIMAPOST
  1

  9
$DIMALT
 70
     0
  9
$DIMALTD
 70
     2
  9
$DIMALTF
 40
25.4
  9
$DIMLFAC
 40
1.0
  9
$DIMTOFL
 70
     0
  9
$DIMTVP
 40
0.0
  9
$DIMTIX
 70
     0
  9
$DIMSOXD
 70
     0
  9
$DIMSAH
 70
     0
  9
$DIMBLK1
  1

  9
$DIMBLK2
  1

  9
$DIMSTYLE
  2
STANDARD
  9
$DIMCLRD
 70
     0
  9
$DIMCLRE
 70
     0
  9
$DIMCLRT
 70
     0
  9
$DIMTFAC
 40
1.0
  9
$DIMGAP
 40
0.09
  9
$DIMJUST
 70
     0
  9
$DIMSD1
 70
     0
  9
$DIMSD2
 70
     0
  9
$DIMTOLJ
 70
     1
  9
$DIMTZIN
 70
     0
  9
$DIMALTZ
 70
     0
  9
$DIMALTTZ
 70
     0
  9
$DIMFIT
 70
     3
  9
$DIMUPT
 70
     0
  9
$DIMUNIT
 70
     2
  9
$DIMDEC
 70
     4
  9
$DIMTDEC
 70
     4
  9
$DIMALTU
 70
     2
  9
$DIMALTTD
 70
     2
  9
$DIMTXSTY
  7
STANDARD
  9
$DIMAUNIT
 70
     0
  9
$LUNITS
 70
     2
  9
$LUPREC
 70
     4
  9
$SKETCHINC
 40
0.1
  9
$FILLETRAD
 40
0.0
  9
$AUNITS
 70
     0
  9
$AUPREC
 70
     0
  9
$MENU
  1
.
  9
$ELEVATION
 40
0.0
  9
$PELEVATION
 40
0.0
  9
$THICKNESS
 40
0.0
  9
$LIMCHECK
 70
     0
  9
$CHAMFERA
 40
0.0
  9
$CHAMFERB
 40
0.0
  9
$CHAMFERC
 40
0.0
  9
$CHAMFERD
 40
0.0
  9
$SKPOLY
 70
     0
  9
$TDCREATE
 40
2460503.498650417
  9
$TDUPDATE
 40
2460503.49867963
  9
$TDINDWG
 40
0.0000000116
  9
$TDUSRTIMER
 40
0.0000000116
  9
$USRTIMER
 70
     1
  9
$ANGBASE
 50
0.0
  9
$ANGDIR
 70
     0
  9
$PDMODE
 70
     0
  9
$PDSIZE
 40
0.0
  9
$PLINEWID
 40
0.0
  9
$COORDS
 70
     1
  9
$SPLFRAME
 70
     0
  9
$SPLINETYPE
 70
     6
  9
$SPLINESEGS
 70
     8
  9
$ATTDIA
 70
     0
  9
$ATTREQ
 70
     1
  9
$HANDLING
 70
     1
  9
$HANDSEED
  5
4B5
  9
$SURFTAB1
 70
     6
  9
$SURFTAB2
 70
     6
  9
$SURFTYPE
 70
     6
  9
$SURFU
 70
     6
  9
$SURFV
 70
     6
  9
$UCSNAME
  2

  9
$UCSORG
 10
0.0
 20
0.0
 30
0.0
  9
$UCSXDIR
 10
1.0
 20
0.0
 30
0.0
  9
$UCSYDIR
 10
0.0
 20
1.0
 30
0.0
  9
$PUCSNAME
  2

  9
$PUCSORG
 10
0.0
 20
0.0
 30
0.0
  9
$PUCSXDIR
 10
1.0
 20
0.0
 30
0.0
  9
$PUCSYDIR
 10
0.0
 20
1.0
 30
0.0
  9
$USERI1
 70
     0
  9
$USERI2
 70
     0
  9
$USERI3
 70
     0
  9
$USERI4
 70
     0
  9
$USERI5
 70
     0
  9
$USERR1
 40
0.0
  9
$USERR2
 40
0.0
  9
$USERR3
 40
0.0
  9
$USERR4
 40
0.0
  9
$USERR5
 40
0.0
  9
$WORLDVIEW
 70
     1
  9
$SHADEDGE
 70
     3
  9
$SHADEDIF
 70
    70
  9
$TILEMODE
 70
     1
  9
$MAXACTVP
 70
    64
  9
$PINSBASE
 10
0.0
 20
0.0
 30
0.0
  9
$PLIMCHECK
 70
     0
  9
$PEXTMIN
 10
1.000000000000000E+20
 20
1.000000000000000E+20
 30
1.000000000000000E+20
  9
$PEXTMAX
 10
-1.000000000000000E+20
 20
-1.000000000000000E+20
 30
-1.000000000000000E+20
  9
$PLIMMIN
 10
0.0
 20
0.0
  9
$PLIMMAX
 10
12.0
 20
9.0
  9
$UNITMODE
 70
     0
  9
$VISRETAIN
 70
     1
  9
$PLINEGEN
 70
     0
  9
$PSLTSCALE
 70
     1
  9
$TREEDEPTH
 70
  3020
  9
$PICKSTYLE
 70
     1
  9
$CMLSTYLE
  2
STANDARD
  9
$CMLJUST
 70
     0
  9
$CMLSCALE
 40
1.0
  9
$PROXYGRAPHICS
 70
     1
  9
$MEASUREMENT
 70
     1
  0
ENDSEC
  0
SECTION
  2
CLASSES
  0
CLASS
  1
ACDBDICTIONARYWDFLT
  2
AcDbDictionaryWithDefault
  3
ObjectDBX Classes
 90
        0
280
     0
281
     0
  0
CLASS
  1
VISUALSTYLE
  2
AcDbVisualStyle
  3
ObjectDBX Classes
 90
     4095
280
     0
281
     0
  0
CLASS
  1
MATERIAL
  2
AcDbMaterial
  3
ObjectDBX Classes
 90
     1153
280
     0
281
     0
  0
CLASS
  1
SCALE
  2
AcDbScale
  3
ObjectDBX Classes
 90
     1153
280
     0
281
     0
  0
CLASS
  1
TABLESTYLE
  2
AcDbTableStyle
  3
ObjectDBX Classes
 90
     4095
280
     0
281
     0
  0
CLASS
  1
MLEADERSTYLE
  2
AcDbMLeaderStyle
  3
ACDB_MLEADERSTYLE_CLASS
 90
     4095
280
     0
281
     0
  0
CLASS
  1
SUN
  2
AcDbSun
  3
SCENEOE
 90
     1153
280
     0
281
     0
  0
CLASS
  1
DICTIONARYVAR
  2
AcDbDictionaryVar
  3
ObjectDBX Classes
 90
        0
280
     0
281
     0
  0
CLASS
  1
XRECORD
  2
AcDbXrecord
  3
ObjectDBX Classes
 90
        0
280
     0
281
     0
  0
CLASS
  1
LWPOLYLINE
  2
AcDbPolyline
  3
ObjectDBX Classes
 90
        0
280
     0
281
     1
  0
CLASS
  1
HATCH
  2
AcDbHatch
  3
ObjectDBX Classes
 90
        0
280
     0
281
     1
  0
CLASS
  1
ACDBPLACEHOLDER
  2
AcDbPlaceHolder
  3
ObjectDBX Classes
 90
        0
280
     0
281
     0
  0
CLASS
  1
LAYOUT
  2
AcDbLayout
  3
ObjectDBX Classes
 90
        0
280
     0
281
     0
  0
ENDSEC
  0
SECTION
  2
TABLES
  0
TABLE
  2
VPORT
  5
8
102
{ACAD_XDICTIONARY
360
4AA
102
}
330
0
100
AcDbSymbolTable
 70
     1
  0
VPORT
  5
29
330
8
100
AcDbSymbolTableRecord
100
AcDbViewportTableRecord
  2
*ACTIVE
 70
     0
 10
0.0
 20
0.0
 11
1.0
 21
1.0
 12
0.0
 22
0.0
 13
0.0
 23
0.0
 14
0.5
 24
0.5
 15
0.5
 25
0.5
 16
0.0
 26
0.0
 36
1.0
 17
0.0
 27
0.0
 37
-1000.0
 40
0.3211409540720356
 41
1.894193548387097
 42
50.0
 43
0.4974040963382517
 44
1.080262309619539
 50
0.0
 51
0.0
 71
     0
 72
   100
 73
     1
 74
     3
 75
     0
 76
     0
 77
     0
 78
     0
  0
ENDTAB
  0
TABLE
  2
LTYPE
  5
5
330
0
100
AcDbSymbolTable
 70
     1
  0
LTYPE
  5
14
330
5
100
AcDbSymbolTableRecord
100
AcDbLinetypeTableRecord
  2
BYBLOCK
 70
     0
  3

 72
    65
 73
     0
 40
0.0
  0
LTYPE
  5
15
330
5
100
AcDbSymbolTableRecord
100
AcDbLinetypeTableRecord
  2
BYLAYER
 70
     0
  3

 72
    65
 73
     0
 40
0.0
  0
LTYPE
  5
16
330
5
100
AcDbSymbolTableRecord
100
AcDbLinetypeTableRecord
  2
CONTINUOUS
 70
     0
  3
Solid line
 72
    65
 73
     0
 40
0.0
  0
ENDTAB
  0
TABLE
  2
LAYER
  5
2
330
0
100
AcDbSymbolTable
 70
     3
  0
LAYER
  5
10
330
2
100
AcDbSymbolTableRecord
100
AcDbLayerTableRecord
  2
0
 70
     0
 62
     7
  6
CONTINUOUS
  0
LAYER
  5
5E
330
2
100
AcDbSymbolTableRecord
100
AcDbLayerTableRecord
  2
PROFILEEDGES
 70
     0
 62
     7
  6
CONTINUOUS
  0
LAYER
  5
5F
330
2
100
AcDbSymbolTableRecord
100
AcDbLayerTableRecord
  2
SECTIONCUTEDGES
 70
     0
 62
     7
  6
CONTINUOUS
  0
ENDTAB
  0
TABLE
  2
STYLE
  5
3
330
0
100
AcDbSymbolTable
 70
     1
  0
STYLE
  5
11
330
3
100
AcDbSymbolTableRecord
100
AcDbTextStyleTableRecord
  2
STANDARD
 70
     0
 40
0.0
 41
1.0
 50
0.0
 71
     0
 42
0.2
  3
txt
  4

  0
ENDTAB
  0
TABLE
  2
VIEW
  5
6
330
0
100
AcDbSymbolTable
 70
     0
  0
ENDTAB
  0
TABLE
  2
UCS
  5
7
330
0
100
AcDbSymbolTable
 70
     0
  0
ENDTAB
  0
TABLE
  2
APPID
  5
9
330
0
100
AcDbSymbolTable
 70
     2
  0
APPID
  5
12
330
9
100
AcDbSymbolTableRecord
100
AcDbRegAppTableRecord
  2
ACAD
 70
     0
  0
APPID
  5
4B4
330
9
100
AcDbSymbolTableRecord
100
AcDbRegAppTableRecord
  2
ACAD_MLEADERVER
 70
     0
  0
ENDTAB
  0
TABLE
  2
DIMSTYLE
  5
A
330
0
100
AcDbSymbolTable
 70
     1
  0
DIMSTYLE
105
27
330
A
100
AcDbSymbolTableRecord
100
AcDbDimStyleTableRecord
  2
STANDARD
 70
     0
  3

  4

  5

  6

  7

 40
1.0
 41
0.18
 42
0.0625
 43
0.38
 44
0.18
 45
0.0
 46
0.0
 47
0.0
 48
0.0
140
0.18
141
0.09
142
0.0
143
25.4
144
1.0
145
0.0
146
1.0
147
0.09
 71
     0
 72
     0
 73
     1
 74
     1
 75
     0
 76
     0
 77
     0
 78
     0
170
     0
171
     2
172
     0
173
     0
174
     0
175
     0
176
     0
177
     0
178
     0
270
     2
271
     4
272
     4
273
     2
274
     2
340
11
275
     0
280
     0
281
     0
282
     0
283
     1
284
     0
285
     0
286
     0
287
     3
288
     0
  0
ENDTAB
  0
TABLE
  2
BLOCK_RECORD
  5
1
330
0
100
AcDbSymbolTable
 70
     0
  0
BLOCK_RECORD
  5
1F
330
1
100
AcDbSymbolTableRecord
100
AcDbBlockTableRecord
  2
*MODEL_SPACE
  0
BLOCK_RECORD
  5
1B
330
1
100
AcDbSymbolTableRecord
100
AcDbBlockTableRecord
  2
*PAPER_SPACE
  0
ENDTAB
  0
ENDSEC
  0
SECTION
  2
BLOCKS
  0
BLOCK
  5
20
330
1F
100
AcDbEntity
  8
0
100
AcDbBlockBegin
  2
*MODEL_SPACE
 70
     0
 10
0.0
 20
0.0
 30
0.0
  3
*MODEL_SPACE
  1

  0
ENDBLK
  5
21
330
1F
100
AcDbEntity
  8
0
100
AcDbBlockEnd
  0
BLOCK
  5
1C
330
1B
100
AcDbEntity
 67
     1
  8
0
100
AcDbBlockBegin
  2
*PAPER_SPACE
 70
     0
 10
0.0
 20
0.0
 30
0.0
  3
*PAPER_SPACE
  1

  0
ENDBLK
  5
1D
330
1B
100
AcDbEntity
 67
     1
  8
0
100
AcDbBlockEnd
  0
ENDSEC
  0
SECTION
  2
ENTITIES
  0
LINE
  5
60
330
1F
100
AcDbEntity
  8
0
100
AcDbLine
 10
0.0412980701443017
 20
0.0856966029650717
 30
0.0
 11
0.0463390894553337
 21
0.0878995675266757
 31
0.0
  0
LINE
  5
61
330
1F
100
AcDbEntity
  8
0
100
AcDbLine
 10
0.0254080919344112
 20
0.104385337278171
 30
0.0
 11
0.0254543565623818
 21
0.1044085828415166
 31
0.0
  0
LINE
  5
62
330
1F
100
AcDbEntity
  8
0
100
AcDbLine
 10
0.0250088881036313
 20
0.1041411624941011
 30
0.0
 11
0.0250393854902803
 21
0.1042822874812291
 31
0.0
  0
LINE
  5
63
330
1F
100
AcDbEntity
  8
0
100
AcDbLine
 10
0.0250393854902803
 20
0.1042822874812291
 30
0.0
 11
0.0250895269895114
 21
0.1044631391084508
 31
0.0
  0
LINE
  5
64
330
1F
100
AcDbEntity
  8
0
100
AcDbLine
 10
0.0540063206403812
 20
0.1034995678820684
 30
0.0
 11
0.0540119146392306
 21
0.1035995677121951
 31
0.0
  0
LINE
  5
65
330
1F
100
AcDbEntity
  8
0
100
AcDbLine
 10
0.0539331157728513
 20
0.1034263622024133
 30
0.0
 11
0.0540063206403812
 21
0.1034995678820684
 31
0.0
  0
LINE
  5
66
330
1F
100
AcDbEntity
  8
0
100
AcDbLine
 10
0.0540119146392306
 20
0.1035995677121951
 30
0.0
 11
0.0540309936069541
 21
0.1037995673724487
 31
0.0
  0
LINE
  5
67
330
1F
100
AcDbEntity
  8
0
100
AcDbLine
 10
0.0539078429221492
 20
0.1048995675304009
 30
0.0
 11
0.0538596385230094
 21
0.1053497980356995
 31
0.0
  0
LINE
  5
68
330
1F
100
AcDbEntity
  8
0
100
AcDbLine
 10
-0.0747857962554797
 20
0.1042229812831251
 30
0.0
 11
-0.07476526680971
 21
0.1042982311362894
 31
0.0
  0
LINE
  5
69
330
1F
100
AcDbEntity
  8
0
100
AcDbLine
 10
-0.0749648126940794
 20
0.104263693504222
 30
0.0
 11
-0.0749104721350946
 21
0.10446313444931
 31
0.0
  0
LINE
  5
6A
330
1F
100
AcDbEntity
  8
0
100
AcDbLine
 10
-0.0749924724235604
 20
0.104141167615863
 30
0.0
 11
-0.0749922330633223
 21
0.1041956308277962
 31
0.0
  0
LINE
  5
6B
330
1F
100
AcDbEntity
  8
0
100
AcDbLine
 10
-0.0461677311788924
 20
0.1044238083915334
 30
0.0
 11
-0.0461935316417792
 21
0.1044593816008528
 31
0.0
  0
LINE
  5
6C
330
1F
100
AcDbEntity
  8
0
100
AcDbLine
 10
-0.0466842284482294
 20
0.104219375954807
 30
0.0
 11
-0.0466470587409661
 21
0.1042554240114115
 31
0.0
  0
LINE
  5
6D
330
1F
100
AcDbEntity
  8
0
100
AcDbLine
 10
-0.0466842284482294
 20
0.104219375954807
 30
0.0
 11
-0.0467192188818629
 21
0.1043037911814389
 31
0.0
  0
LINE
  5
6E
330
1F
100
AcDbEntity
  8
0
100
AcDbLine
 10
-0.0471763246719432
 20
0.104384776632892
 30
0.0
 11
-0.0471466583284233
 21
0.1044378096677903
 31
0.0
  0
LINE
  5
6F
330
1F
100
AcDbEntity
  8
0
100
AcDbLine
 10
0.1430246296956267
 20
0.1222441362473988
 30
0.0
 11
0.1430236378107687
 21
0.1223259776792277
 31
0.0
  0
LINE
  5
70
330
1F
100
AcDbEntity
  8
0
100
AcDbLine
 10
0.1430582419002172
 20
0.1222259777035818
 30
0.0
 11
0.143054397541562
 21
0.1223259776792277
 31
0.0
  0
LINE
  5
71
330
1F
100
AcDbEntity
  8
0
100
AcDbLine
 10
0.0144832333307461
 20
-0.1366004323094116
 30
0.0
 11
0.0144832333307461
 21
-0.1406004324994014
 31
0.0
  0
LINE
  5
72
330
1F
100
AcDbEntity
  8
0
100
AcDbLine
 10
0.0644832340758041
 20
-0.1406004324994014
 30
0.0
 11
0.0644832340758041
 21
-0.1366004323094116
 31
0.0
  0
LINE
  5
73
330
1F
100
AcDbEntity
  8
0
100
AcDbLine
 10
0.0604749383133596
 20
-0.1411004325124399
 30
0.0
 11
0.0609382819056498
 21
-0.1410270172852055
 31
0.0
  0
LINE
  5
74
330
1F
100
AcDbEntity
  8
0
100
AcDbLine
 10
0.0609382819056498
 20
-0.1410270172852055
 30
0.0
 11
0.0613562688748817
 21
-0.1408139580377341
 31
0.0
  0
LINE
  5
75
330
1F
100
AcDbEntity
  8
0
100
AcDbLine
 10
0.0613562688748817
 20
-0.1408139580377341
 30
0.0
 11
0.0615697095780305
 21
-0.1406004324994014
 31
0.0
  0
LINE
  5
76
330
1F
100
AcDbEntity
  8
0
100
AcDbLine
 10
0.0184915290931906
 20
-0.1411004325124399
 30
0.0
 11
0.0180281855009004
 21
-0.1410270172852055
 31
0.0
  0
LINE
  5
77
330
1F
100
AcDbEntity
  8
0
100
AcDbLine
 10
0.0180281855009004
 20
-0.1410270172852055
 30
0.0
 11
0.0176101985316685
 21
-0.1408139580377341
 31
0.0
  0
LINE
  5
78
330
1F
100
AcDbEntity
  8
0
100
AcDbLine
 10
0.0176101985316685
 20
-0.1408139580377341
 30
0.0
 11
0.0174209161169106
 21
-0.1406004324994014
 31
0.0
  0
LINE
  5
79
330
1F
100
AcDbEntity
  8
0
100
AcDbLine
 10
0.0219832336287693
 20
0.0883995676682367
 30
0.0
 11
0.0219832336287693
 21
0.1033995673329606
 31
0.0
  0
LINE
  5
7A
330
1F
100
AcDbEntity
  8
0
100
AcDbLine
 10
0.0569832337777809
 20
0.1033995673329606
 30
0.0
 11
0.0569832337777809
 21
0.0883995676682367
 31
0.0
  0
LINE
  5
7B
330
1F
100
AcDbEntity
  8
0
100
AcDbLine
 10
0.0299832340087489
 20
0.1033995673329606
 30
0.0
 11
0.0299832340087489
 21
0.1034263622024133
 31
0.0
  0
LINE
  5
7C
330
1F
100
AcDbEntity
  8
0
100
AcDbLine
 10
0.0489832333978013
 20
0.1033995673329606
 30
0.0
 11
0.0489832333978013
 21
0.1034263622024133
 31
0.0
  0
LINE
  5
7D
330
1F
100
AcDbEntity
  8
0
100
AcDbLine
 10
0.0495412902046383
 20
0.1037893888908475
 30
0.0
 11
0.0495095833785628
 21
0.1037893888908475
 31
0.0
  0
LINE
  5
7E
330
1F
100
AcDbEntity
  8
0
100
AcDbLine
 10
0.0282732700924323
 20
0.1033995673329606
 30
0.0
 11
0.0282500527123841
 21
0.1034263622024133
 31
0.0
  0
LINE
  5
7F
330
1F
100
AcDbEntity
  8
0
100
AcDbLine
 10
0.042067180973361
 20
0.1037893888908475
 30
0.0
 11
0.0421508210643335
 21
0.1037893888908475
 31
0.0
  0
LINE
  5
80
330
1F
100
AcDbEntity
  8
0
100
AcDbLine
 10
0.0307738811608631
 20
0.1037893888908475
 30
0.0
 11
0.030843594118157
 21
0.1037893888908475
 31
0.0
  0
LINE
  5
81
330
1F
100
AcDbEntity
  8
0
100
AcDbLine
 10
0.0267168811928495
 20
0.1034263622024133
 30
0.0
 11
0.0266936638128013
 21
0.1033995673329606
 31
0.0
  0
LINE
  5
82
330
1F
100
AcDbEntity
  8
0
100
AcDbLine
 10
0.0506931973141179
 20
0.1033995673329606
 30
0.0
 11
0.0507164146941661
 21
0.1034263622024133
 31
0.0
  0
LINE
  5
83
330
1F
100
AcDbEntity
  8
0
100
AcDbLine
 10
0.0522495862137007
 20
0.1034263622024133
 30
0.0
 11
0.0522728035937489
 21
0.1033995673329606
 31
0.0
  0
LINE
  5
84
330
1F
100
AcDbEntity
  8
0
100
AcDbLine
 10
0.0381832336997361
 20
0.0867965725156515
 30
0.0
 11
0.0385277375452899
 21
0.0867781752859279
 31
0.0
  0
LINE
  5
85
330
1F
100
AcDbEntity
  8
0
100
AcDbLine
 10
0.0391656483106528
 20
0.086758839981541
 30
0.0
 11
0.0398008190958974
 21
0.086758839981541
 31
0.0
  0
LINE
  5
86
330
1F
100
AcDbEntity
  8
0
100
AcDbLine
 10
0.0398008190958974
 20
0.086758839981541
 30
0.0
 11
0.0404387298612603
 21
0.0867781752859279
 31
0.0
  0
LINE
  5
87
330
1F
100
AcDbEntity
  8
0
100
AcDbLine
 10
0.0404387298612603
 20
0.0867781752859279
 30
0.0
 11
0.0407832337068142
 21
0.0867965725156515
 31
0.0
  0
LINE
  5
88
330
1F
100
AcDbEntity
  8
0
100
AcDbLine
 10
0.0385277375452899
 20
0.0867781752859279
 30
0.0
 11
0.0391656483106528
 21
0.086758839981541
 31
0.0
  0
LINE
  5
89
330
1F
100
AcDbEntity
  8
0
100
AcDbLine
 10
0.0381832336997361
 20
0.0854683175239748
 30
0.0
 11
0.0326260906846864
 21
0.0878995675266757
 31
0.0
  0
LINE
  5
8A
330
1F
100
AcDbEntity
  8
0
100
AcDbLine
 10
0.0305832339208321
 20
0.0878995675266757
 30
0.0
 11
0.0305832339208321
 21
0.0883995676682367
 31
0.0
  0
LINE
  5
8B
330
1F
100
AcDbEntity
  8
0
100
AcDbLine
 10
0.0483832334857182
 20
0.0883995676682367
 30
0.0
 11
0.0483832334857182
 21
0.0878995675266757
 31
0.0
  0
LINE
  5
8C
330
1F
100
AcDbEntity
  8
0
100
AcDbLine
 10
0.0321085715232144
 20
0.0883995676682367
 30
0.0
 11
0.031878901062508
 21
0.0878995675266757
 31
0.0
  0
LINE
  5
8D
330
1F
100
AcDbEntity
  8
0
100
AcDbLine
 10
0.031878901062508
 20
0.0878995675266757
 30
0.0
 11
0.0322291521996307
 21
0.0883995676682367
 31
0.0
  0
LINE
  5
8E
330
1F
100
AcDbEntity
  8
0
100
AcDbLine
 10
0.0379278544864258
 20
0.0883995676682367
 30
0.0
 11
0.0376724752122284
 21
0.0878995675266757
 31
0.0
  0
LINE
  5
8F
330
1F
100
AcDbEntity
  8
0
100
AcDbLine
 10
0.0376724752122284
 20
0.0878995675266757
 30
0.0
 11
0.0382741757910611
 21
0.0883995676682367
 31
0.0
  0
LINE
  5
90
330
1F
100
AcDbEntity
  8
0
100
AcDbLine
 10
0.0412939921943219
 20
0.0878995675266757
 30
0.0
 11
0.0410386129201244
 21
0.0883995676682367
 31
0.0
  0
LINE
  5
91
330
1F
100
AcDbEntity
  8
0
100
AcDbLine
 10
0.0404369124847483
 20
0.0883995676682367
 30
0.0
 11
0.0400905911801131
 21
0.0878995675266757
 31
0.0
  0
LINE
  5
92
330
1F
100
AcDbEntity
  8
0
100
AcDbLine
 10
0.0400905911801131
 20
0.0878995675266757
 30
0.0
 11
0.0412939921943219
 21
0.0878995675266757
 31
0.0
  0
LINE
  5
93
330
1F
100
AcDbEntity
  8
0
100
AcDbLine
 10
0.0400905911801131
 20
0.0883995676682367
 30
0.0
 11
0.0400905911801131
 21
0.0878995675266757
 31
0.0
  0
LINE
  5
94
330
1F
100
AcDbEntity
  8
0
100
AcDbLine
 10
0.0447027181602201
 20
0.0883995676682367
 30
0.0
 11
0.0446156886163847
 21
0.0878995675266757
 31
0.0
  0
LINE
  5
95
330
1F
100
AcDbEntity
  8
0
100
AcDbLine
 10
0.0465076448297195
 20
0.0883995676682367
 30
0.0
 11
0.0463870641533033
 21
0.0878995675266757
 31
0.0
  0
LINE
  5
96
330
1F
100
AcDbEntity
  8
0
100
AcDbLine
 10
0.0463870641533033
 20
0.0883995676682367
 30
0.0
 11
0.0463870641533033
 21
0.0878995675266757
 31
0.0
  0
LINE
  5
97
330
1F
100
AcDbEntity
  8
0
100
AcDbLine
 10
0.0481704877586905
 20
0.0883995676682367
 30
0.0
 11
0.048053197910984
 21
0.0878995675266757
 31
0.0
  0
LINE
  5
98
330
1F
100
AcDbEntity
  8
0
100
AcDbLine
 10
0.0343507787901656
 20
0.0883995676682367
 30
0.0
 11
0.0343507787901656
 21
0.0878995675266757
 31
0.0
  0
LINE
  5
99
330
1F
100
AcDbEntity
  8
0
100
AcDbLine
 10
0.0342637492463301
 20
0.0883995676682367
 30
0.0
 11
0.0343507787901656
 21
0.0878995675266757
 31
0.0
  0
LINE
  5
9A
330
1F
100
AcDbEntity
  8
0
100
AcDbLine
 10
0.0446156886163847
 20
0.0883995676682367
 30
0.0
 11
0.0446156886163847
 21
0.0878995675266757
 31
0.0
  0
LINE
  5
9B
330
1F
100
AcDbEntity
  8
0
100
AcDbLine
 10
0.0411957693719252
 20
0.0883995676682367
 30
0.0
 11
0.0412939921943219
 21
0.0878995675266757
 31
0.0
  0
LINE
  5
9C
330
1F
100
AcDbEntity
  8
0
100
AcDbLine
 10
0.0492700124443516
 20
0.1034263622024133
 30
0.0
 11
0.0492700124443516
 21
0.1033995673329606
 31
0.0
  0
LINE
  5
9D
330
1F
100
AcDbEntity
  8
0
100
AcDbLine
 10
0.0261888653166569
 20
0.1036223278766693
 30
0.0
 11
0.0261888653166569
 21
0.1035885714585988
 31
0.0
  0
LINE
  5
9E
330
1F
100
AcDbEntity
  8
0
100
AcDbLine
 10
0.0261888653166569
 20
0.1034802132702742
 30
0.0
 11
0.0261888653166569
 21
0.1033995673329606
 31
0.0
  0
LINE
  5
9F
330
1F
100
AcDbEntity
  8
0
100
AcDbLine
 10
0.0250088881036313
 20
0.1037995675363614
 30
0.0
 11
0.0250470570473468
 21
0.1037995675363614
 31
0.0
  0
LINE
  5
A0
330
1F
100
AcDbEntity
  8
0
100
AcDbLine
 10
0.0527776020898933
 20
0.1034263622024133
 30
0.0
 11
0.0527776020898933
 21
0.1033995673329606
 31
0.0
  0
LINE
  5
A1
330
1F
100
AcDbEntity
  8
0
100
AcDbLine
 10
0.0296964549621986
 20
0.1034263622024133
 30
0.0
 11
0.0296964549621986
 21
0.1033995673329606
 31
0.0
  0
LINE
  5
A2
330
1F
100
AcDbEntity
  8
0
100
AcDbLine
 10
0.0569832337777809
 20
0.0883995676682367
 30
0.0
 11
0.0569832337777809
 21
-0.1366004271349833
 31
0.0
  0
LINE
  5
A3
330
1F
100
AcDbEntity
  8
0
100
AcDbLine
 10
0.0539331157728513
 20
0.1034263622024133
 30
0.0
 11
0.0538331172746762
 21
0.1033995673329606
 31
0.0
  0
LINE
  5
A4
330
1F
100
AcDbEntity
  8
0
100
AcDbLine
 10
0.0261113706506353
 20
0.1034995678820684
 30
0.0
 11
0.0260705264068232
 21
0.1034584849721399
 31
0.0
  0
LINE
  5
A5
330
1F
100
AcDbEntity
  8
0
100
AcDbLine
 10
0.0260385902503797
 20
0.1034263622024133
 30
0.0
 11
0.0260119510424281
 21
0.1033995673329606
 31
0.0
  0
LINE
  5
A6
330
1F
100
AcDbEntity
  8
0
100
AcDbLine
 10
0.0260343690214847
 20
0.1034995678820684
 30
0.0
 11
0.0260057050955167
 21
0.1034709014979067
 31
0.0
  0
LINE
  5
A7
330
1F
100
AcDbEntity
  8
0
100
AcDbLine
 10
0.0259611696193476
 20
0.1034263622024133
 30
0.0
 11
0.0259343770476029
 21
0.1033995673329606
 31
0.0
  0
LINE
  5
A8
330
1F
100
AcDbEntity
  8
0
100
AcDbLine
 10
0.0261534812802581
 20
0.1034995678820684
 30
0.0
 11
0.0261060264476263
 21
0.1034516849373602
 31
0.0
  0
LINE
  5
A9
330
1F
100
AcDbEntity
  8
0
100
AcDbLine
 10
0.0260809301183173
 20
0.1034263622024133
 30
0.0
 11
0.026054374606127
 21
0.103399567120619
 31
0.0
  0
LINE
  5
AA
330
1F
100
AcDbEntity
  8
0
100
AcDbLine
 10
0.0264669720572545
 20
0.1034995678820684
 30
0.0
 11
0.0264247366772579
 21
0.1034559250780267
 31
0.0
  0
LINE
  5
AB
330
1F
100
AcDbEntity
  8
0
100
AcDbLine
 10
0.0263961271661886
 20
0.1034263622024133
 30
0.0
 11
0.0263701961911636
 21
0.103399567120619
 31
0.0
  0
LINE
  5
AC
330
1F
100
AcDbEntity
  8
0
100
AcDbLine
 10
0.0269021632166816
 20
0.1034263622024133
 30
0.0
 11
0.0268772349318042
 21
0.103399567120619
 31
0.0
  0
LINE
  5
AD
330
1F
100
AcDbEntity
  8
0
100
AcDbLine
 10
0.0275916594000734
 20
0.1034263622024133
 30
0.0
 11
0.027568097265939
 21
0.103399567120619
 31
0.0
  0
LINE
  5
AE
330
1F
100
AcDbEntity
  8
0
100
AcDbLine
 10
0.02845456212445
 20
0.1034263622024133
 30
0.0
 11
0.028453346292529
 21
0.103399567120619
 31
0.0
  0
LINE
  5
AF
330
1F
100
AcDbEntity
  8
0
100
AcDbLine
 10
0.0294782872823802
 20
0.1034263622024133
 30
0.0
 11
0.0294584633455492
 21
0.103399567120619
 31
0.0
  0
LINE
  5
B0
330
1F
100
AcDbEntity
  8
0
100
AcDbLine
 10
0.0308429729494979
 20
0.1037249267285346
 30
0.0
 11
0.0308132199351413
 21
0.103679387215887
 31
0.0
  0
LINE
  5
B1
330
1F
100
AcDbEntity
  8
0
100
AcDbLine
 10
0.0306479072995684
 20
0.1034263622024133
 30
0.0
 11
0.030630400865991
 21
0.103399567120619
 31
0.0
  0
LINE
  5
B2
330
1F
100
AcDbEntity
  8
0
100
AcDbLine
 10
0.0319463659724338
 20
0.1034263622024133
 30
0.0
 11
0.031931432325978
 21
0.103399567120619
 31
0.0
  0
LINE
  5
B3
330
1F
100
AcDbEntity
  8
0
100
AcDbLine
 10
0.0333547295399881
 20
0.1034263622024133
 30
0.0
 11
0.0333425864443735
 21
0.103399567120619
 31
0.0
  0
LINE
  5
B4
330
1F
100
AcDbEntity
  8
0
100
AcDbLine
 10
0.0348259723059332
 20
0.1034263622024133
 30
0.0
 11
0.0348432844347841
 21
0.1033995673329606
 31
0.0
  0
LINE
  5
B5
330
1F
100
AcDbEntity
  8
0
100
AcDbLine
 10
0.0348761853449881
 20
0.1034263622024133
 30
0.0
 11
0.0348432844347841
 21
0.1033995673329606
 31
0.0
  0
LINE
  5
B6
330
1F
100
AcDbEntity
  8
0
100
AcDbLine
 10
0.0362531170064153
 20
0.1036159619425807
 30
0.0
 11
0.0362728461117198
 21
0.1035890310192771
 31
0.0
  0
LINE
  5
B7
330
1F
100
AcDbEntity
  8
0
100
AcDbLine
 10
0.0363920143326338
 20
0.1034263622024133
 30
0.0
 11
0.0364116437673581
 21
0.1033995673329606
 31
0.0
  0
LINE
  5
B8
330
1F
100
AcDbEntity
  8
0
100
AcDbLine
 10
0.0364177179817933
 20
0.1034263622024133
 30
0.0
 11
0.0364116437673581
 21
0.1033995673329606
 31
0.0
  0
LINE
  5
B9
330
1F
100
AcDbEntity
  8
0
100
AcDbLine
 10
0.0379768374271219
 20
0.1034263622024133
 30
0.0
 11
0.0380247935625955
 21
0.1033995673329606
 31
0.0
  0
LINE
  5
BA
330
1F
100
AcDbEntity
  8
0
100
AcDbLine
 10
0.0380276780038135
 20
0.1034263622024133
 30
0.0
 11
0.0380247935625955
 21
0.1033995673329606
 31
0.0
  0
LINE
  5
BB
330
1F
100
AcDbEntity
  8
0
100
AcDbLine
 10
0.0396073524636823
 20
0.1034263622024133
 30
0.0
 11
0.0396592108905982
 21
0.1033995673329606
 31
0.0
  0
LINE
  5
BC
330
1F
100
AcDbEntity
  8
0
100
AcDbLine
 10
0.0396588633045709
 20
0.1034263622024133
 30
0.0
 11
0.0396592108905982
 21
0.1033995673329606
 31
0.0
  0
LINE
  5
BD
330
1F
100
AcDbEntity
  8
0
100
AcDbLine
 10
0.0412669185299485
 20
0.1034263622024133
 30
0.0
 11
0.041291062488994
 21
0.103399567120619
 31
0.0
  0
LINE
  5
BE
330
1F
100
AcDbEntity
  8
0
100
AcDbLine
 10
0.0428715179855399
 20
0.1034264393915847
 30
0.0
 11
0.0428965512286596
 21
0.1033995673329606
 31
0.0
  0
LINE
  5
BF
330
1F
100
AcDbEntity
  8
0
100
AcDbLine
 10
0.0444267553094501
 20
0.1034263622024133
 30
0.0
 11
0.0444522664094117
 21
0.1033995673329606
 31
0.0
  0
LINE
  5
C0
330
1F
100
AcDbEntity
  8
0
100
AcDbLine
 10
0.0458978355699247
 20
0.1034386410565364
 30
0.0
 11
0.0459355215425075
 21
0.1033995673329606
 31
0.0
  0
LINE
  5
C1
330
1F
100
AcDbEntity
  8
0
100
AcDbLine
 10
0.0472986798640884
 20
0.1034263622024133
 30
0.0
 11
0.0473202197749167
 21
0.103399567120619
 31
0.0
  0
LINE
  5
C2
330
1F
100
AcDbEntity
  8
0
100
AcDbLine
 10
0.0485022580527928
 20
0.1034995678820684
 30
0.0
 11
0.0485415795143603
 21
0.1034591345214447
 31
0.0
  0
LINE
  5
C3
330
1F
100
AcDbEntity
  8
0
100
AcDbLine
 10
0.0485734506095003
 20
0.1034263622024133
 30
0.0
 11
0.0485995086322106
 21
0.1033995673329606
 31
0.0
  0
LINE
  5
C4
330
1F
100
AcDbEntity
  8
0
100
AcDbLine
 10
0.0485322296723134
 20
0.1034995678820684
 30
0.0
 11
0.0485415795143603
 21
0.1034591345214447
 31
0.0
  0
LINE
  5
C5
330
1F
100
AcDbEntity
  8
0
100
AcDbLine
 10
0.0497153539014601
 20
0.1034263622024133
 30
0.0
 11
0.0497413932455614
 21
0.1033995673329606
 31
0.0
  0
LINE
  5
C6
330
1F
100
AcDbEntity
  8
0
100
AcDbLine
 10
0.0507164146941661
 20
0.1034263622024133
 30
0.0
 11
0.0507336911558289
 21
0.1033995673329606
 31
0.0
  0
LINE
  5
C7
330
1F
100
AcDbEntity
  8
0
100
AcDbLine
 10
0.0515253955414726
 20
0.1034372612053516
 30
0.0
 11
0.0515619313488928
 21
0.1033995673329606
 31
0.0
  0
LINE
  5
C8
330
1F
100
AcDbEntity
  8
0
100
AcDbLine
 10
0.0522364902999
 20
0.1033995675005986
 30
0.0
 11
0.0521888629829857
 21
0.1034263622024133
 31
0.0
  0
LINE
  5
C9
330
1F
100
AcDbEntity
  8
0
100
AcDbLine
 10
0.0536883259223796
 20
0.1063995678358748
 30
0.0
 11
0.0538596385230094
 21
0.1053497980356995
 31
0.0
  0
LINE
  5
CA
330
1F
100
AcDbEntity
  8
0
100
AcDbLine
 10
0.0250572027099659
 20
0.1048995675304009
 30
0.0
 11
0.0251068288835429
 21
0.1053497980357184
 31
0.0
  0
LINE
  5
CB
330
1F
100
AcDbEntity
  8
0
100
AcDbLine
 10
0.025450199463425
 20
0.1037995673724487
 30
0.0
 11
0.025518374527771
 21
0.1044407468983271
 31
0.0
  0
LINE
  5
CC
330
1F
100
AcDbEntity
  8
0
100
AcDbLine
 10
0.0255671598130965
 20
0.1048995675304009
 30
0.0
 11
0.0256150317310722
 21
0.1053497980357184
 31
0.0
  0
LINE
  5
CD
330
1F
100
AcDbEntity
  8
0
100
AcDbLine
 10
0.0256150317310722
 20
0.1053497980357184
 30
0.0
 11
0.0255381727270558
 21
0.1048995675304009
 31
0.0
  0
LINE
  5
CE
330
1F
100
AcDbEntity
  8
0
100
AcDbLine
 10
0.0258325467451213
 20
0.1037995673724487
 30
0.0
 11
0.0262742956279513
 21
0.1037995673724487
 31
0.0
  0
LINE
  5
CF
330
1F
100
AcDbEntity
  8
0
100
AcDbLine
 10
0.0262742956279513
 20
0.1037995673724487
 30
0.0
 11
0.0263284974035768
 21
0.1043411332484507
 31
0.0
  0
LINE
  5
D0
330
1F
100
AcDbEntity
  8
0
100
AcDbLine
 10
0.0263843874272897
 20
0.1048995675304009
 30
0.0
 11
0.0264294480448624
 21
0.1053497980357184
 31
0.0
  0
LINE
  5
D1
330
1F
100
AcDbEntity
  8
0
100
AcDbLine
 10
0.0274586976956414
 20
0.1037995673724487
 30
0.0
 11
0.0275218059248227
 21
0.1044922340392406
 31
0.0
  0
LINE
  5
D2
330
1F
100
AcDbEntity
  8
0
100
AcDbLine
 10
0.0275589177082328
 20
0.1048995675304009
 30
0.0
 11
0.0275999377995353
 21
0.1053497980357184
 31
0.0
  0
LINE
  5
D3
330
1F
100
AcDbEntity
  8
0
100
AcDbLine
 10
0.0275999377995353
 20
0.1053497980357184
 30
0.0
 11
0.0275315863509936
 21
0.1048995675304009
 31
0.0
  0
LINE
  5
D4
330
1F
100
AcDbEntity
  8
0
100
AcDbLine
 10
0.0274615892346101
 20
0.1044488730233781
 30
0.0
 11
0.0273645905492783
 21
0.1037995673724487
 31
0.0
  0
LINE
  5
D5
330
1F
100
AcDbEntity
  8
0
100
AcDbLine
 10
0.0298377253259338
 20
0.1037995673724487
 30
0.0
 11
0.0298883713315697
 21
0.1044925572756769
 31
0.0
  0
LINE
  5
D6
330
1F
100
AcDbEntity
  8
0
100
AcDbLine
 10
0.0299181169938926
 20
0.1048995675304009
 30
0.0
 11
0.0299510213357937
 21
0.1053497980357184
 31
0.0
  0
LINE
  5
D7
330
1F
100
AcDbEntity
  8
0
100
AcDbLine
 10
0.0299510213357937
 20
0.1053497980357184
 30
0.0
 11
0.0298342299142971
 21
0.1048995675304009
 31
0.0
  0
LINE
  5
D8
330
1F
100
AcDbEntity
  8
0
100
AcDbLine
 10
0.0297065546649412
 20
0.1044073799082498
 30
0.0
 11
0.0295488858947862
 21
0.1037995673724487
 31
0.0
  0
LINE
  5
D9
330
1F
100
AcDbEntity
  8
0
100
AcDbLine
 10
0.030843594118157
 20
0.1037893888908475
 30
0.0
 11
0.0317622758658867
 21
0.1037995673724487
 31
0.0
  0
LINE
  5
DA
330
1F
100
AcDbEntity
  8
0
100
AcDbLine
 10
0.0317622758658867
 20
0.1037995673724487
 30
0.0
 11
0.0317942445580077
 21
0.104346030504063
 31
0.0
  0
LINE
  5
DB
330
1F
100
AcDbEntity
  8
0
100
AcDbLine
 10
0.031826627080723
 20
0.1048995675304009
 30
0.0
 11
0.031852966058735
 21
0.1053497980357184
 31
0.0
  0
LINE
  5
DC
330
1F
100
AcDbEntity
  8
0
100
AcDbLine
 10
0.0328070522346487
 20
0.1037995673724487
 30
0.0
 11
0.0328418551677339
 21
0.104487574578033
 31
0.0
  0
LINE
  5
DD
330
1F
100
AcDbEntity
  8
0
100
AcDbLine
 10
0.0328626958842794
 20
0.1048995675304009
 30
0.0
 11
0.0328854708523645
 21
0.1053497980357184
 31
0.0
  0
LINE
  5
DE
330
1F
100
AcDbEntity
  8
0
100
AcDbLine
 10
0.0328854708523645
 20
0.1053497980357184
 30
0.0
 11
0.0327053589425144
 21
0.1048995675304009
 31
0.0
  0
LINE
  5
DF
330
1F
100
AcDbEntity
  8
0
100
AcDbLine
 10
0.0324946508427975
 20
0.1043728549199521
 30
0.0
 11
0.0322653107295564
 21
0.1037995673724487
 31
0.0
  0
LINE
  5
E0
330
1F
100
AcDbEntity
  8
0
100
AcDbLine
 10
0.033897434058545
 20
0.1037995673724487
 30
0.0
 11
0.0339244465125953
 21
0.1044378096677904
 31
0.0
  0
LINE
  5
E1
330
1F
100
AcDbEntity
  8
0
100
AcDbLine
 10
0.0339439895813282
 20
0.1048995675304009
 30
0.0
 11
0.0339630447754539
 21
0.1053497980357184
 31
0.0
  0
LINE
  5
E2
330
1F
100
AcDbEntity
  8
0
100
AcDbLine
 10
0.0339630447754539
 20
0.1053497980357184
 30
0.0
 11
0.0339088170827408
 21
0.1048995675304009
 31
0.0
  0
LINE
  5
E3
330
1F
100
AcDbEntity
  8
0
100
AcDbLine
 10
0.0338468134595479
 20
0.1043847766328919
 30
0.0
 11
0.0337763283467593
 21
0.1037995673724487
 31
0.0
  0
LINE
  5
E4
330
1F
100
AcDbEntity
  8
0
100
AcDbLine
 10
0.0373664750255163
 20
0.1037995673724487
 30
0.0
 11
0.0373770574663762
 21
0.1044593816008525
 31
0.0
  0
LINE
  5
E5
330
1F
100
AcDbEntity
  8
0
100
AcDbLine
 10
0.0373841173953172
 20
0.1048995675304009
 30
0.0
 11
0.0373913384243444
 21
0.1053497980357184
 31
0.0
  0
LINE
  5
E6
330
1F
100
AcDbEntity
  8
0
100
AcDbLine
 10
0.0373913384243444
 20
0.1053497980357184
 30
0.0
 11
0.0372824612240709
 21
0.1048995675304009
 31
0.0
  0
LINE
  5
E7
330
1F
100
AcDbEntity
  8
0
100
AcDbLine
 10
0.0371428889104313
 20
0.104322406167503
 30
0.0
 11
0.0370164531768958
 21
0.1037995673724487
 31
0.0
  0
LINE
  5
E8
330
1F
100
AcDbEntity
  8
0
100
AcDbLine
 10
0.038695983567954
 20
0.1037995673724487
 30
0.0
 11
0.0397647170898612
 21
0.1037995673724487
 31
0.0
  0
LINE
  5
E9
330
1F
100
AcDbEntity
  8
0
100
AcDbLine
 10
0.0397647170898612
 20
0.1037995673724487
 30
0.0
 11
0.0397633049146743
 21
0.1044616718570899
 31
0.0
  0
LINE
  5
EA
330
1F
100
AcDbEntity
  8
0
100
AcDbLine
 10
0.0397623709451595
 20
0.1048995675304009
 30
0.0
 11
0.0397614106671933
 21
0.1053497980357184
 31
0.0
  0
LINE
  5
EB
330
1F
100
AcDbEntity
  8
0
100
AcDbLine
 10
0.0409650603857861
 20
0.1037995673724487
 30
0.0
 11
0.0409574696534825
 21
0.1044756429379818
 31
0.0
  0
LINE
  5
EC
330
1F
100
AcDbEntity
  8
0
100
AcDbLine
 10
0.0409527099812477
 20
0.1048995675304009
 30
0.0
 11
0.0409476549557225
 21
0.1053497980357184
 31
0.0
  0
LINE
  5
ED
330
1F
100
AcDbEntity
  8
0
100
AcDbLine
 10
0.0409476549557225
 20
0.1053497980357184
 30
0.0
 11
0.0407848609138352
 21
0.1048995675304009
 31
0.0
  0
LINE
  5
EE
330
1F
100
AcDbEntity
  8
0
100
AcDbLine
 10
0.0405549420131164
 20
0.1042636935042224
 30
0.0
 11
0.0403871236000045
 21
0.1037995673724487
 31
0.0
  0
LINE
  5
EF
330
1F
100
AcDbEntity
  8
0
100
AcDbLine
 10
0.0421508210643335
 20
0.1037893888908475
 30
0.0
 11
0.0421451852404526
 21
0.1042982311362892
 31
0.0
  0
LINE
  5
F0
330
1F
100
AcDbEntity
  8
0
100
AcDbLine
 10
0.0421330106170928
 20
0.1048995675304009
 30
0.0
 11
0.042123895275196
 21
0.1053497980357184
 31
0.0
  0
LINE
  5
F1
330
1F
100
AcDbEntity
  8
0
100
AcDbLine
 10
0.042123895275196
 20
0.1053497980357184
 30
0.0
 11
0.0421074166455321
 21
0.1048995675304009
 31
0.0
  0
LINE
  5
F2
330
1F
100
AcDbEntity
  8
0
100
AcDbLine
 10
0.0420833861256011
 20
0.1042430036441886
 30
0.0
 11
0.042067180973361
 21
0.1037893888908475
 31
0.0
  0
LINE
  5
F3
330
1F
100
AcDbEntity
  8
0
100
AcDbLine
 10
0.0455845836186368
 20
0.1037995673724487
 30
0.0
 11
0.0455595470922959
 21
0.1043411332484507
 31
0.0
  0
LINE
  5
F4
330
1F
100
AcDbEntity
  8
0
100
AcDbLine
 10
0.0455337307415448
 20
0.1048995675304009
 30
0.0
 11
0.045512916638579
 21
0.1053497980357184
 31
0.0
  0
LINE
  5
F5
330
1F
100
AcDbEntity
  8
0
100
AcDbLine
 10
0.045512916638579
 20
0.1053497980357184
 30
0.0
 11
0.0454500465764156
 21
0.1048995675304009
 31
0.0
  0
LINE
  5
F6
330
1F
100
AcDbEntity
  8
0
100
AcDbLine
 10
0.045353808043059
 20
0.104210375854535
 30
0.0
 11
0.0452964428612222
 21
0.1037995673724487
 31
0.0
  0
LINE
  5
F7
330
1F
100
AcDbEntity
  8
0
100
AcDbLine
 10
0.0486404863319523
 20
0.1037995673724487
 30
0.0
 11
0.0486003043596507
 21
0.1043786925957654
 31
0.0
  0
LINE
  5
F8
330
1F
100
AcDbEntity
  8
0
100
AcDbLine
 10
0.0485641640201292
 20
0.1048995675304009
 30
0.0
 11
0.0485329252673248
 21
0.1053497980357184
 31
0.0
  0
LINE
  5
F9
330
1F
100
AcDbEntity
  8
0
100
AcDbLine
 10
0.0485329252673248
 20
0.1053497980357184
 30
0.0
 11
0.0484396072768776
 21
0.1048995675304009
 31
0.0
  0
LINE
  5
FA
330
1F
100
AcDbEntity
  8
0
100
AcDbLine
 10
0.0482978421554336
 20
0.1042155945691504
 30
0.0
 11
0.0482116133870381
 21
0.1037995673724487
 31
0.0
  0
LINE
  5
FB
330
1F
100
AcDbEntity
  8
0
100
AcDbLine
 10
0.0495412902046383
 20
0.1037893888908475
 30
0.0
 11
0.0494776349707488
 21
0.1043828420322131
 31
0.0
  0
LINE
  5
FC
330
1F
100
AcDbEntity
  8
0
100
AcDbLine
 10
0.0494590868898797
 20
0.1048995675304009
 30
0.0
 11
0.0494247695661015
 21
0.1053497980357184
 31
0.0
  0
LINE
  5
FD
330
1F
100
AcDbEntity
  8
0
100
AcDbLine
 10
0.0494776349707488
 20
0.1043828420322131
 30
0.0
 11
0.0495095833785628
 21
0.1037893888908475
 31
0.0
  0
LINE
  5
FE
330
1F
100
AcDbEntity
  8
0
100
AcDbLine
 10
0.0518156828083069
 20
0.1037995673724487
 30
0.0
 11
0.0517646201395749
 21
0.104346030504063
 31
0.0
  0
LINE
  5
FF
330
1F
100
AcDbEntity
  8
0
100
AcDbLine
 10
0.0517128964711851
 20
0.1048995675304009
 30
0.0
 11
0.0516708259822243
 21
0.1053497980357184
 31
0.0
  0
LINE
  5
100
330
1F
100
AcDbEntity
  8
0
100
AcDbLine
 10
0.0516708259822243
 20
0.1053497980357184
 30
0.0
 11
0.0516690390706407
 21
0.1048995675304009
 31
0.0
  0
LINE
  5
101
330
1F
100
AcDbEntity
  8
0
100
AcDbLine
 10
0.0516668790308227
 20
0.1043553235802813
 30
0.0
 11
0.0516646733002166
 21
0.1037995673724487
 31
0.0
  0
LINE
  5
102
330
1F
100
AcDbEntity
  8
0
100
AcDbLine
 10
0.05225930208628
 20
0.1053497980357184
 30
0.0
 11
0.0523034040144283
 21
0.1048995675304009
 31
0.0
  0
LINE
  5
103
330
1F
100
AcDbEntity
  8
0
100
AcDbLine
 10
0.0523437604171338
 20
0.1044875745780328
 30
0.0
 11
0.0524111535501796
 21
0.1037995673724487
 31
0.0
  0
LINE
  5
104
330
1F
100
AcDbEntity
  8
0
100
AcDbLine
 10
0.0518156828083069
 20
0.1037995673724487
 30
0.0
 11
0.0524111535501796
 21
0.1037995673724487
 31
0.0
  0
LINE
  5
105
330
1F
100
AcDbEntity
  8
0
100
AcDbLine
 10
0.0506578580392265
 20
0.1037995673724487
 30
0.0
 11
0.0505043400654161
 21
0.1043812245688635
 31
0.0
  0
LINE
  5
106
330
1F
100
AcDbEntity
  8
0
100
AcDbLine
 10
0.0503675327471458
 20
0.1048995675304009
 30
0.0
 11
0.0502487024887908
 21
0.1053497980357184
 31
0.0
  0
LINE
  5
107
330
1F
100
AcDbEntity
  8
0
100
AcDbLine
 10
0.0502487024887908
 20
0.1053497980357184
 30
0.0
 11
0.0502858640649432
 21
0.1048995675304009
 31
0.0
  0
LINE
  5
108
330
1F
100
AcDbEntity
  8
0
100
AcDbLine
 10
0.0503194582847863
 20
0.1044925572756776
 30
0.0
 11
0.0503766569791385
 21
0.1037995673724487
 31
0.0
  0
LINE
  5
109
330
1F
100
AcDbEntity
  8
0
100
AcDbLine
 10
0.0495412902046383
 20
0.1037893888908475
 30
0.0
 11
0.0503766569791385
 21
0.1037995673724487
 31
0.0
  0
LINE
  5
10A
330
1F
100
AcDbEntity
  8
0
100
AcDbLine
 10
0.0486404863319523
 20
0.1037995673724487
 30
0.0
 11
0.0495095833785628
 21
0.1037893888908475
 31
0.0
  0
LINE
  5
10B
330
1F
100
AcDbEntity
  8
0
100
AcDbLine
 10
0.0468057310587638
 20
0.1037995673724487
 30
0.0
 11
0.0467245382057914
 21
0.1043341836547943
 31
0.0
  0
LINE
  5
10C
330
1F
100
AcDbEntity
  8
0
100
AcDbLine
 10
0.0466386726394011
 20
0.1048995675304009
 30
0.0
 11
0.0465702955614312
 21
0.1053497980357184
 31
0.0
  0
LINE
  5
10D
330
1F
100
AcDbEntity
  8
0
100
AcDbLine
 10
0.0465702955614312
 20
0.1053497980357184
 30
0.0
 11
0.0465947595326555
 21
0.1048995675304009
 31
0.0
  0
LINE
  5
10E
330
1F
100
AcDbEntity
  8
0
100
AcDbLine
 10
0.0466211160091297
 20
0.1044145077004761
 30
0.0
 11
0.0466545297434544
 21
0.1037995673724487
 31
0.0
  0
LINE
  5
10F
330
1F
100
AcDbEntity
  8
0
100
AcDbLine
 10
0.0455845836186368
 20
0.1037995673724487
 30
0.0
 11
0.0466545297434544
 21
0.1037995673724487
 31
0.0
  0
LINE
  5
110
330
1F
100
AcDbEntity
  8
0
100
AcDbLine
 10
0.0437091040895959
 20
0.1037995673724487
 30
0.0
 11
0.0435812823454604
 21
0.1042636190119072
 31
0.0
  0
LINE
  5
111
330
1F
100
AcDbEntity
  8
0
100
AcDbLine
 10
0.0434061120801229
 20
0.1048995675304009
 30
0.0
 11
0.043282097329265
 21
0.1053497980357184
 31
0.0
  0
LINE
  5
112
330
1F
100
AcDbEntity
  8
0
100
AcDbLine
 10
0.043282097329265
 20
0.1053497980357184
 30
0.0
 11
0.0432952106022125
 21
0.1048995675304009
 31
0.0
  0
LINE
  5
113
330
1F
100
AcDbEntity
  8
0
100
AcDbLine
 10
0.0433085740685064
 20
0.1044407468983276
 30
0.0
 11
0.0433272488629326
 21
0.1037995673724487
 31
0.0
  0
LINE
  5
114
330
1F
100
AcDbEntity
  8
0
100
AcDbLine
 10
0.0421508210643335
 20
0.1037893888908475
 30
0.0
 11
0.0433272488629326
 21
0.1037995673724487
 31
0.0
  0
LINE
  5
115
330
1F
100
AcDbEntity
  8
0
100
AcDbLine
 10
0.0409650603857861
 20
0.1037995673724487
 30
0.0
 11
0.042067180973361
 21
0.1037893888908475
 31
0.0
  0
LINE
  5
116
330
1F
100
AcDbEntity
  8
0
100
AcDbLine
 10
0.0403871236000045
 20
0.1037995673724487
 30
0.0
 11
0.0402272622115693
 21
0.1041956308277967
 31
0.0
  0
LINE
  5
117
330
1F
100
AcDbEntity
  8
0
100
AcDbLine
 10
0.0399431352689561
 20
0.1048995675304009
 30
0.0
 11
0.0397614106671933
 21
0.1053497980357184
 31
0.0
  0
LINE
  5
118
330
1F
100
AcDbEntity
  8
0
100
AcDbLine
 10
0.038695983567954
 20
0.1037995673724487
 30
0.0
 11
0.0386590214504588
 21
0.1042664936593092
 31
0.0
  0
LINE
  5
119
330
1F
100
AcDbEntity
  8
0
100
AcDbLine
 10
0.0385732665363092
 20
0.1053497980357184
 30
0.0
 11
0.0385712739082642
 21
0.1048995675304009
 31
0.0
  0
LINE
  5
11A
330
1F
100
AcDbEntity
  8
0
100
AcDbLine
 10
0.0385712739082642
 20
0.1042499821641771
 30
0.0
 11
0.0385624510634375
 21
0.1037995673724487
 31
0.0
  0
LINE
  5
11B
330
1F
100
AcDbEntity
  8
0
100
AcDbLine
 10
0.0373664750255163
 20
0.1037995673724487
 30
0.0
 11
0.0385624510634375
 21
0.1037995673724487
 31
0.0
  0
LINE
  5
11C
330
1F
100
AcDbEntity
  8
0
100
AcDbLine
 10
0.0353693196020719
 20
0.1037995673724487
 30
0.0
 11
0.0352837512053783
 21
0.1042554240114119
 31
0.0
  0
LINE
  5
11D
330
1F
100
AcDbEntity
  8
0
100
AcDbLine
 10
0.0351628396655445
 20
0.1048995675304009
 30
0.0
 11
0.0350783273448066
 21
0.1053497980357184
 31
0.0
  0
LINE
  5
11E
330
1F
100
AcDbEntity
  8
0
100
AcDbLine
 10
0.0350783273448066
 20
0.1053497980357184
 30
0.0
 11
0.0350631220110466
 21
0.1048995675304009
 31
0.0
  0
LINE
  5
11F
330
1F
100
AcDbEntity
  8
0
100
AcDbLine
 10
0.0350430012548445
 20
0.1043037911814395
 30
0.0
 11
0.0350259724413481
 21
0.1037995673724487
 31
0.0
  0
LINE
  5
120
330
1F
100
AcDbEntity
  8
0
100
AcDbLine
 10
0.033897434058545
 20
0.1037995673724487
 30
0.0
 11
0.0350259724413481
 21
0.1037995673724487
 31
0.0
  0
LINE
  5
121
330
1F
100
AcDbEntity
  8
0
100
AcDbLine
 10
0.0328070522346487
 20
0.1037995673724487
 30
0.0
 11
0.0337763283467593
 21
0.1037995673724487
 31
0.0
  0
LINE
  5
122
330
1F
100
AcDbEntity
  8
0
100
AcDbLine
 10
0.0322653107295564
 20
0.1037995673724487
 30
0.0
 11
0.0321436687730559
 21
0.1042568864655547
 31
0.0
  0
LINE
  5
123
330
1F
100
AcDbEntity
  8
0
100
AcDbLine
 10
0.030843594118157
 20
0.1037893888908475
 30
0.0
 11
0.0308550312579014
 21
0.104407980652764
 31
0.0
  0
LINE
  5
124
330
1F
100
AcDbEntity
  8
0
100
AcDbLine
 10
0.0308641930108669
 20
0.1048995675304009
 30
0.0
 11
0.0308725840010558
 21
0.1053497980357184
 31
0.0
  0
LINE
  5
125
330
1F
100
AcDbEntity
  8
0
100
AcDbLine
 10
0.0308106006869311
 20
0.1044109105738212
 30
0.0
 11
0.0307738811608631
 21
0.1037893888908475
 31
0.0
  0
LINE
  5
126
330
1F
100
AcDbEntity
  8
0
100
AcDbLine
 10
0.0298377253259338
 20
0.1037995673724487
 30
0.0
 11
0.0307738811608631
 21
0.1037893888908475
 31
0.0
  0
LINE
  5
127
330
1F
100
AcDbEntity
  8
0
100
AcDbLine
 10
0.028382301156955
 20
0.1037995673724487
 30
0.0
 11
0.0283549190265622
 21
0.1043793811984236
 31
0.0
  0
LINE
  5
128
330
1F
100
AcDbEntity
  8
0
100
AcDbLine
 10
0.0283303528480189
 20
0.1048995675304009
 30
0.0
 11
0.0283090903843605
 21
0.1053497980357184
 31
0.0
  0
LINE
  5
129
330
1F
100
AcDbEntity
  8
0
100
AcDbLine
 10
0.0283090903843605
 20
0.1053497980357184
 30
0.0
 11
0.0282705180307698
 21
0.1048995675304009
 31
0.0
  0
LINE
  5
12A
330
1F
100
AcDbEntity
  8
0
100
AcDbLine
 10
0.0282258933953485
 20
0.1043786925957653
 30
0.0
 11
0.0281762783145771
 21
0.1037995673724487
 31
0.0
  0
LINE
  5
12B
330
1F
100
AcDbEntity
  8
0
100
AcDbLine
 10
0.0274586976956414
 20
0.1037995673724487
 30
0.0
 11
0.0281762783145771
 21
0.1037995673724487
 31
0.0
  0
LINE
  5
12C
330
1F
100
AcDbEntity
  8
0
100
AcDbLine
 10
0.0265182698378327
 20
0.1037995673724487
 30
0.0
 11
0.0264860443264146
 21
0.1043620078982386
 31
0.0
  0
LINE
  5
12D
330
1F
100
AcDbEntity
  8
0
100
AcDbLine
 10
0.026455244387097
 20
0.1048995675304009
 30
0.0
 11
0.0264294480448624
 21
0.1053497980357184
 31
0.0
  0
LINE
  5
12E
330
1F
100
AcDbEntity
  8
0
100
AcDbLine
 10
0.0258325467451213
 20
0.1037995673724487
 30
0.0
 11
0.0258955098102447
 21
0.1044794766941587
 31
0.0
  0
LINE
  5
12F
330
1F
100
AcDbEntity
  8
0
100
AcDbLine
 10
0.0259344123606813
 20
0.1048995675304009
 30
0.0
 11
0.025976105997938
 21
0.1053497980357184
 31
0.0
  0
LINE
  5
130
330
1F
100
AcDbEntity
  8
0
100
AcDbLine
 10
0.0258716592305875
 20
0.1044667111641306
 30
0.0
 11
0.0258325467451213
 21
0.1037995673724487
 31
0.0
  0
LINE
  5
131
330
1F
100
AcDbEntity
  8
0
100
AcDbLine
 10
0.025450199463425
 20
0.1037995673724487
 30
0.0
 11
0.0258325467451213
 21
0.1037995673724487
 31
0.0
  0
LINE
  5
132
330
1F
100
AcDbEntity
  8
0
100
AcDbLine
 10
0.0250470570473468
 20
0.1037995675363614
 30
0.0
 11
0.0251015275708006
 21
0.1044400231668812
 31
0.0
  0
LINE
  5
133
330
1F
100
AcDbEntity
  8
0
100
AcDbLine
 10
0.025140611645375
 20
0.1048995675304009
 30
0.0
 11
0.0251789035798265
 21
0.1053497980357184
 31
0.0
  0
LINE
  5
134
330
1F
100
AcDbEntity
  8
0
100
AcDbLine
 10
0.0252781414841706
 20
0.1063995678358748
 30
0.0
 11
0.0251068288835429
 21
0.1053497980357184
 31
0.0
  0
LINE
  5
135
330
1F
100
AcDbEntity
  8
0
100
AcDbLine
 10
0.0249359563747475
 20
0.1037995673724487
 30
0.0
 11
0.0250088881036313
 21
0.1037995675363614
 31
0.0
  0
LINE
  5
136
330
1F
100
AcDbEntity
  8
0
100
AcDbLine
 10
0.0495412902046383
 20
0.1037893888908475
 30
0.0
 11
0.0495106953230695
 21
0.1035995677121951
 31
0.0
  0
LINE
  5
137
330
1F
100
AcDbEntity
  8
0
100
AcDbLine
 10
0.0495095833785628
 20
0.1037893888908475
 30
0.0
 11
0.0495106953230695
 21
0.1035995677121951
 31
0.0
  0
LINE
  5
138
330
1F
100
AcDbEntity
  8
0
100
AcDbLine
 10
0.0258325467451213
 20
0.1037995673724487
 30
0.0
 11
0.0258309081848672
 21
0.1035995677121951
 31
0.0
  0
LINE
  5
139
330
1F
100
AcDbEntity
  8
0
100
AcDbLine
 10
0.0249359563747475
 20
0.1037995673724487
 30
0.0
 11
0.0249333523430647
 21
0.1035995677121951
 31
0.0
  0
LINE
  5
13A
330
1F
100
AcDbEntity
  8
0
100
AcDbLine
 10
0.0529278771561705
 20
0.1034263622024133
 30
0.0
 11
0.0529478980990081
 21
0.103399567120619
 31
0.0
  0
LINE
  5
13B
330
1F
100
AcDbEntity
  8
0
100
AcDbLine
 10
0.0530052977872026
 20
0.1034263622024133
 30
0.0
 11
0.0530320905712706
 21
0.103399567120619
 31
0.0
  0
LINE
  5
13C
330
1F
100
AcDbEntity
  8
0
100
AcDbLine
 10
0.0528855372882329
 20
0.1034263622024133
 30
0.0
 11
0.0529120928004232
 21
0.103399567120619
 31
0.0
  0
LINE
  5
13D
330
1F
100
AcDbEntity
  8
0
100
AcDbLine
 10
0.0525703402403616
 20
0.1034263622024133
 30
0.0
 11
0.0525962712153865
 21
0.103399567120619
 31
0.0
  0
LINE
  5
13E
330
1F
100
AcDbEntity
  8
0
100
AcDbLine
 10
0.0520643041898686
 20
0.1034263622024133
 30
0.0
 11
0.052089232474746
 21
0.103399567120619
 31
0.0
  0
LINE
  5
13F
330
1F
100
AcDbEntity
  8
0
100
AcDbLine
 10
0.0504522033899473
 20
0.1034995678820684
 30
0.0
 11
0.0505131211140212
 21
0.103399567120619
 31
0.0
  0
LINE
  5
140
330
1F
100
AcDbEntity
  8
0
100
AcDbLine
 10
0.0504184344520689
 20
0.1034995678820684
 30
0.0
 11
0.0505131211140212
 21
0.103399567120619
 31
0.0
  0
LINE
  5
141
330
1F
100
AcDbEntity
  8
0
100
AcDbLine
 10
0.04948818012417
 20
0.1034263622024133
 30
0.0
 11
0.049508004061001
 21
0.103399567120619
 31
0.0
  0
LINE
  5
142
330
1F
100
AcDbEntity
  8
0
100
AcDbLine
 10
0.0483185601069818
 20
0.1034263622024133
 30
0.0
 11
0.0483360665405592
 21
0.103399567120619
 31
0.0
  0
LINE
  5
143
330
1F
100
AcDbEntity
  8
0
100
AcDbLine
 10
0.0470201014341164
 20
0.1034263622024133
 30
0.0
 11
0.0470350350805722
 21
0.103399567120619
 31
0.0
  0
LINE
  5
144
330
1F
100
AcDbEntity
  8
0
100
AcDbLine
 10
0.0456117378665621
 20
0.1034263622024133
 30
0.0
 11
0.0456238809621767
 21
0.103399567120619
 31
0.0
  0
LINE
  5
145
330
1F
100
AcDbEntity
  8
0
100
AcDbLine
 10
0.044140495100617
 20
0.1034263622024133
 30
0.0
 11
0.0441231828345725
 21
0.103399567120619
 31
0.0
  0
LINE
  5
146
330
1F
100
AcDbEntity
  8
0
100
AcDbLine
 10
0.0440902820615621
 20
0.1034263622024133
 30
0.0
 11
0.0441231828345725
 21
0.103399567120619
 31
0.0
  0
LINE
  5
147
330
1F
100
AcDbEntity
  8
0
100
AcDbLine
 10
0.0425744530739164
 20
0.1034263622024133
 30
0.0
 11
0.0425548234836345
 21
0.103399567120619
 31
0.0
  0
LINE
  5
148
330
1F
100
AcDbEntity
  8
0
100
AcDbLine
 10
0.0425487494247569
 20
0.1034263622024133
 30
0.0
 11
0.0425548234836345
 21
0.103399567120619
 31
0.0
  0
LINE
  5
149
330
1F
100
AcDbEntity
  8
0
100
AcDbLine
 10
0.0409896299794283
 20
0.1034263622024133
 30
0.0
 11
0.0409416734639162
 21
0.103399567120619
 31
0.0
  0
LINE
  5
14A
330
1F
100
AcDbEntity
  8
0
100
AcDbLine
 10
0.0409361147265414
 20
0.1034512119413638
 30
0.0
 11
0.0409416734639162
 21
0.103399567120619
 31
0.0
  0
LINE
  5
14B
330
1F
100
AcDbEntity
  8
0
100
AcDbLine
 10
0.0393591149428679
 20
0.1034263622024133
 30
0.0
 11
0.0393072561049891
 21
0.103399567120619
 31
0.0
  0
LINE
  5
14C
330
1F
100
AcDbEntity
  8
0
100
AcDbLine
 10
0.0393076041019793
 20
0.1034263622024133
 30
0.0
 11
0.0393072561049891
 21
0.103399567120619
 31
0.0
  0
LINE
  5
14D
330
1F
100
AcDbEntity
  8
0
100
AcDbLine
 10
0.0376995488766017
 20
0.1034263622024133
 30
0.0
 11
0.0376754049175562
 21
0.103399567120619
 31
0.0
  0
LINE
  5
14E
330
1F
100
AcDbEntity
  8
0
100
AcDbLine
 10
0.0360948775137805
 20
0.1034263622024133
 30
0.0
 11
0.0360699159800792
 21
0.103399567120619
 31
0.0
  0
LINE
  5
14F
330
1F
100
AcDbEntity
  8
0
100
AcDbLine
 10
0.0345397120971001
 20
0.1034263622024133
 30
0.0
 11
0.0345208438636873
 21
0.103399567120619
 31
0.0
  0
LINE
  5
150
330
1F
100
AcDbEntity
  8
0
100
AcDbLine
 10
0.0330567890809963
 20
0.1034263622024133
 30
0.0
 11
0.0330309456592427
 21
0.103399567120619
 31
0.0
  0
LINE
  5
151
330
1F
100
AcDbEntity
  8
0
100
AcDbLine
 10
0.0316677875424618
 20
0.1034263622024133
 30
0.0
 11
0.0316462476316335
 21
0.103399567120619
 31
0.0
  0
LINE
  5
152
330
1F
100
AcDbEntity
  8
0
100
AcDbLine
 10
0.0303930167970499
 20
0.1034263622024133
 30
0.0
 11
0.0303669585678373
 21
0.103399567120619
 31
0.0
  0
LINE
  5
153
330
1F
100
AcDbEntity
  8
0
100
AcDbLine
 10
0.0292511135050901
 20
0.1034263622024133
 30
0.0
 11
0.0292250739546345
 21
0.103399567120619
 31
0.0
  0
LINE
  5
154
330
1F
100
AcDbEntity
  8
0
100
AcDbLine
 10
0.0282500527123841
 20
0.1034263622024133
 30
0.0
 11
0.0282327760447003
 21
0.103399567120619
 31
0.0
  0
LINE
  5
155
330
1F
100
AcDbEntity
  8
0
100
AcDbLine
 10
0.0274305077110874
 20
0.1034263622024133
 30
0.0
 11
0.0274045358518396
 21
0.103399567120619
 31
0.0
  0
LINE
  5
156
330
1F
100
AcDbEntity
  8
0
100
AcDbLine
 10
0.0267299771066502
 20
0.1033995675005986
 30
0.0
 11
0.0267776044235645
 21
0.1034263622024133
 31
0.0
  0
LINE
  5
157
330
1F
100
AcDbEntity
  8
0
100
AcDbLine
 10
0.0249333523430647
 20
0.1035995677121951
 30
0.0
 11
0.024960146766169
 21
0.1034995678820684
 31
0.0
  0
LINE
  5
158
330
1F
100
AcDbEntity
  8
0
100
AcDbLine
 10
0.024960146766169
 20
0.1034995678820684
 30
0.0
 11
0.0250333516336988
 21
0.1034263622024133
 31
0.0
  0
LINE
  5
159
330
1F
100
AcDbEntity
  8
0
100
AcDbLine
 10
0.0250333516336988
 20
0.1034263622024133
 30
0.0
 11
0.025133350924333
 21
0.103399567120619
 31
0.0
  0
LINE
  5
15A
330
1F
100
AcDbEntity
  8
0
100
AcDbLine
 10
0.0569832337777809
 20
0.1313995672770812
 30
0.0
 11
0.0569832337777809
 21
0.1363995671653225
 31
0.0
  0
LINE
  5
15B
330
1F
100
AcDbEntity
  8
0
100
AcDbLine
 10
0.0219832336287693
 20
0.1313995672770812
 30
0.0
 11
0.0569832337777809
 21
0.1313995672770812
 31
0.0
  0
LINE
  5
15C
330
1F
100
AcDbEntity
  8
0
100
AcDbLine
 10
0.0569832337777809
 20
0.1363995671653225
 30
0.0
 11
0.0219832336287693
 21
0.1363995671653225
 31
0.0
  0
LINE
  5
15D
330
1F
100
AcDbEntity
  8
0
100
AcDbLine
 10
0.0219832336287693
 20
0.1363995671653225
 30
0.0
 11
0.0219832336287693
 21
0.1313995672770812
 31
0.0
  0
LINE
  5
15E
330
1F
100
AcDbEntity
  8
0
100
AcDbLine
 10
-0.0855167666692539
 20
-0.1366004323094116
 30
0.0
 11
-0.0855167666692539
 21
-0.1406004324994014
 31
0.0
  0
LINE
  5
15F
330
1F
100
AcDbEntity
  8
0
100
AcDbLine
 10
-0.0355167659241959
 20
-0.1406004324994014
 30
0.0
 11
-0.0355167659241959
 21
-0.1366004323094116
 31
0.0
  0
LINE
  5
160
330
1F
100
AcDbEntity
  8
0
100
AcDbLine
 10
-0.0815084709068094
 20
-0.1411004325124399
 30
0.0
 11
-0.0819718144990996
 21
-0.1410270172852055
 31
0.0
  0
LINE
  5
161
330
1F
100
AcDbEntity
  8
0
100
AcDbLine
 10
-0.0819718144990996
 20
-0.1410270172852055
 30
0.0
 11
-0.0823898014683315
 21
-0.1408139580377341
 31
0.0
  0
LINE
  5
162
330
1F
100
AcDbEntity
  8
0
100
AcDbLine
 10
-0.0823898014683315
 20
-0.1408139580377341
 30
0.0
 11
-0.0826032421714803
 21
-0.1406004324994014
 31
0.0
  0
LINE
  5
163
330
1F
100
AcDbEntity
  8
0
100
AcDbLine
 10
-0.0395250616866404
 20
-0.1411004325124399
 30
0.0
 11
-0.0390617180943502
 21
-0.1410270172852055
 31
0.0
  0
LINE
  5
164
330
1F
100
AcDbEntity
  8
0
100
AcDbLine
 10
-0.0390617180943502
 20
-0.1410270172852055
 30
0.0
 11
-0.0386437311251183
 21
-0.1408139580377341
 31
0.0
  0
LINE
  5
165
330
1F
100
AcDbEntity
  8
0
100
AcDbLine
 10
-0.0386437311251183
 20
-0.1408139580377341
 30
0.0
 11
-0.0384302904219695
 21
-0.1406004324994014
 31
0.0
  0
LINE
  5
166
330
1F
100
AcDbEntity
  8
0
100
AcDbLine
 10
-0.2430167728532358
 20
0.1033995673329606
 30
0.0
 11
-0.2430167728532358
 21
0.0883995676682367
 31
0.0
  0
LINE
  5
167
330
1F
100
AcDbEntity
  8
0
100
AcDbLine
 10
-0.0780167662967249
 20
0.1033995673329606
 30
0.0
 11
-0.2430167728532358
 21
0.1033995673329606
 31
0.0
  0
LINE
  5
168
330
1F
100
AcDbEntity
  8
0
100
AcDbLine
 10
-0.0780167662967249
 20
0.0883995676682367
 30
0.0
 11
-0.0780167662967249
 21
0.1033995673329606
 31
0.0
  0
LINE
  5
169
330
1F
100
AcDbEntity
  8
0
100
AcDbLine
 10
-0.0510167666021987
 20
0.1034263622024133
 30
0.0
 11
-0.0510167666021987
 21
0.1033995675005986
 31
0.0
  0
LINE
  5
16A
330
1F
100
AcDbEntity
  8
0
100
AcDbLine
 10
-0.0700167659912511
 20
0.1033995675005986
 30
0.0
 11
-0.0700167659912511
 21
0.1034263622024133
 31
0.0
  0
LINE
  5
16B
330
1F
100
AcDbEntity
  8
0
100
AcDbLine
 10
-0.0700167659912511
 20
0.1034539666525899
 30
0.0
 11
-0.0700167659912511
 21
0.1034995678820684
 31
0.0
  0
LINE
  5
16C
330
1F
100
AcDbEntity
  8
0
100
AcDbLine
 10
-0.0429167663109741
 20
0.1190303944558759
 30
0.0
 11
-0.0429167663109741
 21
0.1190887701275291
 31
0.0
  0
LINE
  5
16D
330
1F
100
AcDbEntity
  8
0
100
AcDbLine
 10
-0.0429167663109741
 20
0.1193669956904198
 30
0.0
 11
-0.0429167663109741
 21
0.1194133328877161
 31
0.0
  0
LINE
  5
16E
330
1F
100
AcDbEntity
  8
0
100
AcDbLine
 10
-0.0429167663109741
 20
0.1203046450251349
 30
0.0
 11
-0.04301676628662
 21
0.1203040392688603
 31
0.0
  0
LINE
  5
16F
330
1F
100
AcDbEntity
  8
0
100
AcDbLine
 10
-0.0429167663109741
 20
0.1203046450251349
 30
0.0
 11
-0.0429167663109741
 21
0.1203308186920544
 31
0.0
  0
LINE
  5
170
330
1F
100
AcDbEntity
  8
0
100
AcDbLine
 10
-0.0429167663109741
 20
0.1203308186920544
 30
0.0
 11
-0.04301676628662
 21
0.1203040392688603
 31
0.0
  0
LINE
  5
171
330
1F
100
AcDbEntity
  8
0
100
AcDbLine
 10
-0.0429167663109741
 20
0.1206869900893147
 30
0.0
 11
-0.04301676628662
 21
0.1207993321657426
 31
0.0
  0
LINE
  5
172
330
1F
100
AcDbEntity
  8
0
100
AcDbLine
 10
-0.0429167663109741
 20
0.1208005724999362
 30
0.0
 11
-0.04301676628662
 21
0.1207993321657426
 31
0.0
  0
LINE
  5
173
330
1F
100
AcDbEntity
  8
0
100
AcDbLine
 10
-0.0429167663109741
 20
0.1213188961302125
 30
0.0
 11
-0.04301676628662
 21
0.1213179596833195
 31
0.0
  0
LINE
  5
174
330
1F
100
AcDbEntity
  8
0
100
AcDbLine
 10
-0.0429167663109741
 20
0.1213188961302125
 30
0.0
 11
-0.0429167663109741
 21
0.1214356238396016
 31
0.0
  0
LINE
  5
175
330
1F
100
AcDbEntity
  8
0
100
AcDbLine
 10
-0.0429167663109741
 20
0.1214356238396016
 30
0.0
 11
-0.04301676628662
 21
0.1213179596833195
 31
0.0
  0
LINE
  5
176
330
1F
100
AcDbEntity
  8
0
100
AcDbLine
 10
-0.0429167663109741
 20
0.1218223890128206
 30
0.0
 11
-0.04301676628662
 21
0.1218523598359487
 31
0.0
  0
LINE
  5
177
330
1F
100
AcDbEntity
  8
0
100
AcDbLine
 10
-0.0429167663109741
 20
0.1218223890128206
 30
0.0
 11
-0.0429167663109741
 21
0.1218524630939878
 31
0.0
  0
LINE
  5
178
330
1F
100
AcDbEntity
  8
0
100
AcDbLine
 10
-0.0429167663109741
 20
0.1218524630939878
 30
0.0
 11
-0.04301676628662
 21
0.1218523598359487
 31
0.0
  0
LINE
  5
179
330
1F
100
AcDbEntity
  8
0
100
AcDbLine
 10
-0.0429167663109741
 20
0.1229369898888222
 30
0.0
 11
-0.04301676628662
 21
0.1229371891913025
 31
0.0
  0
LINE
  5
17A
330
1F
100
AcDbEntity
  8
0
100
AcDbLine
 10
-0.0429167663109741
 20
0.1229369898888222
 30
0.0
 11
-0.0429167663109741
 21
0.1229971215085793
 31
0.0
  0
LINE
  5
17B
330
1F
100
AcDbEntity
  8
0
100
AcDbLine
 10
-0.0429167663109741
 20
0.1229971215085793
 30
0.0
 11
-0.04301676628662
 21
0.1229371891913025
 31
0.0
  0
LINE
  5
17C
330
1F
100
AcDbEntity
  8
0
100
AcDbLine
 10
-0.0429167663109741
 20
0.1233835754082151
 30
0.0
 11
-0.0429167663109741
 21
0.1234710057747765
 31
0.0
  0
LINE
  5
17D
330
1F
100
AcDbEntity
  8
0
100
AcDbLine
 10
-0.0429167663109741
 20
0.1253780438728608
 30
0.0
 11
-0.0429167663109741
 21
0.1254472916123937
 31
0.0
  0
LINE
  5
17E
330
1F
100
AcDbEntity
  8
0
100
AcDbLine
 10
-0.0429167663109741
 20
0.1257242489260975
 30
0.0
 11
-0.0429167663109741
 21
0.1257629507280525
 31
0.0
  0
LINE
  5
17F
330
1F
100
AcDbEntity
  8
0
100
AcDbLine
 10
-0.0429167663109741
 20
0.126380818890634
 30
0.0
 11
-0.04301676628662
 21
0.1263818736731841
 31
0.0
  0
LINE
  5
180
330
1F
100
AcDbEntity
  8
0
100
AcDbLine
 10
-0.0429167663109741
 20
0.126560946878407
 30
0.0
 11
-0.04301676628662
 21
0.1266054261444665
 31
0.0
  0
LINE
  5
181
330
1F
100
AcDbEntity
  8
0
100
AcDbLine
 10
-0.0429167663109741
 20
0.126560946878407
 30
0.0
 11
-0.0429167663109741
 21
0.1266019940513525
 31
0.0
  0
LINE
  5
182
330
1F
100
AcDbEntity
  8
0
100
AcDbLine
 10
-0.0429167663109741
 20
0.1266019940513525
 30
0.0
 11
-0.04301676628662
 21
0.1266054261444665
 31
0.0
  0
LINE
  5
183
330
1F
100
AcDbEntity
  8
0
100
AcDbLine
 10
-0.0429167663109741
 20
0.1267641205494058
 30
0.0
 11
-0.0429167663109741
 21
0.1267951121009995
 31
0.0
  0
LINE
  5
184
330
1F
100
AcDbEntity
  8
0
100
AcDbLine
 10
-0.0429167663109741
 20
0.1268623990585787
 30
0.0
 11
-0.04301676628662
 21
0.1268661730119432
 31
0.0
  0
LINE
  5
185
330
1F
100
AcDbEntity
  8
0
100
AcDbLine
 10
-0.0429167663109741
 20
0.1268957210453295
 30
0.0
 11
-0.04301676628662
 21
0.1268995651423702
 31
0.0
  0
LINE
  5
186
330
1F
100
AcDbEntity
  8
0
100
AcDbLine
 10
-0.0429167663109741
 20
0.1267951121009995
 30
0.0
 11
-0.0429825732726695
 21
0.1267770386057632
 31
0.0
  0
LINE
  5
187
330
1F
100
AcDbEntity
  8
0
100
AcDbLine
 10
-0.0426991934304727
 20
0.1251043489572822
 30
0.0
 11
-0.0427917841311331
 21
0.1260012803770491
 31
0.0
  0
LINE
  5
188
330
1F
100
AcDbEntity
  8
0
100
AcDbLine
 10
-0.0426391150426401
 20
0.1242039433971834
 30
0.0
 11
-0.0426991934304727
 21
0.1251043489572822
 31
0.0
  0
LINE
  5
189
330
1F
100
AcDbEntity
  8
0
100
AcDbLine
 10
-0.0426116273710808
 20
0.1232952693241684
 30
0.0
 11
-0.0426391150426401
 21
0.1242039433971834
 31
0.0
  0
LINE
  5
18A
330
1F
100
AcDbEntity
  8
0
100
AcDbLine
 10
-0.0426991934304727
 20
0.119694786043915
 30
0.0
 11
-0.0427917841311331
 21
0.1187978546241481
 31
0.0
  0
LINE
  5
18B
330
1F
100
AcDbEntity
  8
0
100
AcDbLine
 10
-0.0426391150426401
 20
0.1205951916040139
 30
0.0
 11
-0.0426991934304727
 21
0.119694786043915
 31
0.0
  0
LINE
  5
18C
330
1F
100
AcDbEntity
  8
0
100
AcDbLine
 10
-0.0426116273710808
 20
0.1215038656770288
 30
0.0
 11
-0.0426391150426401
 21
0.1205951916040139
 31
0.0
  0
LINE
  5
18D
330
1F
100
AcDbEntity
  8
0
100
AcDbLine
 10
-0.0429852026628315
 20
0.1257519063368242
 30
0.0
 11
-0.04301676628662
 21
0.1257646622491932
 31
0.0
  0
LINE
  5
18E
330
1F
100
AcDbEntity
  8
0
100
AcDbLine
 10
-0.0429167663109741
 20
0.1254472916123937
 30
0.0
 11
-0.0429844716530768
 21
0.1254017342840191
 31
0.0
  0
LINE
  5
18F
330
1F
100
AcDbEntity
  8
0
100
AcDbLine
 10
-0.0429849193807065
 20
0.1234437029156065
 30
0.0
 11
-0.04301676628662
 21
0.1234717995967718
 31
0.0
  0
LINE
  5
190
330
1F
100
AcDbEntity
  8
0
100
AcDbLine
 10
-0.0429844716530768
 20
0.1193974007171782
 30
0.0
 11
-0.04301676628662
 21
0.1194119035491046
 31
0.0
  0
LINE
  5
191
330
1F
100
AcDbEntity
  8
0
100
AcDbLine
 10
-0.0429167663109741
 20
0.1190887701275291
 30
0.0
 11
-0.0429852026628314
 21
0.119047228664373
 31
0.0
  0
LINE
  5
192
330
1F
100
AcDbEntity
  8
0
100
AcDbLine
 10
-0.0429825732726695
 20
0.1180220963954341
 30
0.0
 11
-0.0430091639266137
 21
0.118029399362248
 31
0.0
  0
LINE
  5
193
330
1F
100
AcDbEntity
  8
0
100
AcDbLine
 10
-0.04301676628662
 20
0.1179329619892541
 30
0.0
 11
-0.0430091639266137
 21
0.118029399362248
 31
0.0
  0
LINE
  5
194
330
1F
100
AcDbEntity
  8
0
100
AcDbLine
 10
-0.0429167663109741
 20
0.1179367359426186
 30
0.0
 11
-0.04301676628662
 21
0.1179329619892541
 31
0.0
  0
LINE
  5
195
330
1F
100
AcDbEntity
  8
0
100
AcDbLine
 10
-0.0429167663109741
 20
0.1179043104943509
 30
0.0
 11
-0.04301676628662
 21
0.1178995698588271
 31
0.0
  0
LINE
  5
196
330
1F
100
AcDbEntity
  8
0
100
AcDbLine
 10
-0.0717267300528237
 20
0.1033995675005986
 30
0.0
 11
-0.0717499472876159
 21
0.1034263622024133
 31
0.0
  0
LINE
  5
197
330
1F
100
AcDbEntity
  8
0
100
AcDbLine
 10
-0.0717745605453183
 20
0.1034547680356973
 30
0.0
 11
-0.0718133789863312
 21
0.1034995678820684
 31
0.0
  0
LINE
  5
198
330
1F
100
AcDbEntity
  8
0
100
AcDbLine
 10
-0.0710583932700489
 20
0.1037893888908475
 30
0.0
 11
-0.0710304673220844
 21
0.1037893888908475
 31
0.0
  0
LINE
  5
199
330
1F
100
AcDbEntity
  8
0
100
AcDbLine
 10
-0.0732831188071505
 20
0.1034263622024133
 30
0.0
 11
-0.0733063360419427
 21
0.1033995675005986
 31
0.0
  0
LINE
  5
19A
330
1F
100
AcDbEntity
  8
0
100
AcDbLine
 10
-0.0493068025406261
 20
0.1033995675005986
 30
0.0
 11
-0.0492835853058339
 21
0.1034263622024133
 31
0.0
  0
LINE
  5
19B
330
1F
100
AcDbEntity
  8
0
100
AcDbLine
 10
-0.0478138454850145
 20
0.1034995678820684
 30
0.0
 11
-0.0477911475337825
 21
0.1034733724785024
 31
0.0
  0
LINE
  5
19C
330
1F
100
AcDbEntity
  8
0
100
AcDbLine
 10
-0.0477504137862993
 20
0.1034263622024133
 30
0.0
 11
-0.0477271965515071
 21
0.1033995675005986
 31
0.0
  0
LINE
  5
19D
330
1F
100
AcDbEntity
  8
0
100
AcDbLine
 10
-0.2208802225757643
 20
0.0867965725156515
 30
0.0
 11
-0.2208304638732477
 21
0.0867781752859279
 31
0.0
  0
LINE
  5
19E
330
1F
100
AcDbEntity
  8
0
100
AcDbLine
 10
-0.2207788839694365
 20
0.086758839981541
 30
0.0
 11
-0.2208304638732477
 21
0.0867781752859279
 31
0.0
  0
LINE
  5
19F
330
1F
100
AcDbEntity
  8
0
100
AcDbLine
 10
-0.2181787978094514
 20
0.0878995675266757
 30
0.0
 11
-0.2207788839694365
 21
0.086758839981541
 31
0.0
  0
LINE
  5
1A0
330
1F
100
AcDbEntity
  8
0
100
AcDbLine
 10
-0.2233866179120048
 20
0.0858117716525718
 30
0.0
 11
-0.2227651002574964
 21
0.086037067547351
 31
0.0
  0
LINE
  5
1A1
330
1F
100
AcDbEntity
  8
0
100
AcDbLine
 10
-0.223760824714217
 20
0.0883995676682367
 30
0.0
 11
-0.2238048831457525
 21
0.0878995675266757
 31
0.0
  0
LINE
  5
1A2
330
1F
100
AcDbEntity
  8
0
100
AcDbLine
 10
-0.220051360577685
 20
0.0883995676682367
 30
0.0
 11
-0.2203924689200028
 21
0.0878995675266757
 31
0.0
  0
LINE
  5
1A3
330
1F
100
AcDbEntity
  8
0
100
AcDbLine
 10
-0.2203924689200028
 20
0.0878995675266757
 30
0.0
 11
-0.2198962762584113
 21
0.0883995676682367
 31
0.0
  0
LINE
  5
1A4
330
1F
100
AcDbEntity
  8
0
100
AcDbLine
 10
-0.2162575703749643
 20
0.0883995676682367
 30
0.0
 11
-0.2163029183391734
 21
0.0878995675266757
 31
0.0
  0
LINE
  5
1A5
330
1F
100
AcDbEntity
  8
0
100
AcDbLine
 10
-0.2163029183391734
 20
0.0878995675266757
 30
0.0
 11
-0.2162202164190274
 21
0.0883995676682367
 31
0.0
  0
LINE
  5
1A6
330
1F
100
AcDbEntity
  8
0
100
AcDbLine
 10
-0.2163029183391734
 20
0.0878995675266757
 30
0.0
 11
-0.2161375145185991
 21
0.0878995675266757
 31
0.0
  0
LINE
  5
1A7
330
1F
100
AcDbEntity
  8
0
100
AcDbLine
 10
-0.2161375145185991
 20
0.0878995675266757
 30
0.0
 11
-0.2161375145185991
 21
0.0883995676682367
 31
0.0
  0
LINE
  5
1A8
330
1F
100
AcDbEntity
  8
0
100
AcDbLine
 10
-0.2238048831457525
 20
0.0883995676682367
 30
0.0
 11
-0.2238048831457525
 21
0.0878995675266757
 31
0.0
  0
LINE
  5
1A9
330
1F
100
AcDbEntity
  8
0
100
AcDbLine
 10
-0.2177457344476386
 20
0.0883995676682367
 30
0.0
 11
-0.2177457344476386
 21
0.0878995675266757
 31
0.0
  0
LINE
  5
1AA
330
1F
100
AcDbEntity
  8
0
100
AcDbLine
 10
-0.2178087544926383
 20
0.0883995676682367
 30
0.0
 11
-0.2177457344476386
 21
0.0878995675266757
 31
0.0
  0
LINE
  5
1AB
330
1F
100
AcDbEntity
  8
0
100
AcDbLine
 10
-0.2337306142542764
 20
0.0878995675266757
 30
0.0
 11
-0.2337759622184854
 21
0.0883995676682367
 31
0.0
  0
LINE
  5
1AC
330
1F
100
AcDbEntity
  8
0
100
AcDbLine
 10
-0.2338586641189138
 20
0.0883995676682367
 30
0.0
 11
-0.2338960180748507
 21
0.0878995675266757
 31
0.0
  0
LINE
  5
1AD
330
1F
100
AcDbEntity
  8
0
100
AcDbLine
 10
-0.2338960180748507
 20
0.0878995675266757
 30
0.0
 11
-0.2337306142542764
 21
0.0878995675266757
 31
0.0
  0
LINE
  5
1AE
330
1F
100
AcDbEntity
  8
0
100
AcDbLine
 10
-0.2338960180748507
 20
0.0883995676682367
 30
0.0
 11
-0.2338960180748507
 21
0.0878995675266757
 31
0.0
  0
LINE
  5
1AF
330
1F
100
AcDbEntity
  8
0
100
AcDbLine
 10
-0.2322247781008115
 20
0.0883995676682367
 30
0.0
 11
-0.2322877981458112
 21
0.0878995675266757
 31
0.0
  0
LINE
  5
1B0
330
1F
100
AcDbEntity
  8
0
100
AcDbLine
 10
-0.2304783645590547
 20
0.0883995676682367
 30
0.0
 11
-0.2306334488783284
 21
0.0878995675266757
 31
0.0
  0
LINE
  5
1B1
330
1F
100
AcDbEntity
  8
0
100
AcDbLine
 10
-0.2306334488783284
 20
0.0883995676682367
 30
0.0
 11
-0.2306334488783284
 21
0.0878995675266757
 31
0.0
  0
LINE
  5
1B2
330
1F
100
AcDbEntity
  8
0
100
AcDbLine
 10
-0.2268673618706417
 20
0.0883995676682367
 30
0.0
 11
-0.2274179575722917
 21
0.0878995675266757
 31
0.0
  0
LINE
  5
1B3
330
1F
100
AcDbEntity
  8
0
100
AcDbLine
 10
-0.2322877981458112
 20
0.0883995676682367
 30
0.0
 11
-0.2322877981458112
 21
0.0878995675266757
 31
0.0
  0
LINE
  5
1B4
330
1F
100
AcDbEntity
  8
0
100
AcDbLine
 10
-0.2337480557833455
 20
0.0883995676682367
 30
0.0
 11
-0.2337306142542764
 21
0.0878995675266757
 31
0.0
  0
LINE
  5
1B5
330
1F
100
AcDbEntity
  8
0
100
AcDbLine
 10
-0.2272684323359534
 20
0.086037067547351
 30
0.0
 11
-0.226646914681445
 21
0.0858117716525718
 31
0.0
  0
LINE
  5
1B6
330
1F
100
AcDbEntity
  8
0
100
AcDbLine
 10
-0.2292030687202021
 20
0.0867781752859279
 30
0.0
 11
-0.2291533100176855
 21
0.0867965725156515
 31
0.0
  0
LINE
  5
1B7
330
1F
100
AcDbEntity
  8
0
100
AcDbLine
 10
-0.2318547347839984
 20
0.0878995675266757
 30
0.0
 11
-0.2292546486240133
 21
0.086758839981541
 31
0.0
  0
LINE
  5
1B8
330
1F
100
AcDbEntity
  8
0
100
AcDbLine
 10
-0.2292546486240133
 20
0.086758839981541
 30
0.0
 11
-0.2292030687202021
 21
0.0867781752859279
 31
0.0
  0
LINE
  5
1B9
330
1F
100
AcDbEntity
  8
0
100
AcDbLine
 10
-0.0521153504905482
 20
0.109918029909864
 30
0.0
 11
-0.0520954071218252
 21
0.1099380137504964
 31
0.0
  0
LINE
  5
1BA
330
1F
100
AcDbEntity
  8
0
100
AcDbLine
 10
-0.0507299875556484
 20
0.1034481030517661
 30
0.0
 11
-0.0507299875556484
 21
0.1033995675005986
 31
0.0
  0
LINE
  5
1BB
330
1F
100
AcDbEntity
  8
0
100
AcDbLine
 10
-0.0738092020484525
 20
0.1034263622024133
 30
0.0
 11
-0.0738092020484525
 21
0.1033995675005986
 31
0.0
  0
LINE
  5
1BC
330
1F
100
AcDbEntity
  8
0
100
AcDbLine
 10
-0.0460454726953364
 20
0.1048995675304009
 30
0.0
 11
-0.0461169565207689
 21
0.1048995675304009
 31
0.0
  0
LINE
  5
1BD
330
1F
100
AcDbEntity
  8
0
100
AcDbLine
 10
-0.0555270416080168
 20
0.1037995675363614
 30
0.0
 11
-0.0554858906591173
 21
0.1037995675363614
 31
0.0
  0
LINE
  5
1BE
330
1F
100
AcDbEntity
  8
0
100
AcDbLine
 10
-0.0472243305449973
 20
0.1035196075704167
 30
0.0
 11
-0.0472243305449973
 21
0.1033995675005986
 31
0.0
  0
LINE
  5
1BF
330
1F
100
AcDbEntity
  8
0
100
AcDbLine
 10
-0.0703035450378014
 20
0.1034263622024133
 30
0.0
 11
-0.0703035450378014
 21
0.1033995675005986
 31
0.0
  0
LINE
  5
1C0
330
1F
100
AcDbEntity
  8
0
100
AcDbLine
 10
-0.0430167662222191
 20
-0.1366004271349833
 30
0.0
 11
-0.0430167662222191
 21
0.1033995675005986
 31
0.0
  0
LINE
  5
1C1
330
1F
100
AcDbEntity
  8
0
100
AcDbLine
 10
-0.0780167662967249
 20
0.0883995676682367
 30
0.0
 11
-0.0780167663712307
 21
-0.1366004271349833
 31
0.0
  0
LINE
  5
1C2
330
1F
100
AcDbEntity
  8
0
100
AcDbLine
 10
-0.0459668849365145
 20
0.1035995677121951
 30
0.0
 11
-0.0459936793596188
 21
0.1034995678820684
 31
0.0
  0
LINE
  5
1C3
330
1F
100
AcDbEntity
  8
0
100
AcDbLine
 10
-0.0459936793596188
 20
0.1034995678820684
 30
0.0
 11
-0.0460668842271487
 21
0.1034263622024133
 31
0.0
  0
LINE
  5
1C4
330
1F
100
AcDbEntity
  8
0
100
AcDbLine
 10
-0.0590638852734586
 20
0.1034512119413638
 30
0.0
 11
-0.0590583265769825
 21
0.1033995675005986
 31
0.0
  0
LINE
  5
1C5
330
1F
100
AcDbEntity
  8
0
100
AcDbLine
 10
-0.0591321055228452
 20
0.1037995673724487
 30
0.0
 11
-0.059126268449536
 21
0.1037679210881054
 31
0.0
  0
LINE
  5
1C6
330
1F
100
AcDbEntity
  8
0
100
AcDbLine
 10
-0.0606921327118938
 20
0.1034466270150258
 30
0.0
 11
-0.060692743890076
 21
0.1033995675005986
 31
0.0
  0
LINE
  5
1C7
330
1F
100
AcDbEntity
  8
0
100
AcDbLine
 10
-0.0623210201185654
 20
0.1034263622024133
 30
0.0
 11
-0.0623245950317475
 21
0.1033995675005986
 31
0.0
  0
LINE
  5
1C8
330
1F
100
AcDbEntity
  8
0
100
AcDbLine
 10
-0.0639204994249073
 20
0.1034376155699202
 30
0.0
 11
-0.063930083924202
 21
0.1033995675005986
 31
0.0
  0
LINE
  5
1C9
330
1F
100
AcDbEntity
  8
0
100
AcDbLine
 10
-0.0654736703147476
 20
0.1034326412478391
 30
0.0
 11
-0.0654857990656841
 21
0.1033995675005986
 31
0.0
  0
LINE
  5
1CA
330
1F
100
AcDbEntity
  8
0
100
AcDbLine
 10
-0.0669529014593324
 20
0.103433488684916
 30
0.0
 11
-0.0669690541598174
 21
0.1033995675005986
 31
0.0
  0
LINE
  5
1CB
330
1F
100
AcDbEntity
  8
0
100
AcDbLine
 10
-0.0683427149397194
 20
0.1034263622024133
 30
0.0
 11
-0.0683582211672596
 21
0.1033995675005986
 31
0.0
  0
LINE
  5
1CC
330
1F
100
AcDbEntity
  8
0
100
AcDbLine
 10
-0.0695657622657632
 20
0.1034995678820684
 30
0.0
 11
-0.0695814540763977
 21
0.1034762442724587
 31
0.0
  0
LINE
  5
1CD
330
1F
100
AcDbEntity
  8
0
100
AcDbLine
 10
-0.0696150140617647
 20
0.1034263622024133
 30
0.0
 11
-0.0696330411765175
 21
0.1033995675005986
 31
0.0
  0
LINE
  5
1CE
330
1F
100
AcDbEntity
  8
0
100
AcDbLine
 10
-0.0707546405762687
 20
0.1034263622024133
 30
0.0
 11
-0.0707749257576983
 21
0.1033995675005986
 31
0.0
  0
LINE
  5
1CF
330
1F
100
AcDbEntity
  8
0
100
AcDbLine
 10
-0.0716841941422409
 20
0.1034995678820684
 30
0.0
 11
-0.0717264146397341
 21
0.1034487176905221
 31
0.0
  0
LINE
  5
1D0
330
1F
100
AcDbEntity
  8
0
100
AcDbLine
 10
-0.0717499472876159
 20
0.1034263622024133
 30
0.0
 11
-0.0717672236398058
 21
0.1033995675005986
 31
0.0
  0
LINE
  5
1D1
330
1F
100
AcDbEntity
  8
0
100
AcDbLine
 10
-0.0725642552876192
 20
0.1034345775721349
 30
0.0
 11
-0.0725954638094407
 21
0.1033995675005986
 31
0.0
  0
LINE
  5
1D2
330
1F
100
AcDbEntity
  8
0
100
AcDbLine
 10
-0.0732108857298599
 20
0.1034263622024133
 30
0.0
 11
-0.0732475701819785
 21
0.1033995675005986
 31
0.0
  0
LINE
  5
1D3
330
1F
100
AcDbEntity
  8
0
100
AcDbLine
 10
-0.0736802904685228
 20
0.1034263622024133
 30
0.0
 11
-0.0737140323310016
 21
0.1033995675005986
 31
0.0
  0
LINE
  5
1D4
330
1F
100
AcDbEntity
  8
0
100
AcDbLine
 10
-0.0738332027011753
 20
0.1035171879734663
 30
0.0
 11
-0.0738563993439817
 21
0.1034995678820684
 31
0.0
  0
LINE
  5
1D5
330
1F
100
AcDbEntity
  8
0
100
AcDbLine
 10
-0.0739527737590744
 20
0.1034263622024133
 30
0.0
 11
-0.0739880486684412
 21
0.1033995675005986
 31
0.0
  0
LINE
  5
1D6
330
1F
100
AcDbEntity
  8
0
100
AcDbLine
 10
-0.0740363854953354
 20
0.1034263622024133
 30
0.0
 11
-0.0740656227501026
 21
0.1033995675005986
 31
0.0
  0
LINE
  5
1D7
330
1F
100
AcDbEntity
  8
0
100
AcDbLine
 10
-0.0739205824285942
 20
0.1034263622024133
 30
0.0
 11
-0.0739442156870171
 21
0.1033995675005986
 31
0.0
  0
LINE
  5
1D8
330
1F
100
AcDbEntity
  8
0
100
AcDbLine
 10
-0.0736074553202442
 20
0.1034263622024133
 30
0.0
 11
-0.0736298034919136
 21
0.1033995675005986
 31
0.0
  0
LINE
  5
1D9
330
1F
100
AcDbEntity
  8
0
100
AcDbLine
 10
-0.073102948843316
 20
0.1034263622024133
 30
0.0
 11
-0.073122764787183
 21
0.1033995675005986
 31
0.0
  0
LINE
  5
1DA
330
1F
100
AcDbEntity
  8
0
100
AcDbLine
 10
-0.0724144348294892
 20
0.1034263622024133
 30
0.0
 11
-0.0724319024863496
 21
0.1033995675005986
 31
0.0
  0
LINE
  5
1DB
330
1F
100
AcDbEntity
  8
0
100
AcDbLine
 10
-0.0715504954356708
 20
0.1034289500518516
 30
0.0
 11
-0.071567290021333
 21
0.1033995675005986
 31
0.0
  0
LINE
  5
1DC
330
1F
100
AcDbEntity
  8
0
100
AcDbLine
 10
-0.0705208482952041
 20
0.1034410535287223
 30
0.0
 11
-0.0705415364649633
 21
0.1033995675005986
 31
0.0
  0
LINE
  5
1DD
330
1F
100
AcDbEntity
  8
0
100
AcDbLine
 10
-0.0693263038693309
 20
0.1034995678820684
 30
0.0
 11
-0.0693468979927439
 21
0.1034520008319997
 31
0.0
  0
LINE
  5
1DE
330
1F
100
AcDbEntity
  8
0
100
AcDbLine
 10
-0.0693579982207605
 20
0.1034263622024133
 30
0.0
 11
-0.0693695989694971
 21
0.1033995675005986
 31
0.0
  0
LINE
  5
1DF
330
1F
100
AcDbEntity
  8
0
100
AcDbLine
 10
-0.0680585504663381
 20
0.1034263622024133
 30
0.0
 11
-0.0680685675319685
 21
0.1033995675005986
 31
0.0
  0
LINE
  5
1E0
330
1F
100
AcDbEntity
  8
0
100
AcDbLine
 10
-0.0666488250631026
 20
0.1034263622024133
 30
0.0
 11
-0.0666574134338336
 21
0.1033995675005986
 31
0.0
  0
LINE
  5
1E1
330
1F
100
AcDbEntity
  8
0
100
AcDbLine
 10
-0.0651567154280223
 20
0.103399567120619
 30
0.0
 11
-0.0651475399444301
 21
0.1034263622024133
 31
0.0
  0
LINE
  5
1E2
330
1F
100
AcDbEntity
  8
0
100
AcDbLine
 10
-0.0459694889681973
 20
0.1037995673724487
 30
0.0
 11
-0.0459668849365145
 21
0.1035995677121951
 31
0.0
  0
LINE
  5
1E3
330
1F
100
AcDbEntity
  8
0
100
AcDbLine
 10
-0.0459959308990651
 20
0.1037995673724487
 30
0.0
 11
-0.0461215648179028
 21
0.1037995673724487
 31
0.0
  0
LINE
  5
1E4
330
1F
100
AcDbEntity
  8
0
100
AcDbLine
 10
-0.0466663036705642
 20
0.1037995673724487
 30
0.0
 11
-0.0470816874489962
 21
0.1037995673724487
 31
0.0
  0
LINE
  5
1E5
330
1F
100
AcDbEntity
  8
0
100
AcDbLine
 10
-0.047138016481172
 20
0.1037995673724487
 30
0.0
 11
-0.0475888464498204
 21
0.1037995673724487
 31
0.0
  0
LINE
  5
1E6
330
1F
100
AcDbEntity
  8
0
100
AcDbLine
 10
-0.0481843171916931
 20
0.1037995673724487
 30
0.0
 11
-0.0488137034078037
 21
0.1037995673724487
 31
0.0
  0
LINE
  5
1E7
330
1F
100
AcDbEntity
  8
0
100
AcDbLine
 10
-0.048864030063198
 20
0.1037995673724487
 30
0.0
 11
-0.0496233430208615
 21
0.1037995673724487
 31
0.0
  0
LINE
  5
1E8
330
1F
100
AcDbEntity
  8
0
100
AcDbLine
 10
-0.0513595136680477
 20
0.1037995673724487
 30
0.0
 11
-0.052324511662477
 21
0.1037995673724487
 31
0.0
  0
LINE
  5
1E9
330
1F
100
AcDbEntity
  8
0
100
AcDbLine
 10
-0.0544154163813632
 20
0.1037995673724487
 30
0.0
 11
-0.0554858906591173
 21
0.1037995675363614
 31
0.0
  0
LINE
  5
1EA
330
1F
100
AcDbEntity
  8
0
100
AcDbLine
 10
-0.0554858906591173
 20
0.1037995675363614
 30
0.0
 11
-0.0554852144512955
 21
0.1035995677121951
 31
0.0
  0
LINE
  5
1EB
330
1F
100
AcDbEntity
  8
0
100
AcDbLine
 10
-0.0555270416080168
 20
0.1037995675363614
 30
0.0
 11
-0.0554852144512955
 21
0.1035995677121951
 31
0.0
  0
LINE
  5
1EC
330
1F
100
AcDbEntity
  8
0
100
AcDbLine
 10
-0.0555270416080168
 20
0.1037995675363614
 30
0.0
 11
-0.0566727511370674
 21
0.1037995673724487
 31
0.0
  0
LINE
  5
1ED
330
1F
100
AcDbEntity
  8
0
100
AcDbLine
 10
-0.0602352829101388
 20
0.1037995673724487
 30
0.0
 11
-0.0602366950853257
 21
0.1044616718570894
 31
0.0
  0
LINE
  5
1EE
330
1F
100
AcDbEntity
  8
0
100
AcDbLine
 10
-0.0602376290548405
 20
0.1048995675304009
 30
0.0
 11
-0.0602385893328067
 21
0.1053497980357184
 31
0.0
  0
LINE
  5
1EF
330
1F
100
AcDbEntity
  8
0
100
AcDbLine
 10
-0.0566727511370674
 20
0.1037995673724487
 30
0.0
 11
-0.0566914259314936
 21
0.1044407468983274
 31
0.0
  0
LINE
  5
1F0
330
1F
100
AcDbEntity
  8
0
100
AcDbLine
 10
-0.0567047893977875
 20
0.1048995675304009
 30
0.0
 11
-0.056717902670735
 21
0.1053497980357184
 31
0.0
  0
LINE
  5
1F1
330
1F
100
AcDbEntity
  8
0
100
AcDbLine
 10
-0.056717902670735
 20
0.1053497980357184
 30
0.0
 11
-0.0568308414439057
 21
0.1048995675304009
 31
0.0
  0
LINE
  5
1F2
330
1F
100
AcDbEntity
  8
0
100
AcDbLine
 10
-0.056954003263803
 20
0.1044085828415169
 30
0.0
 11
-0.0571067726988061
 21
0.1037995673724487
 31
0.0
  0
LINE
  5
1F3
330
1F
100
AcDbEntity
  8
0
100
AcDbLine
 10
-0.0544154163813632
 20
0.1037995673724487
 30
0.0
 11
-0.0544404529077041
 21
0.1043411332484503
 31
0.0
  0
LINE
  5
1F4
330
1F
100
AcDbEntity
  8
0
100
AcDbLine
 10
-0.0544662692584552
 20
0.1048995675304009
 30
0.0
 11
-0.054487083361421
 21
0.1053497980357184
 31
0.0
  0
LINE
  5
1F5
330
1F
100
AcDbEntity
  8
0
100
AcDbLine
 10
-0.052324511662477
 20
0.1037995673724487
 30
0.0
 11
-0.0523675067765999
 21
0.1044922340392412
 31
0.0
  0
LINE
  5
1F6
330
1F
100
AcDbEntity
  8
0
100
AcDbLine
 10
-0.0523927907274209
 20
0.1048995675304009
 30
0.0
 11
-0.0524207373760555
 21
0.1053497980357184
 31
0.0
  0
LINE
  5
1F7
330
1F
100
AcDbEntity
  8
0
100
AcDbLine
 10
-0.0524207373760555
 20
0.1053497980357184
 30
0.0
 11
-0.0524367038341665
 21
0.1048995675304009
 31
0.0
  0
LINE
  5
1F8
330
1F
100
AcDbEntity
  8
0
100
AcDbLine
 10
-0.05245521765162
 20
0.1044488730233784
 30
0.0
 11
-0.0524757129777864
 21
0.1037995673724487
 31
0.0
  0
LINE
  5
1F9
330
1F
100
AcDbEntity
  8
0
100
AcDbLine
 10
-0.0496233430208615
 20
0.1037995673724487
 30
0.0
 11
-0.0496805417152136
 21
0.104492557275677
 31
0.0
  0
LINE
  5
1FA
330
1F
100
AcDbEntity
  8
0
100
AcDbLine
 10
-0.0497141359350568
 20
0.1048995675304009
 30
0.0
 11
-0.0497512975112092
 21
0.1053497980357184
 31
0.0
  0
LINE
  5
1FB
330
1F
100
AcDbEntity
  8
0
100
AcDbLine
 10
-0.0497512975112092
 20
0.1053497980357184
 30
0.0
 11
-0.0497948383845366
 21
0.1048995675304009
 31
0.0
  0
LINE
  5
1FC
330
1F
100
AcDbEntity
  8
0
100
AcDbLine
 10
-0.0498424368450059
 20
0.10440737990825
 30
0.0
 11
-0.049901217154904
 21
0.1037995673724487
 31
0.0
  0
LINE
  5
1FD
330
1F
100
AcDbEntity
  8
0
100
AcDbLine
 10
-0.0481843171916931
 20
0.1037995673724487
 30
0.0
 11
-0.0482353798604251
 21
0.104346030504063
 31
0.0
  0
LINE
  5
1FE
330
1F
100
AcDbEntity
  8
0
100
AcDbLine
 10
-0.0482871035288149
 20
0.1048995675304009
 30
0.0
 11
-0.0483291740177757
 21
0.1053497980357184
 31
0.0
  0
LINE
  5
1FF
330
1F
100
AcDbEntity
  8
0
100
AcDbLine
 10
-0.0475888464498204
 20
0.1037995673724487
 30
0.0
 11
-0.0476562395828662
 21
0.104487574578033
 31
0.0
  0
LINE
  5
200
330
1F
100
AcDbEntity
  8
0
100
AcDbLine
 10
-0.0476965959855717
 20
0.1048995675304009
 30
0.0
 11
-0.04774069791372
 21
0.1053497980357184
 31
0.0
  0
LINE
  5
201
330
1F
100
AcDbEntity
  8
0
100
AcDbLine
 10
-0.04774069791372
 20
0.1053497980357184
 30
0.0
 11
-0.0477862701362264
 21
0.1048995675304009
 31
0.0
  0
LINE
  5
202
330
1F
100
AcDbEntity
  8
0
100
AcDbLine
 10
-0.0478395838588569
 20
0.1043728549199526
 30
0.0
 11
-0.0478976118853155
 21
0.1037995673724487
 31
0.0
  0
LINE
  5
203
330
1F
100
AcDbEntity
  8
0
100
AcDbLine
 10
-0.0471936636971292
 20
0.1048995675304009
 30
0.0
 11
-0.0472394956203485
 21
0.1053497980357184
 31
0.0
  0
LINE
  5
204
330
1F
100
AcDbEntity
  8
0
100
AcDbLine
 10
-0.0471763246719432
 20
0.104384776632892
 30
0.0
 11
-0.047138016481172
 21
0.1037995673724487
 31
0.0
  0
LINE
  5
205
330
1F
100
AcDbEntity
  8
0
100
AcDbLine
 10
-0.0462609093013655
 20
0.1048995675304009
 30
0.0
 11
-0.0462906505579619
 21
0.1053497980357184
 31
0.0
  0
LINE
  5
206
330
1F
100
AcDbEntity
  8
0
100
AcDbLine
 10
-0.0462225638577721
 20
0.1043224061675023
 30
0.0
 11
-0.046187914597458
 21
0.1037995673724487
 31
0.0
  0
LINE
  5
207
330
1F
100
AcDbEntity
  8
0
100
AcDbLine
 10
-0.0460907353034157
 20
0.1048995675304009
 30
0.0
 11
-0.0461403614769927
 21
0.1053497980357184
 31
0.0
  0
LINE
  5
208
330
1F
100
AcDbEntity
  8
0
100
AcDbLine
 10
-0.0463915533307414
 20
0.1068890521311238
 30
0.0
 11
-0.0461403614769927
 21
0.1053497980357184
 31
0.0
  0
LINE
  5
209
330
1F
100
AcDbEntity
  8
0
100
AcDbLine
 10
-0.0467223846862761
 20
0.1084131689750626
 30
0.0
 11
-0.0463915533307414
 21
0.1068890521311238
 31
0.0
  0
LINE
  5
20A
330
1F
100
AcDbEntity
  8
0
100
AcDbLine
 10
-0.0471319629912991
 20
0.109918029909864
 30
0.0
 11
-0.0467223846862761
 21
0.1084131689750626
 31
0.0
  0
LINE
  5
20B
330
1F
100
AcDbEntity
  8
0
100
AcDbLine
 10
-0.0476191808437197
 20
0.1113995675005986
 30
0.0
 11
-0.0471319629912991
 21
0.109918029909864
 31
0.0
  0
LINE
  5
20C
330
1F
100
AcDbEntity
  8
0
100
AcDbLine
 10
-0.0459694889681973
 20
0.1037995673724487
 30
0.0
 11
-0.0460454726953364
 21
0.104255240557096
 31
0.0
  0
LINE
  5
20D
330
1F
100
AcDbEntity
  8
0
100
AcDbLine
 10
-0.0461169565207689
 20
0.1048995675304009
 30
0.0
 11
-0.046166492356216
 21
0.1053497980357184
 31
0.0
  0
LINE
  5
20E
330
1F
100
AcDbEntity
  8
0
100
AcDbLine
 10
-0.0460454726953364
 20
0.104255240557096
 30
0.0
 11
-0.0459959308990651
 21
0.1037995673724487
 31
0.0
  0
LINE
  5
20F
330
1F
100
AcDbEntity
  8
0
100
AcDbLine
 10
-0.0467541431833338
 20
0.1048995675304009
 30
0.0
 11
-0.0468289909170726
 21
0.1053497980357184
 31
0.0
  0
LINE
  5
210
330
1F
100
AcDbEntity
  8
0
100
AcDbLine
 10
-0.0468289909170726
 20
0.1053497980357184
 30
0.0
 11
-0.0467817419734543
 21
0.1048995675304009
 31
0.0
  0
LINE
  5
211
330
1F
100
AcDbEntity
  8
0
100
AcDbLine
 10
-0.0478976118853155
 20
0.1037995673724487
 30
0.0
 11
-0.048024923005984
 21
0.1042568864655544
 31
0.0
  0
LINE
  5
212
330
1F
100
AcDbEntity
  8
0
100
AcDbLine
 10
-0.0482038362589653
 20
0.1048995675304009
 30
0.0
 11
-0.0483291740177757
 21
0.1053497980357184
 31
0.0
  0
LINE
  5
213
330
1F
100
AcDbEntity
  8
0
100
AcDbLine
 10
-0.0488137034078037
 20
0.1037995673724487
 30
0.0
 11
-0.0488871730093843
 21
0.1044079806527636
 31
0.0
  0
LINE
  5
214
330
1F
100
AcDbEntity
  8
0
100
AcDbLine
 10
-0.0489465351127618
 20
0.1048995675304009
 30
0.0
 11
-0.0490009031828144
 21
0.1053497980357184
 31
0.0
  0
LINE
  5
215
330
1F
100
AcDbEntity
  8
0
100
AcDbLine
 10
-0.048918006837823
 20
0.1044109105738206
 30
0.0
 11
-0.048864030063198
 21
0.1037995673724487
 31
0.0
  0
LINE
  5
216
330
1F
100
AcDbEntity
  8
0
100
AcDbLine
 10
-0.0511255945338222
 20
0.1037995673724487
 30
0.0
 11
-0.0512533141985681
 21
0.1043793811984236
 31
0.0
  0
LINE
  5
217
330
1F
100
AcDbEntity
  8
0
100
AcDbLine
 10
-0.0513678992963171
 20
0.1048995675304009
 30
0.0
 11
-0.0514670747326752
 21
0.1053497980357184
 31
0.0
  0
LINE
  5
218
330
1F
100
AcDbEntity
  8
0
100
AcDbLine
 10
-0.0514670747326752
 20
0.1053497980357184
 30
0.0
 11
-0.0514358359798708
 21
0.1048995675304009
 31
0.0
  0
LINE
  5
219
330
1F
100
AcDbEntity
  8
0
100
AcDbLine
 10
-0.0513996956403492
 20
0.1043786925957649
 30
0.0
 11
-0.0513595136680477
 21
0.1037995673724487
 31
0.0
  0
LINE
  5
21A
330
1F
100
AcDbEntity
  8
0
100
AcDbLine
 10
-0.053939901524181
 20
0.1037995673724487
 30
0.0
 11
-0.0541384250391207
 21
0.104362007898238
 31
0.0
  0
LINE
  5
21B
330
1F
100
AcDbEntity
  8
0
100
AcDbLine
 10
-0.0543281663944701
 20
0.1048995675304009
 30
0.0
 11
-0.054487083361421
 21
0.1053497980357184
 31
0.0
  0
LINE
  5
21C
330
1F
100
AcDbEntity
  8
0
100
AcDbLine
 10
-0.0554858906591173
 20
0.1037995675363614
 30
0.0
 11
-0.0555530159512086
 21
0.1044865937674577
 31
0.0
  0
LINE
  5
21D
330
1F
100
AcDbEntity
  8
0
100
AcDbLine
 10
-0.0555566778211398
 20
0.1048995675304009
 30
0.0
 11
-0.0555856510349134
 21
0.1053497980357184
 31
0.0
  0
LINE
  5
21E
330
1F
100
AcDbEntity
  8
0
100
AcDbLine
 10
-0.0555530159512086
 20
0.1044865937674577
 30
0.0
 11
-0.0555270416080168
 21
0.1037995675363614
 31
0.0
  0
LINE
  5
21F
330
1F
100
AcDbEntity
  8
0
100
AcDbLine
 10
-0.0587705114347729
 20
0.1037995673724487
 30
0.0
 11
-0.0588869469901711
 21
0.1044400231668813
 31
0.0
  0
LINE
  5
220
330
1F
100
AcDbEntity
  8
0
100
AcDbLine
 10
-0.0589704926519664
 20
0.1048995675304009
 30
0.0
 11
-0.0590523450442775
 21
0.1053497980357184
 31
0.0
  0
LINE
  5
221
330
1F
100
AcDbEntity
  8
0
100
AcDbLine
 10
-0.0590523450442775
 20
0.1053497980357184
 30
0.0
 11
-0.0590472900187523
 21
0.1048995675304009
 31
0.0
  0
LINE
  5
222
330
1F
100
AcDbEntity
  8
0
100
AcDbLine
 10
-0.0590425303465175
 20
0.1044756429379817
 30
0.0
 11
-0.0590349396142139
 21
0.1037995673724487
 31
0.0
  0
LINE
  5
223
330
1F
100
AcDbEntity
  8
0
100
AcDbLine
 10
-0.0749427972900341
 20
0.1048995675304009
 30
0.0
 11
-0.0748931711164571
 21
0.1053497980357184
 31
0.0
  0
LINE
  5
224
330
1F
100
AcDbEntity
  8
0
100
AcDbLine
 10
-0.0748704736874233
 20
0.1048995675304009
 30
0.0
 11
-0.0748210964201735
 21
0.1053497980357184
 31
0.0
  0
LINE
  5
225
330
1F
100
AcDbEntity
  8
0
100
AcDbLine
 10
-0.0747001002796727
 20
0.1048995675304009
 30
0.0
 11
-0.0746513090206772
 21
0.1053497980357184
 31
0.0
  0
LINE
  5
226
330
1F
100
AcDbEntity
  8
0
100
AcDbLine
 10
-0.0747857962554797
 20
0.1042229812831251
 30
0.0
 11
-0.0748193067571722
 21
0.1037995673724487
 31
0.0
  0
LINE
  5
227
330
1F
100
AcDbEntity
  8
0
100
AcDbLine
 10
-0.0737257043720487
 20
0.1037995673724487
 30
0.0
 11
-0.0736715025964232
 21
0.1043411332484509
 31
0.0
  0
LINE
  5
228
330
1F
100
AcDbEntity
  8
0
100
AcDbLine
 10
-0.0736156125727103
 20
0.1048995675304009
 30
0.0
 11
-0.0735705519551376
 21
0.1053497980357184
 31
0.0
  0
LINE
  5
229
330
1F
100
AcDbEntity
  8
0
100
AcDbLine
 10
-0.0735705519551376
 20
0.1053497980357184
 30
0.0
 11
-0.0736501460178636
 21
0.1048995675304009
 31
0.0
  0
LINE
  5
22A
330
1F
100
AcDbEntity
  8
0
100
AcDbLine
 10
-0.0737542688663423
 20
0.1041960392596529
 30
0.0
 11
-0.0738446096993257
 21
0.1037995673724487
 31
0.0
  0
LINE
  5
22B
330
1F
100
AcDbEntity
  8
0
100
AcDbLine
 10
-0.0718237216854229
 20
0.1037995673724487
 30
0.0
 11
-0.0717741066046516
 21
0.1043786925957647
 31
0.0
  0
LINE
  5
22C
330
1F
100
AcDbEntity
  8
0
100
AcDbLine
 10
-0.0717294819692302
 20
0.1048995675304009
 30
0.0
 11
-0.0716909096156395
 21
0.1053497980357184
 31
0.0
  0
LINE
  5
22D
330
1F
100
AcDbEntity
  8
0
100
AcDbLine
 10
-0.0716909096156395
 20
0.1053497980357184
 30
0.0
 11
-0.0718221033895636
 21
0.1048995675304009
 31
0.0
  0
LINE
  5
22E
330
1F
100
AcDbEntity
  8
0
100
AcDbLine
 10
-0.0720214079524236
 20
0.1042155945691502
 30
0.0
 11
-0.0721426351401546
 21
0.1037995673724487
 31
0.0
  0
LINE
  5
22F
330
1F
100
AcDbEntity
  8
0
100
AcDbLine
 10
-0.0710304673220844
 20
0.1037893888908475
 30
0.0
 11
-0.0710007972663734
 21
0.1043828420322134
 31
0.0
  0
LINE
  5
230
330
1F
100
AcDbEntity
  8
0
100
AcDbLine
 10
-0.0709412873228724
 20
0.1048995675304009
 30
0.0
 11
-0.0709054265213011
 21
0.1053497980357184
 31
0.0
  0
LINE
  5
231
330
1F
100
AcDbEntity
  8
0
100
AcDbLine
 10
-0.0710007972663734
 20
0.1043828420322134
 30
0.0
 11
-0.0710583932700489
 21
0.1037893888908475
 31
0.0
  0
LINE
  5
232
330
1F
100
AcDbEntity
  8
0
100
AcDbLine
 10
-0.0682377241341133
 20
0.1037995673724487
 30
0.0
 11
-0.0682057554419923
 21
0.1043460305040627
 31
0.0
  0
LINE
  5
233
330
1F
100
AcDbEntity
  8
0
100
AcDbLine
 10
-0.0681733729192771
 20
0.1048995675304009
 30
0.0
 11
-0.068147033941265
 21
0.1053497980357184
 31
0.0
  0
LINE
  5
234
330
1F
100
AcDbEntity
  8
0
100
AcDbLine
 10
-0.068147033941265
 20
0.1053497980357184
 30
0.0
 11
-0.0682373826729556
 21
0.1048995675304009
 31
0.0
  0
LINE
  5
235
330
1F
100
AcDbEntity
  8
0
100
AcDbLine
 10
-0.0683465972864544
 20
0.1043553235802807
 30
0.0
 11
-0.068458122089669
 21
0.1037995673724487
 31
0.0
  0
LINE
  5
236
330
1F
100
AcDbEntity
  8
0
100
AcDbLine
 10
-0.0671145291476355
 20
0.1053497980357184
 30
0.0
 11
-0.0671373041157206
 21
0.1048995675304009
 31
0.0
  0
LINE
  5
237
330
1F
100
AcDbEntity
  8
0
100
AcDbLine
 10
-0.0671581448322661
 20
0.1044875745780325
 30
0.0
 11
-0.0671929477653513
 21
0.1037995673724487
 31
0.0
  0
LINE
  5
238
330
1F
100
AcDbEntity
  8
0
100
AcDbLine
 10
-0.0682377241341133
 20
0.1037995673724487
 30
0.0
 11
-0.0671929477653513
 21
0.1037995673724487
 31
0.0
  0
LINE
  5
239
330
1F
100
AcDbEntity
  8
0
100
AcDbLine
 10
-0.0698169308673921
 20
0.1037995673724487
 30
0.0
 11
-0.0699039967951454
 21
0.1043812245688633
 31
0.0
  0
LINE
  5
23A
330
1F
100
AcDbEntity
  8
0
100
AcDbLine
 10
-0.0699815854695723
 20
0.1048995675304009
 30
0.0
 11
-0.0700489786642064
 21
0.1053497980357184
 31
0.0
  0
LINE
  5
23B
330
1F
100
AcDbEntity
  8
0
100
AcDbLine
 10
-0.0700489786642064
 20
0.1053497980357184
 30
0.0
 11
-0.0700818830061074
 21
0.1048995675304009
 31
0.0
  0
LINE
  5
23C
330
1F
100
AcDbEntity
  8
0
100
AcDbLine
 10
-0.0701116286684303
 20
0.1044925572756774
 30
0.0
 11
-0.0701622746740662
 21
0.1037995673724487
 31
0.0
  0
LINE
  5
23D
330
1F
100
AcDbEntity
  8
0
100
AcDbLine
 10
-0.0710304673220844
 20
0.1037893888908475
 30
0.0
 11
-0.0701622746740662
 21
0.1037995673724487
 31
0.0
  0
LINE
  5
23E
330
1F
100
AcDbEntity
  8
0
100
AcDbLine
 10
-0.0718237216854229
 20
0.1037995673724487
 30
0.0
 11
-0.0710583932700489
 21
0.1037893888908475
 31
0.0
  0
LINE
  5
23F
330
1F
100
AcDbEntity
  8
0
100
AcDbLine
 10
-0.0730826360577397
 20
0.1037995673724487
 30
0.0
 11
-0.0730638077968484
 21
0.1043341836547945
 31
0.0
  0
LINE
  5
240
330
1F
100
AcDbEntity
  8
0
100
AcDbLine
 10
-0.0730438959545322
 20
0.1048995675304009
 30
0.0
 11
-0.0730280396147698
 21
0.1053497980357184
 31
0.0
  0
LINE
  5
241
330
1F
100
AcDbEntity
  8
0
100
AcDbLine
 10
-0.0730280396147698
 20
0.1053497980357184
 30
0.0
 11
-0.0730712273117715
 21
0.1048995675304009
 31
0.0
  0
LINE
  5
242
330
1F
100
AcDbEntity
  8
0
100
AcDbLine
 10
-0.0731177559603527
 20
0.1044145077004764
 30
0.0
 11
-0.0731767432041029
 21
0.1037995673724487
 31
0.0
  0
LINE
  5
243
330
1F
100
AcDbEntity
  8
0
100
AcDbLine
 10
-0.0737257043720487
 20
0.1037995673724487
 30
0.0
 11
-0.0731767432041029
 21
0.1037995673724487
 31
0.0
  0
LINE
  5
244
330
1F
100
AcDbEntity
  8
0
100
AcDbLine
 10
-0.0744280268233795
 20
0.1037995673724487
 30
0.0
 11
-0.074415137520349
 21
0.1042636190119072
 31
0.0
  0
LINE
  5
245
330
1F
100
AcDbEntity
  8
0
100
AcDbLine
 10
-0.0743974736819533
 20
0.1048995675304009
 30
0.0
 11
-0.0743849682689278
 21
0.1053497980357184
 31
0.0
  0
LINE
  5
246
330
1F
100
AcDbEntity
  8
0
100
AcDbLine
 10
-0.0743849682689278
 20
0.1053497980357184
 30
0.0
 11
-0.0744328401869035
 21
0.1048995675304009
 31
0.0
  0
LINE
  5
247
330
1F
100
AcDbEntity
  8
0
100
AcDbLine
 10
-0.0744816254722291
 20
0.104440746898327
 30
0.0
 11
-0.074549800536575
 21
0.1037995673724487
 31
0.0
  0
LINE
  5
248
330
1F
100
AcDbEntity
  8
0
100
AcDbLine
 10
-0.0748193067571722
 20
0.1037995673724487
 30
0.0
 11
-0.074549800536575
 21
0.1037995673724487
 31
0.0
  0
LINE
  5
249
330
1F
100
AcDbEntity
  8
0
100
AcDbLine
 10
-0.0749911118963687
 20
0.1037995673724487
 30
0.0
 11
-0.0748193067571722
 21
0.1037995673724487
 31
0.0
  0
LINE
  5
24A
330
1F
100
AcDbEntity
  8
0
100
AcDbLine
 10
-0.0747218585158295
 20
0.1063995678358748
 30
0.0
 11
-0.0748931711164571
 21
0.1053497980357184
 31
0.0
  0
LINE
  5
24B
330
1F
100
AcDbEntity
  8
0
100
AcDbLine
 10
-0.0710304673220844
 20
0.1037893888908475
 30
0.0
 11
-0.0710596558198758
 21
0.1035995677121951
 31
0.0
  0
LINE
  5
24C
330
1F
100
AcDbEntity
  8
0
100
AcDbLine
 10
-0.0710583932700489
 20
0.1037893888908475
 30
0.0
 11
-0.0710596558198758
 21
0.1035995677121951
 31
0.0
  0
LINE
  5
24D
330
1F
100
AcDbEntity
  8
0
100
AcDbLine
 10
-0.0750640436252525
 20
0.1037995673724487
 30
0.0
 11
-0.0750666476569353
 21
0.1035995677121951
 31
0.0
  0
LINE
  5
24E
330
1F
100
AcDbEntity
  8
0
100
AcDbLine
 10
-0.0703035450378014
 20
0.1033995675005986
 30
0.0
 11
-0.0705415364649633
 21
0.1033995675005986
 31
0.0
  0
LINE
  5
24F
330
1F
100
AcDbEntity
  8
0
100
AcDbLine
 10
-0.0619723219961865
 20
0.1034263622024133
 30
0.0
 11
-0.0619752060573661
 21
0.103399567120619
 31
0.0
  0
LINE
  5
250
330
1F
100
AcDbEntity
  8
0
100
AcDbLine
 10
-0.0603411366954291
 20
0.1034263622024133
 30
0.0
 11
-0.0603407886984389
 21
0.103399567120619
 31
0.0
  0
LINE
  5
251
330
1F
100
AcDbEntity
  8
0
100
AcDbLine
 10
-0.0587125124748844
 20
0.1034263622024133
 30
0.0
 11
-0.058708937511006
 21
0.103399567120619
 31
0.0
  0
LINE
  5
252
330
1F
100
AcDbEntity
  8
0
100
AcDbLine
 10
-0.0571101983888847
 20
0.1034263622024133
 30
0.0
 11
-0.057103448573529
 21
0.103399567120619
 31
0.0
  0
LINE
  5
253
330
1F
100
AcDbEntity
  8
0
100
AcDbLine
 10
-0.0555589137587046
 20
0.1034300547398947
 30
0.0
 11
-0.0555477333884202
 21
0.103399567120619
 31
0.0
  0
LINE
  5
254
330
1F
100
AcDbEntity
  8
0
100
AcDbLine
 10
-0.0540821293058273
 20
0.1034366348931155
 30
0.0
 11
-0.0540644782526925
 21
0.103399567120619
 31
0.0
  0
LINE
  5
255
330
1F
100
AcDbEntity
  8
0
100
AcDbLine
 10
-0.0527017115050808
 20
0.1034451867358332
 30
0.0
 11
-0.0526797802250833
 21
0.103399567120619
 31
0.0
  0
LINE
  5
256
330
1F
100
AcDbEntity
  8
0
100
AcDbLine
 10
-0.0514185185316851
 20
0.1034263622024133
 30
0.0
 11
-0.0514004911612871
 21
0.103399567120619
 31
0.0
  0
LINE
  5
257
330
1F
100
AcDbEntity
  8
0
100
AcDbLine
 10
-0.0502788920171812
 20
0.1034263622024133
 30
0.0
 11
-0.0502586068357515
 21
0.1033995675005986
 31
0.0
  0
LINE
  5
258
330
1F
100
AcDbEntity
  8
0
100
AcDbLine
 10
-0.0492835853058339
 20
0.1034263622024133
 30
0.0
 11
-0.0492663089536441
 21
0.1033995675005986
 31
0.0
  0
LINE
  5
259
330
1F
100
AcDbEntity
  8
0
100
AcDbLine
 10
-0.0484711303134035
 20
0.1034366562969158
 30
0.0
 11
-0.0484380687840091
 21
0.1033995675005986
 31
0.0
  0
LINE
  5
25A
330
1F
100
AcDbEntity
  8
0
100
AcDbLine
 10
-0.0478226468635899
 20
0.1034263622024133
 30
0.0
 11
-0.0477859624114713
 21
0.1033995675005986
 31
0.0
  0
LINE
  5
25B
330
1F
100
AcDbEntity
  8
0
100
AcDbLine
 10
-0.0474454281097784
 20
0.1034995678820684
 30
0.0
 11
-0.0474137920389088
 21
0.1034744454073954
 31
0.0
  0
LINE
  5
25C
330
1F
100
AcDbEntity
  8
0
100
AcDbLine
 10
-0.0473532421249269
 20
0.1034263622024133
 30
0.0
 11
-0.0473194997839499
 21
0.103399567120619
 31
0.0
  0
LINE
  5
25D
330
1F
100
AcDbEntity
  8
0
100
AcDbLine
 10
-0.0474137920389088
 20
0.1034744454073954
 30
0.0
 11
-0.0473853541412497
 21
0.1034671816192742
 31
0.0
  0
LINE
  5
25E
330
1F
100
AcDbEntity
  8
0
100
AcDbLine
 10
-0.0471896959267564
 20
0.1035091104492351
 30
0.0
 11
-0.0471659937148986
 21
0.1034911063292961
 31
0.0
  0
LINE
  5
25F
330
1F
100
AcDbEntity
  8
0
100
AcDbLine
 10
-0.0470807588343754
 20
0.1034263622024133
 30
0.0
 11
-0.0470521019009919
 21
0.103399567120619
 31
0.0
  0
LINE
  5
260
330
1F
100
AcDbEntity
  8
0
100
AcDbLine
 10
-0.0470770260652806
 20
0.1034995678820684
 30
0.0
 11
-0.0470364865814124
 21
0.1034624151674713
 31
0.0
  0
LINE
  5
261
330
1F
100
AcDbEntity
  8
0
100
AcDbLine
 10
-0.0469971470981144
 20
0.1034263622024133
 30
0.0
 11
-0.0469679094287294
 21
0.103399567120619
 31
0.0
  0
LINE
  5
262
330
1F
100
AcDbEntity
  8
0
100
AcDbLine
 10
-0.0471129501648556
 20
0.1034263622024133
 30
0.0
 11
-0.0470893169064327
 21
0.1033995675005986
 31
0.0
  0
LINE
  5
263
330
1F
100
AcDbEntity
  8
0
100
AcDbLine
 10
-0.0474260772732055
 20
0.1034263622024133
 30
0.0
 11
-0.0474037287846135
 21
0.103399567120619
 31
0.0
  0
LINE
  5
264
330
1F
100
AcDbEntity
  8
0
100
AcDbLine
 10
-0.0479305837501338
 20
0.1034263622024133
 30
0.0
 11
-0.047910767525254
 21
0.103399567120619
 31
0.0
  0
LINE
  5
265
330
1F
100
AcDbEntity
  8
0
100
AcDbLine
 10
-0.0486190977639606
 20
0.1034263622024133
 30
0.0
 11
-0.0486016298593888
 21
0.103399567120619
 31
0.0
  0
LINE
  5
266
330
1F
100
AcDbEntity
  8
0
100
AcDbLine
 10
-0.0494880521675054
 20
0.1034377239378696
 30
0.0
 11
-0.0494662423549267
 21
0.103399567120619
 31
0.0
  0
LINE
  5
267
330
1F
100
AcDbEntity
  8
0
100
AcDbLine
 10
-0.0505053580569444
 20
0.1034263622024133
 30
0.0
 11
-0.050491995938999
 21
0.103399567120619
 31
0.0
  0
LINE
  5
268
330
1F
100
AcDbEntity
  8
0
100
AcDbLine
 10
-0.0516755343726893
 20
0.1034263622024133
 30
0.0
 11
-0.0516639334594408
 21
0.103399567120619
 31
0.0
  0
LINE
  5
269
330
1F
100
AcDbEntity
  8
0
100
AcDbLine
 10
-0.0529749821271117
 20
0.1034263622024133
 30
0.0
 11
-0.0529649649194278
 21
0.103399567120619
 31
0.0
  0
LINE
  5
26A
330
1F
100
AcDbEntity
  8
0
100
AcDbLine
 10
-0.0543847075303472
 20
0.1034263622024133
 30
0.0
 11
-0.0543761190378233
 21
0.103399567120619
 31
0.0
  0
LINE
  5
26B
330
1F
100
AcDbEntity
  8
0
100
AcDbLine
 10
-0.0558768171654276
 20
0.103399567120619
 30
0.0
 11
-0.0558859926490197
 21
0.1034263622024133
 31
0.0
  0
LINE
  5
26C
330
1F
100
AcDbEntity
  8
0
100
AcDbLine
 10
-0.0750666476569353
 20
0.1035995677121951
 30
0.0
 11
-0.0750398532338311
 21
0.1034995678820684
 31
0.0
  0
LINE
  5
26D
330
1F
100
AcDbEntity
  8
0
100
AcDbLine
 10
-0.0750398532338311
 20
0.1034995678820684
 30
0.0
 11
-0.0749666483663012
 21
0.1034263622024133
 31
0.0
  0
LINE
  5
26E
330
1F
100
AcDbEntity
  8
0
100
AcDbLine
 10
-0.143016767786841
 20
0.1313995672770812
 30
0.0
 11
-0.143016767786841
 21
0.1363995671653225
 31
0.0
  0
LINE
  5
26F
330
1F
100
AcDbEntity
  8
0
100
AcDbLine
 10
-0.143016767786841
 20
0.1313995672770812
 30
0.0
 11
-0.0780167664457365
 21
0.1313995672770812
 31
0.0
  0
LINE
  5
270
330
1F
100
AcDbEntity
  8
0
100
AcDbLine
 10
-0.0430167662967249
 20
0.1363995671653225
 30
0.0
 11
-0.143016767786841
 21
0.1363995671653225
 31
0.0
  0
LINE
  5
271
330
1F
100
AcDbEntity
  8
0
100
AcDbLine
 10
-0.0780167664457365
 20
0.1313995672770812
 30
0.0
 11
-0.0780167664457365
 21
0.1063995678358748
 31
0.0
  0
LINE
  5
272
330
1F
100
AcDbEntity
  8
0
100
AcDbLine
 10
0.1635582446309747
 20
0.079725977320948
 30
0.0
 11
0.1560582443329515
 21
0.079725977320948
 31
0.0
  0
LINE
  5
273
330
1F
100
AcDbEntity
  8
0
100
AcDbLine
 10
0.1210582441839398
 20
0.079725977320948
 30
0.0
 11
0.1135582438859166
 21
0.079725977320948
 31
0.0
  0
LINE
  5
274
330
1F
100
AcDbEntity
  8
0
100
AcDbLine
 10
0.1635582446309747
 20
0.129725978066006
 30
0.0
 11
0.1635582446309747
 21
0.079725977320948
 31
0.0
  0
LINE
  5
275
330
1F
100
AcDbEntity
  8
0
100
AcDbLine
 10
0.1135582438859166
 20
0.129725978066006
 30
0.0
 11
0.1635582446309747
 21
0.129725978066006
 31
0.0
  0
LINE
  5
276
330
1F
100
AcDbEntity
  8
0
100
AcDbLine
 10
0.1135582438859166
 20
0.079725977320948
 30
0.0
 11
0.1135582438859166
 21
0.129725978066006
 31
0.0
  0
LINE
  5
277
330
1F
100
AcDbEntity
  8
0
100
AcDbLine
 10
0.1210582441839399
 20
-0.077774028863034
 30
0.0
 11
0.1210582441839399
 21
0.0222259762033608
 31
0.0
  0
LINE
  5
278
330
1F
100
AcDbEntity
  8
0
100
AcDbLine
 10
0.1560582443329515
 20
0.0222259762033608
 30
0.0
 11
0.1560582443329515
 21
-0.077774028863034
 31
0.0
  0
LINE
  5
279
330
1F
100
AcDbEntity
  8
0
100
AcDbLine
 10
0.1210582441839399
 20
-0.077774028863034
 30
0.0
 11
0.1560582443329515
 21
-0.077774028863034
 31
0.0
  0
LINE
  5
27A
330
1F
100
AcDbEntity
  8
0
100
AcDbLine
 10
0.1415444788713281
 20
0.1223259776792277
 30
0.0
 11
0.1415908160686245
 21
0.1223259776792277
 31
0.0
  0
LINE
  5
27B
330
1F
100
AcDbEntity
  8
0
100
AcDbLine
 10
0.1415604110418661
 20
0.1222582723371251
 30
0.0
 11
0.1415457578759477
 21
0.12223649543214
 31
0.0
  0
LINE
  5
27C
330
1F
100
AcDbEntity
  8
0
100
AcDbLine
 10
0.1418829256839445
 20
0.1223259776792277
 30
0.0
 11
0.1419105830946712
 21
0.1222575413273704
 31
0.0
  0
LINE
  5
27D
330
1F
100
AcDbEntity
  8
0
100
AcDbLine
 10
0.1418829256839445
 20
0.1223259776792277
 30
0.0
 11
0.1419216274858995
 21
0.1223259776792277
 31
0.0
  0
LINE
  5
27E
330
1F
100
AcDbEntity
  8
0
100
AcDbLine
 10
0.1419216274858995
 20
0.1223259776792277
 30
0.0
 11
0.1419105830946712
 21
0.1222575413273704
 31
0.0
  0
LINE
  5
27F
330
1F
100
AcDbEntity
  8
0
100
AcDbLine
 10
0.1429357153636102
 20
0.1222601707175323
 30
0.0
 11
0.1429284123967962
 21
0.1222335800635881
 31
0.0
  0
LINE
  5
280
330
1F
100
AcDbEntity
  8
0
100
AcDbLine
 10
0.1415444788713281
 20
0.1223259776792277
 30
0.0
 11
0.1415457578759477
 21
0.12223649543214
 31
0.0
  0
LINE
  5
281
330
1F
100
AcDbEntity
  8
0
100
AcDbLine
 10
0.1406531667339094
 20
0.1223259776792277
 30
0.0
 11
0.140653772490184
 21
0.1222259777035818
 31
0.0
  0
LINE
  5
282
330
1F
100
AcDbEntity
  8
0
100
AcDbLine
 10
0.1406531667339094
 20
0.1223259776792277
 30
0.0
 11
0.1406269930669899
 21
0.1223259776792277
 31
0.0
  0
LINE
  5
283
330
1F
100
AcDbEntity
  8
0
100
AcDbLine
 10
0.1406269930669899
 20
0.1223259776792277
 30
0.0
 11
0.140653772490184
 21
0.1222259777035818
 31
0.0
  0
LINE
  5
284
330
1F
100
AcDbEntity
  8
0
100
AcDbLine
 10
0.1402708216697296
 20
0.1223259776792277
 30
0.0
 11
0.1401584795933017
 21
0.1222259777035818
 31
0.0
  0
LINE
  5
285
330
1F
100
AcDbEntity
  8
0
100
AcDbLine
 10
0.1401572392591081
 20
0.1223259776792277
 30
0.0
 11
0.1401584795933017
 21
0.1222259777035818
 31
0.0
  0
LINE
  5
286
330
1F
100
AcDbEntity
  8
0
100
AcDbLine
 10
0.1396389156288318
 20
0.1223259776792277
 30
0.0
 11
0.1396398520757247
 21
0.1222259777035818
 31
0.0
  0
LINE
  5
287
330
1F
100
AcDbEntity
  8
0
100
AcDbLine
 10
0.1396389156288318
 20
0.1223259776792277
 30
0.0
 11
0.1395221879194427
 21
0.1223259776792277
 31
0.0
  0
LINE
  5
288
330
1F
100
AcDbEntity
  8
0
100
AcDbLine
 10
0.1395221879194427
 20
0.1223259776792277
 30
0.0
 11
0.1396398520757247
 21
0.1222259777035818
 31
0.0
  0
LINE
  5
289
330
1F
100
AcDbEntity
  8
0
100
AcDbLine
 10
0.1391354227462237
 20
0.1223259776792277
 30
0.0
 11
0.1391054519230956
 21
0.1222259777035818
 31
0.0
  0
LINE
  5
28A
330
1F
100
AcDbEntity
  8
0
100
AcDbLine
 10
0.1391354227462237
 20
0.1223259776792277
 30
0.0
 11
0.1391053486650566
 21
0.1223259776792277
 31
0.0
  0
LINE
  5
28B
330
1F
100
AcDbEntity
  8
0
100
AcDbLine
 10
0.1391053486650566
 20
0.1223259776792277
 30
0.0
 11
0.1391054519230956
 21
0.1222259777035818
 31
0.0
  0
LINE
  5
28C
330
1F
100
AcDbEntity
  8
0
100
AcDbLine
 10
0.1380208218702221
 20
0.1223259776792277
 30
0.0
 11
0.1380206225677418
 21
0.1222259777035818
 31
0.0
  0
LINE
  5
28D
330
1F
100
AcDbEntity
  8
0
100
AcDbLine
 10
0.1380208218702221
 20
0.1223259776792277
 30
0.0
 11
0.137960690250465
 21
0.1223259776792277
 31
0.0
  0
LINE
  5
28E
330
1F
100
AcDbEntity
  8
0
100
AcDbLine
 10
0.137960690250465
 20
0.1223259776792277
 30
0.0
 11
0.1380206225677418
 21
0.1222259777035818
 31
0.0
  0
LINE
  5
28F
330
1F
100
AcDbEntity
  8
0
100
AcDbLine
 10
0.1375742363508292
 20
0.1223259776792277
 30
0.0
 11
0.1374868059842678
 21
0.1223259776792277
 31
0.0
  0
LINE
  5
290
330
1F
100
AcDbEntity
  8
0
100
AcDbLine
 10
0.1412630257151293
 20
0.1225435505597291
 30
0.0
 11
0.1421599571348962
 21
0.1224509598590687
 31
0.0
  0
LINE
  5
291
330
1F
100
AcDbEntity
  8
0
100
AcDbLine
 10
0.1403626201550304
 20
0.1226036289475617
 30
0.0
 11
0.1412630257151293
 21
0.1225435505597291
 31
0.0
  0
LINE
  5
292
330
1F
100
AcDbEntity
  8
0
100
AcDbLine
 10
0.1394539460820155
 20
0.1226311166191211
 30
0.0
 11
0.1403626201550304
 21
0.1226036289475617
 31
0.0
  0
LINE
  5
293
330
1F
100
AcDbEntity
  8
0
100
AcDbLine
 10
0.1343558177076918
 20
0.1223259776792277
 30
0.0
 11
0.1343968648806373
 21
0.1223259776792277
 31
0.0
  0
LINE
  5
294
330
1F
100
AcDbEntity
  8
0
100
AcDbLine
 10
0.1351948610309918
 20
0.1223259776792277
 30
0.0
 11
0.1352335628329468
 21
0.1223259776792277
 31
0.0
  0
LINE
  5
295
330
1F
100
AcDbEntity
  8
0
100
AcDbLine
 10
0.1355105201466506
 20
0.1223259776792277
 30
0.0
 11
0.1355797678861835
 21
0.1223259776792277
 31
0.0
  0
LINE
  5
296
330
1F
100
AcDbEntity
  8
0
100
AcDbLine
 10
0.1341626996580448
 20
0.1223259776792277
 30
0.0
 11
0.1341936912096385
 21
0.1223259776792277
 31
0.0
  0
LINE
  5
297
330
1F
100
AcDbEntity
  8
0
100
AcDbLine
 10
0.1358534628017621
 20
0.1225435505597291
 30
0.0
 11
0.1349565313819952
 21
0.1224509598590687
 31
0.0
  0
LINE
  5
298
330
1F
100
AcDbEntity
  8
0
100
AcDbLine
 10
0.1367538683618609
 20
0.1226036289475617
 30
0.0
 11
0.1358534628017621
 21
0.1225435505597291
 31
0.0
  0
LINE
  5
299
330
1F
100
AcDbEntity
  8
0
100
AcDbLine
 10
0.1376625424348759
 20
0.1226311166191211
 30
0.0
 11
0.1367538683618609
 21
0.1226036289475617
 31
0.0
  0
LINE
  5
29A
330
1F
100
AcDbEntity
  8
0
100
AcDbLine
 10
0.1352335628329468
 20
0.1223259776792277
 30
0.0
 11
0.1351931495098511
 21
0.1222259777035818
 31
0.0
  0
LINE
  5
29B
330
1F
100
AcDbEntity
  8
0
100
AcDbLine
 10
0.1351948610309918
 20
0.1223259776792277
 30
0.0
 11
0.1351931495098511
 21
0.1222259777035818
 31
0.0
  0
LINE
  5
29C
330
1F
100
AcDbEntity
  8
0
100
AcDbLine
 10
0.1345769928684103
 20
0.1223259776792277
 30
0.0
 11
0.1345759380858602
 21
0.1222259777035818
 31
0.0
  0
LINE
  5
29D
330
1F
100
AcDbEntity
  8
0
100
AcDbLine
 10
0.1343968648806373
 20
0.1223259776792277
 30
0.0
 11
0.1343523856145777
 21
0.1222259777035818
 31
0.0
  0
LINE
  5
29E
330
1F
100
AcDbEntity
  8
0
100
AcDbLine
 10
0.1343558177076918
 20
0.1223259776792277
 30
0.0
 11
0.1343523856145777
 21
0.1222259777035818
 31
0.0
  0
LINE
  5
29F
330
1F
100
AcDbEntity
  8
0
100
AcDbLine
 10
0.1340954127004656
 20
0.1223259776792277
 30
0.0
 11
0.1340916387471011
 21
0.1222259777035818
 31
0.0
  0
LINE
  5
2A0
330
1F
100
AcDbEntity
  8
0
100
AcDbLine
 10
0.134062987252198
 20
0.1223259776792277
 30
0.0
 11
0.1340582466166741
 21
0.1222259777035818
 31
0.0
  0
LINE
  5
2A1
330
1F
100
AcDbEntity
  8
0
100
AcDbLine
 10
0.1340916387471011
 20
0.1222259777035818
 30
0.0
 11
0.1340582466166741
 21
0.1222259777035818
 31
0.0
  0
LINE
  5
2A2
330
1F
100
AcDbEntity
  8
0
100
AcDbLine
 10
0.1341626996580448
 20
0.1223259776792277
 30
0.0
 11
0.1341807731532811
 21
0.1222601707175323
 31
0.0
  0
LINE
  5
2A3
330
1F
100
AcDbEntity
  8
0
100
AcDbLine
 10
0.1343523856145777
 20
0.1222259777035818
 30
0.0
 11
0.1341901640635865
 21
0.1222259777035818
 31
0.0
  0
LINE
  5
2A4
330
1F
100
AcDbEntity
  8
0
100
AcDbLine
 10
0.1355105201466506
 20
0.1223259776792277
 30
0.0
 11
0.1355560774750252
 21
0.1222582723371251
 31
0.0
  0
LINE
  5
2A5
330
1F
100
AcDbEntity
  8
0
100
AcDbLine
 10
0.1375141088434378
 20
0.1222578246094953
 30
0.0
 11
0.1374860121622724
 21
0.1222259777035818
 31
0.0
  0
LINE
  5
2A6
330
1F
100
AcDbEntity
  8
0
100
AcDbLine
 10
0.1560582443329515
 20
0.1222259777679828
 30
0.0
 11
0.1430582419002172
 21
0.1222259777035818
 31
0.0
  0
LINE
  5
2A7
330
1F
100
AcDbEntity
  8
0
100
AcDbLine
 10
0.1210582441839399
 20
0.0222259762033608
 30
0.0
 11
0.1560582443329515
 21
0.0222259762033608
 31
0.0
  0
LINE
  5
2A8
330
1F
100
AcDbEntity
  8
0
100
AcDbLine
 10
0.0539572016953372
 20
0.1044385551375504
 30
0.0
 11
0.053956236762236
 21
0.1044734162612253
 31
0.0
  0
LINE
  5
2A9
330
1F
100
AcDbEntity
  8
0
100
AcDbLine
 10
0.053956236762236
 20
0.1044734162612253
 30
0.0
 11
0.0539589398301106
 21
0.1045604589358524
 31
0.0
  0
LINE
  5
2AA
330
1F
100
AcDbEntity
  8
0
100
AcDbLine
 10
0.0540309936069541
 20
0.1037995673724487
 30
0.0
 11
0.0539545273046636
 21
0.104249982164176
 31
0.0
  0
LINE
  5
2AB
330
1F
100
AcDbEntity
  8
0
100
AcDbLine
 10
-0.0749922330633223
 20
0.1041956308277962
 30
0.0
 11
-0.0749648126940794
 21
0.104263693504222
 31
0.0
  0
LINE
  5
2AC
330
1F
100
AcDbEntity
  8
0
100
AcDbLine
 10
-0.0462225638577721
 20
0.1043224061675023
 30
0.0
 11
-0.0461677311788924
 21
0.1044238083915334
 31
0.0
  0
LINE
  5
2AD
330
1F
100
AcDbEntity
  8
0
100
AcDbLine
 10
0.0219832336287693
 20
-0.1366004271349833
 30
0.0
 11
0.0144832333307461
 21
-0.1366004323094116
 31
0.0
  0
LINE
  5
2AE
330
1F
100
AcDbEntity
  8
0
100
AcDbLine
 10
0.0412980701443017
 20
0.0856966029650717
 30
0.0
 11
0.0407832337068142
 21
0.0854683175239748
 31
0.0
  0
LINE
  5
2AF
330
1F
100
AcDbEntity
  8
0
100
AcDbLine
 10
0.0463390894553337
 20
0.0878995675266757
 30
0.0
 11
0.0463870641533033
 21
0.0878995675266757
 31
0.0
  0
LINE
  5
2B0
330
1F
100
AcDbEntity
  8
0
100
AcDbLine
 10
0.0386108764596816
 20
0.1048746883001455
 30
0.0
 11
0.0385712739082642
 21
0.1048995675304009
 31
0.0
  0
LINE
  5
2B1
330
1F
100
AcDbEntity
  8
0
100
AcDbLine
 10
0.0385712739082642
 20
0.1048995675304009
 30
0.0
 11
0.0373841173953172
 21
0.1048995675304009
 31
0.0
  0
LINE
  5
2B2
330
1F
100
AcDbEntity
  8
0
100
AcDbLine
 10
0.0319778797757201
 20
0.1048801785934505
 30
0.0
 11
0.0319505879591333
 21
0.1048995675304009
 31
0.0
  0
LINE
  5
2B3
330
1F
100
AcDbEntity
  8
0
100
AcDbLine
 10
0.0319505879591333
 20
0.1048995675304009
 30
0.0
 11
0.031826627080723
 21
0.1048995675304009
 31
0.0
  0
LINE
  5
2B4
330
1F
100
AcDbEntity
  8
0
100
AcDbLine
 10
0.0250572027099659
 20
0.1048995675304009
 30
0.0
 11
0.0250075275764396
 21
0.1048995675304009
 31
0.0
  0
LINE
  5
2B5
330
1F
100
AcDbEntity
  8
0
100
AcDbLine
 10
0.0539545273046636
 20
0.1048995675304009
 30
0.0
 11
0.0539078429221492
 21
0.1048995675304009
 31
0.0
  0
LINE
  5
2B6
330
1F
100
AcDbEntity
  8
0
100
AcDbLine
 10
0.0539078429221492
 20
0.1048995675304009
 30
0.0
 11
0.0538676588862783
 21
0.1048995675304009
 31
0.0
  0
LINE
  5
2B7
330
1F
100
AcDbEntity
  8
0
100
AcDbLine
 10
0.0522728035937489
 20
0.1033995673329606
 30
0.0
 11
0.0522364902999
 21
0.1033995675005986
 31
0.0
  0
LINE
  5
2B8
330
1F
100
AcDbEntity
  8
0
100
AcDbLine
 10
0.030630400865991
 20
0.103399567120619
 30
0.0
 11
0.0304437143485741
 21
0.1033995675005986
 31
0.0
  0
LINE
  5
2B9
330
1F
100
AcDbEntity
  8
0
100
AcDbLine
 10
0.0267299771066502
 20
0.1033995675005986
 30
0.0
 11
0.0266936638128013
 21
0.1033995673329606
 31
0.0
  0
LINE
  5
2BA
330
1F
100
AcDbEntity
  8
0
100
AcDbLine
 10
0.0219832336287693
 20
0.0883995676682367
 30
0.0
 11
0.0219832336287693
 21
-0.1366004271349833
 31
0.0
  0
LINE
  5
2BB
330
1F
100
AcDbEntity
  8
0
100
AcDbLine
 10
0.026054374606127
 20
0.103399567120619
 30
0.0
 11
0.0259789402440334
 21
0.103399567120619
 31
0.0
  0
LINE
  5
2BC
330
1F
100
AcDbEntity
  8
0
100
AcDbLine
 10
0.0295936069650158
 20
0.103399567120619
 30
0.0
 11
0.0294584633455492
 21
0.103399567120619
 31
0.0
  0
LINE
  5
2BD
330
1F
100
AcDbEntity
  8
0
100
AcDbLine
 10
0.0296964549621986
 20
0.1034263622024133
 30
0.0
 11
0.0295936069650158
 21
0.103399567120619
 31
0.0
  0
LINE
  5
2BE
330
1F
100
AcDbEntity
  8
0
100
AcDbLine
 10
0.0444267553094501
 20
0.1034263622024133
 30
0.0
 11
0.0443367422875322
 21
0.103399567120619
 31
0.0
  0
LINE
  5
2BF
330
1F
100
AcDbEntity
  8
0
100
AcDbLine
 10
0.0458978355699247
 20
0.1034386410565364
 30
0.0
 11
0.0458716774068673
 21
0.103399567120619
 31
0.0
  0
LINE
  5
2C0
330
1F
100
AcDbEntity
  8
0
100
AcDbLine
 10
0.0492700124443516
 20
0.1033995673329606
 30
0.0
 11
0.0489832333978013
 21
0.1033995673329606
 31
0.0
  0
LINE
  5
2C1
330
1F
100
AcDbEntity
  8
0
100
AcDbLine
 10
0.0493728604415344
 20
0.103399567120619
 30
0.0
 11
0.0492700124443516
 21
0.1033995673329606
 31
0.0
  0
LINE
  5
2C2
330
1F
100
AcDbEntity
  8
0
100
AcDbLine
 10
0.0523327581763675
 20
0.103399567120619
 30
0.0
 11
0.0522728035937489
 21
0.1033995673329606
 31
0.0
  0
LINE
  5
2C3
330
1F
100
AcDbEntity
  8
0
100
AcDbLine
 10
0.0259789402440334
 20
0.103399567120619
 30
0.0
 11
0.0259343770476029
 21
0.1033995673329606
 31
0.0
  0
LINE
  5
2C4
330
1F
100
AcDbEntity
  8
0
100
AcDbLine
 10
0.0249359563747475
 20
0.1037995673724487
 30
0.0
 11
0.0250088881036313
 21
0.1041411624941011
 31
0.0
  0
LINE
  5
2C5
330
1F
100
AcDbEntity
  8
0
100
AcDbLine
 10
0.0254080919344112
 20
0.104385337278171
 30
0.0
 11
0.0253503913227317
 21
0.1037995673724487
 31
0.0
  0
LINE
  5
2C6
330
1F
100
AcDbEntity
  8
0
100
AcDbLine
 10
0.0319505879591333
 20
0.1048995675304009
 30
0.0
 11
0.031852966058735
 21
0.1053497980357184
 31
0.0
  0
LINE
  5
2C7
330
1F
100
AcDbEntity
  8
0
100
AcDbLine
 10
0.0250088881036313
 20
0.1041411624941011
 30
0.0
 11
0.0250088881036313
 21
0.1037995675363614
 31
0.0
  0
LINE
  5
2C8
330
1F
100
AcDbEntity
  8
0
100
AcDbLine
 10
0.0260119510424281
 20
0.1033995673329606
 30
0.0
 11
0.0259789402440334
 21
0.103399567120619
 31
0.0
  0
LINE
  5
2C9
330
1F
100
AcDbEntity
  8
0
100
AcDbLine
 10
0.0266936638128013
 20
0.1033995673329606
 30
0.0
 11
0.0266337092301827
 21
0.103399567120619
 31
0.0
  0
LINE
  5
2CA
330
1F
100
AcDbEntity
  8
0
100
AcDbLine
 10
0.0296964549621986
 20
0.1033995673329606
 30
0.0
 11
0.0295936069650158
 21
0.103399567120619
 31
0.0
  0
LINE
  5
2CB
330
1F
100
AcDbEntity
  8
0
100
AcDbLine
 10
0.0299832340087489
 20
0.1033995673329606
 30
0.0
 11
0.0296964549621986
 21
0.1033995673329606
 31
0.0
  0
LINE
  5
2CC
330
1F
100
AcDbEntity
  8
0
100
AcDbLine
 10
0.031931432325978
 20
0.103399567120619
 30
0.0
 11
0.0316462476316335
 21
0.103399567120619
 31
0.0
  0
LINE
  5
2CD
330
1F
100
AcDbEntity
  8
0
100
AcDbLine
 10
0.034629725119018
 20
0.103399567120619
 30
0.0
 11
0.0345208438636873
 21
0.103399567120619
 31
0.0
  0
LINE
  5
2CE
330
1F
100
AcDbEntity
  8
0
100
AcDbLine
 10
0.0396073524636823
 20
0.1034263622024133
 30
0.0
 11
0.0395411678830723
 21
0.103399567120619
 31
0.0
  0
LINE
  5
2CF
330
1F
100
AcDbEntity
  8
0
100
AcDbLine
 10
0.0348259723059332
 20
0.1034263622024133
 30
0.0
 11
0.034629725119018
 21
0.103399567120619
 31
0.0
  0
LINE
  5
2D0
330
1F
100
AcDbEntity
  8
0
100
AcDbLine
 10
0.0395411678830723
 20
0.103399567120619
 30
0.0
 11
0.0394252995234779
 21
0.103399567120619
 31
0.0
  0
LINE
  5
2D1
330
1F
100
AcDbEntity
  8
0
100
AcDbLine
 10
0.0282732700924323
 20
0.1033995673329606
 30
0.0
 11
0.0282327760447003
 21
0.103399567120619
 31
0.0
  0
LINE
  5
2D2
330
1F
100
AcDbEntity
  8
0
100
AcDbLine
 10
0.0459355215425075
 20
0.1033995673329606
 30
0.0
 11
0.0458716774068673
 21
0.103399567120619
 31
0.0
  0
LINE
  5
2D3
330
1F
100
AcDbEntity
  8
0
100
AcDbLine
 10
0.0473202197749167
 20
0.103399567120619
 30
0.0
 11
0.0470350350805722
 21
0.103399567120619
 31
0.0
  0
LINE
  5
2D4
330
1F
100
AcDbEntity
  8
0
100
AcDbLine
 10
0.049508004061001
 20
0.103399567120619
 30
0.0
 11
0.0493728604415344
 21
0.103399567120619
 31
0.0
  0
LINE
  5
2D5
330
1F
100
AcDbEntity
  8
0
100
AcDbLine
 10
0.0529478980990081
 20
0.103399567120619
 30
0.0
 11
0.0529120928004232
 21
0.103399567120619
 31
0.0
  0
LINE
  5
2D6
330
1F
100
AcDbEntity
  8
0
100
AcDbLine
 10
0.0458716774068673
 20
0.103399567120619
 30
0.0
 11
0.0456238809621767
 21
0.103399567120619
 31
0.0
  0
LINE
  5
2D7
330
1F
100
AcDbEntity
  8
0
100
AcDbLine
 10
0.0443367422875322
 20
0.103399567120619
 30
0.0
 11
0.0441231828345725
 21
0.103399567120619
 31
0.0
  0
LINE
  5
2D8
330
1F
100
AcDbEntity
  8
0
100
AcDbLine
 10
0.0410916108931682
 20
0.103399567120619
 30
0.0
 11
0.0409896299794283
 21
0.1034263622024133
 31
0.0
  0
LINE
  5
2D9
330
1F
100
AcDbEntity
  8
0
100
AcDbLine
 10
0.0219832336287693
 20
0.1063995678358748
 30
0.0
 11
0.0252781414841706
 21
0.1063995678358748
 31
0.0
  0
LINE
  5
2DA
330
1F
100
AcDbEntity
  8
0
100
AcDbLine
 10
-0.0780167663712307
 20
-0.1366004271349833
 30
0.0
 11
-0.0855167666692539
 21
-0.1366004323094116
 31
0.0
  0
LINE
  5
2DB
330
1F
100
AcDbEntity
  8
0
100
AcDbLine
 10
-0.0429167663109741
 20
0.1190303944558759
 30
0.0
 11
-0.0429852026628314
 21
0.119047228664373
 31
0.0
  0
LINE
  5
2DC
330
1F
100
AcDbEntity
  8
0
100
AcDbLine
 10
-0.0429852026628314
 20
0.119047228664373
 30
0.0
 11
-0.04301676628662
 21
0.1190280692691233
 31
0.0
  0
LINE
  5
2DD
330
1F
100
AcDbEntity
  8
0
100
AcDbLine
 10
-0.0429167663109741
 20
0.1193669956904198
 30
0.0
 11
-0.0429844716530768
 21
0.1193974007171782
 31
0.0
  0
LINE
  5
2DE
330
1F
100
AcDbEntity
  8
0
100
AcDbLine
 10
-0.0429167663109741
 20
0.1194133328877161
 30
0.0
 11
-0.0429844716530768
 21
0.1193974007171782
 31
0.0
  0
LINE
  5
2DF
330
1F
100
AcDbEntity
  8
0
100
AcDbLine
 10
-0.0429167663109741
 20
0.1233835754082151
 30
0.0
 11
-0.0429849193807065
 21
0.1234437029156065
 31
0.0
  0
LINE
  5
2E0
330
1F
100
AcDbEntity
  8
0
100
AcDbLine
 10
-0.0429167663109741
 20
0.1234710057747765
 30
0.0
 11
-0.0429849193807065
 21
0.1234437029156065
 31
0.0
  0
LINE
  5
2E1
330
1F
100
AcDbEntity
  8
0
100
AcDbLine
 10
-0.0429167663109741
 20
0.1253780438728608
 30
0.0
 11
-0.0429844716530768
 21
0.1254017342840191
 31
0.0
  0
LINE
  5
2E2
330
1F
100
AcDbEntity
  8
0
100
AcDbLine
 10
-0.0429844716530768
 20
0.1254017342840191
 30
0.0
 11
-0.04301676628662
 21
0.1253800039865362
 31
0.0
  0
LINE
  5
2E3
330
1F
100
AcDbEntity
  8
0
100
AcDbLine
 10
-0.0429167663109741
 20
0.1257242489260975
 30
0.0
 11
-0.0429852026628315
 21
0.1257519063368242
 31
0.0
  0
LINE
  5
2E4
330
1F
100
AcDbEntity
  8
0
100
AcDbLine
 10
-0.0429167663109741
 20
0.1257629507280525
 30
0.0
 11
-0.0429852026628315
 21
0.1257519063368242
 31
0.0
  0
LINE
  5
2E5
330
1F
100
AcDbEntity
  8
0
100
AcDbLine
 10
-0.0429167663109741
 20
0.1267641205494058
 30
0.0
 11
-0.0429825732726695
 21
0.1267770386057632
 31
0.0
  0
LINE
  5
2E6
330
1F
100
AcDbEntity
  8
0
100
AcDbLine
 10
-0.0429825732726695
 20
0.1267770386057632
 30
0.0
 11
-0.04301676628662
 21
0.1267676476954578
 31
0.0
  0
LINE
  5
2E7
330
1F
100
AcDbEntity
  8
0
100
AcDbLine
 10
-0.0426116273710808
 20
0.1223622326239755
 30
0.0
 11
-0.0426167662967249
 21
0.1223995675005986
 31
0.0
  0
LINE
  5
2E8
330
1F
100
AcDbEntity
  8
0
100
AcDbLine
 10
-0.0426167662967249
 20
0.1223995675005986
 30
0.0
 11
-0.0426116273710808
 21
0.1224410231510593
 31
0.0
  0
LINE
  5
2E9
330
1F
100
AcDbEntity
  8
0
100
AcDbLine
 10
-0.0429167663109741
 20
0.118008470832921
 30
0.0
 11
-0.0429825732726695
 21
0.1180220963954341
 31
0.0
  0
LINE
  5
2EA
330
1F
100
AcDbEntity
  8
0
100
AcDbLine
 10
-0.0749427972900341
 20
0.1048995675304009
 30
0.0
 11
-0.0749924724235604
 21
0.1048995675304009
 31
0.0
  0
LINE
  5
2EB
330
1F
100
AcDbEntity
  8
0
100
AcDbLine
 10
-0.0462609093013655
 20
0.1048995675304009
 30
0.0
 11
-0.0461169565207689
 21
0.1048995675304009
 31
0.0
  0
LINE
  5
2EC
330
1F
100
AcDbEntity
  8
0
100
AcDbLine
 10
-0.0460454726953364
 20
0.1048995675304009
 30
0.0
 11
-0.0460454726953364
 21
0.1044889252132801
 31
0.0
  0
LINE
  5
2ED
330
1F
100
AcDbEntity
  8
0
100
AcDbLine
 10
-0.0460454726953364
 20
0.1044889252132801
 30
0.0
 11
-0.0460410601698894
 21
0.1044488928388589
 31
0.0
  0
LINE
  5
2EE
330
1F
100
AcDbEntity
  8
0
100
AcDbLine
 10
-0.0470521019009919
 20
0.103399567120619
 30
0.0
 11
-0.0470893169064327
 21
0.1033995675005986
 31
0.0
  0
LINE
  5
2EF
330
1F
100
AcDbEntity
  8
0
100
AcDbLine
 10
-0.0526797802250833
 20
0.103399567120619
 30
0.0
 11
-0.0529649649194278
 21
0.103399567120619
 31
0.0
  0
LINE
  5
2F0
330
1F
100
AcDbEntity
  8
0
100
AcDbLine
 10
-0.0507299875556484
 20
0.1033995675005986
 30
0.0
 11
-0.0510167666021987
 21
0.1034263622024133
 31
0.0
  0
LINE
  5
2F1
330
1F
100
AcDbEntity
  8
0
100
AcDbLine
 10
-0.050491995938999
 20
0.103399567120619
 30
0.0
 11
-0.0507299875556484
 21
0.1033995675005986
 31
0.0
  0
LINE
  5
2F2
330
1F
100
AcDbEntity
  8
0
100
AcDbLine
 10
-0.0485465079788371
 20
0.1033995675005986
 30
0.0
 11
-0.0486016298593888
 21
0.103399567120619
 31
0.0
  0
LINE
  5
2F3
330
1F
100
AcDbEntity
  8
0
100
AcDbLine
 10
-0.0474037287846135
 20
0.103399567120619
 30
0.0
 11
-0.0477271965515071
 21
0.1033995675005986
 31
0.0
  0
LINE
  5
2F4
330
1F
100
AcDbEntity
  8
0
100
AcDbLine
 10
-0.0460668842271487
 20
0.1034263622024133
 30
0.0
 11
-0.0460893819351002
 21
0.1033995675005986
 31
0.0
  0
LINE
  5
2F5
330
1F
100
AcDbEntity
  8
0
100
AcDbLine
 10
-0.0717231558025676
 20
0.1034995678820684
 30
0.0
 11
-0.0717264146397341
 21
0.1034487176905221
 31
0.0
  0
LINE
  5
2F6
330
1F
100
AcDbEntity
  8
0
100
AcDbLine
 10
-0.0717264146397341
 20
0.1034487176905221
 30
0.0
 11
-0.0717499472876159
 21
0.1034263622024133
 31
0.0
  0
LINE
  5
2F7
330
1F
100
AcDbEntity
  8
0
100
AcDbLine
 10
-0.0739442156870171
 20
0.1033995675005986
 30
0.0
 11
-0.0739880486684412
 21
0.1033995675005986
 31
0.0
  0
LINE
  5
2F8
330
1F
100
AcDbEntity
  8
0
100
AcDbLine
 10
-0.0733063360419427
 20
0.1033995675005986
 30
0.0
 11
-0.0736298034919136
 21
0.1033995675005986
 31
0.0
  0
LINE
  5
2F9
330
1F
100
AcDbEntity
  8
0
100
AcDbLine
 10
-0.0590349396142139
 20
0.1037995673724487
 30
0.0
 11
-0.0591321055228452
 21
0.1037995673724487
 31
0.0
  0
LINE
  5
2FA
330
1F
100
AcDbEntity
  8
0
100
AcDbLine
 10
-0.0591321055228452
 20
0.1037995673724487
 30
0.0
 11
-0.0602352829101388
 21
0.1037995673724487
 31
0.0
  0
LINE
  5
2FB
330
1F
100
AcDbEntity
  8
0
100
AcDbLine
 10
-0.0470816874489962
 20
0.1037995673724487
 30
0.0
 11
-0.0471763246719432
 21
0.104384776632892
 31
0.0
  0
LINE
  5
2FC
330
1F
100
AcDbEntity
  8
0
100
AcDbLine
 10
-0.0461215648179028
 20
0.1037995673724487
 30
0.0
 11
-0.0462225638577721
 21
0.1043224061675023
 31
0.0
  0
LINE
  5
2FD
330
1F
100
AcDbEntity
  8
0
100
AcDbLine
 10
-0.046571275701094
 20
0.1037995673724487
 30
0.0
 11
-0.0466842284482294
 21
0.104219375954807
 31
0.0
  0
LINE
  5
2FE
330
1F
100
AcDbEntity
  8
0
100
AcDbLine
 10
-0.0466842284482294
 20
0.104219375954807
 30
0.0
 11
-0.0466663036705642
 21
0.1037995673724487
 31
0.0
  0
LINE
  5
2FF
330
1F
100
AcDbEntity
  8
0
100
AcDbLine
 10
-0.0750640436252525
 20
0.1037995673724487
 30
0.0
 11
-0.0749924724235604
 21
0.104051689352774
 31
0.0
  0
LINE
  5
300
330
1F
100
AcDbEntity
  8
0
100
AcDbLine
 10
-0.0749911118963687
 20
0.1037995673724487
 30
0.0
 11
-0.0749924724235604
 21
0.104051689352774
 31
0.0
  0
LINE
  5
301
330
1F
100
AcDbEntity
  8
0
100
AcDbLine
 10
-0.0749924724235604
 20
0.104051689352774
 30
0.0
 11
-0.0750262271126243
 21
0.1037995673724487
 31
0.0
  0
LINE
  5
302
330
1F
100
AcDbEntity
  8
0
100
AcDbLine
 10
-0.0680685675319685
 20
0.1033995675005986
 30
0.0
 11
-0.0683582211672596
 21
0.1033995675005986
 31
0.0
  0
LINE
  5
303
330
1F
100
AcDbEntity
  8
0
100
AcDbLine
 10
-0.0724319024863496
 20
0.1033995675005986
 30
0.0
 11
-0.0724870246146127
 21
0.1033995675005986
 31
0.0
  0
LINE
  5
304
330
1F
100
AcDbEntity
  8
0
100
AcDbLine
 10
-0.0700167659912511
 20
0.1033995675005986
 30
0.0
 11
-0.0703035450378014
 21
0.1033995675005986
 31
0.0
  0
LINE
  5
305
330
1F
100
AcDbEntity
  8
0
100
AcDbLine
 10
-0.0590583265769825
 20
0.1033995675005986
 30
0.0
 11
-0.0603407886984389
 21
0.103399567120619
 31
0.0
  0
LINE
  5
306
330
1F
100
AcDbEntity
  8
0
100
AcDbLine
 10
-0.0749666483663012
 20
0.1034263622024133
 30
0.0
 11
-0.0749441506583496
 21
0.1033995675005986
 31
0.0
  0
LINE
  5
307
330
1F
100
AcDbEntity
  8
0
100
AcDbLine
 10
-0.0605167663712307
 20
0.1063995678358748
 30
0.0
 11
-0.0497942322955297
 21
0.1113995675005986
 31
0.0
  0
LINE
  5
308
330
1F
100
AcDbEntity
  8
0
100
AcDbLine
 10
0.1429493409261233
 20
0.1223259776792277
 30
0.0
 11
0.1429357153636102
 21
0.1222601707175323
 31
0.0
  0
LINE
  5
309
330
1F
100
AcDbEntity
  8
0
100
AcDbLine
 10
0.1419105830946712
 20
0.1222575413273704
 30
0.0
 11
0.141929742489921
 21
0.1222259777035818
 31
0.0
  0
LINE
  5
30A
330
1F
100
AcDbEntity
  8
0
100
AcDbLine
 10
0.1415908160686245
 20
0.1223259776792277
 30
0.0
 11
0.1415604110418661
 21
0.1222582723371251
 31
0.0
  0
LINE
  5
30B
330
1F
100
AcDbEntity
  8
0
100
AcDbLine
 10
0.1375742363508292
 20
0.1223259776792277
 30
0.0
 11
0.1375141088434378
 21
0.1222578246094953
 31
0.0
  0
LINE
  5
30C
330
1F
100
AcDbEntity
  8
0
100
AcDbLine
 10
0.1374868059842678
 20
0.1223259776792277
 30
0.0
 11
0.1375141088434378
 21
0.1222578246094953
 31
0.0
  0
LINE
  5
30D
330
1F
100
AcDbEntity
  8
0
100
AcDbLine
 10
0.143054397541562
 20
0.1223259776792277
 30
0.0
 11
0.1430236378107687
 21
0.1223259776792277
 31
0.0
  0
LINE
  5
30E
330
1F
100
AcDbEntity
  8
0
100
AcDbLine
 10
0.1385955791350688
 20
0.1226311166191211
 30
0.0
 11
0.1385582442584457
 21
0.1226259776934769
 31
0.0
  0
LINE
  5
30F
330
1F
100
AcDbEntity
  8
0
100
AcDbLine
 10
0.1385582442584457
 20
0.1226259776934769
 30
0.0
 11
0.1385167886079849
 21
0.1226311166191211
 31
0.0
  0
LINE
  5
310
330
1F
100
AcDbEntity
  8
0
100
AcDbLine
 10
0.1355797678861835
 20
0.1223259776792277
 30
0.0
 11
0.1355560774750252
 21
0.1222582723371251
 31
0.0
  0
LINE
  5
311
330
1F
100
AcDbEntity
  8
0
100
AcDbLine
 10
0.1355560774750252
 20
0.1222582723371251
 30
0.0
 11
0.1355778077725081
 21
0.1222259777035818
 31
0.0
  0
LINE
  5
312
330
1F
100
AcDbEntity
  8
0
100
AcDbLine
 10
0.1341936912096385
 20
0.1223259776792277
 30
0.0
 11
0.1341807731532811
 21
0.1222601707175323
 31
0.0
  0
LINE
  5
313
330
1F
100
AcDbEntity
  8
0
100
AcDbLine
 10
0.1341807731532811
 20
0.1222601707175323
 30
0.0
 11
0.1341901640635865
 21
0.1222259777035818
 31
0.0
  0
LINE
  5
314
330
1F
100
AcDbEntity
  8
0
100
AcDbLine
 10
0.1340582466166741
 20
0.1222259777035818
 30
0.0
 11
0.1210582441839399
 21
0.1222259777679828
 31
0.0
  0
LINE
  5
315
330
1F
100
AcDbEntity
  8
0
100
AcDbLine
 10
0.1210582441839398
 20
0.079725977320948
 30
0.0
 11
0.1210582441839399
 21
0.0222259762033608
 31
0.0
  0
LINE
  5
316
330
1F
100
AcDbEntity
  8
0
100
AcDbLine
 10
0.1560582443329515
 20
0.0222259762033608
 30
0.0
 11
0.1560582443329515
 21
0.079725977320948
 31
0.0
  0
LINE
  5
317
330
1F
100
AcDbEntity
  8
0
100
AcDbLine
 10
0.0644832340758041
 20
-0.1366004323094116
 30
0.0
 11
0.0569832337777809
 21
-0.1366004271349833
 31
0.0
  0
LINE
  5
318
330
1F
100
AcDbEntity
  8
0
100
AcDbLine
 10
0.0569832337777809
 20
-0.1366004271349833
 30
0.0
 11
0.0219832336287693
 21
-0.1366004271349833
 31
0.0
  0
LINE
  5
319
330
1F
100
AcDbEntity
  8
0
100
AcDbLine
 10
0.0342637492463301
 20
0.0883995676682367
 30
0.0
 11
0.0343507787901656
 21
0.0883995676682367
 31
0.0
  0
LINE
  5
31A
330
1F
100
AcDbEntity
  8
0
100
AcDbLine
 10
0.0379278544864258
 20
0.0883995676682367
 30
0.0
 11
0.0382741757910611
 21
0.0883995676682367
 31
0.0
  0
LINE
  5
31B
330
1F
100
AcDbEntity
  8
0
100
AcDbLine
 10
0.0321085715232144
 20
0.0883995676682367
 30
0.0
 11
0.0322291521996307
 21
0.0883995676682367
 31
0.0
  0
LINE
  5
31C
330
1F
100
AcDbEntity
  8
0
100
AcDbLine
 10
0.0455337307415448
 20
0.1048995675304009
 30
0.0
 11
0.0454500465764156
 21
0.1048995675304009
 31
0.0
  0
LINE
  5
31D
330
1F
100
AcDbEntity
  8
0
100
AcDbLine
 10
0.0409527099812477
 20
0.1048995675304009
 30
0.0
 11
0.0407848609138352
 21
0.1048995675304009
 31
0.0
  0
LINE
  5
31E
330
1F
100
AcDbEntity
  8
0
100
AcDbLine
 10
0.0397623709451595
 20
0.1048995675304009
 30
0.0
 11
0.0386108764596816
 21
0.1048746883001455
 31
0.0
  0
LINE
  5
31F
330
1F
100
AcDbEntity
  8
0
100
AcDbLine
 10
0.0373841173953172
 20
0.1048995675304009
 30
0.0
 11
0.0372824612240709
 21
0.1048995675304009
 31
0.0
  0
LINE
  5
320
330
1F
100
AcDbEntity
  8
0
100
AcDbLine
 10
0.0350631220110466
 20
0.1048995675304009
 30
0.0
 11
0.0339439895813282
 21
0.1048995675304009
 31
0.0
  0
LINE
  5
321
330
1F
100
AcDbEntity
  8
0
100
AcDbLine
 10
0.0339439895813282
 20
0.1048995675304009
 30
0.0
 11
0.0339088170827408
 21
0.1048995675304009
 31
0.0
  0
LINE
  5
322
330
1F
100
AcDbEntity
  8
0
100
AcDbLine
 10
0.0327053589425144
 20
0.1048995675304009
 30
0.0
 11
0.0319778797757201
 21
0.1048801785934505
 31
0.0
  0
LINE
  5
323
330
1F
100
AcDbEntity
  8
0
100
AcDbLine
 10
0.031826627080723
 20
0.1048995675304009
 30
0.0
 11
0.0308641930108669
 21
0.1048995675304009
 31
0.0
  0
LINE
  5
324
330
1F
100
AcDbEntity
  8
0
100
AcDbLine
 10
0.0299181169938926
 20
0.1048995675304009
 30
0.0
 11
0.0298342299142971
 21
0.1048995675304009
 31
0.0
  0
LINE
  5
325
330
1F
100
AcDbEntity
  8
0
100
AcDbLine
 10
0.0283303528480189
 20
0.1048995675304009
 30
0.0
 11
0.0282705180307698
 21
0.1048995675304009
 31
0.0
  0
LINE
  5
326
330
1F
100
AcDbEntity
  8
0
100
AcDbLine
 10
0.0275589177082328
 20
0.1048995675304009
 30
0.0
 11
0.0275315863509936
 21
0.1048995675304009
 31
0.0
  0
LINE
  5
327
330
1F
100
AcDbEntity
  8
0
100
AcDbLine
 10
0.026455244387097
 20
0.1048995675304009
 30
0.0
 11
0.0263843874272897
 21
0.1048995675304009
 31
0.0
  0
LINE
  5
328
330
1F
100
AcDbEntity
  8
0
100
AcDbLine
 10
0.0255671598130965
 20
0.1048995675304009
 30
0.0
 11
0.0255381727270558
 21
0.1048995675304009
 31
0.0
  0
LINE
  5
329
330
1F
100
AcDbEntity
  8
0
100
AcDbLine
 10
0.025140611645375
 20
0.1048995675304009
 30
0.0
 11
0.0250572027099659
 21
0.1048995675304009
 31
0.0
  0
LINE
  5
32A
330
1F
100
AcDbEntity
  8
0
100
AcDbLine
 10
0.0250075275764396
 20
0.1044223209076618
 30
0.0
 11
0.0250393854902803
 21
0.1042822874812291
 31
0.0
  0
LINE
  5
32B
330
1F
100
AcDbEntity
  8
0
100
AcDbLine
 10
0.0484396072768776
 20
0.1048995675304009
 30
0.0
 11
0.0485641640201292
 21
0.1048995675304009
 31
0.0
  0
LINE
  5
32C
330
1F
100
AcDbEntity
  8
0
100
AcDbLine
 10
0.0485641640201292
 20
0.1048995675304009
 30
0.0
 11
0.0494590868898797
 21
0.1048995675304009
 31
0.0
  0
LINE
  5
32D
330
1F
100
AcDbEntity
  8
0
100
AcDbLine
 10
0.0502858640649432
 20
0.1048995675304009
 30
0.0
 11
0.0503675327471458
 21
0.1048995675304009
 31
0.0
  0
LINE
  5
32E
330
1F
100
AcDbEntity
  8
0
100
AcDbLine
 10
0.0516690390706407
 20
0.1048995675304009
 30
0.0
 11
0.0517128964711851
 21
0.1048995675304009
 31
0.0
  0
LINE
  5
32F
330
1F
100
AcDbEntity
  8
0
100
AcDbLine
 10
0.0539545273046636
 20
0.1048995675304009
 30
0.0
 11
0.0539589398301106
 21
0.1045604589358524
 31
0.0
  0
LINE
  5
330
330
1F
100
AcDbEntity
  8
0
100
AcDbLine
 10
0.0492700124443516
 20
0.1034263622024133
 30
0.0
 11
0.0489832333978013
 21
0.1033995673329606
 31
0.0
  0
LINE
  5
331
330
1F
100
AcDbEntity
  8
0
100
AcDbLine
 10
0.0266337092301827
 20
0.103399567120619
 30
0.0
 11
0.0263961271661886
 21
0.1034263622024133
 31
0.0
  0
LINE
  5
332
330
1F
100
AcDbEntity
  8
0
100
AcDbLine
 10
0.0299832340087489
 20
0.1033995673329606
 30
0.0
 11
0.0296964549621986
 21
0.1034263622024133
 31
0.0
  0
LINE
  5
333
330
1F
100
AcDbEntity
  8
0
100
AcDbLine
 10
0.0353121404751487
 20
0.103399567120619
 30
0.0
 11
0.0348761853449881
 21
0.1034263622024133
 31
0.0
  0
LINE
  5
334
330
1F
100
AcDbEntity
  8
0
100
AcDbLine
 10
0.0348761853449881
 20
0.1034263622024133
 30
0.0
 11
0.0348259723059332
 21
0.1034263622024133
 31
0.0
  0
LINE
  5
335
330
1F
100
AcDbEntity
  8
0
100
AcDbLine
 10
0.0428715179855399
 20
0.1034264393915847
 30
0.0
 11
0.0428489172163727
 21
0.103399567120619
 31
0.0
  0
LINE
  5
336
330
1F
100
AcDbEntity
  8
0
100
AcDbLine
 10
0.0507336911558289
 20
0.1033995673329606
 30
0.0
 11
0.0506931973141179
 21
0.1033995673329606
 31
0.0
  0
LINE
  5
337
330
1F
100
AcDbEntity
  8
0
100
AcDbLine
 10
0.0268772349318042
 20
0.103399567120619
 30
0.0
 11
0.0267776044235645
 21
0.1034263622024133
 31
0.0
  0
LINE
  5
338
330
1F
100
AcDbEntity
  8
0
100
AcDbLine
 10
0.0267776044235645
 20
0.1034263622024133
 30
0.0
 11
0.0267168811928495
 21
0.1034263622024133
 31
0.0
  0
LINE
  5
339
330
1F
100
AcDbEntity
  8
0
100
AcDbLine
 10
0.0428965512286596
 20
0.1033995673329606
 30
0.0
 11
0.0428489172163727
 21
0.103399567120619
 31
0.0
  0
LINE
  5
33A
330
1F
100
AcDbEntity
  8
0
100
AcDbLine
 10
0.026054374606127
 20
0.103399567120619
 30
0.0
 11
0.0260119510424281
 21
0.1033995673329606
 31
0.0
  0
LINE
  5
33B
330
1F
100
AcDbEntity
  8
0
100
AcDbLine
 10
0.0348432844347841
 20
0.1033995673329606
 30
0.0
 11
0.034629725119018
 21
0.103399567120619
 31
0.0
  0
LINE
  5
33C
330
1F
100
AcDbEntity
  8
0
100
AcDbLine
 10
0.0304437143485741
 20
0.1033995675005986
 30
0.0
 11
0.0303930167970499
 21
0.1034263622024133
 31
0.0
  0
LINE
  5
33D
330
1F
100
AcDbEntity
  8
0
100
AcDbLine
 10
0.0493728604415344
 20
0.103399567120619
 30
0.0
 11
0.0492700124443516
 21
0.1034263622024133
 31
0.0
  0
LINE
  5
33E
330
1F
100
AcDbEntity
  8
0
100
AcDbLine
 10
0.0497153539014601
 20
0.1034263622024133
 30
0.0
 11
0.049508004061001
 21
0.103399567120619
 31
0.0
  0
LINE
  5
33F
330
1F
100
AcDbEntity
  8
0
100
AcDbLine
 10
0.0394252995234779
 20
0.103399567120619
 30
0.0
 11
0.0393591149428679
 21
0.1034263622024133
 31
0.0
  0
LINE
  5
340
330
1F
100
AcDbEntity
  8
0
100
AcDbLine
 10
0.0522495862137007
 20
0.1034263622024133
 30
0.0
 11
0.0521888629829857
 21
0.1034263622024133
 31
0.0
  0
LINE
  5
341
330
1F
100
AcDbEntity
  8
0
100
AcDbLine
 10
0.0521888629829857
 20
0.1034263622024133
 30
0.0
 11
0.052089232474746
 21
0.103399567120619
 31
0.0
  0
LINE
  5
342
330
1F
100
AcDbEntity
  8
0
100
AcDbLine
 10
0.0252781414841706
 20
0.1063995678358748
 30
0.0
 11
0.0536883259223796
 21
0.1063995678358748
 31
0.0
  0
LINE
  5
343
330
1F
100
AcDbEntity
  8
0
100
AcDbLine
 10
0.0536883259223796
 20
0.1063995678358748
 30
0.0
 11
0.0569832337777809
 21
0.1063995678358748
 31
0.0
  0
LINE
  5
344
330
1F
100
AcDbEntity
  8
0
100
AcDbLine
 10
-0.0355167659241959
 20
-0.1366004323094116
 30
0.0
 11
-0.0430167662222191
 21
-0.1366004271349833
 31
0.0
  0
LINE
  5
345
330
1F
100
AcDbEntity
  8
0
100
AcDbLine
 10
-0.0430167662222191
 20
-0.1366004271349833
 30
0.0
 11
-0.0780167663712307
 21
-0.1366004271349833
 31
0.0
  0
LINE
  5
346
330
1F
100
AcDbEntity
  8
0
100
AcDbLine
 10
-0.0429167663109741
 20
0.1267641205494058
 30
0.0
 11
-0.0429167663109741
 21
0.1266019940513525
 31
0.0
  0
LINE
  5
347
330
1F
100
AcDbEntity
  8
0
100
AcDbLine
 10
-0.0429167663109741
 20
0.1182381881227902
 30
0.0
 11
-0.0427917841311331
 21
0.1187978546241481
 31
0.0
  0
LINE
  5
348
330
1F
100
AcDbEntity
  8
0
100
AcDbLine
 10
-0.0736156125727103
 20
0.1048995675304009
 30
0.0
 11
-0.0736501460178636
 21
0.1048995675304009
 31
0.0
  0
LINE
  5
349
330
1F
100
AcDbEntity
  8
0
100
AcDbLine
 10
-0.0748704736874233
 20
0.1048995675304009
 30
0.0
 11
-0.0749427972900341
 21
0.1048995675304009
 31
0.0
  0
LINE
  5
34A
330
1F
100
AcDbEntity
  8
0
100
AcDbLine
 10
-0.0718221033895636
 20
0.1048995675304009
 30
0.0
 11
-0.0717294819692302
 21
0.1048995675304009
 31
0.0
  0
LINE
  5
34B
330
1F
100
AcDbEntity
  8
0
100
AcDbLine
 10
-0.0717294819692302
 20
0.1048995675304009
 30
0.0
 11
-0.0709412873228724
 21
0.1048995675304009
 31
0.0
  0
LINE
  5
34C
330
1F
100
AcDbEntity
  8
0
100
AcDbLine
 10
-0.0700818830061074
 20
0.1048995675304009
 30
0.0
 11
-0.0699815854695723
 21
0.1048995675304009
 31
0.0
  0
LINE
  5
34D
330
1F
100
AcDbEntity
  8
0
100
AcDbLine
 10
-0.0682373826729556
 20
0.1048995675304009
 30
0.0
 11
-0.0681733729192771
 21
0.1048995675304009
 31
0.0
  0
LINE
  5
34E
330
1F
100
AcDbEntity
  8
0
100
AcDbLine
 10
-0.0590472900187523
 20
0.1048995675304009
 30
0.0
 11
-0.0589704926519664
 21
0.1048995675304009
 31
0.0
  0
LINE
  5
34F
330
1F
100
AcDbEntity
  8
0
100
AcDbLine
 10
-0.0568308414439057
 20
0.1048995675304009
 30
0.0
 11
-0.0567047893977875
 21
0.1048995675304009
 31
0.0
  0
LINE
  5
350
330
1F
100
AcDbEntity
  8
0
100
AcDbLine
 10
-0.0544662692584552
 20
0.1048995675304009
 30
0.0
 11
-0.0543281663944701
 21
0.1048995675304009
 31
0.0
  0
LINE
  5
351
330
1F
100
AcDbEntity
  8
0
100
AcDbLine
 10
-0.0524367038341665
 20
0.1048995675304009
 30
0.0
 11
-0.0523927907274209
 21
0.1048995675304009
 31
0.0
  0
LINE
  5
352
330
1F
100
AcDbEntity
  8
0
100
AcDbLine
 10
-0.0514358359798708
 20
0.1048995675304009
 30
0.0
 11
-0.0513678992963171
 21
0.1048995675304009
 31
0.0
  0
LINE
  5
353
330
1F
100
AcDbEntity
  8
0
100
AcDbLine
 10
-0.0497948383845366
 20
0.1048995675304009
 30
0.0
 11
-0.0497141359350568
 21
0.1048995675304009
 31
0.0
  0
LINE
  5
354
330
1F
100
AcDbEntity
  8
0
100
AcDbLine
 10
-0.0489465351127618
 20
0.1048995675304009
 30
0.0
 11
-0.0482871035288149
 21
0.1048995675304009
 31
0.0
  0
LINE
  5
355
330
1F
100
AcDbEntity
  8
0
100
AcDbLine
 10
-0.0482871035288149
 20
0.1048995675304009
 30
0.0
 11
-0.0482038362589653
 21
0.1048995675304009
 31
0.0
  0
LINE
  5
356
330
1F
100
AcDbEntity
  8
0
100
AcDbLine
 10
-0.0477862701362264
 20
0.1048995675304009
 30
0.0
 11
-0.0476965959855717
 21
0.1048995675304009
 31
0.0
  0
LINE
  5
357
330
1F
100
AcDbEntity
  8
0
100
AcDbLine
 10
-0.0514004911612871
 20
0.103399567120619
 30
0.0
 11
-0.0516639334594408
 21
0.103399567120619
 31
0.0
  0
LINE
  5
358
330
1F
100
AcDbEntity
  8
0
100
AcDbLine
 10
-0.0510167666021987
 20
0.1034263622024133
 30
0.0
 11
-0.0512484587988075
 21
0.103399567120619
 31
0.0
  0
LINE
  5
359
330
1F
100
AcDbEntity
  8
0
100
AcDbLine
 10
-0.0493068025406261
 20
0.1033995675005986
 30
0.0
 11
-0.0494662423549267
 21
0.103399567120619
 31
0.0
  0
LINE
  5
35A
330
1F
100
AcDbEntity
  8
0
100
AcDbLine
 10
-0.0484711303134035
 20
0.1034366562969158
 30
0.0
 11
-0.0485465079788371
 21
0.1033995675005986
 31
0.0
  0
LINE
  5
35B
330
1F
100
AcDbEntity
  8
0
100
AcDbLine
 10
-0.0477271965515071
 20
0.1033995675005986
 30
0.0
 11
-0.0477859624114713
 21
0.1033995675005986
 31
0.0
  0
LINE
  5
35C
330
1F
100
AcDbEntity
  8
0
100
AcDbLine
 10
-0.0472243305449973
 20
0.1033995675005986
 30
0.0
 11
-0.0473194997839499
 21
0.103399567120619
 31
0.0
  0
LINE
  5
35D
330
1F
100
AcDbEntity
  8
0
100
AcDbLine
 10
-0.0469971470981144
 20
0.1034263622024133
 30
0.0
 11
-0.0470521019009919
 21
0.103399567120619
 31
0.0
  0
LINE
  5
35E
330
1F
100
AcDbEntity
  8
0
100
AcDbLine
 10
-0.0739880486684412
 20
0.1033995675005986
 30
0.0
 11
-0.0740363854953354
 21
0.1034263622024133
 31
0.0
  0
LINE
  5
35F
330
1F
100
AcDbEntity
  8
0
100
AcDbLine
 10
-0.0738092020484525
 20
0.1033995675005986
 30
0.0
 11
-0.0739442156870171
 21
0.1033995675005986
 31
0.0
  0
LINE
  5
360
330
1F
100
AcDbEntity
  8
0
100
AcDbLine
 10
-0.0732475701819785
 20
0.1033995675005986
 30
0.0
 11
-0.0733063360419427
 21
0.1033995675005986
 31
0.0
  0
LINE
  5
361
330
1F
100
AcDbEntity
  8
0
100
AcDbLine
 10
-0.0460454726953364
 20
0.104255240557096
 30
0.0
 11
-0.0460410601698894
 21
0.1044488928388589
 31
0.0
  0
LINE
  5
362
330
1F
100
AcDbEntity
  8
0
100
AcDbLine
 10
-0.0737140323310016
 20
0.1033995675005986
 30
0.0
 11
-0.0738092020484525
 21
0.1033995675005986
 31
0.0
  0
LINE
  5
363
330
1F
100
AcDbEntity
  8
0
100
AcDbLine
 10
-0.0724870246146127
 20
0.1033995675005986
 30
0.0
 11
-0.0725642552876192
 21
0.1034345775721349
 31
0.0
  0
LINE
  5
364
330
1F
100
AcDbEntity
  8
0
100
AcDbLine
 10
-0.071567290021333
 20
0.1033995675005986
 30
0.0
 11
-0.0717267300528237
 21
0.1033995675005986
 31
0.0
  0
LINE
  5
365
330
1F
100
AcDbEntity
  8
0
100
AcDbLine
 10
-0.0717267300528237
 20
0.1033995675005986
 30
0.0
 11
-0.0717672236398058
 21
0.1033995675005986
 31
0.0
  0
LINE
  5
366
330
1F
100
AcDbEntity
  8
0
100
AcDbLine
 10
-0.0693695989694971
 20
0.1033995675005986
 30
0.0
 11
-0.0696330411765175
 21
0.1033995675005986
 31
0.0
  0
LINE
  5
367
330
1F
100
AcDbEntity
  8
0
100
AcDbLine
 10
-0.060692743890076
 20
0.1033995675005986
 30
0.0
 11
-0.0619752060573661
 21
0.103399567120619
 31
0.0
  0
LINE
  5
368
330
1F
100
AcDbEntity
  8
0
100
AcDbLine
 10
-0.0747218585158295
 20
0.1063995678358748
 30
0.0
 11
-0.0605167663712307
 21
0.1063995678358748
 31
0.0
  0
LINE
  5
369
330
1F
100
AcDbEntity
  8
0
100
AcDbLine
 10
-0.0429825732726695
 20
0.1180220963954341
 30
0.0
 11
-0.04301676628662
 21
0.1190280692691233
 31
0.0
  0
LINE
  5
36A
330
1F
100
AcDbEntity
  8
0
100
AcDbLine
 10
-0.04301676628662
 20
0.1190280692691233
 30
0.0
 11
-0.04301676628662
 21
0.1194119035491046
 31
0.0
  0
LINE
  5
36B
330
1F
100
AcDbEntity
  8
0
100
AcDbLine
 10
0.1430236378107687
 20
0.1223259776792277
 30
0.0
 11
0.1429493409261233
 21
0.1223259776792277
 31
0.0
  0
LINE
  5
36C
330
1F
100
AcDbEntity
  8
0
100
AcDbLine
 10
0.1429493409261233
 20
0.1223259776792277
 30
0.0
 11
0.1421599571348962
 21
0.1224509598590687
 31
0.0
  0
LINE
  5
36D
330
1F
100
AcDbEntity
  8
0
100
AcDbLine
 10
0.1430582419002172
 20
0.1222259777035818
 30
0.0
 11
0.1430246296956267
 21
0.1222441362473988
 31
0.0
  0
LINE
  5
36E
330
1F
100
AcDbEntity
  8
0
100
AcDbLine
 10
0.0466386726394011
 20
0.1048995675304009
 30
0.0
 11
0.0465947595326555
 21
0.1048995675304009
 31
0.0
  0
LINE
  5
36F
330
1F
100
AcDbEntity
  8
0
100
AcDbLine
 10
0.0465947595326555
 20
0.1048995675304009
 30
0.0
 11
0.0455337307415448
 21
0.1048995675304009
 31
0.0
  0
LINE
  5
370
330
1F
100
AcDbEntity
  8
0
100
AcDbLine
 10
0.0434061120801229
 20
0.1048995675304009
 30
0.0
 11
0.0432952106022125
 21
0.1048995675304009
 31
0.0
  0
LINE
  5
371
330
1F
100
AcDbEntity
  8
0
100
AcDbLine
 10
0.0432952106022125
 20
0.1048995675304009
 30
0.0
 11
0.0421330106170928
 21
0.1048995675304009
 31
0.0
  0
LINE
  5
372
330
1F
100
AcDbEntity
  8
0
100
AcDbLine
 10
0.0399431352689561
 20
0.1048995675304009
 30
0.0
 11
0.0397623709451595
 21
0.1048995675304009
 31
0.0
  0
LINE
  5
373
330
1F
100
AcDbEntity
  8
0
100
AcDbLine
 10
0.0328626958842794
 20
0.1048995675304009
 30
0.0
 11
0.0327053589425144
 21
0.1048995675304009
 31
0.0
  0
LINE
  5
374
330
1F
100
AcDbEntity
  8
0
100
AcDbLine
 10
0.0542278302591041
 20
0.1033995675005986
 30
0.0
 11
0.0539331157728513
 21
0.1034263622024133
 31
0.0
  0
LINE
  5
375
330
1F
100
AcDbEntity
  8
0
100
AcDbLine
 10
0.0261888653166569
 20
0.1033995673329606
 30
0.0
 11
0.0260809301183173
 21
0.1034263622024133
 31
0.0
  0
LINE
  5
376
330
1F
100
AcDbEntity
  8
0
100
AcDbLine
 10
0.0485227530579761
 20
0.1033995675005986
 30
0.0
 11
0.0483360665405592
 21
0.103399567120619
 31
0.0
  0
LINE
  5
377
330
1F
100
AcDbEntity
  8
0
100
AcDbLine
 10
0.0525703402403616
 20
0.1034263622024133
 30
0.0
 11
0.0523327581763675
 21
0.103399567120619
 31
0.0
  0
LINE
  5
378
330
1F
100
AcDbEntity
  8
0
100
AcDbLine
 10
0.0379768374271219
 20
0.1034263622024133
 30
0.0
 11
0.037874856513382
 21
0.103399567120619
 31
0.0
  0
LINE
  5
379
330
1F
100
AcDbEntity
  8
0
100
AcDbLine
 10
0.0440902820615621
 20
0.1034263622024133
 30
0.0
 11
0.0436543269314015
 21
0.103399567120619
 31
0.0
  0
LINE
  5
37A
330
1F
100
AcDbEntity
  8
0
100
AcDbLine
 10
-0.0429167663109741
 20
0.126560946878407
 30
0.0
 11
-0.0429167663109741
 21
0.126380818890634
 31
0.0
  0
LINE
  5
37B
330
1F
100
AcDbEntity
  8
0
100
AcDbLine
 10
-0.0429167663109741
 20
0.126380818890634
 30
0.0
 11
-0.0427917841311331
 21
0.1260012803770491
 31
0.0
  0
LINE
  5
37C
330
1F
100
AcDbEntity
  8
0
100
AcDbLine
 10
-0.0429167663109741
 20
0.1179043104943509
 30
0.0
 11
-0.0429167663109741
 21
0.1179367359426186
 31
0.0
  0
LINE
  5
37D
330
1F
100
AcDbEntity
  8
0
100
AcDbLine
 10
-0.0429167663109741
 20
0.1179367359426186
 30
0.0
 11
-0.0429167663109741
 21
0.118008470832921
 31
0.0
  0
LINE
  5
37E
330
1F
100
AcDbEntity
  8
0
100
AcDbLine
 10
-0.0730438959545322
 20
0.1048995675304009
 30
0.0
 11
-0.0730712273117715
 21
0.1048995675304009
 31
0.0
  0
LINE
  5
37F
330
1F
100
AcDbEntity
  8
0
100
AcDbLine
 10
-0.0730712273117715
 20
0.1048995675304009
 30
0.0
 11
-0.0736156125727103
 21
0.1048995675304009
 31
0.0
  0
LINE
  5
380
330
1F
100
AcDbEntity
  8
0
100
AcDbLine
 10
-0.0743974736819533
 20
0.1048995675304009
 30
0.0
 11
-0.0744328401869035
 21
0.1048995675304009
 31
0.0
  0
LINE
  5
381
330
1F
100
AcDbEntity
  8
0
100
AcDbLine
 10
-0.0744328401869035
 20
0.1048995675304009
 30
0.0
 11
-0.0747001002796727
 21
0.1048995675304009
 31
0.0
  0
LINE
  5
382
330
1F
100
AcDbEntity
  8
0
100
AcDbLine
 10
-0.0749924724235604
 20
0.1048995675304009
 30
0.0
 11
-0.0749924724235604
 21
0.1044488928388589
 31
0.0
  0
LINE
  5
383
330
1F
100
AcDbEntity
  8
0
100
AcDbLine
 10
-0.0749924724235604
 20
0.1044488928388589
 30
0.0
 11
-0.0749648126940794
 21
0.104263693504222
 31
0.0
  0
LINE
  5
384
330
1F
100
AcDbEntity
  8
0
100
AcDbLine
 10
-0.0471936636971292
 20
0.1048995675304009
 30
0.0
 11
-0.0467817419734543
 21
0.1048995675304009
 31
0.0
  0
LINE
  5
385
330
1F
100
AcDbEntity
  8
0
100
AcDbLine
 10
-0.0467817419734543
 20
0.1048995675304009
 30
0.0
 11
-0.0467541431833338
 21
0.1048995675304009
 31
0.0
  0
LINE
  5
386
330
1F
100
AcDbEntity
  8
0
100
AcDbLine
 10
-0.0492663089536441
 20
0.1033995675005986
 30
0.0
 11
-0.0493068025406261
 21
0.1033995675005986
 31
0.0
  0
LINE
  5
387
330
1F
100
AcDbEntity
  8
0
100
AcDbLine
 10
-0.0478226468635899
 20
0.1034263622024133
 30
0.0
 11
-0.047910767525254
 21
0.103399567120619
 31
0.0
  0
LINE
  5
388
330
1F
100
AcDbEntity
  8
0
100
AcDbLine
 10
-0.0470893169064327
 20
0.1033995675005986
 30
0.0
 11
-0.0472243305449973
 21
0.1033995675005986
 31
0.0
  0
LINE
  5
389
330
1F
100
AcDbEntity
  8
0
100
AcDbLine
 10
-0.073122764787183
 20
0.1033995675005986
 30
0.0
 11
-0.0732108857298599
 21
0.1034263622024133
 31
0.0
  0
LINE
  5
38A
330
1F
100
AcDbEntity
  8
0
100
AcDbLine
 10
-0.04301676628662
 20
0.1179329619892541
 30
0.0
 11
-0.0429825732726695
 21
0.1180220963954341
 31
0.0
  0
LINE
  5
38B
330
1F
100
AcDbEntity
  8
0
100
AcDbLine
 10
-0.04301676628662
 20
0.1194119035491046
 30
0.0
 11
-0.04301676628662
 21
0.1203040392688603
 31
0.0
  0
LINE
  5
38C
330
1F
100
AcDbEntity
  8
0
100
AcDbLine
 10
0.134062987252198
 20
0.1223259776792277
 30
0.0
 11
0.1340954127004656
 21
0.1223259776792277
 31
0.0
  0
LINE
  5
38D
330
1F
100
AcDbEntity
  8
0
100
AcDbLine
 10
0.1340954127004656
 20
0.1223259776792277
 30
0.0
 11
0.1341626996580448
 21
0.1223259776792277
 31
0.0
  0
LINE
  5
38E
330
1F
100
AcDbEntity
  8
0
100
AcDbLine
 10
0.1341936912096385
 20
0.1223259776792277
 30
0.0
 11
0.1343558177076918
 21
0.1223259776792277
 31
0.0
  0
LINE
  5
38F
330
1F
100
AcDbEntity
  8
0
100
AcDbLine
 10
0.1343968648806373
 20
0.1223259776792277
 30
0.0
 11
0.1345769928684103
 21
0.1223259776792277
 31
0.0
  0
LINE
  5
390
330
1F
100
AcDbEntity
  8
0
100
AcDbLine
 10
0.1345769928684103
 20
0.1223259776792277
 30
0.0
 11
0.1349565313819952
 21
0.1224509598590687
 31
0.0
  0
LINE
  5
391
330
1F
100
AcDbEntity
  8
0
100
AcDbLine
 10
0.1430246296956267
 20
0.1222441362473988
 30
0.0
 11
0.1429284123967962
 21
0.1222335800635881
 31
0.0
  0
LINE
  5
392
330
1F
100
AcDbEntity
  8
0
100
AcDbLine
 10
0.1415457578759477
 20
0.12223649543214
 30
0.0
 11
0.140653772490184
 21
0.1222259777035818
 31
0.0
  0
LINE
  5
393
330
1F
100
AcDbEntity
  8
0
100
AcDbLine
 10
0.0485734506095003
 20
0.1034263622024133
 30
0.0
 11
0.0485227530579761
 21
0.1033995675005986
 31
0.0
  0
LINE
  5
394
330
1F
100
AcDbEntity
  8
0
100
AcDbLine
 10
0.0250333516336988
 20
0.1034263622024133
 30
0.0
 11
0.024738637147446
 21
0.1033995675005986
 31
0.0
  0
LINE
  5
395
330
1F
100
AcDbEntity
  8
0
100
AcDbLine
 10
0.0294584633455492
 20
0.103399567120619
 30
0.0
 11
0.0292511135050901
 21
0.1034263622024133
 31
0.0
  0
LINE
  5
396
330
1F
100
AcDbEntity
  8
0
100
AcDbLine
 10
0.0528855372882329
 20
0.1034263622024133
 30
0.0
 11
0.0527776020898933
 21
0.1033995673329606
 31
0.0
  0
LINE
  5
397
330
1F
100
AcDbEntity
  8
0
100
AcDbLine
 10
-0.220051360577685
 20
0.0883995676682367
 30
0.0
 11
-0.223760824714217
 21
0.0883995676682367
 31
0.0
  0
LINE
  5
398
330
1F
100
AcDbEntity
  8
0
100
AcDbLine
 10
-0.223760824714217
 20
0.0883995676682367
 30
0.0
 11
-0.2238048831457525
 21
0.0883995676682367
 31
0.0
  0
LINE
  5
399
330
1F
100
AcDbEntity
  8
0
100
AcDbLine
 10
-0.0429167663109741
 20
0.1268957210453295
 30
0.0
 11
-0.0429167663109741
 21
0.1268623990585787
 31
0.0
  0
LINE
  5
39A
330
1F
100
AcDbEntity
  8
0
100
AcDbLine
 10
-0.0429167663109741
 20
0.1268623990585787
 30
0.0
 11
-0.0429167663109741
 21
0.1267951121009995
 31
0.0
  0
LINE
  5
39B
330
1F
100
AcDbEntity
  8
0
100
AcDbLine
 10
-0.0430167662967249
 20
0.1145599517420902
 30
0.0
 11
-0.04301676628662
 21
0.1178995698588271
 31
0.0
  0
LINE
  5
39C
330
1F
100
AcDbEntity
  8
0
100
AcDbLine
 10
-0.04301676628662
 20
0.1178995698588271
 30
0.0
 11
-0.04301676628662
 21
0.1179329619892541
 31
0.0
  0
LINE
  5
39D
330
1F
100
AcDbEntity
  8
0
100
AcDbLine
 10
-0.04301676628662
 20
0.1203040392688603
 30
0.0
 11
-0.04301676628662
 21
0.1207993321657426
 31
0.0
  0
LINE
  5
39E
330
1F
100
AcDbEntity
  8
0
100
AcDbLine
 10
0.1429284123967962
 20
0.1222335800635881
 30
0.0
 11
0.141929742489921
 21
0.1222259777035818
 31
0.0
  0
LINE
  5
39F
330
1F
100
AcDbEntity
  8
0
100
AcDbLine
 10
0.141929742489921
 20
0.1222259777035818
 30
0.0
 11
0.1415457578759477
 21
0.12223649543214
 31
0.0
  0
LINE
  5
3A0
330
1F
100
AcDbEntity
  8
0
100
AcDbLine
 10
0.140653772490184
 20
0.1222259777035818
 30
0.0
 11
0.1401584795933017
 21
0.1222259777035818
 31
0.0
  0
LINE
  5
3A1
330
1F
100
AcDbEntity
  8
0
100
AcDbLine
 10
-0.2198962762584113
 20
0.0883995676682367
 30
0.0
 11
-0.220051360577685
 21
0.0883995676682367
 31
0.0
  0
LINE
  5
3A2
330
1F
100
AcDbEntity
  8
0
100
AcDbLine
 10
-0.04301676628662
 20
0.1207993321657426
 30
0.0
 11
-0.04301676628662
 21
0.1213179596833195
 31
0.0
  0
LINE
  5
3A3
330
1F
100
AcDbEntity
  8
0
100
AcDbLine
 10
0.1401584795933017
 20
0.1222259777035818
 30
0.0
 11
0.1396398520757247
 21
0.1222259777035818
 31
0.0
  0
LINE
  5
3A4
330
1F
100
AcDbEntity
  8
0
100
AcDbLine
 10
-0.2337759622184854
 20
0.0883995676682367
 30
0.0
 11
-0.2338586641189138
 21
0.0883995676682367
 31
0.0
  0
LINE
  5
3A5
330
1F
100
AcDbEntity
  8
0
100
AcDbLine
 10
-0.04301676628662
 20
0.1213179596833195
 30
0.0
 11
-0.04301676628662
 21
0.1218523598359487
 31
0.0
  0
LINE
  5
3A6
330
1F
100
AcDbEntity
  8
0
100
AcDbLine
 10
0.1396398520757247
 20
0.1222259777035818
 30
0.0
 11
0.1391054519230956
 21
0.1222259777035818
 31
0.0
  0
LINE
  5
3A7
330
1F
100
AcDbEntity
  8
0
100
AcDbLine
 10
-0.2162202164190274
 20
0.0883995676682367
 30
0.0
 11
-0.2162575703749643
 21
0.0883995676682367
 31
0.0
  0
LINE
  5
3A8
330
1F
100
AcDbEntity
  8
0
100
AcDbLine
 10
-0.2162575703749643
 20
0.0883995676682367
 30
0.0
 11
-0.2177457344476386
 21
0.0883995676682367
 31
0.0
  0
LINE
  5
3A9
330
1F
100
AcDbEntity
  8
0
100
AcDbLine
 10
-0.2322247781008115
 20
0.0883995676682367
 30
0.0
 11
-0.2322877981458112
 21
0.0883995676682367
 31
0.0
  0
LINE
  5
3AA
330
1F
100
AcDbEntity
  8
0
100
AcDbLine
 10
-0.2338586641189138
 20
0.0883995676682367
 30
0.0
 11
-0.2338960180748507
 21
0.0883995676682367
 31
0.0
  0
LINE
  5
3AB
330
1F
100
AcDbEntity
  8
0
100
AcDbLine
 10
-0.2338960180748507
 20
0.0883995676682367
 30
0.0
 11
-0.2430167728532358
 21
0.0883995676682367
 31
0.0
  0
LINE
  5
3AC
330
1F
100
AcDbEntity
  8
0
100
AcDbLine
 10
-0.04301676628662
 20
0.1218523598359487
 30
0.0
 11
-0.04301676628662
 21
0.1229371891913025
 31
0.0
  0
LINE
  5
3AD
330
1F
100
AcDbEntity
  8
0
100
AcDbLine
 10
0.1391054519230956
 20
0.1222259777035818
 30
0.0
 11
0.1380206225677418
 21
0.1222259777035818
 31
0.0
  0
LINE
  5
3AE
330
1F
100
AcDbEntity
  8
0
100
AcDbLine
 10
-0.2161375145185991
 20
0.0883995676682367
 30
0.0
 11
-0.2162202164190274
 21
0.0883995676682367
 31
0.0
  0
LINE
  5
3AF
330
1F
100
AcDbEntity
  8
0
100
AcDbLine
 10
-0.2177457344476386
 20
0.0883995676682367
 30
0.0
 11
-0.2178087544926383
 21
0.0883995676682367
 31
0.0
  0
LINE
  5
3B0
330
1F
100
AcDbEntity
  8
0
100
AcDbLine
 10
-0.2178087544926383
 20
0.0883995676682367
 30
0.0
 11
-0.2198962762584113
 21
0.0883995676682367
 31
0.0
  0
LINE
  5
3B1
330
1F
100
AcDbEntity
  8
0
100
AcDbLine
 10
-0.2268673618706417
 20
0.0883995676682367
 30
0.0
 11
-0.2304783645590547
 21
0.0883995676682367
 31
0.0
  0
LINE
  5
3B2
330
1F
100
AcDbEntity
  8
0
100
AcDbLine
 10
-0.2304783645590547
 20
0.0883995676682367
 30
0.0
 11
-0.2306334488783284
 21
0.0883995676682367
 31
0.0
  0
LINE
  5
3B3
330
1F
100
AcDbEntity
  8
0
100
AcDbLine
 10
-0.2306334488783284
 20
0.0883995676682367
 30
0.0
 11
-0.2322247781008115
 21
0.0883995676682367
 31
0.0
  0
LINE
  5
3B4
330
1F
100
AcDbEntity
  8
0
100
AcDbLine
 10
-0.2322877981458112
 20
0.0883995676682367
 30
0.0
 11
-0.2337480557833455
 21
0.0883995676682367
 31
0.0
  0
LINE
  5
3B5
330
1F
100
AcDbEntity
  8
0
100
AcDbLine
 10
-0.2337480557833455
 20
0.0883995676682367
 30
0.0
 11
-0.2337759622184854
 21
0.0883995676682367
 31
0.0
  0
LINE
  5
3B6
330
1F
100
AcDbEntity
  8
0
100
AcDbLine
 10
0.0404369124847483
 20
0.0883995676682367
 30
0.0
 11
0.0400905911801131
 21
0.0883995676682367
 31
0.0
  0
LINE
  5
3B7
330
1F
100
AcDbEntity
  8
0
100
AcDbLine
 10
-0.04301676628662
 20
0.1267676476954578
 30
0.0
 11
-0.04301676628662
 21
0.1268661730119432
 31
0.0
  0
LINE
  5
3B8
330
1F
100
AcDbEntity
  8
0
100
AcDbLine
 10
0.1380206225677418
 20
0.1222259777035818
 30
0.0
 11
0.1375141088434378
 21
0.1222578246094953
 31
0.0
  0
LINE
  5
3B9
330
1F
100
AcDbEntity
  8
0
100
AcDbLine
 10
0.1374860121622724
 20
0.1222259777035818
 30
0.0
 11
0.1355778077725081
 21
0.1222259777035818
 31
0.0
  0
LINE
  5
3BA
330
1F
100
AcDbEntity
  8
0
100
AcDbLine
 10
0.0410386129201244
 20
0.0883995676682367
 30
0.0
 11
0.0404369124847483
 21
0.0883995676682367
 31
0.0
  0
LINE
  5
3BB
330
1F
100
AcDbEntity
  8
0
100
AcDbLine
 10
-0.04301676628662
 20
0.1229371891913025
 30
0.0
 11
-0.0429849193807065
 21
0.1234437029156065
 31
0.0
  0
LINE
  5
3BC
330
1F
100
AcDbEntity
  8
0
100
AcDbLine
 10
-0.04301676628662
 20
0.1234717995967718
 30
0.0
 11
-0.04301676628662
 21
0.1253800039865362
 31
0.0
  0
LINE
  5
3BD
330
1F
100
AcDbEntity
  8
0
100
AcDbLine
 10
-0.04301676628662
 20
0.1268661730119432
 30
0.0
 11
-0.04301676628662
 21
0.1268995651423702
 31
0.0
  0
LINE
  5
3BE
330
1F
100
AcDbEntity
  8
0
100
AcDbLine
 10
-0.04301676628662
 20
0.1268995651423702
 30
0.0
 11
-0.0430167662967249
 21
0.1363995671653225
 31
0.0
  0
LINE
  5
3BF
330
1F
100
AcDbEntity
  8
0
100
AcDbLine
 10
0.1355778077725081
 20
0.1222259777035818
 30
0.0
 11
0.1351931495098511
 21
0.1222259777035818
 31
0.0
  0
LINE
  5
3C0
330
1F
100
AcDbEntity
  8
0
100
AcDbLine
 10
0.0411957693719252
 20
0.0883995676682367
 30
0.0
 11
0.0410386129201244
 21
0.0883995676682367
 31
0.0
  0
LINE
  5
3C1
330
1F
100
AcDbEntity
  8
0
100
AcDbLine
 10
-0.04301676628662
 20
0.1253800039865362
 30
0.0
 11
-0.04301676628662
 21
0.1257646622491932
 31
0.0
  0
LINE
  5
3C2
330
1F
100
AcDbEntity
  8
0
100
AcDbLine
 10
0.1351931495098511
 20
0.1222259777035818
 30
0.0
 11
0.1345759380858602
 21
0.1222259777035818
 31
0.0
  0
LINE
  5
3C3
330
1F
100
AcDbEntity
  8
0
100
AcDbLine
 10
-0.04301676628662
 20
0.1257646622491932
 30
0.0
 11
-0.04301676628662
 21
0.1263818736731841
 31
0.0
  0
LINE
  5
3C4
330
1F
100
AcDbEntity
  8
0
100
AcDbLine
 10
0.1345759380858602
 20
0.1222259777035818
 30
0.0
 11
0.1343523856145777
 21
0.1222259777035818
 31
0.0
  0
LINE
  5
3C5
330
1F
100
AcDbEntity
  8
0
100
AcDbLine
 10
0.0447027181602201
 20
0.0883995676682367
 30
0.0
 11
0.0446156886163847
 21
0.0883995676682367
 31
0.0
  0
LINE
  5
3C6
330
1F
100
AcDbEntity
  8
0
100
AcDbLine
 10
0.0446156886163847
 20
0.0883995676682367
 30
0.0
 11
0.0411957693719252
 21
0.0883995676682367
 31
0.0
  0
LINE
  5
3C7
330
1F
100
AcDbEntity
  8
0
100
AcDbLine
 10
-0.04301676628662
 20
0.1263818736731841
 30
0.0
 11
-0.04301676628662
 21
0.1266054261444665
 31
0.0
  0
LINE
  5
3C8
330
1F
100
AcDbEntity
  8
0
100
AcDbLine
 10
-0.04301676628662
 20
0.1266054261444665
 30
0.0
 11
-0.04301676628662
 21
0.1267676476954578
 31
0.0
  0
LINE
  5
3C9
330
1F
100
AcDbEntity
  8
0
100
AcDbLine
 10
0.0481704877586905
 20
0.0883995676682367
 30
0.0
 11
0.0465076448297195
 21
0.0883995676682367
 31
0.0
  0
LINE
  5
3CA
330
1F
100
AcDbEntity
  8
0
100
AcDbLine
 10
0.0465076448297195
 20
0.0883995676682367
 30
0.0
 11
0.0463870641533033
 21
0.0883995676682367
 31
0.0
  0
LINE
  5
3CB
330
1F
100
AcDbEntity
  8
0
100
AcDbLine
 10
0.0463870641533033
 20
0.0883995676682367
 30
0.0
 11
0.0447027181602201
 21
0.0883995676682367
 31
0.0
  0
LINE
  5
3CC
330
1F
100
AcDbEntity
  8
0
100
AcDbLine
 10
0.1341901640635865
 20
0.1222259777035818
 30
0.0
 11
0.1340916387471011
 21
0.1222259777035818
 31
0.0
  0
LINE
  5
3CD
330
1F
100
AcDbEntity
  8
0
100
AcDbLine
 10
0.0483832334857182
 20
0.0883995676682367
 30
0.0
 11
0.0481704877586905
 21
0.0883995676682367
 31
0.0
  0
LINE
  5
3CE
330
1F
100
AcDbEntity
  8
0
100
AcDbLine
 10
0.0539572016953372
 20
0.1044385551375504
 30
0.0
 11
0.0539545273046636
 21
0.104249982164176
 31
0.0
  0
LINE
  5
3CF
330
1F
100
AcDbEntity
  8
0
100
AcDbLine
 10
-0.0749924724235604
 20
0.104141167615863
 30
0.0
 11
-0.0749924724235604
 21
0.104051689352774
 31
0.0
  0
LINE
  5
3D0
330
1F
100
AcDbEntity
  8
0
100
AcDbLine
 10
0.0144832333307461
 20
-0.1406004324994014
 30
0.0
 11
0.0174209161169106
 21
-0.1406004324994014
 31
0.0
  0
LINE
  5
3D1
330
1F
100
AcDbEntity
  8
0
100
AcDbLine
 10
0.0644832340758041
 20
-0.1406004324994014
 30
0.0
 11
0.0615697095780305
 21
-0.1406004324994014
 31
0.0
  0
LINE
  5
3D2
330
1F
100
AcDbEntity
  8
0
100
AcDbLine
 10
0.0615697095780305
 20
-0.1406004324994014
 30
0.0
 11
0.0174209161169106
 21
-0.1406004324994014
 31
0.0
  0
LINE
  5
3D3
330
1F
100
AcDbEntity
  8
0
100
AcDbLine
 10
0.0604749383133596
 20
-0.1411004325124399
 30
0.0
 11
0.0184915290931906
 21
-0.1411004325124399
 31
0.0
  0
LINE
  5
3D4
330
1F
100
AcDbEntity
  8
0
100
AcDbLine
 10
0.0569832337777809
 20
0.0883995676682367
 30
0.0
 11
0.0483832334857182
 21
0.0883995676682367
 31
0.0
  0
LINE
  5
3D5
330
1F
100
AcDbEntity
  8
0
100
AcDbLine
 10
0.0342637492463301
 20
0.0883995676682367
 30
0.0
 11
0.0322291521996307
 21
0.0883995676682367
 31
0.0
  0
LINE
  5
3D6
330
1F
100
AcDbEntity
  8
0
100
AcDbLine
 10
0.0379278544864258
 20
0.0883995676682367
 30
0.0
 11
0.0343507787901656
 21
0.0883995676682367
 31
0.0
  0
LINE
  5
3D7
330
1F
100
AcDbEntity
  8
0
100
AcDbLine
 10
0.0382741757910611
 20
0.0883995676682367
 30
0.0
 11
0.0400905911801131
 21
0.0883995676682367
 31
0.0
  0
LINE
  5
3D8
330
1F
100
AcDbEntity
  8
0
100
AcDbLine
 10
0.0321085715232144
 20
0.0883995676682367
 30
0.0
 11
0.0305832339208321
 21
0.0883995676682367
 31
0.0
  0
LINE
  5
3D9
330
1F
100
AcDbEntity
  8
0
100
AcDbLine
 10
0.0219832336287693
 20
0.0883995676682367
 30
0.0
 11
0.0305832339208321
 21
0.0883995676682367
 31
0.0
  0
LINE
  5
3DA
330
1F
100
AcDbEntity
  8
0
100
AcDbLine
 10
0.031878901062508
 20
0.0878995675266757
 30
0.0
 11
0.0326260906846864
 21
0.0878995675266757
 31
0.0
  0
LINE
  5
3DB
330
1F
100
AcDbEntity
  8
0
100
AcDbLine
 10
0.0343507787901656
 20
0.0878995675266757
 30
0.0
 11
0.0326260906846864
 21
0.0878995675266757
 31
0.0
  0
LINE
  5
3DC
330
1F
100
AcDbEntity
  8
0
100
AcDbLine
 10
0.0376724752122284
 20
0.0878995675266757
 30
0.0
 11
0.0400905911801131
 21
0.0878995675266757
 31
0.0
  0
LINE
  5
3DD
330
1F
100
AcDbEntity
  8
0
100
AcDbLine
 10
0.0446156886163847
 20
0.0878995675266757
 30
0.0
 11
0.0463390894553337
 21
0.0878995675266757
 31
0.0
  0
LINE
  5
3DE
330
1F
100
AcDbEntity
  8
0
100
AcDbLine
 10
0.048053197910984
 20
0.0878995675266757
 30
0.0
 11
0.0483832334857182
 21
0.0878995675266757
 31
0.0
  0
LINE
  5
3DF
330
1F
100
AcDbEntity
  8
0
100
AcDbLine
 10
0.031878901062508
 20
0.0878995675266757
 30
0.0
 11
0.0305832339208321
 21
0.0878995675266757
 31
0.0
  0
LINE
  5
3E0
330
1F
100
AcDbEntity
  8
0
100
AcDbLine
 10
0.0343507787901656
 20
0.0878995675266757
 30
0.0
 11
0.0376724752122284
 21
0.0878995675266757
 31
0.0
  0
LINE
  5
3E1
330
1F
100
AcDbEntity
  8
0
100
AcDbLine
 10
0.0412939921943219
 20
0.0878995675266757
 30
0.0
 11
0.0446156886163847
 21
0.0878995675266757
 31
0.0
  0
LINE
  5
3E2
330
1F
100
AcDbEntity
  8
0
100
AcDbLine
 10
0.048053197910984
 20
0.0878995675266757
 30
0.0
 11
0.0463870641533033
 21
0.0878995675266757
 31
0.0
  0
LINE
  5
3E3
330
1F
100
AcDbEntity
  8
0
100
AcDbLine
 10
0.0407832337068142
 20
0.0867965725156515
 30
0.0
 11
0.0407832337068142
 21
0.0854947602165899
 31
0.0
  0
LINE
  5
3E4
330
1F
100
AcDbEntity
  8
0
100
AcDbLine
 10
0.0381832336997361
 20
0.0854947602165899
 30
0.0
 11
0.0381832336997361
 21
0.0867965725156515
 31
0.0
  0
LINE
  5
3E5
330
1F
100
AcDbEntity
  8
0
100
AcDbLine
 10
0.0466386726394011
 20
0.1048995675304009
 30
0.0
 11
0.0484396072768776
 21
0.1048995675304009
 31
0.0
  0
LINE
  5
3E6
330
1F
100
AcDbEntity
  8
0
100
AcDbLine
 10
0.0434061120801229
 20
0.1048995675304009
 30
0.0
 11
0.0454500465764156
 21
0.1048995675304009
 31
0.0
  0
LINE
  5
3E7
330
1F
100
AcDbEntity
  8
0
100
AcDbLine
 10
0.0421330106170928
 20
0.1048995675304009
 30
0.0
 11
0.0409527099812477
 21
0.1048995675304009
 31
0.0
  0
LINE
  5
3E8
330
1F
100
AcDbEntity
  8
0
100
AcDbLine
 10
0.0407848609138352
 20
0.1048995675304009
 30
0.0
 11
0.0399431352689561
 21
0.1048995675304009
 31
0.0
  0
LINE
  5
3E9
330
1F
100
AcDbEntity
  8
0
100
AcDbLine
 10
0.0351628396655445
 20
0.1048995675304009
 30
0.0
 11
0.0372824612240709
 21
0.1048995675304009
 31
0.0
  0
LINE
  5
3EA
330
1F
100
AcDbEntity
  8
0
100
AcDbLine
 10
0.0351628396655445
 20
0.1048995675304009
 30
0.0
 11
0.0350631220110466
 21
0.1048995675304009
 31
0.0
  0
LINE
  5
3EB
330
1F
100
AcDbEntity
  8
0
100
AcDbLine
 10
0.0339088170827408
 20
0.1048995675304009
 30
0.0
 11
0.0328626958842794
 21
0.1048995675304009
 31
0.0
  0
LINE
  5
3EC
330
1F
100
AcDbEntity
  8
0
100
AcDbLine
 10
0.0308641930108669
 20
0.1048995675304009
 30
0.0
 11
0.0299181169938926
 21
0.1048995675304009
 31
0.0
  0
LINE
  5
3ED
330
1F
100
AcDbEntity
  8
0
100
AcDbLine
 10
0.0298342299142971
 20
0.1048995675304009
 30
0.0
 11
0.0283303528480189
 21
0.1048995675304009
 31
0.0
  0
LINE
  5
3EE
330
1F
100
AcDbEntity
  8
0
100
AcDbLine
 10
0.0275589177082328
 20
0.1048995675304009
 30
0.0
 11
0.0282705180307698
 21
0.1048995675304009
 31
0.0
  0
LINE
  5
3EF
330
1F
100
AcDbEntity
  8
0
100
AcDbLine
 10
0.0275315863509936
 20
0.1048995675304009
 30
0.0
 11
0.026455244387097
 21
0.1048995675304009
 31
0.0
  0
LINE
  5
3F0
330
1F
100
AcDbEntity
  8
0
100
AcDbLine
 10
0.0263843874272897
 20
0.1048995675304009
 30
0.0
 11
0.0259344123606813
 21
0.1048995675304009
 31
0.0
  0
LINE
  5
3F1
330
1F
100
AcDbEntity
  8
0
100
AcDbLine
 10
0.0259344123606813
 20
0.1048995675304009
 30
0.0
 11
0.0255671598130965
 21
0.1048995675304009
 31
0.0
  0
LINE
  5
3F2
330
1F
100
AcDbEntity
  8
0
100
AcDbLine
 10
0.0255381727270558
 20
0.1048995675304009
 30
0.0
 11
0.025140611645375
 21
0.1048995675304009
 31
0.0
  0
LINE
  5
3F3
330
1F
100
AcDbEntity
  8
0
100
AcDbLine
 10
0.0494590868898797
 20
0.1048995675304009
 30
0.0
 11
0.0502858640649432
 21
0.1048995675304009
 31
0.0
  0
LINE
  5
3F4
330
1F
100
AcDbEntity
  8
0
100
AcDbLine
 10
0.0503675327471458
 20
0.1048995675304009
 30
0.0
 11
0.0516690390706407
 21
0.1048995675304009
 31
0.0
  0
LINE
  5
3F5
330
1F
100
AcDbEntity
  8
0
100
AcDbLine
 10
0.0517128964711851
 20
0.1048995675304009
 30
0.0
 11
0.0523034040144283
 21
0.1048995675304009
 31
0.0
  0
LINE
  5
3F6
330
1F
100
AcDbEntity
  8
0
100
AcDbLine
 10
0.0538676588862783
 20
0.1048995675304009
 30
0.0
 11
0.0523034040144283
 21
0.1048995675304009
 31
0.0
  0
LINE
  5
3F7
330
1F
100
AcDbEntity
  8
0
100
AcDbLine
 10
0.0542278302591041
 20
0.1033995675005986
 30
0.0
 11
0.0569832337777809
 21
0.1033995673329606
 31
0.0
  0
LINE
  5
3F8
330
1F
100
AcDbEntity
  8
0
100
AcDbLine
 10
0.0506931973141179
 20
0.1033995673329606
 30
0.0
 11
0.0505131211140212
 21
0.103399567120619
 31
0.0
  0
LINE
  5
3F9
330
1F
100
AcDbEntity
  8
0
100
AcDbLine
 10
0.028453346292529
 20
0.103399567120619
 30
0.0
 11
0.0282732700924323
 21
0.1033995673329606
 31
0.0
  0
LINE
  5
3FA
330
1F
100
AcDbEntity
  8
0
100
AcDbLine
 10
0.024738637147446
 20
0.1033995675005986
 30
0.0
 11
0.0219832336287693
 21
0.1033995673329606
 31
0.0
  0
LINE
  5
3FB
330
1F
100
AcDbEntity
  8
0
100
AcDbLine
 10
0.0376754049175562
 20
0.103399567120619
 30
0.0
 11
0.037874856513382
 21
0.103399567120619
 31
0.0
  0
LINE
  5
3FC
330
1F
100
AcDbEntity
  8
0
100
AcDbLine
 10
0.0428489172163727
 20
0.103399567120619
 30
0.0
 11
0.0425548234836345
 21
0.103399567120619
 31
0.0
  0
LINE
  5
3FD
330
1F
100
AcDbEntity
  8
0
100
AcDbLine
 10
0.0428965512286596
 20
0.1033995673329606
 30
0.0
 11
0.0436543269314015
 21
0.103399567120619
 31
0.0
  0
LINE
  5
3FE
330
1F
100
AcDbEntity
  8
0
100
AcDbLine
 10
0.0527776020898933
 20
0.1033995673329606
 30
0.0
 11
0.0525962712153865
 21
0.103399567120619
 31
0.0
  0
LINE
  5
3FF
330
1F
100
AcDbEntity
  8
0
100
AcDbLine
 10
0.0250075275764396
 20
0.1048995675304009
 30
0.0
 11
0.0250075275764396
 21
0.1044223209076618
 31
0.0
  0
LINE
  5
400
330
1F
100
AcDbEntity
  8
0
100
AcDbLine
 10
0.0250470570473468
 20
0.1037995675363614
 30
0.0
 11
0.0253503913227317
 21
0.1037995673724487
 31
0.0
  0
LINE
  5
401
330
1F
100
AcDbEntity
  8
0
100
AcDbLine
 10
0.0265182698378327
 20
0.1037995673724487
 30
0.0
 11
0.0273645905492783
 21
0.1037995673724487
 31
0.0
  0
LINE
  5
402
330
1F
100
AcDbEntity
  8
0
100
AcDbLine
 10
0.028382301156955
 20
0.1037995673724487
 30
0.0
 11
0.0295488858947862
 21
0.1037995673724487
 31
0.0
  0
LINE
  5
403
330
1F
100
AcDbEntity
  8
0
100
AcDbLine
 10
0.0353693196020719
 20
0.1037995673724487
 30
0.0
 11
0.0370164531768958
 21
0.1037995673724487
 31
0.0
  0
LINE
  5
404
330
1F
100
AcDbEntity
  8
0
100
AcDbLine
 10
0.0437091040895959
 20
0.1037995673724487
 30
0.0
 11
0.0452964428612222
 21
0.1037995673724487
 31
0.0
  0
LINE
  5
405
330
1F
100
AcDbEntity
  8
0
100
AcDbLine
 10
0.0468057310587638
 20
0.1037995673724487
 30
0.0
 11
0.0482116133870381
 21
0.1037995673724487
 31
0.0
  0
LINE
  5
406
330
1F
100
AcDbEntity
  8
0
100
AcDbLine
 10
0.0506578580392265
 20
0.1037995673724487
 30
0.0
 11
0.0516646733002166
 21
0.1037995673724487
 31
0.0
  0
LINE
  5
407
330
1F
100
AcDbEntity
  8
0
100
AcDbLine
 10
0.0263701961911636
 20
0.103399567120619
 30
0.0
 11
0.0261888653166569
 21
0.1033995673329606
 31
0.0
  0
LINE
  5
408
330
1F
100
AcDbEntity
  8
0
100
AcDbLine
 10
0.0282327760447003
 20
0.103399567120619
 30
0.0
 11
0.027568097265939
 21
0.103399567120619
 31
0.0
  0
LINE
  5
409
330
1F
100
AcDbEntity
  8
0
100
AcDbLine
 10
0.027568097265939
 20
0.103399567120619
 30
0.0
 11
0.0274045358518396
 21
0.103399567120619
 31
0.0
  0
LINE
  5
40A
330
1F
100
AcDbEntity
  8
0
100
AcDbLine
 10
0.0274045358518396
 20
0.103399567120619
 30
0.0
 11
0.0268772349318042
 21
0.103399567120619
 31
0.0
  0
LINE
  5
40B
330
1F
100
AcDbEntity
  8
0
100
AcDbLine
 10
0.0292250739546345
 20
0.103399567120619
 30
0.0
 11
0.028453346292529
 21
0.103399567120619
 31
0.0
  0
LINE
  5
40C
330
1F
100
AcDbEntity
  8
0
100
AcDbLine
 10
0.0303669585678373
 20
0.103399567120619
 30
0.0
 11
0.0299832340087489
 21
0.1033995673329606
 31
0.0
  0
LINE
  5
40D
330
1F
100
AcDbEntity
  8
0
100
AcDbLine
 10
0.030630400865991
 20
0.103399567120619
 30
0.0
 11
0.0316462476316335
 21
0.103399567120619
 31
0.0
  0
LINE
  5
40E
330
1F
100
AcDbEntity
  8
0
100
AcDbLine
 10
0.031931432325978
 20
0.103399567120619
 30
0.0
 11
0.0330309456592427
 21
0.103399567120619
 31
0.0
  0
LINE
  5
40F
330
1F
100
AcDbEntity
  8
0
100
AcDbLine
 10
0.0330309456592427
 20
0.103399567120619
 30
0.0
 11
0.0333425864443735
 21
0.103399567120619
 31
0.0
  0
LINE
  5
410
330
1F
100
AcDbEntity
  8
0
100
AcDbLine
 10
0.0345208438636873
 20
0.103399567120619
 30
0.0
 11
0.0333425864443735
 21
0.103399567120619
 31
0.0
  0
LINE
  5
411
330
1F
100
AcDbEntity
  8
0
100
AcDbLine
 10
0.025133350924333
 20
0.103399567120619
 30
0.0
 11
0.0259343770476029
 21
0.1033995673329606
 31
0.0
  0
LINE
  5
412
330
1F
100
AcDbEntity
  8
0
100
AcDbLine
 10
0.0360699159800792
 20
0.103399567120619
 30
0.0
 11
0.0353121404751487
 21
0.103399567120619
 31
0.0
  0
LINE
  5
413
330
1F
100
AcDbEntity
  8
0
100
AcDbLine
 10
0.0364116437673581
 20
0.1033995673329606
 30
0.0
 11
0.0360699159800792
 21
0.103399567120619
 31
0.0
  0
LINE
  5
414
330
1F
100
AcDbEntity
  8
0
100
AcDbLine
 10
0.0393072561049891
 20
0.103399567120619
 30
0.0
 11
0.0380247935625955
 21
0.1033995673329606
 31
0.0
  0
LINE
  5
415
330
1F
100
AcDbEntity
  8
0
100
AcDbLine
 10
0.0376754049175562
 20
0.103399567120619
 30
0.0
 11
0.0364116437673581
 21
0.1033995673329606
 31
0.0
  0
LINE
  5
416
330
1F
100
AcDbEntity
  8
0
100
AcDbLine
 10
0.0507336911558289
 20
0.1033995673329606
 30
0.0
 11
0.0515619313488928
 21
0.1033995673329606
 31
0.0
  0
LINE
  5
417
330
1F
100
AcDbEntity
  8
0
100
AcDbLine
 10
0.0425548234836345
 20
0.103399567120619
 30
0.0
 11
0.041291062488994
 21
0.103399567120619
 31
0.0
  0
LINE
  5
418
330
1F
100
AcDbEntity
  8
0
100
AcDbLine
 10
0.041291062488994
 20
0.103399567120619
 30
0.0
 11
0.0410916108931682
 21
0.103399567120619
 31
0.0
  0
LINE
  5
419
330
1F
100
AcDbEntity
  8
0
100
AcDbLine
 10
0.0409416734639162
 20
0.103399567120619
 30
0.0
 11
0.0396592108905982
 21
0.1033995673329606
 31
0.0
  0
LINE
  5
41A
330
1F
100
AcDbEntity
  8
0
100
AcDbLine
 10
0.0456238809621767
 20
0.103399567120619
 30
0.0
 11
0.0444522664094117
 21
0.1033995673329606
 31
0.0
  0
LINE
  5
41B
330
1F
100
AcDbEntity
  8
0
100
AcDbLine
 10
0.052089232474746
 20
0.103399567120619
 30
0.0
 11
0.0515619313488928
 21
0.1033995673329606
 31
0.0
  0
LINE
  5
41C
330
1F
100
AcDbEntity
  8
0
100
AcDbLine
 10
0.0470350350805722
 20
0.103399567120619
 30
0.0
 11
0.0459355215425075
 21
0.1033995673329606
 31
0.0
  0
LINE
  5
41D
330
1F
100
AcDbEntity
  8
0
100
AcDbLine
 10
0.0489832333978013
 20
0.1033995673329606
 30
0.0
 11
0.0485995086322106
 21
0.1033995673329606
 31
0.0
  0
LINE
  5
41E
330
1F
100
AcDbEntity
  8
0
100
AcDbLine
 10
0.0483360665405592
 20
0.103399567120619
 30
0.0
 11
0.0473202197749167
 21
0.103399567120619
 31
0.0
  0
LINE
  5
41F
330
1F
100
AcDbEntity
  8
0
100
AcDbLine
 10
0.0497413932455614
 20
0.1033995673329606
 30
0.0
 11
0.0505131211140212
 21
0.103399567120619
 31
0.0
  0
LINE
  5
420
330
1F
100
AcDbEntity
  8
0
100
AcDbLine
 10
0.0529478980990081
 20
0.103399567120619
 30
0.0
 11
0.0530320905712706
 21
0.103399567120619
 31
0.0
  0
LINE
  5
421
330
1F
100
AcDbEntity
  8
0
100
AcDbLine
 10
0.0530320905712706
 20
0.103399567120619
 30
0.0
 11
0.0538331172746762
 21
0.1033995673329606
 31
0.0
  0
LINE
  5
422
330
1F
100
AcDbEntity
  8
0
100
AcDbLine
 10
0.0569832337777809
 20
0.1063995678358748
 30
0.0
 11
0.0569832337777809
 21
0.1313995672770812
 31
0.0
  0
LINE
  5
423
330
1F
100
AcDbEntity
  8
0
100
AcDbLine
 10
0.0219832336287693
 20
0.1063995678358748
 30
0.0
 11
0.0219832336287693
 21
0.1313995672770812
 31
0.0
  0
LINE
  5
424
330
1F
100
AcDbEntity
  8
0
100
AcDbLine
 10
-0.0384302904219695
 20
-0.1406004324994014
 30
0.0
 11
-0.0355167659241959
 21
-0.1406004324994014
 31
0.0
  0
LINE
  5
425
330
1F
100
AcDbEntity
  8
0
100
AcDbLine
 10
-0.0855167666692539
 20
-0.1406004324994014
 30
0.0
 11
-0.0826032421714803
 21
-0.1406004324994014
 31
0.0
  0
LINE
  5
426
330
1F
100
AcDbEntity
  8
0
100
AcDbLine
 10
-0.0384302904219695
 20
-0.1406004324994014
 30
0.0
 11
-0.0826032421714803
 21
-0.1406004324994014
 31
0.0
  0
LINE
  5
427
330
1F
100
AcDbEntity
  8
0
100
AcDbLine
 10
-0.0815084709068094
 20
-0.1411004325124399
 30
0.0
 11
-0.0395250616866404
 21
-0.1411004325124399
 31
0.0
  0
LINE
  5
428
330
1F
100
AcDbEntity
  8
0
100
AcDbLine
 10
-0.0780167662967249
 20
0.0883995676682367
 30
0.0
 11
-0.2161375145185991
 21
0.0883995676682367
 31
0.0
  0
LINE
  5
429
330
1F
100
AcDbEntity
  8
0
100
AcDbLine
 10
-0.0429167663109741
 20
0.1208005724999362
 30
0.0
 11
-0.0429167663109741
 21
0.1206869900893147
 31
0.0
  0
LINE
  5
42A
330
1F
100
AcDbEntity
  8
0
100
AcDbLine
 10
-0.0429167663109741
 20
0.118008470832921
 30
0.0
 11
-0.0429167663109741
 21
0.1182381881227902
 31
0.0
  0
LINE
  5
42B
330
1F
100
AcDbEntity
  8
0
100
AcDbLine
 10
-0.2208802225757643
 20
0.0867965725156515
 30
0.0
 11
-0.2227651002574964
 21
0.086037067547351
 31
0.0
  0
LINE
  5
42C
330
1F
100
AcDbEntity
  8
0
100
AcDbLine
 10
-0.2233866179120048
 20
0.0858117716525718
 30
0.0
 11
-0.2241304413290015
 21
0.0855879278643093
 31
0.0
  0
LINE
  5
42D
330
1F
100
AcDbEntity
  8
0
100
AcDbLine
 10
-0.2241304413290015
 20
0.0855879278643093
 30
0.0
 11
-0.2246157694133251
 21
0.0854947602165899
 31
0.0
  0
LINE
  5
42E
330
1F
100
AcDbEntity
  8
0
100
AcDbLine
 10
-0.2246157694133251
 20
0.0854947602165899
 30
0.0
 11
-0.2250167662967249
 21
0.0854683175239748
 31
0.0
  0
LINE
  5
42F
330
1F
100
AcDbEntity
  8
0
100
AcDbLine
 10
-0.2318547347839984
 20
0.0878995675266757
 30
0.0
 11
-0.2322877981458112
 21
0.0878995675266757
 31
0.0
  0
LINE
  5
430
330
1F
100
AcDbEntity
  8
0
100
AcDbLine
 10
-0.2306334488783284
 20
0.0878995675266757
 30
0.0
 11
-0.2318547347839984
 21
0.0878995675266757
 31
0.0
  0
LINE
  5
431
330
1F
100
AcDbEntity
  8
0
100
AcDbLine
 10
-0.2268673618706417
 20
0.0883995676682367
 30
0.0
 11
-0.2238048831457525
 21
0.0883995676682367
 31
0.0
  0
LINE
  5
432
330
1F
100
AcDbEntity
  8
0
100
AcDbLine
 10
-0.2274179575722917
 20
0.0878995675266757
 30
0.0
 11
-0.2238048831457525
 21
0.0878995675266757
 31
0.0
  0
LINE
  5
433
330
1F
100
AcDbEntity
  8
0
100
AcDbLine
 10
-0.2337306142542764
 20
0.0878995675266757
 30
0.0
 11
-0.2322877981458112
 21
0.0878995675266757
 31
0.0
  0
LINE
  5
434
330
1F
100
AcDbEntity
  8
0
100
AcDbLine
 10
-0.2274179575722917
 20
0.0878995675266757
 30
0.0
 11
-0.2306334488783284
 21
0.0878995675266757
 31
0.0
  0
LINE
  5
435
330
1F
100
AcDbEntity
  8
0
100
AcDbLine
 10
-0.2238048831457525
 20
0.0878995675266757
 30
0.0
 11
-0.2203924689200028
 21
0.0878995675266757
 31
0.0
  0
LINE
  5
436
330
1F
100
AcDbEntity
  8
0
100
AcDbLine
 10
-0.2177457344476386
 20
0.0878995675266757
 30
0.0
 11
-0.2163029183391734
 21
0.0878995675266757
 31
0.0
  0
LINE
  5
437
330
1F
100
AcDbEntity
  8
0
100
AcDbLine
 10
-0.2177457344476386
 20
0.0878995675266757
 30
0.0
 11
-0.2181787978094514
 21
0.0878995675266757
 31
0.0
  0
LINE
  5
438
330
1F
100
AcDbEntity
  8
0
100
AcDbLine
 10
-0.2181787978094514
 20
0.0878995675266757
 30
0.0
 11
-0.2203924689200028
 21
0.0878995675266757
 31
0.0
  0
LINE
  5
439
330
1F
100
AcDbEntity
  8
0
100
AcDbLine
 10
-0.226646914681445
 20
0.0858117716525718
 30
0.0
 11
-0.2259030912644482
 21
0.0855879278643093
 31
0.0
  0
LINE
  5
43A
330
1F
100
AcDbEntity
  8
0
100
AcDbLine
 10
-0.2259030912644482
 20
0.0855879278643093
 30
0.0
 11
-0.2254177631801247
 21
0.0854947602165899
 31
0.0
  0
LINE
  5
43B
330
1F
100
AcDbEntity
  8
0
100
AcDbLine
 10
-0.2254177631801247
 20
0.0854947602165899
 30
0.0
 11
-0.2250167662967249
 21
0.0854683175239748
 31
0.0
  0
LINE
  5
43C
330
1F
100
AcDbEntity
  8
0
100
AcDbLine
 10
-0.2291533100176855
 20
0.0867965725156515
 30
0.0
 11
-0.2272684323359534
 21
0.086037067547351
 31
0.0
  0
LINE
  5
43D
330
1F
100
AcDbEntity
  8
0
100
AcDbLine
 10
-0.0730438959545322
 20
0.1048995675304009
 30
0.0
 11
-0.0718221033895636
 21
0.1048995675304009
 31
0.0
  0
LINE
  5
43E
330
1F
100
AcDbEntity
  8
0
100
AcDbLine
 10
-0.0743974736819533
 20
0.1048995675304009
 30
0.0
 11
-0.0736501460178636
 21
0.1048995675304009
 31
0.0
  0
LINE
  5
43F
330
1F
100
AcDbEntity
  8
0
100
AcDbLine
 10
-0.0747001002796727
 20
0.1048995675304009
 30
0.0
 11
-0.0748704736874233
 21
0.1048995675304009
 31
0.0
  0
LINE
  5
440
330
1F
100
AcDbEntity
  8
0
100
AcDbLine
 10
-0.0709412873228724
 20
0.1048995675304009
 30
0.0
 11
-0.0700818830061074
 21
0.1048995675304009
 31
0.0
  0
LINE
  5
441
330
1F
100
AcDbEntity
  8
0
100
AcDbLine
 10
-0.0699815854695723
 20
0.1048995675304009
 30
0.0
 11
-0.0682373826729556
 21
0.1048995675304009
 31
0.0
  0
LINE
  5
442
330
1F
100
AcDbEntity
  8
0
100
AcDbLine
 10
-0.0681733729192771
 20
0.1048995675304009
 30
0.0
 11
-0.0671373041157206
 21
0.1048995675304009
 31
0.0
  0
LINE
  5
443
330
1F
100
AcDbEntity
  8
0
100
AcDbLine
 10
-0.0602376290548405
 20
0.1048995675304009
 30
0.0
 11
-0.0671373041157206
 21
0.1048995675304009
 31
0.0
  0
LINE
  5
444
330
1F
100
AcDbEntity
  8
0
100
AcDbLine
 10
-0.0602376290548405
 20
0.1048995675304009
 30
0.0
 11
-0.0590472900187523
 21
0.1048995675304009
 31
0.0
  0
LINE
  5
445
330
1F
100
AcDbEntity
  8
0
100
AcDbLine
 10
-0.0589704926519664
 20
0.1048995675304009
 30
0.0
 11
-0.0568308414439057
 21
0.1048995675304009
 31
0.0
  0
LINE
  5
446
330
1F
100
AcDbEntity
  8
0
100
AcDbLine
 10
-0.0567047893977875
 20
0.1048995675304009
 30
0.0
 11
-0.0555566778211398
 21
0.1048995675304009
 31
0.0
  0
LINE
  5
447
330
1F
100
AcDbEntity
  8
0
100
AcDbLine
 10
-0.0555566778211398
 20
0.1048995675304009
 30
0.0
 11
-0.0544662692584552
 21
0.1048995675304009
 31
0.0
  0
LINE
  5
448
330
1F
100
AcDbEntity
  8
0
100
AcDbLine
 10
-0.0543281663944701
 20
0.1048995675304009
 30
0.0
 11
-0.0524367038341665
 21
0.1048995675304009
 31
0.0
  0
LINE
  5
449
330
1F
100
AcDbEntity
  8
0
100
AcDbLine
 10
-0.0523927907274209
 20
0.1048995675304009
 30
0.0
 11
-0.0514358359798708
 21
0.1048995675304009
 31
0.0
  0
LINE
  5
44A
330
1F
100
AcDbEntity
  8
0
100
AcDbLine
 10
-0.0513678992963171
 20
0.1048995675304009
 30
0.0
 11
-0.0497948383845366
 21
0.1048995675304009
 31
0.0
  0
LINE
  5
44B
330
1F
100
AcDbEntity
  8
0
100
AcDbLine
 10
-0.0497141359350568
 20
0.1048995675304009
 30
0.0
 11
-0.0489465351127618
 21
0.1048995675304009
 31
0.0
  0
LINE
  5
44C
330
1F
100
AcDbEntity
  8
0
100
AcDbLine
 10
-0.0482038362589653
 20
0.1048995675304009
 30
0.0
 11
-0.0477862701362264
 21
0.1048995675304009
 31
0.0
  0
LINE
  5
44D
330
1F
100
AcDbEntity
  8
0
100
AcDbLine
 10
-0.0476965959855717
 20
0.1048995675304009
 30
0.0
 11
-0.0471936636971292
 21
0.1048995675304009
 31
0.0
  0
LINE
  5
44E
330
1F
100
AcDbEntity
  8
0
100
AcDbLine
 10
-0.0462609093013655
 20
0.1048995675304009
 30
0.0
 11
-0.0467541431833338
 21
0.1048995675304009
 31
0.0
  0
LINE
  5
44F
330
1F
100
AcDbEntity
  8
0
100
AcDbLine
 10
-0.0460893819351002
 20
0.1033995675005986
 30
0.0
 11
-0.0430167662222191
 21
0.1033995675005986
 31
0.0
  0
LINE
  5
450
330
1F
100
AcDbEntity
  8
0
100
AcDbLine
 10
-0.0502586068357515
 20
0.1033995675005986
 30
0.0
 11
-0.050491995938999
 21
0.103399567120619
 31
0.0
  0
LINE
  5
451
330
1F
100
AcDbEntity
  8
0
100
AcDbLine
 10
-0.0705415364649633
 20
0.1033995675005986
 30
0.0
 11
-0.0707749257576983
 21
0.1033995675005986
 31
0.0
  0
LINE
  5
452
330
1F
100
AcDbEntity
  8
0
100
AcDbLine
 10
-0.0749441506583496
 20
0.1033995675005986
 30
0.0
 11
-0.0780167662967249
 21
0.1033995673329606
 31
0.0
  0
LINE
  5
453
330
1F
100
AcDbEntity
  8
0
100
AcDbLine
 10
-0.057103448573529
 20
0.103399567120619
 30
0.0
 11
-0.0558768171654276
 21
0.103399567120619
 31
0.0
  0
LINE
  5
454
330
1F
100
AcDbEntity
  8
0
100
AcDbLine
 10
-0.0558768171654276
 20
0.103399567120619
 30
0.0
 11
-0.0555477333884202
 21
0.103399567120619
 31
0.0
  0
LINE
  5
455
330
1F
100
AcDbEntity
  8
0
100
AcDbLine
 10
-0.0543761190378233
 20
0.103399567120619
 30
0.0
 11
-0.0540644782526925
 21
0.103399567120619
 31
0.0
  0
LINE
  5
456
330
1F
100
AcDbEntity
  8
0
100
AcDbLine
 10
-0.0540644782526925
 20
0.103399567120619
 30
0.0
 11
-0.0529649649194278
 21
0.103399567120619
 31
0.0
  0
LINE
  5
457
330
1F
100
AcDbEntity
  8
0
100
AcDbLine
 10
-0.0512484587988075
 20
0.103399567120619
 30
0.0
 11
-0.0514004911612871
 21
0.103399567120619
 31
0.0
  0
LINE
  5
458
330
1F
100
AcDbEntity
  8
0
100
AcDbLine
 10
-0.0494662423549267
 20
0.103399567120619
 30
0.0
 11
-0.0502586068357515
 21
0.1033995675005986
 31
0.0
  0
LINE
  5
459
330
1F
100
AcDbEntity
  8
0
100
AcDbLine
 10
-0.0486016298593888
 20
0.103399567120619
 30
0.0
 11
-0.0492663089536441
 21
0.1033995675005986
 31
0.0
  0
LINE
  5
45A
330
1F
100
AcDbEntity
  8
0
100
AcDbLine
 10
-0.0484380687840091
 20
0.1033995675005986
 30
0.0
 11
-0.047910767525254
 21
0.103399567120619
 31
0.0
  0
LINE
  5
45B
330
1F
100
AcDbEntity
  8
0
100
AcDbLine
 10
-0.0474037287846135
 20
0.103399567120619
 30
0.0
 11
-0.0473194997839499
 21
0.103399567120619
 31
0.0
  0
LINE
  5
45C
330
1F
100
AcDbEntity
  8
0
100
AcDbLine
 10
-0.0460893819351002
 20
0.1033995675005986
 30
0.0
 11
-0.0469679094287294
 21
0.103399567120619
 31
0.0
  0
LINE
  5
45D
330
1F
100
AcDbEntity
  8
0
100
AcDbLine
 10
-0.046187914597458
 20
0.1037995673724487
 30
0.0
 11
-0.046571275701094
 21
0.1037995673724487
 31
0.0
  0
LINE
  5
45E
330
1F
100
AcDbEntity
  8
0
100
AcDbLine
 10
-0.049901217154904
 20
0.1037995673724487
 30
0.0
 11
-0.0511255945338222
 21
0.1037995673724487
 31
0.0
  0
LINE
  5
45F
330
1F
100
AcDbEntity
  8
0
100
AcDbLine
 10
-0.0524757129777864
 20
0.1037995673724487
 30
0.0
 11
-0.053939901524181
 21
0.1037995673724487
 31
0.0
  0
LINE
  5
460
330
1F
100
AcDbEntity
  8
0
100
AcDbLine
 10
-0.0571067726988061
 20
0.1037995673724487
 30
0.0
 11
-0.0587705114347729
 21
0.1037995673724487
 31
0.0
  0
LINE
  5
461
330
1F
100
AcDbEntity
  8
0
100
AcDbLine
 10
-0.0497942322955297
 20
0.1113995675005986
 30
0.0
 11
-0.0476191808437197
 21
0.1113995675005986
 31
0.0
  0
LINE
  5
462
330
1F
100
AcDbEntity
  8
0
100
AcDbLine
 10
-0.0744280268233795
 20
0.1037995673724487
 30
0.0
 11
-0.0738446096993257
 21
0.1037995673724487
 31
0.0
  0
LINE
  5
463
330
1F
100
AcDbEntity
  8
0
100
AcDbLine
 10
-0.0730826360577397
 20
0.1037995673724487
 30
0.0
 11
-0.0721426351401546
 21
0.1037995673724487
 31
0.0
  0
LINE
  5
464
330
1F
100
AcDbEntity
  8
0
100
AcDbLine
 10
-0.0698169308673921
 20
0.1037995673724487
 30
0.0
 11
-0.068458122089669
 21
0.1037995673724487
 31
0.0
  0
LINE
  5
465
330
1F
100
AcDbEntity
  8
0
100
AcDbLine
 10
-0.0693695989694971
 20
0.1033995675005986
 30
0.0
 11
-0.0683582211672596
 21
0.1033995675005986
 31
0.0
  0
LINE
  5
466
330
1F
100
AcDbEntity
  8
0
100
AcDbLine
 10
-0.0749441506583496
 20
0.1033995675005986
 30
0.0
 11
-0.0740656227501026
 21
0.1033995675005986
 31
0.0
  0
LINE
  5
467
330
1F
100
AcDbEntity
  8
0
100
AcDbLine
 10
-0.0736298034919136
 20
0.1033995675005986
 30
0.0
 11
-0.0737140323310016
 21
0.1033995675005986
 31
0.0
  0
LINE
  5
468
330
1F
100
AcDbEntity
  8
0
100
AcDbLine
 10
-0.0669690541598174
 20
0.1033995675005986
 30
0.0
 11
-0.0680685675319685
 21
0.1033995675005986
 31
0.0
  0
LINE
  5
469
330
1F
100
AcDbEntity
  8
0
100
AcDbLine
 10
-0.0666574134338336
 20
0.1033995675005986
 30
0.0
 11
-0.0669690541598174
 21
0.1033995675005986
 31
0.0
  0
LINE
  5
46A
330
1F
100
AcDbEntity
  8
0
100
AcDbLine
 10
-0.0725954638094407
 20
0.1033995675005986
 30
0.0
 11
-0.073122764787183
 21
0.1033995675005986
 31
0.0
  0
LINE
  5
46B
330
1F
100
AcDbEntity
  8
0
100
AcDbLine
 10
-0.0717672236398058
 20
0.1033995675005986
 30
0.0
 11
-0.0724319024863496
 21
0.1033995675005986
 31
0.0
  0
LINE
  5
46C
330
1F
100
AcDbEntity
  8
0
100
AcDbLine
 10
-0.0696330411765175
 20
0.1033995675005986
 30
0.0
 11
-0.0700167659912511
 21
0.1033995675005986
 31
0.0
  0
LINE
  5
46D
330
1F
100
AcDbEntity
  8
0
100
AcDbLine
 10
-0.0707749257576983
 20
0.1033995675005986
 30
0.0
 11
-0.071567290021333
 21
0.1033995675005986
 31
0.0
  0
LINE
  5
46E
330
1F
100
AcDbEntity
  8
0
100
AcDbLine
 10
-0.0666574134338336
 20
0.1033995675005986
 30
0.0
 11
-0.0654857990656841
 21
0.1033995675005986
 31
0.0
  0
LINE
  5
46F
330
1F
100
AcDbEntity
  8
0
100
AcDbLine
 10
-0.0651567154280223
 20
0.103399567120619
 30
0.0
 11
-0.0654857990656841
 21
0.1033995675005986
 31
0.0
  0
LINE
  5
470
330
1F
100
AcDbEntity
  8
0
100
AcDbLine
 10
-0.0651567154280223
 20
0.103399567120619
 30
0.0
 11
-0.063930083924202
 21
0.1033995675005986
 31
0.0
  0
LINE
  5
471
330
1F
100
AcDbEntity
  8
0
100
AcDbLine
 10
-0.063930083924202
 20
0.1033995675005986
 30
0.0
 11
-0.0623245950317475
 21
0.1033995675005986
 31
0.0
  0
LINE
  5
472
330
1F
100
AcDbEntity
  8
0
100
AcDbLine
 10
-0.0603407886984389
 20
0.103399567120619
 30
0.0
 11
-0.060692743890076
 21
0.1033995675005986
 31
0.0
  0
LINE
  5
473
330
1F
100
AcDbEntity
  8
0
100
AcDbLine
 10
-0.0623245950317475
 20
0.1033995675005986
 30
0.0
 11
-0.0619752060573661
 21
0.103399567120619
 31
0.0
  0
LINE
  5
474
330
1F
100
AcDbEntity
  8
0
100
AcDbLine
 10
-0.057103448573529
 20
0.103399567120619
 30
0.0
 11
-0.058708937511006
 21
0.103399567120619
 31
0.0
  0
LINE
  5
475
330
1F
100
AcDbEntity
  8
0
100
AcDbLine
 10
-0.0590583265769825
 20
0.1033995675005986
 30
0.0
 11
-0.058708937511006
 21
0.103399567120619
 31
0.0
  0
LINE
  5
476
330
1F
100
AcDbEntity
  8
0
100
AcDbLine
 10
-0.0555477333884202
 20
0.103399567120619
 30
0.0
 11
-0.0543761190378233
 21
0.103399567120619
 31
0.0
  0
LINE
  5
477
330
1F
100
AcDbEntity
  8
0
100
AcDbLine
 10
-0.0526797802250833
 20
0.103399567120619
 30
0.0
 11
-0.0516639334594408
 21
0.103399567120619
 31
0.0
  0
LINE
  5
478
330
1F
100
AcDbEntity
  8
0
100
AcDbLine
 10
-0.0497942322955297
 20
0.1113995675005986
 30
0.0
 11
-0.0430167662967249
 21
0.1145599517420902
 31
0.0
  0
LINE
  5
479
330
1F
100
AcDbEntity
  8
0
100
AcDbLine
 10
-0.0747218585158295
 20
0.1063995678358748
 30
0.0
 11
-0.0780167664457365
 21
0.1063995678358748
 31
0.0
  0
LINE
  5
47A
330
1F
100
AcDbEntity
  8
0
100
AcDbLine
 10
0.1401572392591081
 20
0.1223259776792277
 30
0.0
 11
0.1402708216697296
 21
0.1223259776792277
 31
0.0
  0
LINE
  5
47B
330
1F
100
AcDbEntity
  8
0
100
AcDbLine
 10
0.1560582443329515
 20
0.1222259777679828
 30
0.0
 11
0.1560582443329515
 21
0.079725977320948
 31
0.0
  0
LINE
  5
47C
330
1F
100
AcDbEntity
  8
0
100
AcDbLine
 10
0.1210582441839399
 20
0.1222259777679828
 30
0.0
 11
0.1210582441839398
 21
0.079725977320948
 31
0.0
  0
LINE
  5
47D
330
1F
100
AcDbEntity
  8
0
100
AcDbLine
 10
-0.0426116273710808
 20
0.1232952693241684
 30
0.0
 11
-0.0426116273710808
 21
0.1224410231510593
 31
0.0
  0
LINE
  5
47E
330
1F
100
AcDbEntity
  8
0
100
AcDbLine
 10
-0.0426116273710808
 20
0.1215038656770288
 30
0.0
 11
-0.0426116273710808
 21
0.1223622326239755
 31
0.0
  0
LINE
  5
47F
330
1F
100
AcDbEntity
  8
0
100
AcDbLine
 10
0.1394539460820155
 20
0.1226311166191211
 30
0.0
 11
0.1385955791350688
 21
0.1226311166191211
 31
0.0
  0
LINE
  5
480
330
1F
100
AcDbEntity
  8
0
100
AcDbLine
 10
0.1376625424348759
 20
0.1226311166191211
 30
0.0
 11
0.1385167886079849
 21
0.1226311166191211
 31
0.0
  0
ENDSEC
  0
SECTION
  2
OBJECTS
  0
DICTIONARY
  5
C
330
0
100
AcDbDictionary
  3
ACAD_GROUP
350
D
  3
ACAD_LAYOUT
350
1A
  3
ACAD_MATERIAL
350
43
  3
ACAD_MLEADERSTYLE
350
5B
  3
ACAD_MLINESTYLE
350
17
  3
ACAD_PLOTSETTINGS
350
19
  3
ACAD_SCALELIST
350
47
  3
ACAD_VISUALSTYLE
350
2A
  3
ACDBHEADERROUNDTRIPXREC
350
481
  3
ACDBVARIABLEDICTIONARY
350
4A2
  3
DWGPROPS
350
4A9
  0
DICTIONARY
  5
4AA
330
8
100
AcDbDictionary
280
     1
  3
ACAD_XREC_ROUNDTRIP
360
4AB
  0
DICTIONARY
  5
D
102
{ACAD_REACTORS
330
C
102
}
330
C
100
AcDbDictionary
  0
DICTIONARY
  5
1A
102
{ACAD_REACTORS
330
C
102
}
330
C
100
AcDbDictionary
  0
DICTIONARY
  5
43
102
{ACAD_REACTORS
330
C
102
}
330
C
100
AcDbDictionary
  3
BYBLOCK
350
45
  3
BYLAYER
350
44
  3
GLOBAL
350
46
  0
DICTIONARY
  5
5B
102
{ACAD_REACTORS
330
C
102
}
330
C
100
AcDbDictionary
  3
STANDARD
350
5C
  0
DICTIONARY
  5
17
102
{ACAD_REACTORS
330
C
102
}
330
C
100
AcDbDictionary
  3
STANDARD
350
18
  0
DICTIONARY
  5
19
102
{ACAD_REACTORS
330
C
102
}
330
C
100
AcDbDictionary
  0
DICTIONARY
  5
47
102
{ACAD_REACTORS
330
C
102
}
330
C
100
AcDbDictionary
  3
A0
350
48
  3
A1
350
49
  3
A2
350
4A
  3
A3
350
4B
  3
A4
350
4C
  3
A5
350
4D
  3
A6
350
4E
  3
A7
350
4F
  3
A8
350
50
  3
A9
350
51
  3
B1
350
52
  3
B2
350
53
  3
B3
350
54
  3
B4
350
55
  3
B5
350
56
  3
B6
350
57
  3
B7
350
58
  0
DICTIONARY
  5
2A
102
{ACAD_REACTORS
330
C
102
}
330
C
100
AcDbDictionary
  3
2DWIREFRAME
350
2F
  3
BASIC
350
32
  3
BRIGHTEN
350
36
  3
COLORCHANGE
350
3A
  3
CONCEPTUAL
350
34
  3
DIM
350
35
  3
EDGECOLOROFF
350
3D
  3
FACEPATTERN
350
39
  3
FLAT
350
2B
  3
FLATWITHEDGES
350
2C
  3
GOURAUD
350
2D
  3
GOURAUDWITHEDGES
350
2E
  3
HIDDEN
350
31
  3
JITTEROFF
350
3B
  3
LINEPATTERN
350
38
  3
OVERHANGOFF
350
3C
  3
REALISTIC
350
33
  3
SHADED
350
42
  3
SHADED_WITH_EDGES
350
41
  3
SHADES_OF_GRAY
350
3E
  3
SKETCHY
350
3F
  3
THICKEN
350
37
  3
WIREFRAME
350
30
  3
X-RAY
350
40
  0
DICTIONARY
  5
481
102
{ACAD_REACTORS
330
C
102
}
330
C
100
AcDbDictionary
  3
CEPSNID
350
48B
  3
CEPSNTYPE
350
48A
  3
DIMSTYLEDATA
350
4A1
  3
FINGERPRINTGUID
350
48C
  3
HYPERLINKBASE
350
484
  3
INSUNITS
350
489
  3
LAYOUTDICT
350
486
  3
LWETCUNION
350
488
  3
PLOTSETDICT
350
487
  3
PSVPSCALE
350
48E
  3
PUCSBASE
350
491
  3
PUCSORGBACK
350
497
  3
PUCSORGBOTTOM
350
493
  3
PUCSORGFRONT
350
496
  3
PUCSORGLEFT
350
494
  3
PUCSORGRIGHT
350
495
  3
PUCSORGTOP
350
492
  3
PUCSORTHOREF
350
48F
  3
PUCSORTHOVIEW
350
490
  3
STYLESHEET
350
485
  3
TSTACKALIGN
350
482
  3
TSTACKSIZE
350
483
  3
UCSBASE
350
49A
  3
UCSORGBACK
350
4A0
  3
UCSORGBOTTOM
350
49C
  3
UCSORGFRONT
350
49F
  3
UCSORGLEFT
350
49D
  3
UCSORGRIGHT
350
49E
  3
UCSORGTOP
350
49B
  3
UCSORTHOREF
350
498
  3
UCSORTHOVIEW
350
499
  3
VERSIONGUID
350
48D
  0
DICTIONARY
  5
4A2
102
{ACAD_REACTORS
330
C
102
}
330
C
100
AcDbDictionary
  3
CANNOSCALE
350
4AC
  3
CMLEADERSTYLE
350
4A4
  3
CTABLESTYLE
350
4A3
  3
DIMASSOC
350
4A7
  3
HIDETEXT
350
4A8
  3
MSLTSCALE
350
4AD
  0
XRECORD
  5
4A9
102
{ACAD_REACTORS
330
C
102
}
330
C
100
AcDbXrecord
  1
DWGPROPS COOKIE
  2

  3

  4

  6

  7

  8
im_marketing1
  9

300
=
301
=
302
=
303
=
304
=
305
=
306
=
307
=
308
=
309
=
 40
0.0
 41
2460503.45698375
 42
2460503.457012963
  1

 90
        0
  0
XRECORD
  5
4AB
102
{ACAD_REACTORS
330
4AA
102
}
330
4AA
100
AcDbXrecord
102
VTR_0.000_0.000_1.000_1.000_VISUALSTYLE
340
2F
102
VTR_0.000_0.000_1.000_1.000_GRIDDISPLAY
 70
     3
102
VTR_0.000_0.000_1.000_1.000_GRIDMAJOR
 70
     5
102
VTR_0.000_0.000_1.000_1.000_DEFAULTLIGHTING
280
     1
102
VTR_0.000_0.000_1.000_1.000_DEFAULTLIGHTINGTYPE
 70
     1
102
VTR_0.000_0.000_1.000_1.000_BRIGHTNESS
141
0.0
102
VTR_0.000_0.000_1.000_1.000_CONTRAST
142
0.0
  0
MATERIAL
  5
45
102
{ACAD_REACTORS
330
43
102
}
102
{ACAD_XDICTIONARY
360
4B0
102
}
330
43
100
AcDbMaterial
  1
BYBLOCK
  0
MATERIAL
  5
44
102
{ACAD_REACTORS
330
43
102
}
102
{ACAD_XDICTIONARY
360
4AE
102
}
330
43
100
AcDbMaterial
  1
BYLAYER
  0
MATERIAL
  5
46
102
{ACAD_REACTORS
330
43
102
}
102
{ACAD_XDICTIONARY
360
4B2
102
}
330
43
100
AcDbMaterial
  1
GLOBAL
  0
ACAD_PROXY_OBJECT
  5
5C
102
{ACAD_REACTORS
330
5B
102
}
330
5B
100
AcDbProxyObject
 90
      499
 91
      505
 93
      610
310
40901902A4063FBFFFFFE056BD1B81E855B9FC0AD7A3703D0AD73F4214DD185B99185C9900AD7A3703D0AC73F90141901A02B5E8DC0F42B1CFC02B5E8DC0F42B1CFE5764000000000000300FC0
340
14
340
0
340
11
340
0
 94
        0
1001
ACAD_MLEADERVER
1070
     2
  0
MLINESTYLE
  5
18
102
{ACAD_REACTORS
330
17
102
}
330
17
100
AcDbMlineStyle
  2
Standard
 70
     0
  3

 62
   256
 51
90.0
 52
90.0
 71
     2
 49
0.5
 62
   256
  6
BYLAYER
 49
-0.5
 62
   256
  6
BYLAYER
  0
ACAD_PROXY_OBJECT
  5
48
102
{ACAD_REACTORS
330
47
102
}
330
47
100
AcDbProxyObject
 90
      499
 91
      503
 93
       41
310
903313A31580
  0
ACAD_PROXY_OBJECT
  5
49
102
{ACAD_REACTORS
330
47
102
}
330
47
100
AcDbProxyObject
 90
      499
 91
      503
 93
      257
310
90E312F31323822203D2031272D3022000000000000200FC000000000000284000
  0
ACAD_PROXY_OBJECT
  5
4A
102
{ACAD_REACTORS
330
47
102
}
330
47
100
AcDbProxyObject
 90
      499
 91
      503
 93
      249
310
90D312F363422203D2031272D3022000000000000240FC000000000000284000
  0
ACAD_PROXY_OBJECT
  5
4B
102
{ACAD_REACTORS
330
47
102
}
330
47
100
AcDbProxyObject
 90
      499
 91
      503
 93
      249
310
90D312F333222203D2031272D3022000000000000280FC000000000000284000
  0
ACAD_PROXY_OBJECT
  5
4C
102
{ACAD_REACTORS
330
47
102
}
330
47
100
AcDbProxyObject
 90
      499
 91
      503
 93
      249
310
90D312F313622203D2031272D30220000000000002C0FC000000000000284000
  0
ACAD_PROXY_OBJECT
  5
4D
102
{ACAD_REACTORS
330
47
102
}
330
47
100
AcDbProxyObject
 90
      499
 91
      503
 93
      249
310
90D332F333222203D2031272D30220000000000002E0FC000000000000284000
  0
ACAD_PROXY_OBJECT
  5
4E
102
{ACAD_REACTORS
330
47
102
}
330
47
100
AcDbProxyObject
 90
      499
 91
      503
 93
      241
310
90C312F3822203D2031272D3022000000000000300FC000000000000284000
  0
ACAD_PROXY_OBJECT
  5
4F
102
{ACAD_REACTORS
330
47
102
}
330
47
100
AcDbProxyObject
 90
      499
 91
      503
 93
      249
310
90D332F313622203D2031272D3022000000000000320FC000000000000284000
  0
ACAD_PROXY_OBJECT
  5
50
102
{ACAD_REACTORS
330
47
102
}
330
47
100
AcDbProxyObject
 90
      499
 91
      503
 93
      241
310
90C312F3422203D2031272D3022000000000000340FC000000000000284000
  0
ACAD_PROXY_OBJECT
  5
51
102
{ACAD_REACTORS
330
47
102
}
330
47
100
AcDbProxyObject
 90
      499
 91
      503
 93
      241
310
90C332F3822203D2031272D3022000000000000360FC000000000000284000
  0
ACAD_PROXY_OBJECT
  5
52
102
{ACAD_REACTORS
330
47
102
}
330
47
100
AcDbProxyObject
 90
      499
 91
      503
 93
      241
310
90C312F3222203D2031272D3022000000000000380FC000000000000284000
  0
ACAD_PROXY_OBJECT
  5
53
102
{ACAD_REACTORS
330
47
102
}
330
47
100
AcDbProxyObject
 90
      499
 91
      503
 93
      241
310
90C332F3422203D2031272D30220000000000003A0FC000000000000284000
  0
ACAD_PROXY_OBJECT
  5
54
102
{ACAD_REACTORS
330
47
102
}
330
47
100
AcDbProxyObject
 90
      499
 91
      503
 93
      161
310
90A3122203D2031272D30224000000000000284000
  0
ACAD_PROXY_OBJECT
  5
55
102
{ACAD_REACTORS
330
47
102
}
330
47
100
AcDbProxyObject
 90
      499
 91
      503
 93
      257
310
90E312D312F3222203D2031272D30220000000000003E0FC000000000000284000
  0
ACAD_PROXY_OBJECT
  5
56
102
{ACAD_REACTORS
330
47
102
}
330
47
100
AcDbProxyObject
 90
      499
 91
      503
 93
      225
310
90A3322203D2031272D302200000000000002100000000000000284000
  0
ACAD_PROXY_OBJECT
  5
57
102
{ACAD_REACTORS
330
47
102
}
330
47
100
AcDbProxyObject
 90
      499
 91
      503
 93
      225
310
90A3622203D2031272D302200000000000006100000000000000284000
  0
ACAD_PROXY_OBJECT
  5
58
102
{ACAD_REACTORS
330
47
102
}
330
47
100
AcDbProxyObject
 90
      499
 91
      503
 93
      249
310
90D31272D3022203D2031272D30220000000000000A100000000000000284000
  0
ACAD_PROXY_OBJECT
  5
2F
102
{ACAD_REACTORS
330
2A
102
}
330
2A
100
AcDbProxyObject
 90
      499
 91
      501
 93
      436
310
42CC9915DA5C99599C985B595049028333333333333E33F0000000000000F90107901411070040501600405405064090741402480A0340
1001
ACAD
1000
AcDbSavedByObjectVersion
1070
     0
  0
ACAD_PROXY_OBJECT
  5
32
102
{ACAD_REACTORS
330
2A
102
}
330
2A
100
AcDbProxyObject
 90
      499
 91
      501
 93
      388
310
4150985CDA58D07406404333333333333E33F0000000000000F90107A41107004050150841D405064090741402480A0350
1001
ACAD
1000
AcDbSavedByObjectVersion
1070
     0
  0
ACAD_PROXY_OBJECT
  5
36
102
{ACAD_REACTORS
330
2A
102
}
330
2A
100
AcDbProxyObject
 90
      499
 91
      501
 93
      428
310
42109C9A59DA1D195B90C409028333333333333E33F0000000000000F9010790141107004050150841D405064090741402480A029950
1001
ACAD
1000
AcDbSavedByObjectVersion
1070
     0
  0
ACAD_PROXY_OBJECT
  5
3A
102
{ACAD_REACTORS
330
2A
102
}
330
2A
100
AcDbProxyObject
 90
      499
 91
      501
 93
      452
310
42D0DBDB1BDC90DA185B99D95104090240C333333333333E33F0000000000000F90108901411070040501508421405064090741402480A0350
1001
ACAD
1000
AcDbSavedByObjectVersion
1070
     0
  0
ACAD_PROXY_OBJECT
  5
34
102
{ACAD_REACTORS
330
2A
102
}
330
2A
100
AcDbProxyObject
 90
      499
 91
      501
 93
      500
310
4290DBDB98D95C1D1D585B10940D028333333333333E33F0000000000000F90107902409070040501000000000018199010841D405064090740C02480A0340
1001
ACAD
1000
AcDbSavedByObjectVersion
1070
     0
  0
ACAD_PROXY_OBJECT
  5
35
102
{ACAD_REACTORS
330
2A
102
}
330
2A
100
AcDbProxyObject
 90
      499
 91
      501
 93
      412
310
40D11A5B50B409028333333333333E33F0000000000000F9010790141107004050150841D405064090741402480A02677FFFFFD0
1001
ACAD
1000
AcDbSavedByObjectVersion
1070
     0
  0
ACAD_PROXY_OBJECT
  5
3D
102
{ACAD_REACTORS
330
2A
102
}
330
2A
100
AcDbProxyObject
 90
      499
 91
      501
 93
      452
310
43115919D950DBDB1BDC93D999916409028333333333333E33F0000000000000F9010790141107004050150841D405064090741402480A0350
1001
ACAD
1000
AcDbSavedByObjectVersion
1070
     0
  0
ACAD_PROXY_OBJECT
  5
39
102
{ACAD_REACTORS
330
2A
102
}
330
2A
100
AcDbProxyObject
 90
      499
 91
      501
 93
      444
310
42D19858D95C185D1D195C9B90F409028333333333333E33F0000000000000F9010790141107004050150841D405064090741402480A0350
1001
ACAD
1000
AcDbSavedByObjectVersion
1070
     0
  0
ACAD_PROXY_OBJECT
  5
2B
102
{ACAD_REACTORS
330
2A
102
}
330
2A
100
AcDbProxyObject
 90
      499
 91
      501
 93
      380
310
41119B185D240901404333333333333E33F0000000000000F9010740A907004050150841D405064090741402480A1B50
1001
ACAD
1000
AcDbSavedByObjectVersion
1070
     0
  0
ACAD_PROXY_OBJECT
  5
2C
102
{ACAD_REACTORS
330
2A
102
}
330
2A
100
AcDbProxyObject
 90
      499
 91
      501
 93
      468
310
43519B185D15DA5D1A115919D95CD0140901404333333333333E33F0000000000000F90107409019070040501600405405064090741402480A1B50
1001
ACAD
1000
AcDbSavedByObjectVersion
1070
     0
  0
ACAD_PROXY_OBJECT
  5
2D
102
{ACAD_REACTORS
330
2A
102
}
330
2A
100
AcDbProxyObject
 90
      499
 91
      501
 93
      404
310
41D1DBDD5C985D5910240902404333333333333E33F0000000000000F9010740A9070040501641D405064090741402480A1B50
1001
ACAD
1000
AcDbSavedByObjectVersion
1070
     0
  0
ACAD_PROXY_OBJECT
  5
2E
102
{ACAD_REACTORS
330
2A
102
}
330
2A
100
AcDbProxyObject
 90
      499
 91
      501
 93
      492
310
4411DBDD5C985D5915DA5D1A115919D95CD0340902404333333333333E33F0000000000000F90107409019070040501600405405064090741402480A1B50
1001
ACAD
1000
AcDbSavedByObjectVersion
1070
     0
  0
ACAD_PROXY_OBJECT
  5
31
102
{ACAD_REACTORS
330
2A
102
}
330
2A
100
AcDbProxyObject
 90
      499
 91
      501
 93
      476
310
41921A5919195B90640502408333333333333E33F0000000000000F901079024090700405020000000000001110200405405064090740C02480A0340
1001
ACAD
1000
AcDbSavedByObjectVersion
1070
     0
  0
ACAD_PROXY_OBJECT
  5
3B
102
{ACAD_REACTORS
330
2A
102
}
330
2A
100
AcDbProxyObject
 90
      499
 91
      501
 93
      428
310
42529A5D1D195C93D999914409028333333333333E33F0000000000000F9010790141107004050150A41D405064090741402480A0350
1001
ACAD
1000
AcDbSavedByObjectVersion
1070
     0
  0
ACAD_PROXY_OBJECT
  5
38
102
{ACAD_REACTORS
330
2A
102
}
330
2A
100
AcDbProxyObject
 90
      499
 91
      501
 93
      444
310
42D31A5B995C185D1D195C9B90E409028333333333333E33F0000000000000F9010790141107004050750841D405064090741402483A0350
1001
ACAD
1000
AcDbSavedByObjectVersion
1070
     0
  0
ACAD_PROXY_OBJECT
  5
3C
102
{ACAD_REACTORS
330
2A
102
}
330
2A
100
AcDbProxyObject
 90
      499
 91
      501
 93
      444
310
42D3DD995C9A185B99D3D999915409028333333333333E33F0000000000000F9010790141107004050150941D405064090741402480A0350
1001
ACAD
1000
AcDbSavedByObjectVersion
1070
     0
  0
ACAD_PROXY_OBJECT
  5
33
102
{ACAD_REACTORS
330
2A
102
}
330
2A
100
AcDbProxyObject
 90
      499
 91
      501
 93
      428
310
425499585B1A5CDD1A58D08409038333333333333E33F0000000000000F9010740A907004050150800405405064090740C02480A1B40
1001
ACAD
1000
AcDbSavedByObjectVersion
1070
     0
  0
ACAD_PROXY_OBJECT
  5
42
102
{ACAD_REACTORS
330
2A
102
}
330
2A
100
AcDbProxyObject
 90
      499
 91
      501
 93
      420
310
4194DA1859195911B40902404333333333333E33F0000000000000F9010740A41107004050150800405405064090840C02480A0B40
1001
ACAD
1000
AcDbSavedByObjectVersion
1070
     0
  0
ACAD_PROXY_OBJECT
  5
41
102
{ACAD_REACTORS
330
2A
102
}
330
2A
100
AcDbProxyObject
 90
      499
 91
      501
 93
      516
310
4454DA18591959081DDA5D1A08195919D95CD1A40902404333333333333E33F0000000000000F901074090142907004050250800405405064090740C02480A0B40
1001
ACAD
1000
AcDbSavedByObjectVersion
1070
     0
  0
ACAD_PROXY_OBJECT
  5
3E
102
{ACAD_REACTORS
330
2A
102
}
330
2A
100
AcDbProxyObject
 90
      499
 91
      501
 93
      532
310
4394DA1859195CC81BD98811DC985E5174090240C333333333333E33F0000000000000F901079024090741D01000000000000111010841D405064090740C02480A0340
1001
ACAD
1000
AcDbSavedByObjectVersion
1070
     0
  0
ACAD_PROXY_OBJECT
  5
3F
102
{ACAD_REACTORS
330
2A
102
}
330
2A
100
AcDbProxyObject
 90
      499
 91
      501
 93
      476
310
41D4DAD95D18DA1E51840502408333333333333E33F0000000000000F901079024090741D01000000000000111010B41D405064090741802480A0340
1001
ACAD
1000
AcDbSavedByObjectVersion
1070
     0
  0
ACAD_PROXY_OBJECT
  5
37
102
{ACAD_REACTORS
330
2A
102
}
330
2A
100
AcDbProxyObject
 90
      499
 91
      501
 93
      412
310
41D51A1A58DAD95B90D409028333333333333E33F0000000000000F9010790141107004050150C41D405064090741402480A0350
1001
ACAD
1000
AcDbSavedByObjectVersion
1070
     0
  0
ACAD_PROXY_OBJECT
  5
30
102
{ACAD_REACTORS
330
2A
102
}
330
2A
100
AcDbProxyObject
 90
      499
 91
      501
 93
      420
310
4255DA5C99599C985B595059028333333333333E33F0000000000000F90107901411070040501600405405064090740C02480A0340
1001
ACAD
1000
AcDbSavedByObjectVersion
1070
     0
  0
ACAD_PROXY_OBJECT
  5
40
102
{ACAD_REACTORS
330
2A
102
}
330
2A
100
AcDbProxyObject
 90
      499
 91
      501
 93
      404
310
41560B54985E51940902404000000000000E03F0000000000000F9010740501907004050150841D405064090740C02480A1B40
1001
ACAD
1000
AcDbSavedByObjectVersion
1070
     0
  0
XRECORD
  5
48B
102
{ACAD_REACTORS
330
481
102
}
330
481
100
AcDbXrecord
340
0
  0
XRECORD
  5
48A
102
{ACAD_REACTORS
330
481
102
}
330
481
100
AcDbXrecord
 90
        0
  0
XRECORD
  5
4A1
102
{ACAD_REACTORS
330
481
102
}
330
481
100
AcDbXrecord
1000
DSTYLE
1002
{
1070
   171
 70
     2
1070
   143
 40
25.4
1070
   274
 70
     2
1070
    41
 40
0.18
1070
   141
 40
0.09
1070
   271
 70
     4
1070
    43
 40
0.38
1070
   278
 70
    46
1070
    44
 40
0.18
1070
    42
 40
0.0625
1070
   147
 40
0.09
1070
    77
 70
     0
1070
   272
 70
     4
1070
    73
 70
     1
1070
   172
 70
     0
1070
    74
 70
     1
1070
   283
 70
     1
1070
   340
340
11
1070
   140
 40
0.18
1070
   284
 70
     0
1070
    78
 70
     0
1002
}
  0
XRECORD
  5
48C
102
{ACAD_REACTORS
330
481
102
}
330
481
100
AcDbXrecord
  1
{fa9e8527-dbaa-4599-b618-9d51f9a7123e}
  0
XRECORD
  5
484
102
{ACAD_REACTORS
330
481
102
}
330
481
100
AcDbXrecord
  1

  0
XRECORD
  5
489
102
{ACAD_REACTORS
330
481
102
}
330
481
100
AcDbXrecord
 90
        6
  0
XRECORD
  5
486
102
{ACAD_REACTORS
330
481
102
}
330
481
100
AcDbXrecord
340
1A
  0
XRECORD
  5
488
102
{ACAD_REACTORS
330
481
102
}
330
481
100
AcDbXrecord
 90
    10781
  0
XRECORD
  5
487
102
{ACAD_REACTORS
330
481
102
}
330
481
100
AcDbXrecord
340
19
  0
XRECORD
  5
48E
102
{ACAD_REACTORS
330
481
102
}
330
481
100
AcDbXrecord
 40
0.0
  0
XRECORD
  5
491
102
{ACAD_REACTORS
330
481
102
}
330
481
100
AcDbXrecord
340
0
  0
XRECORD
  5
497
102
{ACAD_REACTORS
330
481
102
}
330
481
100
AcDbXrecord
 10
0.0
 20
0.0
 30
0.0
  0
XRECORD
  5
493
102
{ACAD_REACTORS
330
481
102
}
330
481
100
AcDbXrecord
 10
0.0
 20
0.0
 30
0.0
  0
XRECORD
  5
496
102
{ACAD_REACTORS
330
481
102
}
330
481
100
AcDbXrecord
 10
0.0
 20
0.0
 30
0.0
  0
XRECORD
  5
494
102
{ACAD_REACTORS
330
481
102
}
330
481
100
AcDbXrecord
 10
0.0
 20
0.0
 30
0.0
  0
XRECORD
  5
495
102
{ACAD_REACTORS
330
481
102
}
330
481
100
AcDbXrecord
 10
0.0
 20
0.0
 30
0.0
  0
XRECORD
  5
492
102
{ACAD_REACTORS
330
481
102
}
330
481
100
AcDbXrecord
 10
0.0
 20
0.0
 30
0.0
  0
XRECORD
  5
48F
102
{ACAD_REACTORS
330
481
102
}
330
481
100
AcDbXrecord
340
0
  0
XRECORD
  5
490
102
{ACAD_REACTORS
330
481
102
}
330
481
100
AcDbXrecord
 70
     0
  0
XRECORD
  5
485
102
{ACAD_REACTORS
330
481
102
}
330
481
100
AcDbXrecord
  1

  0
XRECORD
  5
482
102
{ACAD_REACTORS
330
481
102
}
330
481
100
AcDbXrecord
 90
        1
  0
XRECORD
  5
483
102
{ACAD_REACTORS
330
481
102
}
330
481
100
AcDbXrecord
 90
       70
  0
XRECORD
  5
49A
102
{ACAD_REACTORS
330
481
102
}
330
481
100
AcDbXrecord
340
0
  0
XRECORD
  5
4A0
102
{ACAD_REACTORS
330
481
102
}
330
481
100
AcDbXrecord
 10
0.0
 20
0.0
 30
0.0
  0
XRECORD
  5
49C
102
{ACAD_REACTORS
330
481
102
}
330
481
100
AcDbXrecord
 10
0.0
 20
0.0
 30
0.0
  0
XRECORD
  5
49F
102
{ACAD_REACTORS
330
481
102
}
330
481
100
AcDbXrecord
 10
0.0
 20
0.0
 30
0.0
  0
XRECORD
  5
49D
102
{ACAD_REACTORS
330
481
102
}
330
481
100
AcDbXrecord
 10
0.0
 20
0.0
 30
0.0
  0
XRECORD
  5
49E
102
{ACAD_REACTORS
330
481
102
}
330
481
100
AcDbXrecord
 10
0.0
 20
0.0
 30
0.0
  0
XRECORD
  5
49B
102
{ACAD_REACTORS
330
481
102
}
330
481
100
AcDbXrecord
 10
0.0
 20
0.0
 30
0.0
  0
XRECORD
  5
498
102
{ACAD_REACTORS
330
481
102
}
330
481
100
AcDbXrecord
340
0
  0
XRECORD
  5
499
102
{ACAD_REACTORS
330
481
102
}
330
481
100
AcDbXrecord
 70
     0
  0
XRECORD
  5
48D
102
{ACAD_REACTORS
330
481
102
}
330
481
100
AcDbXrecord
  1
{FAEB1C32-E019-11D5-929B-00C0DF256EC4}
  0
DICTIONARYVAR
  5
4AC
102
{ACAD_REACTORS
330
4A2
102
}
330
4A2
100
DictionaryVariables
280
     0
  1
1:1
  0
DICTIONARYVAR
  5
4A4
102
{ACAD_REACTORS
330
4A2
102
}
330
4A2
100
DictionaryVariables
280
     0
  1
Standard
  0
DICTIONARYVAR
  5
4A3
102
{ACAD_REACTORS
330
4A2
102
}
330
4A2
100
DictionaryVariables
280
     0
  1
Standard
  0
DICTIONARYVAR
  5
4A7
102
{ACAD_REACTORS
330
4A2
102
}
330
4A2
100
DictionaryVariables
280
     0
  1
2
  0
DICTIONARYVAR
  5
4A8
102
{ACAD_REACTORS
330
4A2
102
}
330
4A2
100
DictionaryVariables
280
     0
  1
1
  0
DICTIONARYVAR
  5
4AD
102
{ACAD_REACTORS
330
4A2
102
}
330
4A2
100
DictionaryVariables
280
     0
  1
1
  0
DICTIONARY
  5
4B0
330
45
100
AcDbDictionary
280
     1
  3
ACAD_XREC_ROUNDTRIP
360
4B1
  0
DICTIONARY
  5
4AE
330
44
100
AcDbDictionary
280
     1
  3
ACAD_XREC_ROUNDTRIP
360
4AF
  0
DICTIONARY
  5
4B2
330
46
100
AcDbDictionary
280
     1
  3
ACAD_XREC_ROUNDTRIP
360
4B3
  0
XRECORD
  5
4B1
102
{ACAD_REACTORS
330
4B0
102
}
330
4B0
100
AcDbXrecord
102
MATERIAL
148
0.0
149
0.0
149
0.0
 93
        0
 94
      127
282
     0
 72
     1
 77
     1
171
     1
175
     1
179
     1
273
     0
  0
XRECORD
  5
4AF
102
{ACAD_REACTORS
330
4AE
102
}
330
4AE
100
AcDbXrecord
102
MATERIAL
148
0.0
149
0.0
149
0.0
 93
        0
 94
      127
282
     0
 72
     1
 77
     1
171
     1
175
     1
179
     1
273
     0
  0
XRECORD
  5
4B3
102
{ACAD_REACTORS
330
4B2
102
}
330
4B2
100
AcDbXrecord
102
MATERIAL
148
0.0
149
0.0
149
0.0
 93
        0
 94
      127
282
     0
 72
     1
 77
     1
171
     1
175
     1
179
     1
273
     0
  0
ENDSEC
  0
EOF
