  0
SECTION
  2
HEADER
  9
$ACADVER
  1
AC1014
  9
$ACADMAINTVER
 70
     9
  9
$DWGCODEPAGE
  3
ANSI_1252
  9
$INSBASE
 10
0.0
 20
0.0
 30
0.0
  9
$EXTMIN
 10
1.000000000000000E+20
 20
1.000000000000000E+20
 30
1.000000000000000E+20
  9
$EXTMAX
 10
-1.000000000000000E+20
 20
-1.000000000000000E+20
 30
-1.000000000000000E+20
  9
$LIMMIN
 10
0.0
 20
0.0
  9
$LIMMAX
 10
12.0
 20
9.0
  9
$ORTHOMODE
 70
     0
  9
$REGENMODE
 70
     1
  9
$FILLMODE
 70
     1
  9
$QTEXTMODE
 70
     0
  9
$MIRRTEXT
 70
     1
  9
$DRAGMODE
 70
     2
  9
$LTSCALE
 40
1.0
  9
$OSMODE
 70
    37
  9
$ATTMODE
 70
     1
  9
$TEXTSIZE
 40
0.2
  9
$TRACEWID
 40
0.05
  9
$TEXTSTYLE
  7
STANDARD
  9
$CLAYER
  8
0
  9
$CELTYPE
  6
BYLAYER
  9
$CECOLOR
 62
   256
  9
$CELTSCALE
 40
1.0
  9
$DELOBJ
 70
     1
  9
$DISPSILH
 70
     0
  9
$DIMSCALE
 40
1.0
  9
$DIMASZ
 40
0.18
  9
$DIMEXO
 40
0.0625
  9
$DIMDLI
 40
0.38
  9
$DIMRND
 40
0.0
  9
$DIMDLE
 40
0.0
  9
$DIMEXE
 40
0.18
  9
$DIMTP
 40
0.0
  9
$DIMTM
 40
0.0
  9
$DIMTXT
 40
0.18
  9
$DIMCEN
 40
0.09
  9
$DIMTSZ
 40
0.0
  9
$DIMTOL
 70
     0
  9
$DIMLIM
 70
     0
  9
$DIMTIH
 70
     1
  9
$DIMTOH
 70
     1
  9
$DIMSE1
 70
     0
  9
$DIMSE2
 70
     0
  9
$DIMTAD
 70
     0
  9
$DIMZIN
 70
     0
  9
$DIMBLK
  1

  9
$DIMASO
 70
     1
  9
$DIMSHO
 70
     1
  9
$DIMPOST
  1

  9
$DIMAPOST
  1

  9
$DIMALT
 70
     0
  9
$DIMALTD
 70
     2
  9
$DIMALTF
 40
25.4
  9
$DIMLFAC
 40
1.0
  9
$DIMTOFL
 70
     0
  9
$DIMTVP
 40
0.0
  9
$DIMTIX
 70
     0
  9
$DIMSOXD
 70
     0
  9
$DIMSAH
 70
     0
  9
$DIMBLK1
  1

  9
$DIMBLK2
  1

  9
$DIMSTYLE
  2
STANDARD
  9
$DIMCLRD
 70
     0
  9
$DIMCLRE
 70
     0
  9
$DIMCLRT
 70
     0
  9
$DIMTFAC
 40
1.0
  9
$DIMGAP
 40
0.09
  9
$DIMJUST
 70
     0
  9
$DIMSD1
 70
     0
  9
$DIMSD2
 70
     0
  9
$DIMTOLJ
 70
     1
  9
$DIMTZIN
 70
     0
  9
$DIMALTZ
 70
     0
  9
$DIMALTTZ
 70
     0
  9
$DIMFIT
 70
     3
  9
$DIMUPT
 70
     0
  9
$DIMUNIT
 70
     2
  9
$DIMDEC
 70
     4
  9
$DIMTDEC
 70
     4
  9
$DIMALTU
 70
     2
  9
$DIMALTTD
 70
     2
  9
$DIMTXSTY
  7
STANDARD
  9
$DIMAUNIT
 70
     0
  9
$LUNITS
 70
     2
  9
$LUPREC
 70
     4
  9
$SKETCHINC
 40
0.1
  9
$FILLETRAD
 40
0.0
  9
$AUNITS
 70
     0
  9
$AUPREC
 70
     0
  9
$MENU
  1
.
  9
$ELEVATION
 40
0.0
  9
$PELEVATION
 40
0.0
  9
$THICKNESS
 40
0.0
  9
$LIMCHECK
 70
     0
  9
$CHAMFERA
 40
0.0
  9
$CHAMFERB
 40
0.0
  9
$CHAMFERC
 40
0.0
  9
$CHAMFERD
 40
0.0
  9
$SKPOLY
 70
     0
  9
$TDCREATE
 40
2460501.508156273
  9
$TDUPDATE
 40
2460501.508183681
  9
$TDINDWG
 40
0.0000000116
  9
$TDUSRTIMER
 40
0.0000000116
  9
$USRTIMER
 70
     1
  9
$ANGBASE
 50
0.0
  9
$ANGDIR
 70
     0
  9
$PDMODE
 70
     0
  9
$PDSIZE
 40
0.0
  9
$PLINEWID
 40
0.0
  9
$COORDS
 70
     1
  9
$SPLFRAME
 70
     0
  9
$SPLINETYPE
 70
     6
  9
$SPLINESEGS
 70
     8
  9
$ATTDIA
 70
     0
  9
$ATTREQ
 70
     1
  9
$HANDLING
 70
     1
  9
$HANDSEED
  5
7CF
  9
$SURFTAB1
 70
     6
  9
$SURFTAB2
 70
     6
  9
$SURFTYPE
 70
     6
  9
$SURFU
 70
     6
  9
$SURFV
 70
     6
  9
$UCSNAME
  2

  9
$UCSORG
 10
0.0
 20
0.0
 30
0.0
  9
$UCSXDIR
 10
1.0
 20
0.0
 30
0.0
  9
$UCSYDIR
 10
0.0
 20
1.0
 30
0.0
  9
$PUCSNAME
  2

  9
$PUCSORG
 10
0.0
 20
0.0
 30
0.0
  9
$PUCSXDIR
 10
1.0
 20
0.0
 30
0.0
  9
$PUCSYDIR
 10
0.0
 20
1.0
 30
0.0
  9
$USERI1
 70
     0
  9
$USERI2
 70
     0
  9
$USERI3
 70
     0
  9
$USERI4
 70
     0
  9
$USERI5
 70
     0
  9
$USERR1
 40
0.0
  9
$USERR2
 40
0.0
  9
$USERR3
 40
0.0
  9
$USERR4
 40
0.0
  9
$USERR5
 40
0.0
  9
$WORLDVIEW
 70
     1
  9
$SHADEDGE
 70
     3
  9
$SHADEDIF
 70
    70
  9
$TILEMODE
 70
     1
  9
$MAXACTVP
 70
    64
  9
$PINSBASE
 10
0.0
 20
0.0
 30
0.0
  9
$PLIMCHECK
 70
     0
  9
$PEXTMIN
 10
1.000000000000000E+20
 20
1.000000000000000E+20
 30
1.000000000000000E+20
  9
$PEXTMAX
 10
-1.000000000000000E+20
 20
-1.000000000000000E+20
 30
-1.000000000000000E+20
  9
$PLIMMIN
 10
0.0
 20
0.0
  9
$PLIMMAX
 10
12.0
 20
9.0
  9
$UNITMODE
 70
     0
  9
$VISRETAIN
 70
     1
  9
$PLINEGEN
 70
     0
  9
$PSLTSCALE
 70
     1
  9
$TREEDEPTH
 70
  3020
  9
$PICKSTYLE
 70
     1
  9
$CMLSTYLE
  2
STANDARD
  9
$CMLJUST
 70
     0
  9
$CMLSCALE
 40
1.0
  9
$PROXYGRAPHICS
 70
     1
  9
$MEASUREMENT
 70
     1
  0
ENDSEC
  0
SECTION
  2
CLASSES
  0
CLASS
  1
ACDBDICTIONARYWDFLT
  2
AcDbDictionaryWithDefault
  3
ObjectDBX Classes
 90
        0
280
     0
281
     0
  0
CLASS
  1
VISUALSTYLE
  2
AcDbVisualStyle
  3
ObjectDBX Classes
 90
     4095
280
     0
281
     0
  0
CLASS
  1
MATERIAL
  2
AcDbMaterial
  3
ObjectDBX Classes
 90
     1153
280
     0
281
     0
  0
CLASS
  1
SCALE
  2
AcDbScale
  3
ObjectDBX Classes
 90
     1153
280
     0
281
     0
  0
CLASS
  1
TABLESTYLE
  2
AcDbTableStyle
  3
ObjectDBX Classes
 90
     4095
280
     0
281
     0
  0
CLASS
  1
MLEADERSTYLE
  2
AcDbMLeaderStyle
  3
ACDB_MLEADERSTYLE_CLASS
 90
     4095
280
     0
281
     0
  0
CLASS
  1
SUN
  2
AcDbSun
  3
SCENEOE
 90
     1153
280
     0
281
     0
  0
CLASS
  1
DICTIONARYVAR
  2
AcDbDictionaryVar
  3
ObjectDBX Classes
 90
        0
280
     0
281
     0
  0
CLASS
  1
XRECORD
  2
AcDbXrecord
  3
ObjectDBX Classes
 90
        0
280
     0
281
     0
  0
CLASS
  1
LWPOLYLINE
  2
AcDbPolyline
  3
ObjectDBX Classes
 90
        0
280
     0
281
     1
  0
CLASS
  1
HATCH
  2
AcDbHatch
  3
ObjectDBX Classes
 90
        0
280
     0
281
     1
  0
CLASS
  1
ACDBPLACEHOLDER
  2
AcDbPlaceHolder
  3
ObjectDBX Classes
 90
        0
280
     0
281
     0
  0
CLASS
  1
LAYOUT
  2
AcDbLayout
  3
ObjectDBX Classes
 90
        0
280
     0
281
     0
  0
ENDSEC
  0
SECTION
  2
TABLES
  0
TABLE
  2
VPORT
  5
8
102
{ACAD_XDICTIONARY
360
7C4
102
}
330
0
100
AcDbSymbolTable
 70
     1
  0
VPORT
  5
29
330
8
100
AcDbSymbolTableRecord
100
AcDbViewportTableRecord
  2
*ACTIVE
 70
     0
 10
0.0
 20
0.0
 11
1.0
 21
1.0
 12
0.0
 22
0.0
 13
0.0
 23
0.0
 14
0.5
 24
0.5
 15
0.5
 25
0.5
 16
0.0
 26
0.0
 36
1.0
 17
0.0
 27
0.0
 37
-1000.0
 40
0.1915716833678198
 41
1.894193548387097
 42
50.0
 43
0.2866381701857796
 44
0.484072275260461
 50
0.0
 51
0.0
 71
     0
 72
   100
 73
     1
 74
     3
 75
     0
 76
     0
 77
     0
 78
     0
  0
ENDTAB
  0
TABLE
  2
LTYPE
  5
5
330
0
100
AcDbSymbolTable
 70
     1
  0
LTYPE
  5
14
330
5
100
AcDbSymbolTableRecord
100
AcDbLinetypeTableRecord
  2
BYBLOCK
 70
     0
  3

 72
    65
 73
     0
 40
0.0
  0
LTYPE
  5
15
330
5
100
AcDbSymbolTableRecord
100
AcDbLinetypeTableRecord
  2
BYLAYER
 70
     0
  3

 72
    65
 73
     0
 40
0.0
  0
LTYPE
  5
16
330
5
100
AcDbSymbolTableRecord
100
AcDbLinetypeTableRecord
  2
CONTINUOUS
 70
     0
  3
Solid line
 72
    65
 73
     0
 40
0.0
  0
ENDTAB
  0
TABLE
  2
LAYER
  5
2
330
0
100
AcDbSymbolTable
 70
     3
  0
LAYER
  5
10
330
2
100
AcDbSymbolTableRecord
100
AcDbLayerTableRecord
  2
0
 70
     0
 62
     7
  6
CONTINUOUS
  0
LAYER
  5
5E
330
2
100
AcDbSymbolTableRecord
100
AcDbLayerTableRecord
  2
PROFILEEDGES
 70
     0
 62
     7
  6
CONTINUOUS
  0
LAYER
  5
5F
330
2
100
AcDbSymbolTableRecord
100
AcDbLayerTableRecord
  2
SECTIONCUTEDGES
 70
     0
 62
     7
  6
CONTINUOUS
  0
ENDTAB
  0
TABLE
  2
STYLE
  5
3
330
0
100
AcDbSymbolTable
 70
     1
  0
STYLE
  5
11
330
3
100
AcDbSymbolTableRecord
100
AcDbTextStyleTableRecord
  2
STANDARD
 70
     0
 40
0.0
 41
1.0
 50
0.0
 71
     0
 42
0.2
  3
txt
  4

  0
ENDTAB
  0
TABLE
  2
VIEW
  5
6
330
0
100
AcDbSymbolTable
 70
     0
  0
ENDTAB
  0
TABLE
  2
UCS
  5
7
330
0
100
AcDbSymbolTable
 70
     0
  0
ENDTAB
  0
TABLE
  2
APPID
  5
9
330
0
100
AcDbSymbolTable
 70
     2
  0
APPID
  5
12
330
9
100
AcDbSymbolTableRecord
100
AcDbRegAppTableRecord
  2
ACAD
 70
     0
  0
APPID
  5
7CE
330
9
100
AcDbSymbolTableRecord
100
AcDbRegAppTableRecord
  2
ACAD_MLEADERVER
 70
     0
  0
ENDTAB
  0
TABLE
  2
DIMSTYLE
  5
A
330
0
100
AcDbSymbolTable
 70
     1
  0
DIMSTYLE
105
27
330
A
100
AcDbSymbolTableRecord
100
AcDbDimStyleTableRecord
  2
STANDARD
 70
     0
  3

  4

  5

  6

  7

 40
1.0
 41
0.18
 42
0.0625
 43
0.38
 44
0.18
 45
0.0
 46
0.0
 47
0.0
 48
0.0
140
0.18
141
0.09
142
0.0
143
25.4
144
1.0
145
0.0
146
1.0
147
0.09
 71
     0
 72
     0
 73
     1
 74
     1
 75
     0
 76
     0
 77
     0
 78
     0
170
     0
171
     2
172
     0
173
     0
174
     0
175
     0
176
     0
177
     0
178
     0
270
     2
271
     4
272
     4
273
     2
274
     2
340
11
275
     0
280
     0
281
     0
282
     0
283
     1
284
     0
285
     0
286
     0
287
     3
288
     0
  0
ENDTAB
  0
TABLE
  2
BLOCK_RECORD
  5
1
330
0
100
AcDbSymbolTable
 70
     0
  0
BLOCK_RECORD
  5
1F
330
1
100
AcDbSymbolTableRecord
100
AcDbBlockTableRecord
  2
*MODEL_SPACE
  0
BLOCK_RECORD
  5
1B
330
1
100
AcDbSymbolTableRecord
100
AcDbBlockTableRecord
  2
*PAPER_SPACE
  0
ENDTAB
  0
ENDSEC
  0
SECTION
  2
BLOCKS
  0
BLOCK
  5
20
330
1F
100
AcDbEntity
  8
0
100
AcDbBlockBegin
  2
*MODEL_SPACE
 70
     0
 10
0.0
 20
0.0
 30
0.0
  3
*MODEL_SPACE
  1

  0
ENDBLK
  5
21
330
1F
100
AcDbEntity
  8
0
100
AcDbBlockEnd
  0
BLOCK
  5
1C
330
1B
100
AcDbEntity
 67
     1
  8
0
100
AcDbBlockBegin
  2
*PAPER_SPACE
 70
     0
 10
0.0
 20
0.0
 30
0.0
  3
*PAPER_SPACE
  1

  0
ENDBLK
  5
1D
330
1B
100
AcDbEntity
 67
     1
  8
0
100
AcDbBlockEnd
  0
ENDSEC
  0
SECTION
  2
ENTITIES
  0
LINE
  5
60
330
1F
100
AcDbEntity
  8
0
100
AcDbLine
 10
0.0377573351293132
 20
0.0218939792267299
 30
0.0
 11
0.0378529683263404
 21
0.0219072883739092
 31
0.0
  0
LINE
  5
61
330
1F
100
AcDbEntity
  8
0
100
AcDbLine
 10
0.0393735803722379
 20
0.0221044383536411
 30
0.0
 11
0.0395820609232791
 21
0.0221238192092773
 31
0.0
  0
LINE
  5
62
330
1F
100
AcDbEntity
  8
0
100
AcDbLine
 10
0.0395820609232791
 20
0.0221238192092773
 30
0.0
 11
0.0399226875893102
 21
0.0221609594943903
 31
0.0
  0
LINE
  5
63
330
1F
100
AcDbEntity
  8
0
100
AcDbLine
 10
0.0391666421173064
 20
0.0220785239606198
 30
0.0
 11
0.0393735803722379
 21
0.0221044383536411
 31
0.0
  0
LINE
  5
64
330
1F
100
AcDbEntity
  8
0
100
AcDbLine
 10
0.0428534502761848
 20
0.0223661008815599
 30
0.0
 11
0.043147735047443
 21
0.0223768383009527
 31
0.0
  0
LINE
  5
65
330
1F
100
AcDbEntity
  8
0
100
AcDbLine
 10
0.042484206046097
 20
0.0223480626367769
 30
0.0
 11
0.0427030569688136
 21
0.0223575534336221
 31
0.0
  0
LINE
  5
66
330
1F
100
AcDbEntity
  8
0
100
AcDbLine
 10
0.0503311940011997
 20
0.0223768383009527
 30
0.0
 11
0.0506254787724579
 21
0.0223661008815599
 31
0.0
  0
LINE
  5
67
330
1F
100
AcDbEntity
  8
0
100
AcDbLine
 10
0.050775872079829
 20
0.0223575534336221
 30
0.0
 11
0.0509947230025456
 21
0.0223480626367769
 31
0.0
  0
LINE
  5
68
330
1F
100
AcDbEntity
  8
0
100
AcDbLine
 10
0.0541100170380697
 20
0.0221024039444846
 30
0.0
 11
0.0543122869313362
 21
0.0220785239606198
 31
0.0
  0
LINE
  5
69
330
1F
100
AcDbEntity
  8
0
100
AcDbLine
 10
0.0535562414593325
 20
0.0221609594747517
 30
0.0
 11
0.0538968681253635
 21
0.0221238192092773
 31
0.0
  0
LINE
  5
6A
330
1F
100
AcDbEntity
  8
0
100
AcDbLine
 10
0.0538968681253635
 20
0.0221238192092773
 30
0.0
 11
0.0541100170380697
 21
0.0221024039444846
 31
0.0
  0
LINE
  5
6B
330
1F
100
AcDbEntity
  8
0
100
AcDbLine
 10
0.0642253225733661
 20
0.033821873877514
 30
0.0
 11
0.0642101745073551
 21
0.0338448201778443
 31
0.0
  0
LINE
  5
6C
330
1F
100
AcDbEntity
  8
0
100
AcDbLine
 10
0.0641777328132914
 20
0.0338583158195624
 30
0.0
 11
0.0642101745073551
 21
0.0338448201778443
 31
0.0
  0
LINE
  5
6D
330
1F
100
AcDbEntity
  8
0
100
AcDbLine
 10
-0.1553885425197742
 20
0.0181531615127822
 30
0.0
 11
-0.1553408101133326
 21
0.0181282885713667
 31
0.0
  0
LINE
  5
6E
330
1F
100
AcDbEntity
  8
0
100
AcDbLine
 10
-0.0303510807911358
 20
0.0671734408757967
 30
0.0
 11
-0.0305010642963884
 21
0.0673914094738046
 31
0.0
  0
LINE
  5
6F
330
1F
100
AcDbEntity
  8
0
100
AcDbLine
 10
-0.0305010642963884
 20
0.0673914094738046
 30
0.0
 11
-0.030666146403221
 21
0.0676136449261886
 31
0.0
  0
LINE
  5
70
330
1F
100
AcDbEntity
  8
0
100
AcDbLine
 10
-0.030216932097958
 20
0.0669428775369506
 30
0.0
 11
-0.0303510807911358
 21
0.0671734408757967
 31
0.0
  0
LINE
  5
71
330
1F
100
AcDbEntity
  8
0
100
AcDbLine
 10
-0.0300980931861808
 20
0.0667090980611506
 30
0.0
 11
-0.030216932097958
 21
0.0669428775369506
 31
0.0
  0
LINE
  5
72
330
1F
100
AcDbEntity
  8
0
100
AcDbLine
 10
-0.0299941177703864
 20
0.0664718121339885
 30
0.0
 11
-0.0300980931861808
 21
0.0667090980611506
 31
0.0
  0
LINE
  5
73
330
1F
100
AcDbEntity
  8
0
100
AcDbLine
 10
-0.0299046533781787
 20
0.0662306998838958
 30
0.0
 11
-0.0299941177703864
 21
0.0664718121339885
 31
0.0
  0
LINE
  5
74
330
1F
100
AcDbEntity
  8
0
100
AcDbLine
 10
-0.0298294326398015
 20
0.0659853891053555
 30
0.0
 11
-0.0299046533781787
 21
0.0662306998838958
 31
0.0
  0
LINE
  5
75
330
1F
100
AcDbEntity
  8
0
100
AcDbLine
 10
-0.0307531581697159
 20
0.0656486217120926
 30
0.0
 11
-0.0307451152288032
 21
0.0658431562323108
 31
0.0
  0
LINE
  5
76
330
1F
100
AcDbEntity
  8
0
100
AcDbLine
 10
-0.0307179390361661
 20
0.0663437048657374
 30
0.0
 11
-0.030712723252541
 21
0.0664099349884049
 31
0.0
  0
LINE
  5
77
330
1F
100
AcDbEntity
  8
0
100
AcDbLine
 10
-0.030692756518435
 20
0.0666850412615322
 30
0.0
 11
-0.0306821888856779
 21
0.0668090564716994
 31
0.0
  0
LINE
  5
78
330
1F
100
AcDbEntity
  8
0
100
AcDbLine
 10
-0.0307024013052703
 20
0.0665376568737758
 30
0.0
 11
-0.0306952867738676
 21
0.0666443935416963
 31
0.0
  0
LINE
  5
79
330
1F
100
AcDbEntity
  8
0
100
AcDbLine
 10
-0.0306821888856779
 20
0.0668090564716994
 30
0.0
 11
-0.0306747110927346
 21
0.0669002087154473
 31
0.0
  0
LINE
  5
7A
330
1F
100
AcDbEntity
  8
0
100
AcDbLine
 10
-0.0306716614883099
 20
0.0628202725606458
 30
0.0
 11
-0.030679083892204
 21
0.0629010827695335
 31
0.0
  0
LINE
  5
7B
330
1F
100
AcDbEntity
  8
0
100
AcDbLine
 10
-0.0306999554903176
 20
0.0631402132111837
 30
0.0
 11
-0.0307022013001836
 21
0.0631752409158227
 31
0.0
  0
LINE
  5
7C
330
1F
100
AcDbEntity
  8
0
100
AcDbLine
 10
-0.0307022013001836
 20
0.0631752409158227
 30
0.0
 11
-0.0307161360653858
 21
0.0633630607925919
 31
0.0
  0
LINE
  5
7D
330
1F
100
AcDbEntity
  8
0
100
AcDbLine
 10
-0.0307161360653858
 20
0.0633630607925919
 30
0.0
 11
-0.03072981872742
 21
0.0635801390268942
 31
0.0
  0
LINE
  5
7E
330
1F
100
AcDbEntity
  8
0
100
AcDbLine
 10
-0.03072981872742
 20
0.0635801390268942
 30
0.0
 11
-0.0307335722115502
 21
0.063660479396488
 31
0.0
  0
LINE
  5
7F
330
1F
100
AcDbEntity
  8
0
100
AcDbLine
 10
-0.0307335722115502
 20
0.063660479396488
 30
0.0
 11
-0.03074244186663
 21
0.0638223553305485
 31
0.0
  0
LINE
  5
80
330
1F
100
AcDbEntity
  8
0
100
AcDbLine
 10
-0.03074244186663
 20
0.0638223553305485
 30
0.0
 11
-0.0307483080061804
 21
0.0639721330405603
 31
0.0
  0
LINE
  5
81
330
1F
100
AcDbEntity
  8
0
100
AcDbLine
 10
-0.0307483080061804
 20
0.0639721330405603
 30
0.0
 11
-0.0307532548159743
 21
0.0640858935577073
 31
0.0
  0
LINE
  5
82
330
1F
100
AcDbEntity
  8
0
100
AcDbLine
 10
0.1452399106684927
 20
0.0703487273283305
 30
0.0
 11
0.1453136609084105
 21
0.070353943132667
 31
0.0
  0
LINE
  5
83
330
1F
100
AcDbEntity
  8
0
100
AcDbLine
 10
0.14842389038869
 20
0.0703364491112369
 30
0.0
 11
0.1485760220288082
 21
0.070323402051939
 31
0.0
  0
LINE
  5
84
330
1F
100
AcDbEntity
  8
0
100
AcDbLine
 10
0.1480933645270585
 20
0.0703580578994748
 30
0.0
 11
0.1481652681402324
 21
0.070353943132667
 31
0.0
  0
LINE
  5
85
330
1F
100
AcDbEntity
  8
0
100
AcDbLine
 10
0.1481652681402324
 20
0.070353943132667
 30
0.0
 11
0.1482390183818734
 21
0.0703487273490419
 31
0.0
  0
LINE
  5
86
330
1F
100
AcDbEntity
  8
0
100
AcDbLine
 10
0.1482390183818734
 20
0.0703487273490419
 30
0.0
 11
0.14842389038869
 21
0.0703364491112369
 31
0.0
  0
LINE
  5
87
330
1F
100
AcDbEntity
  8
0
100
AcDbLine
 10
0.1478023337446198
 20
0.070373909866773
 30
0.0
 11
0.1478626139053621
 21
0.0703713796113404
 31
0.0
  0
LINE
  5
88
330
1F
100
AcDbEntity
  8
0
100
AcDbLine
 10
0.1475197903909169
 20
0.0703860356317991
 30
0.0
 11
0.1475555353505057
 21
0.0703844774995301
 31
0.0
  0
LINE
  5
89
330
1F
100
AcDbEntity
  8
0
100
AcDbLine
 10
0.1490387958857493
 20
0.0707155855940722
 30
0.0
 11
0.149256764483756
 21
0.0705656020888204
 31
0.0
  0
LINE
  5
8A
330
1F
100
AcDbEntity
  8
0
100
AcDbLine
 10
0.0367394647478388
 20
0.0742741095702482
 30
0.0
 11
0.0367394647478388
 21
0.0792741094584895
 31
0.0
  0
LINE
  5
8B
330
1F
100
AcDbEntity
  8
0
100
AcDbLine
 10
0.0567394643008039
 20
0.0792741094584895
 30
0.0
 11
0.0567394643008039
 21
0.0742741095702482
 31
0.0
  0
LINE
  5
8C
330
1F
100
AcDbEntity
  8
0
100
AcDbLine
 10
0.0454394645207823
 20
0.0181282885713664
 30
0.0
 11
0.0457839683663362
 21
0.018103145308974
 31
0.0
  0
LINE
  5
8D
330
1F
100
AcDbEntity
  8
0
100
AcDbLine
 10
0.0464218791316991
 20
0.0180768196389536
 30
0.0
 11
0.0470570499169436
 21
0.0180768196389536
 31
0.0
  0
LINE
  5
8E
330
1F
100
AcDbEntity
  8
0
100
AcDbLine
 10
0.0480394645278604
 20
0.0185231691782942
 30
0.0
 11
0.0464218791316991
 21
0.0180768196389536
 31
0.0
  0
LINE
  5
8F
330
1F
100
AcDbEntity
  8
0
100
AcDbLine
 10
0.0470570499169436
 20
0.0180768196389536
 30
0.0
 11
0.0476949606823065
 21
0.018103145308974
 31
0.0
  0
LINE
  5
90
330
1F
100
AcDbEntity
  8
0
100
AcDbLine
 10
0.0476949606823065
 20
0.018103145308974
 30
0.0
 11
0.0480394645278604
 21
0.0181282885713664
 31
0.0
  0
LINE
  5
91
330
1F
100
AcDbEntity
  8
0
100
AcDbLine
 10
0.0478304075540791
 20
0.0192728268029768
 30
0.0
 11
0.0480394645278603
 21
0.0192278246021066
 31
0.0
  0
LINE
  5
92
330
1F
100
AcDbEntity
  8
0
100
AcDbLine
 10
0.0454394645207823
 20
0.0185231691782942
 30
0.0
 11
0.0464218791316991
 21
0.0180768196389536
 31
0.0
  0
LINE
  5
93
330
1F
100
AcDbEntity
  8
0
100
AcDbLine
 10
0.0457839683663362
 20
0.018103145308974
 30
0.0
 11
0.0464218791316991
 21
0.0180768196389536
 31
0.0
  0
LINE
  5
94
330
1F
100
AcDbEntity
  8
0
100
AcDbLine
 10
0.0543840470641182
 20
0.0199632031098684
 30
0.0
 11
0.0545162453142845
 21
0.0200438120117665
 31
0.0
  0
LINE
  5
95
330
1F
100
AcDbEntity
  8
0
100
AcDbLine
 10
0.0389626837343582
 20
0.0200438120117665
 30
0.0
 11
0.0390948819845245
 21
0.0199632031098684
 31
0.0
  0
LINE
  5
96
330
1F
100
AcDbEntity
  8
0
100
AcDbLine
 10
0.0547394649043009
 20
0.0197962449542362
 30
0.0
 11
0.0546501110225246
 21
0.0199621863644568
 31
0.0
  0
LINE
  5
97
330
1F
100
AcDbEntity
  8
0
100
AcDbLine
 10
0.0543840470641182
 20
0.0201244209136646
 30
0.0
 11
0.0539472153327689
 21
0.0202793245486663
 31
0.0
  0
LINE
  5
98
330
1F
100
AcDbEntity
  8
0
100
AcDbLine
 10
0.0539472153327689
 20
0.0202793245486663
 30
0.0
 11
0.053349374692075
 21
0.020423436984893
 31
0.0
  0
LINE
  5
99
330
1F
100
AcDbEntity
  8
0
100
AcDbLine
 10
0.053349374692075
 20
0.020423436984893
 30
0.0
 11
0.0526038793764339
 21
0.0205535390055798
 31
0.0
  0
LINE
  5
9A
330
1F
100
AcDbEntity
  8
0
100
AcDbLine
 10
0.0526038793764339
 20
0.0205535390055798
 30
0.0
 11
0.0517273828304634
 21
0.0206667243171129
 31
0.0
  0
LINE
  5
9B
330
1F
100
AcDbEntity
  8
0
100
AcDbLine
 10
0.0517273828304634
 20
0.0206667243171129
 30
0.0
 11
0.0507394647143111
 21
0.0207604645185771
 31
0.0
  0
LINE
  5
9C
330
1F
100
AcDbEntity
  8
0
100
AcDbLine
 10
0.0507394647143111
 20
0.0207604645185771
 30
0.0
 11
0.0496621927163825
 21
0.0208326656787279
 31
0.0
  0
LINE
  5
9D
330
1F
100
AcDbEntity
  8
0
100
AcDbLine
 10
0.0496621927163825
 20
0.0208326656787279
 30
0.0
 11
0.048519631979175
 21
0.0208817149326044
 31
0.0
  0
LINE
  5
9E
330
1F
100
AcDbEntity
  8
0
100
AcDbLine
 10
0.048519631979175
 20
0.0208817149326044
 30
0.0
 11
0.0473373052814306
 21
0.0209065165145155
 31
0.0
  0
LINE
  5
9F
330
1F
100
AcDbEntity
  8
0
100
AcDbLine
 10
0.0473373052814306
 20
0.0209065165145155
 30
0.0
 11
0.0461416237672121
 21
0.0209065165145155
 31
0.0
  0
LINE
  5
A0
330
1F
100
AcDbEntity
  8
0
100
AcDbLine
 10
0.0461416237672121
 20
0.0209065165145155
 30
0.0
 11
0.0449592970694677
 21
0.0208817149326044
 31
0.0
  0
LINE
  5
A1
330
1F
100
AcDbEntity
  8
0
100
AcDbLine
 10
0.0449592970694677
 20
0.0208817149326044
 30
0.0
 11
0.0438167363322601
 21
0.0208326656787279
 31
0.0
  0
LINE
  5
A2
330
1F
100
AcDbEntity
  8
0
100
AcDbLine
 10
0.0438167363322601
 20
0.0208326656787279
 30
0.0
 11
0.0427394643343315
 21
0.0207604645185771
 31
0.0
  0
LINE
  5
A3
330
1F
100
AcDbEntity
  8
0
100
AcDbLine
 10
0.0427394643343315
 20
0.0207604645185771
 30
0.0
 11
0.0417515462181792
 21
0.0206667243171129
 31
0.0
  0
LINE
  5
A4
330
1F
100
AcDbEntity
  8
0
100
AcDbLine
 10
0.0417515462181792
 20
0.0206667243171129
 30
0.0
 11
0.0408750496722088
 21
0.0205535390055798
 31
0.0
  0
LINE
  5
A5
330
1F
100
AcDbEntity
  8
0
100
AcDbLine
 10
0.0408750496722088
 20
0.0205535390055798
 30
0.0
 11
0.0401295543565676
 21
0.020423436984893
 31
0.0
  0
LINE
  5
A6
330
1F
100
AcDbEntity
  8
0
100
AcDbLine
 10
0.0401295543565676
 20
0.020423436984893
 30
0.0
 11
0.0395317137158737
 21
0.0202793245486663
 31
0.0
  0
LINE
  5
A7
330
1F
100
AcDbEntity
  8
0
100
AcDbLine
 10
0.0395317137158737
 20
0.0202793245486663
 30
0.0
 11
0.0390948819845245
 21
0.0201244209136646
 31
0.0
  0
LINE
  5
A8
330
1F
100
AcDbEntity
  8
0
100
AcDbLine
 10
0.0388288180261181
 20
0.0199621863644568
 30
0.0
 11
0.0387394641443417
 21
0.0197962449542362
 31
0.0
  0
LINE
  5
A9
330
1F
100
AcDbEntity
  8
0
100
AcDbLine
 10
0.055556569147043
 20
0.0196275834100273
 30
0.0
 11
0.0553094287320302
 21
0.0194620637023944
 31
0.0
  0
LINE
  5
AA
330
1F
100
AcDbEntity
  8
0
100
AcDbLine
 10
0.0543437971650884
 20
0.0191526671176988
 30
0.0
 11
0.0536432949743495
 21
0.0190145537847665
 31
0.0
  0
LINE
  5
AB
330
1F
100
AcDbEntity
  8
0
100
AcDbLine
 10
0.0477486018378706
 20
0.0192278246021066
 30
0.0
 11
0.0477030388302007
 21
0.0192644464337096
 31
0.0
  0
LINE
  5
AC
330
1F
100
AcDbEntity
  8
0
100
AcDbLine
 10
0.045654024800733
 20
0.0192511806967679
 30
0.0
 11
0.0456701914652494
 21
0.0192278246021066
 31
0.0
  0
LINE
  5
AD
330
1F
100
AcDbEntity
  8
0
100
AcDbLine
 10
0.0461321070474834
 20
0.019261854902593
 30
0.0
 11
0.0461321070474834
 21
0.0192278246021066
 31
0.0
  0
LINE
  5
AE
330
1F
100
AcDbEntity
  8
0
100
AcDbLine
 10
0.0398356340742932
 20
0.0190145537847665
 30
0.0
 11
0.0391351318835542
 21
0.0191526671176988
 31
0.0
  0
LINE
  5
AF
330
1F
100
AcDbEntity
  8
0
100
AcDbLine
 10
0.0381695003166125
 20
0.0194620637023944
 30
0.0
 11
0.0379223599015997
 21
0.0196275834100273
 31
0.0
  0
LINE
  5
B0
330
1F
100
AcDbEntity
  8
0
100
AcDbLine
 10
0.054902644726567
 20
0.019302769162917
 30
0.0
 11
0.0543437971650884
 21
0.0191526671176988
 31
0.0
  0
LINE
  5
B1
330
1F
100
AcDbEntity
  8
0
100
AcDbLine
 10
0.0553094287320302
 20
0.0194620637023944
 30
0.0
 11
0.054902644726567
 21
0.019302769162917
 31
0.0
  0
LINE
  5
B2
330
1F
100
AcDbEntity
  8
0
100
AcDbLine
 10
0.0518719194374309
 20
0.0187843128561006
 30
0.0
 11
0.0514183808462645
 21
0.0187459285250018
 31
0.0
  0
LINE
  5
B3
330
1F
100
AcDbEntity
  8
0
100
AcDbLine
 10
0.0420821899452194
 20
0.0187440969194032
 30
0.0
 11
0.0416070096112118
 21
0.0187843128561006
 31
0.0
  0
LINE
  5
B4
330
1F
100
AcDbEntity
  8
0
100
AcDbLine
 10
0.0385762843220756
 20
0.019302769162917
 30
0.0
 11
0.0381695003166125
 21
0.0194620637023944
 31
0.0
  0
LINE
  5
B5
330
1F
100
AcDbEntity
  8
0
100
AcDbLine
 10
0.0391351318835542
 20
0.0191526671176988
 30
0.0
 11
0.0385762843220756
 21
0.019302769162917
 31
0.0
  0
LINE
  5
B6
330
1F
100
AcDbEntity
  8
0
100
AcDbLine
 10
0.0586519705980346
 20
0.0205852076182093
 30
0.0
 11
0.0583907662808225
 21
0.0203868375414664
 31
0.0
  0
LINE
  5
B7
330
1F
100
AcDbEntity
  8
0
100
AcDbLine
 10
0.0583907662808225
 20
0.0203868375414664
 30
0.0
 11
0.0582135300069378
 21
0.0203076798764033
 31
0.0
  0
LINE
  5
B8
330
1F
100
AcDbEntity
  8
0
100
AcDbLine
 10
0.0582135300069378
 20
0.0203076798764033
 30
0.0
 11
0.0579596598550007
 21
0.0201942956381616
 31
0.0
  0
LINE
  5
B9
330
1F
100
AcDbEntity
  8
0
100
AcDbLine
 10
0.0573649368166254
 20
0.0200103895648502
 30
0.0
 11
0.0569307543035035
 21
0.0199104319230844
 31
0.0
  0
LINE
  5
BA
330
1F
100
AcDbEntity
  8
0
100
AcDbLine
 10
0.0567883687485201
 20
0.0198776518735257
 30
0.0
 11
0.0566152705728338
 21
0.0198378011542714
 31
0.0
  0
LINE
  5
BB
330
1F
100
AcDbEntity
  8
0
100
AcDbLine
 10
0.0566152705728338
 20
0.0198378011542714
 30
0.0
 11
0.0557215939193294
 21
0.0196790471419851
 31
0.0
  0
LINE
  5
BC
330
1F
100
AcDbEntity
  8
0
100
AcDbLine
 10
0.0557215939193294
 20
0.0196790471419851
 30
0.0
 11
0.0555716033159216
 21
0.0196581724835931
 31
0.0
  0
LINE
  5
BD
330
1F
100
AcDbEntity
  8
0
100
AcDbLine
 10
0.037928988628478
 20
0.0204939760436197
 30
0.0
 11
0.0379223599015997
 21
0.0205389881822256
 31
0.0
  0
LINE
  5
BE
330
1F
100
AcDbEntity
  8
0
100
AcDbLine
 10
0.037907325732721
 20
0.0196581724835931
 30
0.0
 11
0.0377573351293132
 21
0.0196790471419851
 31
0.0
  0
LINE
  5
BF
330
1F
100
AcDbEntity
  8
0
100
AcDbLine
 10
0.0377573351293132
 20
0.0196790471419851
 30
0.0
 11
0.0368636584758089
 21
0.0198378011542714
 31
0.0
  0
LINE
  5
C0
330
1F
100
AcDbEntity
  8
0
100
AcDbLine
 10
0.0362798579885886
 20
0.0199722038673542
 30
0.0
 11
0.0361139922320173
 21
0.0200103895648502
 31
0.0
  0
LINE
  5
C1
330
1F
100
AcDbEntity
  8
0
100
AcDbLine
 10
0.0361139922320173
 20
0.0207686312812111
 30
0.0
 11
0.0361139922320173
 21
0.0208043950875039
 31
0.0
  0
LINE
  5
C2
330
1F
100
AcDbEntity
  8
0
100
AcDbLine
 10
0.0350881627678201
 20
0.0203868375414664
 30
0.0
 11
0.034826958450608
 21
0.0205852076182093
 31
0.0
  0
LINE
  5
C3
330
1F
100
AcDbEntity
  8
0
100
AcDbLine
 10
0.0362394646658824
 20
0.0207865131843575
 30
0.0
 11
0.0362699850379751
 21
0.0206751747010638
 31
0.0
  0
LINE
  5
C4
330
1F
100
AcDbEntity
  8
0
100
AcDbLine
 10
0.0572089440106676
 20
0.0206751747010638
 30
0.0
 11
0.0572394643827603
 21
0.0207865131843575
 31
0.0
  0
LINE
  5
C5
330
1F
100
AcDbEntity
  8
0
100
AcDbLine
 10
0.0572394643827603
 20
0.0207865131843575
 30
0.0
 11
0.0572089440106676
 21
0.0208978516676512
 31
0.0
  0
LINE
  5
C6
330
1F
100
AcDbEntity
  8
0
100
AcDbLine
 10
0.0556698216974066
 20
0.0200179207181174
 30
0.0
 11
0.0556698216974066
 21
0.020628989117999
 31
0.0
  0
LINE
  5
C7
330
1F
100
AcDbEntity
  8
0
100
AcDbLine
 10
0.0556698216974066
 20
0.0200179207181174
 30
0.0
 11
0.0562104795976803
 21
0.0201556139686502
 31
0.0
  0
LINE
  5
C8
330
1F
100
AcDbEntity
  8
0
100
AcDbLine
 10
0.0562104795976803
 20
0.0201556139686502
 30
0.0
 11
0.0566419380634353
 21
0.0203005813781961
 31
0.0
  0
LINE
  5
C9
330
1F
100
AcDbEntity
  8
0
100
AcDbLine
 10
0.0566419380634353
 20
0.0203005813781961
 30
0.0
 11
0.0566419380634353
 21
0.0206055881439421
 31
0.0
  0
LINE
  5
CA
330
1F
100
AcDbEntity
  8
0
100
AcDbLine
 10
0.0566419380634353
 20
0.0203005813781961
 30
0.0
 11
0.0569592238321231
 21
0.0204511514309811
 31
0.0
  0
LINE
  5
CB
330
1F
100
AcDbEntity
  8
0
100
AcDbLine
 10
0.0569592238321231
 20
0.0204511514309811
 30
0.0
 11
0.0571586777373479
 21
0.0206055881439421
 31
0.0
  0
LINE
  5
CC
330
1F
100
AcDbEntity
  8
0
100
AcDbLine
 10
0.0547081901609228
 20
0.0217380890591262
 30
0.0
 11
0.0541640859014616
 21
0.0218198208144122
 31
0.0
  0
LINE
  5
CD
330
1F
100
AcDbEntity
  8
0
100
AcDbLine
 10
0.0571586777373479
 20
0.0209674382247729
 30
0.0
 11
0.0569592238321231
 21
0.0211218749377339
 31
0.0
  0
LINE
  5
CE
330
1F
100
AcDbEntity
  8
0
100
AcDbLine
 10
0.0569592238321231
 20
0.0211218749377339
 30
0.0
 11
0.0566568960353062
 21
0.0212653464923117
 31
0.0
  0
LINE
  5
CF
330
1F
100
AcDbEntity
  8
0
100
AcDbLine
 10
0.0566568960353062
 20
0.0212653464923117
 30
0.0
 11
0.0562104795976803
 21
0.0214174124000647
 31
0.0
  0
LINE
  5
D0
330
1F
100
AcDbEntity
  8
0
100
AcDbLine
 10
0.0554238268091605
 20
0.0216043455034153
 30
0.0
 11
0.055026199567251
 21
0.0216839371844965
 31
0.0
  0
LINE
  5
D1
330
1F
100
AcDbEntity
  8
0
100
AcDbLine
 10
0.0562104795976803
 20
0.0214174124000647
 30
0.0
 11
0.0556698216974065
 21
0.0215551056505976
 31
0.0
  0
LINE
  5
D2
330
1F
100
AcDbEntity
  8
0
100
AcDbLine
 10
0.0475394645041116
 20
0.0222435831797718
 30
0.0
 11
0.0467394645243213
 21
0.022247830794802
 31
0.0
  0
LINE
  5
D3
330
1F
100
AcDbEntity
  8
0
100
AcDbLine
 10
0.0467394645243213
 20
0.022247830794802
 30
0.0
 11
0.045939464544531
 21
0.0222435831797718
 31
0.0
  0
LINE
  5
D4
330
1F
100
AcDbEntity
  8
0
100
AcDbLine
 10
0.05318772177317
 20
0.0219398038524129
 30
0.0
 11
0.0526158319703565
 21
0.021995142871349
 31
0.0
  0
LINE
  5
D5
330
1F
100
AcDbEntity
  8
0
100
AcDbLine
 10
0.0525653878451281
 20
0.022225927026267
 30
0.0
 11
0.0525539932077951
 21
0.0222780580075379
 31
0.0
  0
LINE
  5
D6
330
1F
100
AcDbEntity
  8
0
100
AcDbLine
 10
0.0526158319703565
 20
0.021995142871349
 30
0.0
 11
0.0522620290435181
 21
0.022029378744408
 31
0.0
  0
LINE
  5
D7
330
1F
100
AcDbEntity
  8
0
100
AcDbLine
 10
0.0522620290435181
 20
0.0222079145705169
 30
0.0
 11
0.0522620290435181
 21
0.0222647084029712
 31
0.0
  0
LINE
  5
D8
330
1F
100
AcDbEntity
  8
0
100
AcDbLine
 10
0.051272662255101
 20
0.0221046237845554
 30
0.0
 11
0.0502310284796432
 21
0.0221646712000491
 31
0.0
  0
LINE
  5
D9
330
1F
100
AcDbEntity
  8
0
100
AcDbLine
 10
0.0502310284796432
 20
0.0221646712000491
 30
0.0
 11
0.0501800236675218
 21
0.0221667529474782
 31
0.0
  0
LINE
  5
DA
330
1F
100
AcDbEntity
  8
0
100
AcDbLine
 10
0.0501800236675218
 20
0.0221667529474782
 30
0.0
 11
0.0491491380530671
 21
0.0222088288464851
 31
0.0
  0
LINE
  5
DB
330
1F
100
AcDbEntity
  8
0
100
AcDbLine
 10
0.039314843147181
 20
0.0218198208144122
 30
0.0
 11
0.0387707388877199
 21
0.0217380890591262
 31
0.0
  0
LINE
  5
DC
330
1F
100
AcDbEntity
  8
0
100
AcDbLine
 10
0.0443297909955756
 20
0.0222088288464851
 30
0.0
 11
0.0432989053811208
 21
0.0221667529474782
 31
0.0
  0
LINE
  5
DD
330
1F
100
AcDbEntity
  8
0
100
AcDbLine
 10
0.0432989053811208
 20
0.0221667529474782
 30
0.0
 11
0.0432964629236618
 21
0.0222425264779166
 31
0.0
  0
LINE
  5
DE
330
1F
100
AcDbEntity
  8
0
100
AcDbLine
 10
0.0432989053811208
 20
0.0221667529474782
 30
0.0
 11
0.0432479005689994
 21
0.0221646712000491
 31
0.0
  0
LINE
  5
DF
330
1F
100
AcDbEntity
  8
0
100
AcDbLine
 10
0.0432479005689994
 20
0.0221646712000491
 30
0.0
 11
0.0422062667935417
 21
0.0221046237845554
 31
0.0
  0
LINE
  5
E0
330
1F
100
AcDbEntity
  8
0
100
AcDbLine
 10
0.0408630970782862
 20
0.021995142871349
 30
0.0
 11
0.0402912072754727
 21
0.0219398038524129
 31
0.0
  0
LINE
  5
E1
330
1F
100
AcDbEntity
  8
0
100
AcDbLine
 10
0.0412169000051246
 20
0.022029378744408
 30
0.0
 11
0.0408630970782862
 21
0.021995142871349
 31
0.0
  0
LINE
  5
E2
330
1F
100
AcDbEntity
  8
0
100
AcDbLine
 10
0.0362699850379751
 20
0.0208978516676512
 30
0.0
 11
0.0362394646658824
 21
0.0207865131843575
 31
0.0
  0
LINE
  5
E3
330
1F
100
AcDbEntity
  8
0
100
AcDbLine
 10
0.0384527294813917
 20
0.0216839371844965
 30
0.0
 11
0.0380551022394822
 21
0.0216043455034153
 31
0.0
  0
LINE
  5
E4
330
1F
100
AcDbEntity
  8
0
100
AcDbLine
 10
0.0378091073512361
 20
0.0215551056505976
 30
0.0
 11
0.0372684494509623
 21
0.0214174124000647
 31
0.0
  0
LINE
  5
E5
330
1F
100
AcDbEntity
  8
0
100
AcDbLine
 10
0.0372684494509623
 20
0.0214174124000647
 30
0.0
 11
0.0368369909852073
 21
0.0212724449905188
 31
0.0
  0
LINE
  5
E6
330
1F
100
AcDbEntity
  8
0
100
AcDbLine
 10
0.0368369909852073
 20
0.0212724449905188
 30
0.0
 11
0.0365197052165196
 21
0.0211218749377339
 31
0.0
  0
LINE
  5
E7
330
1F
100
AcDbEntity
  8
0
100
AcDbLine
 10
0.0365197052165196
 20
0.0211218749377339
 30
0.0
 11
0.0363202513112948
 21
0.0209674382247729
 31
0.0
  0
LINE
  5
E8
330
1F
100
AcDbEntity
  8
0
100
AcDbLine
 10
0.0363202513112948
 20
0.0206055881439421
 30
0.0
 11
0.0365197052165196
 21
0.0204511514309811
 31
0.0
  0
LINE
  5
E9
330
1F
100
AcDbEntity
  8
0
100
AcDbLine
 10
0.0368220330133364
 20
0.0203076798764033
 30
0.0
 11
0.0368248581060038
 21
0.0206055881439421
 31
0.0
  0
LINE
  5
EA
330
1F
100
AcDbEntity
  8
0
100
AcDbLine
 10
0.0368220330133364
 20
0.0203076798764033
 30
0.0
 11
0.0372684494509623
 21
0.0201556139686502
 31
0.0
  0
LINE
  5
EB
330
1F
100
AcDbEntity
  8
0
100
AcDbLine
 10
0.0379223599015997
 20
0.0208502315390782
 30
0.0
 11
0.0379326001151159
 21
0.0207822256016443
 31
0.0
  0
LINE
  5
EC
330
1F
100
AcDbEntity
  8
0
100
AcDbLine
 10
0.0372684494509623
 20
0.0201556139686502
 30
0.0
 11
0.0378091073512361
 21
0.0200179207181174
 31
0.0
  0
LINE
  5
ED
330
1F
100
AcDbEntity
  8
0
100
AcDbLine
 10
0.034826958450608
 20
0.0209878187505057
 30
0.0
 11
0.0350881627678201
 21
0.0211861888272486
 31
0.0
  0
LINE
  5
EE
330
1F
100
AcDbEntity
  8
0
100
AcDbLine
 10
0.0368636584758089
 20
0.0217352252144436
 30
0.0
 11
0.0377573351293132
 21
0.0218939792267299
 31
0.0
  0
LINE
  5
EF
330
1F
100
AcDbEntity
  8
0
100
AcDbLine
 10
0.0377573351293132
 20
0.0219277977434572
 30
0.0
 11
0.0377573351293132
 21
0.0219538831064775
 31
0.0
  0
LINE
  5
F0
330
1F
100
AcDbEntity
  8
0
100
AcDbLine
 10
0.0411627864382491
 20
0.0222652931833453
 30
0.0
 11
0.042484206046097
 21
0.0223480626367769
 31
0.0
  0
LINE
  5
F1
330
1F
100
AcDbEntity
  8
0
100
AcDbLine
 10
0.0452930244068877
 20
0.0224444136743326
 30
0.0
 11
0.0467394645243213
 21
0.0224565904904698
 31
0.0
  0
LINE
  5
F2
330
1F
100
AcDbEntity
  8
0
100
AcDbLine
 10
0.0467394645243213
 20
0.0224565904904698
 30
0.0
 11
0.048185904641755
 21
0.0224444136743326
 31
0.0
  0
LINE
  5
F3
330
1F
100
AcDbEntity
  8
0
100
AcDbLine
 10
0.0557215939193294
 20
0.0218939792267299
 30
0.0
 11
0.0566152705728338
 21
0.0217352252144436
 31
0.0
  0
LINE
  5
F4
330
1F
100
AcDbEntity
  8
0
100
AcDbLine
 10
0.0579596598550007
 20
0.0213787307305534
 30
0.0
 11
0.0582135300069378
 21
0.0212653464923117
 31
0.0
  0
LINE
  5
F5
330
1F
100
AcDbEntity
  8
0
100
AcDbLine
 10
0.0582135300069378
 20
0.0212653464923117
 30
0.0
 11
0.0583907662808225
 21
0.0211861888272486
 31
0.0
  0
LINE
  5
F6
330
1F
100
AcDbEntity
  8
0
100
AcDbLine
 10
0.0583907662808225
 20
0.0211861888272486
 30
0.0
 11
0.0586519705980346
 21
0.0209878187505057
 31
0.0
  0
LINE
  5
F7
330
1F
100
AcDbEntity
  8
0
100
AcDbLine
 10
0.0432964629236618
 20
0.0222425264779166
 30
0.0
 11
0.0411627864382491
 21
0.0222652931833453
 31
0.0
  0
LINE
  5
F8
330
1F
100
AcDbEntity
  8
0
100
AcDbLine
 10
0.0350881627678201
 20
0.0211861888272486
 30
0.0
 11
0.0362798579885886
 21
0.0212653464923117
 31
0.0
  0
LINE
  5
F9
330
1F
100
AcDbEntity
  8
0
100
AcDbLine
 10
0.0362699850379751
 20
0.0208978516676512
 30
0.0
 11
0.0362798579885886
 21
0.0212653464923117
 31
0.0
  0
LINE
  5
FA
330
1F
100
AcDbEntity
  8
0
100
AcDbLine
 10
0.0368369909852073
 20
0.0212724449905188
 30
0.0
 11
0.0362798579885886
 21
0.0212653464923117
 31
0.0
  0
LINE
  5
FB
330
1F
100
AcDbEntity
  8
0
100
AcDbLine
 10
0.0362798579885886
 20
0.0216008225013608
 30
0.0
 11
0.0362798579885886
 21
0.0212653464923117
 31
0.0
  0
LINE
  5
FC
330
1F
100
AcDbEntity
  8
0
100
AcDbLine
 10
0.0361139922320173
 20
0.0215626368038648
 30
0.0
 11
0.0362798579885886
 21
0.0212653464923117
 31
0.0
  0
LINE
  5
FD
330
1F
100
AcDbEntity
  8
0
100
AcDbLine
 10
0.0378091073512361
 20
0.0215551056505976
 30
0.0
 11
0.0368636584758089
 21
0.0217352252144436
 31
0.0
  0
LINE
  5
FE
330
1F
100
AcDbEntity
  8
0
100
AcDbLine
 10
0.0377573351293132
 20
0.0218939792267299
 30
0.0
 11
0.0380551022394822
 21
0.0216043455034153
 31
0.0
  0
LINE
  5
FF
330
1F
100
AcDbEntity
  8
0
100
AcDbLine
 10
0.0399021100170241
 20
0.0218955454950777
 30
0.0
 11
0.0406583462759183
 21
0.0217902977448227
 31
0.0
  0
LINE
  5
100
330
1F
100
AcDbEntity
  8
0
100
AcDbLine
 10
0.0414329505442903
 20
0.0217809038935725
 30
0.0
 11
0.0402912072754727
 21
0.0219398038524129
 31
0.0
  0
LINE
  5
101
330
1F
100
AcDbEntity
  8
0
100
AcDbLine
 10
0.0406583462759183
 20
0.0217902977448227
 30
0.0
 11
0.0395269751466141
 21
0.0216328413088712
 31
0.0
  0
LINE
  5
102
330
1F
100
AcDbEntity
  8
0
100
AcDbLine
 10
0.0398356340742931
 20
0.0215682043538271
 30
0.0
 11
0.0406647416680381
 21
0.0216917563424201
 31
0.0
  0
LINE
  5
103
330
1F
100
AcDbEntity
  8
0
100
AcDbLine
 10
0.0406647416680381
 20
0.0216917563424201
 30
0.0
 11
0.0414329505442903
 21
0.0217809038935725
 31
0.0
  0
LINE
  5
104
330
1F
100
AcDbEntity
  8
0
100
AcDbLine
 10
0.0380551022394822
 20
0.0219354199849684
 30
0.0
 11
0.0387707388877199
 21
0.0217380890591262
 31
0.0
  0
LINE
  5
105
330
1F
100
AcDbEntity
  8
0
100
AcDbLine
 10
0.0395269751466141
 20
0.0216328413088712
 30
0.0
 11
0.0387707388877199
 21
0.0217380890591262
 31
0.0
  0
LINE
  5
106
330
1F
100
AcDbEntity
  8
0
100
AcDbLine
 10
0.0384527294813917
 20
0.0216839371844965
 30
0.0
 11
0.0395944727502093
 21
0.0215250372256561
 31
0.0
  0
LINE
  5
107
330
1F
100
AcDbEntity
  8
0
100
AcDbLine
 10
0.0399021100170241
 20
0.0218955454950777
 30
0.0
 11
0.0380551022394822
 21
0.0219354199849684
 31
0.0
  0
LINE
  5
108
330
1F
100
AcDbEntity
  8
0
100
AcDbLine
 10
0.0422062667935417
 20
0.0221046237845554
 30
0.0
 11
0.0432964629236618
 21
0.0222425264779166
 31
0.0
  0
LINE
  5
109
330
1F
100
AcDbEntity
  8
0
100
AcDbLine
 10
0.0432964629236618
 20
0.0222425264779166
 30
0.0
 11
0.0438676766502932
 21
0.022408061057779
 31
0.0
  0
LINE
  5
10A
330
1F
100
AcDbEntity
  8
0
100
AcDbLine
 10
0.0496112523983494
 20
0.022408061057779
 30
0.0
 11
0.0501800236675218
 21
0.0222422091305534
 31
0.0
  0
LINE
  5
10B
330
1F
100
AcDbEntity
  8
0
100
AcDbLine
 10
0.0520459785043523
 20
0.0217809038935725
 30
0.0
 11
0.0528141873806045
 21
0.0216917563424201
 31
0.0
  0
LINE
  5
10C
330
1F
100
AcDbEntity
  8
0
100
AcDbLine
 10
0.0539519539020286
 20
0.0216328413088712
 30
0.0
 11
0.0528205827727244
 21
0.0217902977448227
 31
0.0
  0
LINE
  5
10D
330
1F
100
AcDbEntity
  8
0
100
AcDbLine
 10
0.05318772177317
 20
0.0219398038524129
 30
0.0
 11
0.0520459785043523
 21
0.0217809038935725
 31
0.0
  0
LINE
  5
10E
330
1F
100
AcDbEntity
  8
0
100
AcDbLine
 10
0.0528205827727244
 20
0.0217902977448227
 30
0.0
 11
0.0535768190316186
 21
0.0218955454950777
 31
0.0
  0
LINE
  5
10F
330
1F
100
AcDbEntity
  8
0
100
AcDbLine
 10
0.0528141873806045
 20
0.0216917563424201
 30
0.0
 11
0.0536432949743495
 21
0.0215682043538271
 31
0.0
  0
LINE
  5
110
330
1F
100
AcDbEntity
  8
0
100
AcDbLine
 10
0.0547081901609228
 20
0.0217380890591262
 30
0.0
 11
0.0539519539020286
 21
0.0216328413088712
 31
0.0
  0
LINE
  5
111
330
1F
100
AcDbEntity
  8
0
100
AcDbLine
 10
0.0538844562984333
 20
0.0215250372256561
 30
0.0
 11
0.055026199567251
 21
0.0216839371844965
 31
0.0
  0
LINE
  5
112
330
1F
100
AcDbEntity
  8
0
100
AcDbLine
 10
0.0554238268091605
 20
0.0216043455034153
 30
0.0
 11
0.0557215939193294
 21
0.0218939792267299
 31
0.0
  0
LINE
  5
113
330
1F
100
AcDbEntity
  8
0
100
AcDbLine
 10
0.0556698216974065
 20
0.0215551056505976
 30
0.0
 11
0.0566152705728338
 21
0.0217352252144436
 31
0.0
  0
LINE
  5
114
330
1F
100
AcDbEntity
  8
0
100
AcDbLine
 10
0.0566568960353062
 20
0.0212653464923117
 30
0.0
 11
0.0582135300069378
 21
0.0212653464923117
 31
0.0
  0
LINE
  5
115
330
1F
100
AcDbEntity
  8
0
100
AcDbLine
 10
0.0566568960353062
 20
0.0212653464923117
 30
0.0
 11
0.0583907662808225
 21
0.0211861888272486
 31
0.0
  0
LINE
  5
116
330
1F
100
AcDbEntity
  8
0
100
AcDbLine
 10
0.055556569147043
 20
0.0209551747285663
 30
0.0
 11
0.0556394643067644
 21
0.0207865131843575
 31
0.0
  0
LINE
  5
117
330
1F
100
AcDbEntity
  8
0
100
AcDbLine
 10
0.0561394643887208
 20
0.0206751747010638
 30
0.0
 11
0.0561394643887208
 21
0.0208978516676512
 31
0.0
  0
LINE
  5
118
330
1F
100
AcDbEntity
  8
0
100
AcDbLine
 10
0.0572089440106676
 20
0.0206751747010638
 30
0.0
 11
0.0561394643887208
 21
0.0206751747010638
 31
0.0
  0
LINE
  5
119
330
1F
100
AcDbEntity
  8
0
100
AcDbLine
 10
0.0571586777373479
 20
0.0209674382247729
 30
0.0
 11
0.055556569147043
 21
0.0209551747285663
 31
0.0
  0
LINE
  5
11A
330
1F
100
AcDbEntity
  8
0
100
AcDbLine
 10
0.0561394643887208
 20
0.0208978516676512
 30
0.0
 11
0.0572089440106676
 21
0.0208978516676512
 31
0.0
  0
LINE
  5
11B
330
1F
100
AcDbEntity
  8
0
100
AcDbLine
 10
0.0557215939193294
 20
0.0196790471419851
 30
0.0
 11
0.0556698216974066
 21
0.0200179207181174
 31
0.0
  0
LINE
  5
11C
330
1F
100
AcDbEntity
  8
0
100
AcDbLine
 10
0.0582135300069378
 20
0.0203076798764033
 30
0.0
 11
0.0569592238321231
 21
0.0204511514309811
 31
0.0
  0
LINE
  5
11D
330
1F
100
AcDbEntity
  8
0
100
AcDbLine
 10
0.0583907662808225
 20
0.0203868375414664
 30
0.0
 11
0.0569592238321231
 21
0.0204511514309811
 31
0.0
  0
LINE
  5
11E
330
1F
100
AcDbEntity
  8
0
100
AcDbLine
 10
0.0472809809576283
 20
0.0192606195808345
 30
0.0
 11
0.0471578115591998
 21
0.0192278246021066
 31
0.0
  0
LINE
  5
11F
330
1F
100
AcDbEntity
  8
0
100
AcDbLine
 10
0.0362798579885886
 20
0.0203076798764033
 30
0.0
 11
0.0372684494509623
 21
0.0201556139686502
 31
0.0
  0
LINE
  5
120
330
1F
100
AcDbEntity
  8
0
100
AcDbLine
 10
0.0378518716386534
 20
0.0197710014252296
 30
0.0
 11
0.0377573351293132
 21
0.0196790471419851
 31
0.0
  0
LINE
  5
121
330
1F
100
AcDbEntity
  8
0
100
AcDbLine
 10
0.0378394647418783
 20
0.0199449931561238
 30
0.0
 11
0.0368636584758089
 21
0.0198378011542714
 31
0.0
  0
LINE
  5
122
330
1F
100
AcDbEntity
  8
0
100
AcDbLine
 10
0.0378091073512361
 20
0.0200179207181174
 30
0.0
 11
0.0368636584758089
 21
0.0198378011542714
 31
0.0
  0
LINE
  5
123
330
1F
100
AcDbEntity
  8
0
100
AcDbLine
 10
0.0362798579885886
 20
0.0203076798764033
 30
0.0
 11
0.0362798579885886
 21
0.0199722038673542
 31
0.0
  0
LINE
  5
124
330
1F
100
AcDbEntity
  8
0
100
AcDbLine
 10
0.0362798579885886
 20
0.0203076798764033
 30
0.0
 11
0.0361139922320173
 21
0.0200103895648502
 31
0.0
  0
LINE
  5
125
330
1F
100
AcDbEntity
  8
0
100
AcDbLine
 10
0.0373394646599219
 20
0.0206751747010638
 30
0.0
 11
0.0362699850379751
 21
0.0206751747010638
 31
0.0
  0
LINE
  5
126
330
1F
100
AcDbEntity
  8
0
100
AcDbLine
 10
0.0362699850379751
 20
0.0206751747010638
 30
0.0
 11
0.0362798579885886
 21
0.0203076798764033
 31
0.0
  0
LINE
  5
127
330
1F
100
AcDbEntity
  8
0
100
AcDbLine
 10
0.0350881627678201
 20
0.0203868375414664
 30
0.0
 11
0.0362798579885886
 21
0.0203076798764033
 31
0.0
  0
LINE
  5
128
330
1F
100
AcDbEntity
  8
0
100
AcDbLine
 10
0.0373394646599219
 20
0.0208978516676512
 30
0.0
 11
0.0373394646599219
 21
0.0206751747010638
 31
0.0
  0
LINE
  5
129
330
1F
100
AcDbEntity
  8
0
100
AcDbLine
 10
0.0362699850379751
 20
0.0208978516676512
 30
0.0
 11
0.0373394646599219
 21
0.0208978516676512
 31
0.0
  0
LINE
  5
12A
330
1F
100
AcDbEntity
  8
0
100
AcDbLine
 10
0.0379349206491635
 20
0.0209674382247729
 30
0.0
 11
0.0363202513112948
 21
0.0209674382247729
 31
0.0
  0
LINE
  5
12B
330
1F
100
AcDbEntity
  8
0
100
AcDbLine
 10
0.045939464544531
 20
0.0220947403772353
 30
0.0
 11
0.045939464544531
 21
0.0222435831797718
 31
0.0
  0
LINE
  5
12C
330
1F
100
AcDbEntity
  8
0
100
AcDbLine
 10
0.0454394645207823
 20
0.0222365874663047
 30
0.0
 11
0.0454394645207823
 21
0.0220118689167539
 31
0.0
  0
LINE
  5
12D
330
1F
100
AcDbEntity
  8
0
100
AcDbLine
 10
0.0475394645041116
 20
0.0220947403772353
 30
0.0
 11
0.045939464544531
 21
0.0220947403772353
 31
0.0
  0
LINE
  5
12E
330
1F
100
AcDbEntity
  8
0
100
AcDbLine
 10
0.0461321070474834
 20
0.0220222662477747
 30
0.0
 11
0.0473468220011593
 21
0.0220222662477747
 31
0.0
  0
LINE
  5
12F
330
1F
100
AcDbEntity
  8
0
100
AcDbLine
 10
0.0475394645041116
 20
0.0222435831797718
 30
0.0
 11
0.0475394645041116
 21
0.0220947403772353
 31
0.0
  0
LINE
  5
130
330
1F
100
AcDbEntity
  8
0
100
AcDbLine
 10
0.0480394645278603
 20
0.0220118689167539
 30
0.0
 11
0.0480394645278603
 21
0.0222365874663047
 31
0.0
  0
LINE
  5
131
330
1F
100
AcDbEntity
  8
0
100
AcDbLine
 10
0.055556569147043
 20
0.0209551747285663
 30
0.0
 11
0.0555440083994792
 21
0.0215802892156571
 31
0.0
  0
LINE
  5
132
330
1F
100
AcDbEntity
  8
0
100
AcDbLine
 10
0.0520459785043523
 20
0.0217809038935725
 30
0.0
 11
0.0520459785043523
 21
0.0220458101949921
 31
0.0
  0
LINE
  5
133
330
1F
100
AcDbEntity
  8
0
100
AcDbLine
 10
0.0520459785043523
 20
0.0222243143806182
 30
0.0
 11
0.0520459785043523
 21
0.0222623736443809
 31
0.0
  0
LINE
  5
134
330
1F
100
AcDbEntity
  8
0
100
AcDbLine
 10
0.0453670310018794
 20
0.0222347755329137
 30
0.0
 11
0.0454394645207823
 21
0.0220118689167539
 31
0.0
  0
LINE
  5
135
330
1F
100
AcDbEntity
  8
0
100
AcDbLine
 10
0.0378394647418783
 20
0.0197962449542362
 30
0.0
 11
0.0379223599015997
 21
0.019964906498445
 31
0.0
  0
LINE
  5
136
330
1F
100
AcDbEntity
  8
0
100
AcDbLine
 10
0.0379223599015997
 20
0.019964906498445
 30
0.0
 11
0.0381695003166125
 21
0.0201304262060779
 31
0.0
  0
LINE
  5
137
330
1F
100
AcDbEntity
  8
0
100
AcDbLine
 10
0.0395944727502093
 20
0.0215250372256561
 30
0.0
 11
0.0391351318835542
 21
0.0204398227907735
 31
0.0
  0
LINE
  5
138
330
1F
100
AcDbEntity
  8
0
100
AcDbLine
 10
0.0391351318835542
 20
0.0204398227907735
 30
0.0
 11
0.0398356340742931
 21
0.0215682043538271
 31
0.0
  0
LINE
  5
139
330
1F
100
AcDbEntity
  8
0
100
AcDbLine
 10
0.0391351318835542
 20
0.0204398227907735
 30
0.0
 11
0.0398356340742931
 21
0.0205779361237058
 31
0.0
  0
LINE
  5
13A
330
1F
100
AcDbEntity
  8
0
100
AcDbLine
 10
0.0398356340742931
 20
0.0205779361237058
 30
0.0
 11
0.0406647416680381
 21
0.0207014881122988
 31
0.0
  0
LINE
  5
13B
330
1F
100
AcDbEntity
  8
0
100
AcDbLine
 10
0.0414329505442903
 20
0.0220458101949921
 30
0.0
 11
0.0414329505442903
 21
0.0217809038935725
 31
0.0
  0
LINE
  5
13C
330
1F
100
AcDbEntity
  8
0
100
AcDbLine
 10
0.0454394645207823
 20
0.0220118689167539
 30
0.0
 11
0.0449287060332746
 21
0.0210089782539296
 31
0.0
  0
LINE
  5
13D
330
1F
100
AcDbEntity
  8
0
100
AcDbLine
 10
0.0449287060332746
 20
0.0210089782539296
 30
0.0
 11
0.0461321070474834
 21
0.0220222662477747
 31
0.0
  0
LINE
  5
13E
330
1F
100
AcDbEntity
  8
0
100
AcDbLine
 10
0.0449287060332746
 20
0.0210089782539296
 30
0.0
 11
0.0461321070474834
 21
0.0210319980176533
 31
0.0
  0
LINE
  5
13F
330
1F
100
AcDbEntity
  8
0
100
AcDbLine
 10
0.0461321070474834
 20
0.0210319980176533
 30
0.0
 11
0.0473468220011593
 21
0.0210319980176533
 31
0.0
  0
LINE
  5
140
330
1F
100
AcDbEntity
  8
0
100
AcDbLine
 10
0.0485502230153681
 20
0.0210089782539296
 30
0.0
 11
0.0480394645278603
 21
0.0220118689167539
 31
0.0
  0
LINE
  5
141
330
1F
100
AcDbEntity
  8
0
100
AcDbLine
 10
0.0480394645278603
 20
0.0220118689167539
 30
0.0
 11
0.0473468220011593
 21
0.0210319980176533
 31
0.0
  0
LINE
  5
142
330
1F
100
AcDbEntity
  8
0
100
AcDbLine
 10
0.0473468220011593
 20
0.0210319980176533
 30
0.0
 11
0.0485502230153681
 21
0.0210089782539296
 31
0.0
  0
LINE
  5
143
330
1F
100
AcDbEntity
  8
0
100
AcDbLine
 10
0.0473468220011593
 20
0.0220222662477747
 30
0.0
 11
0.0473468220011593
 21
0.0210319980176533
 31
0.0
  0
LINE
  5
144
330
1F
100
AcDbEntity
  8
0
100
AcDbLine
 10
0.0520459785043523
 20
0.0217809038935725
 30
0.0
 11
0.0518719194374309
 21
0.0208081770523717
 31
0.0
  0
LINE
  5
145
330
1F
100
AcDbEntity
  8
0
100
AcDbLine
 10
0.0518719194374309
 20
0.0208081770523717
 30
0.0
 11
0.0528141873806045
 21
0.0207014881122988
 31
0.0
  0
LINE
  5
146
330
1F
100
AcDbEntity
  8
0
100
AcDbLine
 10
0.0528141873806045
 20
0.0207014881122988
 30
0.0
 11
0.0536432949743495
 21
0.0205779361237058
 31
0.0
  0
LINE
  5
147
330
1F
100
AcDbEntity
  8
0
100
AcDbLine
 10
0.0538844562984333
 20
0.0215250372256561
 30
0.0
 11
0.0536432949743495
 21
0.0205779361237058
 31
0.0
  0
LINE
  5
148
330
1F
100
AcDbEntity
  8
0
100
AcDbLine
 10
0.0536432949743495
 20
0.0205779361237058
 30
0.0
 11
0.0543437971650884
 21
0.0204398227907735
 31
0.0
  0
LINE
  5
149
330
1F
100
AcDbEntity
  8
0
100
AcDbLine
 10
0.0536432949743495
 20
0.0215682043538271
 30
0.0
 11
0.0536432949743495
 21
0.0205779361237058
 31
0.0
  0
LINE
  5
14A
330
1F
100
AcDbEntity
  8
0
100
AcDbLine
 10
0.055556569147043
 20
0.0209551747285663
 30
0.0
 11
0.0553094287320302
 21
0.0201304262060779
 31
0.0
  0
LINE
  5
14B
330
1F
100
AcDbEntity
  8
0
100
AcDbLine
 10
0.0553094287320302
 20
0.0201304262060779
 30
0.0
 11
0.055556569147043
 21
0.019964906498445
 31
0.0
  0
LINE
  5
14C
330
1F
100
AcDbEntity
  8
0
100
AcDbLine
 10
0.055556569147043
 20
0.019964906498445
 30
0.0
 11
0.0556394643067644
 21
0.0197962449542362
 31
0.0
  0
LINE
  5
14D
330
1F
100
AcDbEntity
  8
0
100
AcDbLine
 10
0.0385762843220756
 20
0.0202897207455553
 30
0.0
 11
0.0391351318835542
 21
0.0204398227907735
 31
0.0
  0
LINE
  5
14E
330
1F
100
AcDbEntity
  8
0
100
AcDbLine
 10
0.0381695003166125
 20
0.0201304262060779
 30
0.0
 11
0.0385762843220756
 21
0.0202897207455553
 31
0.0
  0
LINE
  5
14F
330
1F
100
AcDbEntity
  8
0
100
AcDbLine
 10
0.0379349206491635
 20
0.0215802892156571
 30
0.0
 11
0.0379349206491635
 21
0.0209674382247729
 31
0.0
  0
LINE
  5
150
330
1F
100
AcDbEntity
  8
0
100
AcDbLine
 10
0.0437590360093192
 20
0.0209633676227056
 30
0.0
 11
0.0449287060332746
 21
0.0210089782539296
 31
0.0
  0
LINE
  5
151
330
1F
100
AcDbEntity
  8
0
100
AcDbLine
 10
0.0426448857329116
 20
0.0208960156210643
 30
0.0
 11
0.0437590360093192
 21
0.0209633676227056
 31
0.0
  0
LINE
  5
152
330
1F
100
AcDbEntity
  8
0
100
AcDbLine
 10
0.0416070096112118
 20
0.0220590480372482
 30
0.0
 11
0.0416070096112118
 21
0.0208081770523717
 31
0.0
  0
LINE
  5
153
330
1F
100
AcDbEntity
  8
0
100
AcDbLine
 10
0.0416070096112118
 20
0.0208081770523717
 30
0.0
 11
0.0426448857329116
 21
0.0208960156210643
 31
0.0
  0
LINE
  5
154
330
1F
100
AcDbEntity
  8
0
100
AcDbLine
 10
0.0414329505442903
 20
0.0217809038935725
 30
0.0
 11
0.0416070096112118
 21
0.0208081770523717
 31
0.0
  0
LINE
  5
155
330
1F
100
AcDbEntity
  8
0
100
AcDbLine
 10
0.0406647416680381
 20
0.0207014881122988
 30
0.0
 11
0.0416070096112118
 21
0.0208081770523717
 31
0.0
  0
LINE
  5
156
330
1F
100
AcDbEntity
  8
0
100
AcDbLine
 10
0.0518719194374309
 20
0.0220590480372482
 30
0.0
 11
0.0518719194374309
 21
0.0208081770523717
 31
0.0
  0
LINE
  5
157
330
1F
100
AcDbEntity
  8
0
100
AcDbLine
 10
0.0508340433157311
 20
0.0208960156210643
 30
0.0
 11
0.0518719194374309
 21
0.0208081770523717
 31
0.0
  0
LINE
  5
158
330
1F
100
AcDbEntity
  8
0
100
AcDbLine
 10
0.0497198930393235
 20
0.0209633676227056
 30
0.0
 11
0.0508340433157311
 21
0.0208960156210643
 31
0.0
  0
LINE
  5
159
330
1F
100
AcDbEntity
  8
0
100
AcDbLine
 10
0.0485502230153681
 20
0.0210089782539296
 30
0.0
 11
0.0497198930393235
 21
0.0209633676227056
 31
0.0
  0
LINE
  5
15A
330
1F
100
AcDbEntity
  8
0
100
AcDbLine
 10
0.0483092147493303
 20
0.0222298396313118
 30
0.0
 11
0.0485502230153681
 21
0.0210089782539296
 31
0.0
  0
LINE
  5
15B
330
1F
100
AcDbEntity
  8
0
100
AcDbLine
 10
0.054902644726567
 20
0.0202897207455553
 30
0.0
 11
0.0553094287320302
 21
0.0201304262060779
 31
0.0
  0
LINE
  5
15C
330
1F
100
AcDbEntity
  8
0
100
AcDbLine
 10
0.0543437971650884
 20
0.0204398227907735
 30
0.0
 11
0.054902644726567
 21
0.0202897207455553
 31
0.0
  0
LINE
  5
15D
330
1F
100
AcDbEntity
  8
0
100
AcDbLine
 10
0.053349374692075
 20
0.0191690529235793
 30
0.0
 11
0.0526038793764339
 21
0.0190389509028925
 31
0.0
  0
LINE
  5
15E
330
1F
100
AcDbEntity
  8
0
100
AcDbLine
 10
0.0539472153327689
 20
0.019313165359806
 30
0.0
 11
0.053349374692075
 21
0.0191690529235793
 31
0.0
  0
LINE
  5
15F
330
1F
100
AcDbEntity
  8
0
100
AcDbLine
 10
0.0543840470641182
 20
0.0194680689948077
 30
0.0
 11
0.0539472153327689
 21
0.019313165359806
 31
0.0
  0
LINE
  5
160
330
1F
100
AcDbEntity
  8
0
100
AcDbLine
 10
0.0546501110225246
 20
0.0196303035440156
 30
0.0
 11
0.0543840470641182
 21
0.0194680689948077
 31
0.0
  0
LINE
  5
161
330
1F
100
AcDbEntity
  8
0
100
AcDbLine
 10
0.0547394649043009
 20
0.0197962449542362
 30
0.0
 11
0.0546501110225246
 21
0.0196303035440156
 31
0.0
  0
LINE
  5
162
330
1F
100
AcDbEntity
  8
0
100
AcDbLine
 10
0.0388288180261181
 20
0.0196303035440156
 30
0.0
 11
0.0387394641443417
 21
0.0197962449542362
 31
0.0
  0
LINE
  5
163
330
1F
100
AcDbEntity
  8
0
100
AcDbLine
 10
0.0390948819845245
 20
0.0194680689948077
 30
0.0
 11
0.0388288180261181
 21
0.0196303035440156
 31
0.0
  0
LINE
  5
164
330
1F
100
AcDbEntity
  8
0
100
AcDbLine
 10
0.0395317137158737
 20
0.019313165359806
 30
0.0
 11
0.0390948819845245
 21
0.0194680689948077
 31
0.0
  0
LINE
  5
165
330
1F
100
AcDbEntity
  8
0
100
AcDbLine
 10
0.0401295543565676
 20
0.0191690529235793
 30
0.0
 11
0.0395317137158737
 21
0.019313165359806
 31
0.0
  0
LINE
  5
166
330
1F
100
AcDbEntity
  8
0
100
AcDbLine
 10
0.0408750496722088
 20
0.0190389509028925
 30
0.0
 11
0.0401295543565676
 21
0.0191690529235793
 31
0.0
  0
LINE
  5
167
330
1F
100
AcDbEntity
  8
0
100
AcDbLine
 10
0.041584015780529
 20
0.0189473994299226
 30
0.0
 11
0.0408750496722088
 21
0.0190389509028925
 31
0.0
  0
LINE
  5
168
330
1F
100
AcDbEntity
  8
0
100
AcDbLine
 10
0.0526038793764339
 20
0.0190389509028925
 30
0.0
 11
0.0519157984491714
 21
0.0189500964122842
 31
0.0
  0
LINE
  5
169
330
1F
100
AcDbEntity
  8
0
100
AcDbLine
 10
0.0464218791316991
 20
0.0192564181454966
 30
0.0
 11
0.0470570499169436
 21
0.0192564181454966
 31
0.0
  0
LINE
  5
16A
330
1F
100
AcDbEntity
  8
0
100
AcDbLine
 10
0.0454394645207823
 20
0.0173886557117137
 30
0.0
 11
0.0454394645207823
 21
0.0174291964636936
 31
0.0
  0
LINE
  5
16B
330
1F
100
AcDbEntity
  8
0
100
AcDbLine
 10
0.0395269751466141
 20
0.0218471740140236
 30
0.0
 11
0.0395269751466141
 21
0.0216328413088712
 31
0.0
  0
LINE
  5
16C
330
1F
100
AcDbEntity
  8
0
100
AcDbLine
 10
0.0539519539020286
 20
0.0218471740140236
 30
0.0
 11
0.0539519539020286
 21
0.0216328413088712
 31
0.0
  0
LINE
  5
16D
330
1F
100
AcDbEntity
  8
0
100
AcDbLine
 10
0.0677311691344059
 20
-0.0799258904986697
 30
0.0
 11
0.068194512726696
 21
-0.0798524752714353
 31
0.0
  0
LINE
  5
16E
330
1F
100
AcDbEntity
  8
0
100
AcDbLine
 10
0.068194512726696
 20
-0.0798524752714353
 30
0.0
 11
0.0686124996959279
 21
-0.0796394160239639
 31
0.0
  0
LINE
  5
16F
330
1F
100
AcDbEntity
  8
0
100
AcDbLine
 10
0.0686124996959279
 20
-0.0796394160239639
 30
0.0
 11
0.0688259405927149
 21
-0.0794258902919161
 31
0.0
  0
LINE
  5
170
330
1F
100
AcDbEntity
  8
0
100
AcDbLine
 10
0.0257477599142368
 20
-0.0799258904986697
 30
0.0
 11
0.0252844163219467
 21
-0.0798524752714353
 31
0.0
  0
LINE
  5
171
330
1F
100
AcDbEntity
  8
0
100
AcDbLine
 10
0.0252844163219467
 20
-0.0798524752714353
 30
0.0
 11
0.0248664293527148
 21
-0.0796394160239639
 31
0.0
  0
LINE
  5
172
330
1F
100
AcDbEntity
  8
0
100
AcDbLine
 10
0.0433917928752134
 20
0.0469741112965477
 30
0.0
 11
0.0433586764727938
 21
0.0469741112965477
 31
0.0
  0
LINE
  5
173
330
1F
100
AcDbEntity
  8
0
100
AcDbLine
 10
0.0528452774593664
 20
0.0472241080778969
 30
0.0
 11
0.0528723219104801
 21
0.0472241080778969
 31
0.0
  0
LINE
  5
174
330
1F
100
AcDbEntity
  8
0
100
AcDbLine
 10
0.0528424570194024
 20
0.0477241090911758
 30
0.0
 11
0.0528874983790827
 21
0.0477241090911758
 31
0.0
  0
LINE
  5
175
330
1F
100
AcDbEntity
  8
0
100
AcDbLine
 10
0.0434898962332058
 20
0.0477858557778728
 30
0.0
 11
0.0434431864193501
 21
0.0477858557778728
 31
0.0
  0
LINE
  5
176
330
1F
100
AcDbEntity
  8
0
100
AcDbLine
 10
0.0435002598384227
 20
0.0479245930391682
 30
0.0
 11
0.0434576302237826
 21
0.0479245930391682
 31
0.0
  0
LINE
  5
177
330
1F
100
AcDbEntity
  8
0
100
AcDbLine
 10
0.0528366703463131
 20
0.0470236241299046
 30
0.0
 11
0.0528662366461282
 21
0.0470236241299046
 31
0.0
  0
LINE
  5
178
330
1F
100
AcDbEntity
  8
0
100
AcDbLine
 10
0.0407394644721673
 20
0.0188741096820069
 30
0.0
 11
0.0408139329114864
 21
0.0188741095143688
 31
0.0
  0
LINE
  5
179
330
1F
100
AcDbEntity
  8
0
100
AcDbLine
 10
0.0292687545447872
 20
0.0338448201830817
 30
0.0
 11
0.0293011962353514
 21
0.0338664976473284
 31
0.0
  0
LINE
  5
17A
330
1F
100
AcDbEntity
  8
0
100
AcDbLine
 10
0.0586709433723536
 20
0.0209441663430248
 30
0.0
 11
0.0586984780534432
 21
0.0209244270402325
 31
0.0
  0
LINE
  5
17B
330
1F
100
AcDbEntity
  8
0
100
AcDbLine
 10
0.0292394644498155
 20
0.0189741095121336
 30
0.0
 11
0.0292394644498155
 21
0.0213281604986024
 31
0.0
  0
LINE
  5
17C
330
1F
100
AcDbEntity
  8
0
100
AcDbLine
 10
0.0292394644498155
 20
0.0213281604986024
 30
0.0
 11
0.0292394644498155
 21
0.033774109516604
 31
0.0
  0
LINE
  5
17D
330
1F
100
AcDbEntity
  8
0
100
AcDbLine
 10
0.0526649961371563
 20
0.0188741095143688
 30
0.0
 11
0.0527394645764754
 21
0.0188741096820069
 31
0.0
  0
LINE
  5
17E
330
1F
100
AcDbEntity
  8
0
100
AcDbLine
 10
0.0642394645988272
 20
0.033774109516604
 30
0.0
 11
0.0642394645988271
 21
0.0213281604986024
 31
0.0
  0
LINE
  5
17F
330
1F
100
AcDbEntity
  8
0
100
AcDbLine
 10
0.0642394645988271
 20
0.0213281604986024
 30
0.0
 11
0.0642394645988272
 21
0.0189741095121336
 31
0.0
  0
LINE
  5
180
330
1F
100
AcDbEntity
  8
0
100
AcDbLine
 10
0.0402394643902109
 20
0.0228741094063354
 30
0.0
 11
0.0532394646584318
 21
0.0228741094063354
 31
0.0
  0
LINE
  5
181
330
1F
100
AcDbEntity
  8
0
100
AcDbLine
 10
0.0292470770805404
 20
0.0189358410018814
 30
0.0
 11
0.0292394644498155
 21
0.0189741095121336
 31
0.0
  0
LINE
  5
182
330
1F
100
AcDbEntity
  8
0
100
AcDbLine
 10
0.0292470770805404
 20
0.0189358410018814
 30
0.0
 11
0.0292687545447872
 21
0.018903398845656
 31
0.0
  0
LINE
  5
183
330
1F
100
AcDbEntity
  8
0
100
AcDbLine
 10
0.0293011962353513
 20
0.0188817213814092
 30
0.0
 11
0.0292687545447872
 21
0.018903398845656
 31
0.0
  0
LINE
  5
184
330
1F
100
AcDbEntity
  8
0
100
AcDbLine
 10
0.0293394642799423
 20
0.0188741096820069
 30
0.0
 11
0.0293011962353513
 21
0.0188817213814092
 31
0.0
  0
LINE
  5
185
330
1F
100
AcDbEntity
  8
0
100
AcDbLine
 10
0.0642253225733661
 20
0.033821873877514
 30
0.0
 11
0.0642394645988272
 21
0.033774109516604
 31
0.0
  0
LINE
  5
186
330
1F
100
AcDbEntity
  8
0
100
AcDbLine
 10
0.0292687545447872
 20
0.0338448201830817
 30
0.0
 11
0.0292501485823915
 21
0.0338190830837322
 31
0.0
  0
LINE
  5
187
330
1F
100
AcDbEntity
  8
0
100
AcDbLine
 10
0.0292394644498155
 20
0.033774109516604
 30
0.0
 11
0.0292501485823915
 21
0.0338190830837322
 31
0.0
  0
LINE
  5
188
330
1F
100
AcDbEntity
  8
0
100
AcDbLine
 10
0.0642394645988272
 20
0.0189741095121336
 30
0.0
 11
0.0642318519681022
 21
0.0189358410018814
 31
0.0
  0
LINE
  5
189
330
1F
100
AcDbEntity
  8
0
100
AcDbLine
 10
0.0641394647687004
 20
0.0188741096820069
 30
0.0
 11
0.0641777328132914
 21
0.0188817213814092
 31
0.0
  0
LINE
  5
18A
330
1F
100
AcDbEntity
  8
0
100
AcDbLine
 10
0.0641777328132914
 20
0.0188817213814092
 30
0.0
 11
0.0642101745038555
 21
0.018903398845656
 31
0.0
  0
LINE
  5
18B
330
1F
100
AcDbEntity
  8
0
100
AcDbLine
 10
0.0642101745038555
 20
0.018903398845656
 30
0.0
 11
0.0642318519681022
 21
0.0189358410018814
 31
0.0
  0
LINE
  5
18C
330
1F
100
AcDbEntity
  8
0
100
AcDbLine
 10
0.0292394644498155
 20
0.0213281604986024
 30
0.0
 11
0.0294065791099594
 21
0.0215966114367676
 31
0.0
  0
LINE
  5
18D
330
1F
100
AcDbEntity
  8
0
100
AcDbLine
 10
0.0294065791099594
 20
0.0215966114367676
 30
0.0
 11
0.0299028455197141
 21
0.0218569063174856
 31
0.0
  0
LINE
  5
18E
330
1F
100
AcDbEntity
  8
0
100
AcDbLine
 10
0.0299028455197141
 20
0.0218569063174856
 30
0.0
 11
0.0307131855665968
 21
0.0221011349524689
 31
0.0
  0
LINE
  5
18F
330
1F
100
AcDbEntity
  8
0
100
AcDbLine
 10
0.0307131855665968
 20
0.0221011349524689
 30
0.0
 11
0.031812976013057
 21
0.0223218774947656
 31
0.0
  0
LINE
  5
190
330
1F
100
AcDbEntity
  8
0
100
AcDbLine
 10
0.031812976013057
 20
0.0223218774947656
 30
0.0
 11
0.0331688010051177
 21
0.0225124260935319
 31
0.0
  0
LINE
  5
191
330
1F
100
AcDbEntity
  8
0
100
AcDbLine
 10
0.0331688010051177
 20
0.0225124260935319
 30
0.0
 11
0.0347394644200132
 21
0.0226669916476441
 31
0.0
  0
LINE
  5
192
330
1F
100
AcDbEntity
  8
0
100
AcDbLine
 10
0.0347394644200132
 20
0.0226669916476441
 30
0.0
 11
0.0364772424950526
 21
0.0227808772645277
 31
0.0
  0
LINE
  5
193
330
1F
100
AcDbEntity
  8
0
100
AcDbLine
 10
0.0364772424950526
 20
0.0227808772645277
 30
0.0
 11
0.0383293348281906
 21
0.0228506230808181
 31
0.0
  0
LINE
  5
194
330
1F
100
AcDbEntity
  8
0
100
AcDbLine
 10
0.0383293348281906
 20
0.0228506230808181
 30
0.0
 11
0.0402394643902109
 21
0.0228741094063354
 31
0.0
  0
LINE
  5
195
330
1F
100
AcDbEntity
  8
0
100
AcDbLine
 10
0.0640723499386833
 20
0.0215966114367676
 30
0.0
 11
0.0642394645988271
 21
0.0213281604986024
 31
0.0
  0
LINE
  5
196
330
1F
100
AcDbEntity
  8
0
100
AcDbLine
 10
0.0635760835289285
 20
0.0218569063174856
 30
0.0
 11
0.0640723499386833
 21
0.0215966114367676
 31
0.0
  0
LINE
  5
197
330
1F
100
AcDbEntity
  8
0
100
AcDbLine
 10
0.0627657434820459
 20
0.0221011349524689
 30
0.0
 11
0.0635760835289285
 21
0.0218569063174856
 31
0.0
  0
LINE
  5
198
330
1F
100
AcDbEntity
  8
0
100
AcDbLine
 10
0.0616659530355857
 20
0.0223218774947656
 30
0.0
 11
0.0627657434820459
 21
0.0221011349524689
 31
0.0
  0
LINE
  5
199
330
1F
100
AcDbEntity
  8
0
100
AcDbLine
 10
0.060310128043525
 20
0.0225124260935319
 30
0.0
 11
0.0616659530355857
 21
0.0223218774947656
 31
0.0
  0
LINE
  5
19A
330
1F
100
AcDbEntity
  8
0
100
AcDbLine
 10
0.0587394646286295
 20
0.0226669916476441
 30
0.0
 11
0.060310128043525
 21
0.0225124260935319
 31
0.0
  0
LINE
  5
19B
330
1F
100
AcDbEntity
  8
0
100
AcDbLine
 10
0.0570016865535901
 20
0.0227808772645277
 30
0.0
 11
0.0587394646286295
 21
0.0226669916476441
 31
0.0
  0
LINE
  5
19C
330
1F
100
AcDbEntity
  8
0
100
AcDbLine
 10
0.0551495942204521
 20
0.0228506230808181
 30
0.0
 11
0.0570016865535901
 21
0.0227808772645277
 31
0.0
  0
LINE
  5
19D
330
1F
100
AcDbEntity
  8
0
100
AcDbLine
 10
0.0532394646584318
 20
0.0228741094063354
 30
0.0
 11
0.0551495942204521
 21
0.0228506230808181
 31
0.0
  0
LINE
  5
19E
330
1F
100
AcDbEntity
  8
0
100
AcDbLine
 10
0.0378091073512361
 20
0.0202816210895087
 30
0.0
 11
0.0378394647418783
 21
0.0202761929047107
 31
0.0
  0
LINE
  5
19F
330
1F
100
AcDbEntity
  8
0
100
AcDbLine
 10
0.0378394647418783
 20
0.020220583674939
 30
0.0
 11
0.0378091073512361
 21
0.0202113779936749
 31
0.0
  0
LINE
  5
1A0
330
1F
100
AcDbEntity
  8
0
100
AcDbLine
 10
0.036780793220211
 20
0.0203272504792141
 30
0.0
 11
0.0367758153773688
 21
0.0203013608239393
 31
0.0
  0
LINE
  5
1A1
330
1F
100
AcDbEntity
  8
0
100
AcDbLine
 10
0.0348079856762891
 20
0.0209441663430248
 30
0.0
 11
0.0347804509951994
 21
0.0209244270402325
 31
0.0
  0
LINE
  5
1A2
330
1F
100
AcDbEntity
  8
0
100
AcDbLine
 10
0.0435557552963481
 20
0.0483741094668714
 30
0.0
 11
0.0435044289518989
 21
0.0483741094668714
 31
0.0
  0
LINE
  5
1A3
330
1F
100
AcDbEntity
  8
0
100
AcDbLine
 10
0.0247394646435307
 20
-0.0756258904606717
 30
0.0
 11
0.0247394646435306
 21
0.0493741095143688
 31
0.0
  0
LINE
  5
1A4
330
1F
100
AcDbEntity
  8
0
100
AcDbLine
 10
0.0687394644051121
 20
0.0493741095143688
 30
0.0
 11
0.0687394644051121
 21
-0.0756258904606717
 31
0.0
  0
LINE
  5
1A5
330
1F
100
AcDbEntity
  8
0
100
AcDbLine
 10
0.0277403479715734
 20
0.0493741095143688
 30
0.0
 11
0.0279808727261622
 21
0.0513741095143688
 31
0.0
  0
LINE
  5
1A6
330
1F
100
AcDbEntity
  8
0
100
AcDbLine
 10
0.0654980563224805
 20
0.0513741095143688
 30
0.0
 11
0.0657385810770693
 21
0.0493741095143688
 31
0.0
  0
LINE
  5
1A7
330
1F
100
AcDbEntity
  8
0
100
AcDbLine
 10
0.0434279168980205
 20
0.0473741091641915
 30
0.0
 11
0.0434003198706793
 21
0.0473741091641915
 31
0.0
  0
LINE
  5
1A8
330
1F
100
AcDbEntity
  8
0
100
AcDbLine
 10
0.0286182858863692
 20
0.0513741095143688
 30
0.0
 11
0.0283075374788709
 21
0.0493741095143688
 31
0.0
  0
LINE
  5
1A9
330
1F
100
AcDbEntity
  8
0
100
AcDbLine
 10
0.0311010763558618
 20
0.0493741095143688
 30
0.0
 11
0.0312990551977534
 21
0.0513741095143688
 31
0.0
  0
LINE
  5
1AA
330
1F
100
AcDbEntity
  8
0
100
AcDbLine
 10
0.0312990551977534
 20
0.0513741095143688
 30
0.0
 11
0.0309738959666932
 21
0.0493741095143688
 31
0.0
  0
LINE
  5
1AB
330
1F
100
AcDbEntity
  8
0
100
AcDbLine
 10
0.0355892174848612
 20
0.0493741095143688
 30
0.0
 11
0.0357303773687699
 21
0.0513741095143688
 31
0.0
  0
LINE
  5
1AC
330
1F
100
AcDbEntity
  8
0
100
AcDbLine
 10
0.0357303773687699
 20
0.0513741095143688
 30
0.0
 11
0.0355424093141511
 21
0.0493741095143688
 31
0.0
  0
LINE
  5
1AD
330
1F
100
AcDbEntity
  8
0
100
AcDbLine
 10
0.0461161122247589
 20
0.0493741095143688
 30
0.0
 11
0.0461240037537058
 21
0.0513741095143688
 31
0.0
  0
LINE
  5
1AE
330
1F
100
AcDbEntity
  8
0
100
AcDbLine
 10
0.0460805177035382
 20
0.0513741095143688
 30
0.0
 11
0.0458183893756916
 21
0.0493741095143688
 31
0.0
  0
LINE
  5
1AF
330
1F
100
AcDbEntity
  8
0
100
AcDbLine
 10
0.0524779683015082
 20
0.0493741095143688
 30
0.0
 11
0.0524053198754795
 21
0.0513741095143688
 31
0.0
  0
LINE
  5
1B0
330
1F
100
AcDbEntity
  8
0
100
AcDbLine
 10
0.0524053198754795
 20
0.0513741095143688
 30
0.0
 11
0.0523627093963972
 21
0.0493741095143688
 31
0.0
  0
LINE
  5
1B1
330
1F
100
AcDbEntity
  8
0
100
AcDbLine
 10
0.0616365205140249
 20
0.0493741095143688
 30
0.0
 11
0.0614479268995707
 21
0.0513741095143688
 31
0.0
  0
LINE
  5
1B2
330
1F
100
AcDbEntity
  8
0
100
AcDbLine
 10
0.0614137315336957
 20
0.0513741095143688
 30
0.0
 11
0.0614024053963269
 21
0.0493741095143688
 31
0.0
  0
LINE
  5
1B3
330
1F
100
AcDbEntity
  8
0
100
AcDbLine
 10
0.0647143208293123
 20
0.0493741095143688
 30
0.0
 11
0.0644867624287928
 21
0.0513741095143688
 31
0.0
  0
LINE
  5
1B4
330
1F
100
AcDbEntity
  8
0
100
AcDbLine
 10
0.0644867624287928
 20
0.0513741095143688
 30
0.0
 11
0.0646491391306794
 21
0.0493741095143688
 31
0.0
  0
LINE
  5
1B5
330
1F
100
AcDbEntity
  8
0
100
AcDbLine
 10
0.0649383395736845
 20
0.0513741095143688
 30
0.0
 11
0.0651716885079423
 21
0.0493741095143688
 31
0.0
  0
LINE
  5
1B6
330
1F
100
AcDbEntity
  8
0
100
AcDbLine
 10
0.0627062398024652
 20
0.0493741095143688
 30
0.0
 11
0.0624004083518821
 21
0.0513741095143688
 31
0.0
  0
LINE
  5
1B7
330
1F
100
AcDbEntity
  8
0
100
AcDbLine
 10
0.0624004083518821
 20
0.0513741095143688
 30
0.0
 11
0.0625829805644585
 21
0.0493741095143688
 31
0.0
  0
LINE
  5
1B8
330
1F
100
AcDbEntity
  8
0
100
AcDbLine
 10
0.0582303138630943
 20
0.0493741095143688
 30
0.0
 11
0.0580460716487979
 21
0.0513741095143688
 31
0.0
  0
LINE
  5
1B9
330
1F
100
AcDbEntity
  8
0
100
AcDbLine
 10
0.0580460716487979
 20
0.0513741095143688
 30
0.0
 11
0.0581842287869969
 21
0.0493741095143688
 31
0.0
  0
LINE
  5
1BA
330
1F
100
AcDbEntity
  8
0
100
AcDbLine
 10
0.0480260377070028
 20
0.0493741095143688
 30
0.0
 11
0.0477596929091348
 21
0.0513741095143688
 31
0.0
  0
LINE
  5
1BB
330
1F
100
AcDbEntity
  8
0
100
AcDbLine
 10
0.0477162781583583
 20
0.0513741095143688
 30
0.0
 11
0.047728803002013
 21
0.0493741095143688
 31
0.0
  0
LINE
  5
1BC
330
1F
100
AcDbEntity
  8
0
100
AcDbLine
 10
0.0414670591428994
 20
0.0493741095143688
 30
0.0
 11
0.0414363540819475
 21
0.0513741095143688
 31
0.0
  0
LINE
  5
1BD
330
1F
100
AcDbEntity
  8
0
100
AcDbLine
 10
0.0414363540819475
 20
0.0513741095143688
 30
0.0
 11
0.0413512201604484
 21
0.0493741095143688
 31
0.0
  0
LINE
  5
1BE
330
1F
100
AcDbEntity
  8
0
100
AcDbLine
 10
0.0323325282811449
 20
0.0493741095143688
 30
0.0
 11
0.0322931687611357
 21
0.0513741095143688
 31
0.0
  0
LINE
  5
1BF
330
1F
100
AcDbEntity
  8
0
100
AcDbLine
 10
0.0322582159762642
 20
0.0513741095143688
 30
0.0
 11
0.0320725357360278
 21
0.0493741095143688
 31
0.0
  0
LINE
  5
1C0
330
1F
100
AcDbEntity
  8
0
100
AcDbLine
 10
0.0289550288430642
 20
0.0493741095143688
 30
0.0
 11
0.0291226448357919
 21
0.0513741095143688
 31
0.0
  0
LINE
  5
1C1
330
1F
100
AcDbEntity
  8
0
100
AcDbLine
 10
0.0291226448357919
 20
0.0513741095143688
 30
0.0
 11
0.0288866427405369
 21
0.0493741095143688
 31
0.0
  0
LINE
  5
1C2
330
1F
100
AcDbEntity
  8
0
100
AcDbLine
 10
0.0528591233935752
 20
0.0483741093281043
 30
0.0
 11
0.0528946489470646
 21
0.0483741093281043
 31
0.0
  0
LINE
  5
1C3
330
1F
100
AcDbEntity
  8
0
100
AcDbLine
 10
0.0435421593958655
 20
0.0484855011138657
 30
0.0
 11
0.0435193889419968
 21
0.0485178048530062
 31
0.0
  0
LINE
  5
1C4
330
1F
100
AcDbEntity
  8
0
100
AcDbLine
 10
0.0661968401599849
 20
0.0518741095381176
 30
0.0
 11
0.0662295507148857
 21
0.0518741095381176
 31
0.0
  0
LINE
  5
1C5
330
1F
100
AcDbEntity
  8
0
100
AcDbLine
 10
0.0365394641562627
 20
0.0792741086858643
 30
0.0
 11
0.0365394641562627
 21
0.0793146640586985
 31
0.0
  0
LINE
  5
1C6
330
1F
100
AcDbEntity
  8
0
100
AcDbLine
 10
0.0365394641562627
 20
0.0793146640586985
 30
0.0
 11
0.0365394641562627
 21
0.0793452095765007
 31
0.0
  0
LINE
  5
1C7
330
1F
100
AcDbEntity
  8
0
100
AcDbLine
 10
0.0248394644736574
 20
0.0793741103786362
 30
0.0
 11
0.0247894636272714
 21
0.0793607123720778
 31
0.0
  0
LINE
  5
1C8
330
1F
100
AcDbEntity
  8
0
100
AcDbLine
 10
0.024752862650089
 20
0.0793241095322502
 30
0.0
 11
0.0247394646435306
 21
0.0792741086858643
 31
0.0
  0
LINE
  5
1C9
330
1F
100
AcDbEntity
  8
0
100
AcDbLine
 10
0.0365394641562627
 20
0.0793741103786362
 30
0.0
 11
0.0365394641562627
 21
0.0793146640586985
 31
0.0
  0
LINE
  5
1CA
330
1F
100
AcDbEntity
  8
0
100
AcDbLine
 10
0.0247894636272714
 20
0.0793607123720778
 30
0.0
 11
0.024752862650089
 21
0.0793241095322502
 31
0.0
  0
LINE
  5
1CB
330
1F
100
AcDbEntity
  8
0
100
AcDbLine
 10
0.0687318517743871
 20
0.0793123785931003
 30
0.0
 11
0.068739464405112
 21
0.0792741086858643
 31
0.0
  0
LINE
  5
1CC
330
1F
100
AcDbEntity
  8
0
100
AcDbLine
 10
0.0687101743101404
 20
0.0793448202836645
 30
0.0
 11
0.0687318517743871
 21
0.0793123785931003
 31
0.0
  0
LINE
  5
1CD
330
1F
100
AcDbEntity
  8
0
100
AcDbLine
 10
0.0686777326195762
 20
0.0793664977479113
 30
0.0
 11
0.0687101743101404
 21
0.0793448202836645
 31
0.0
  0
LINE
  5
1CE
330
1F
100
AcDbEntity
  8
0
100
AcDbLine
 10
0.0686394645749853
 20
0.0793741103786362
 30
0.0
 11
0.0686777326195762
 21
0.0793664977479113
 31
0.0
  0
LINE
  5
1CF
330
1F
100
AcDbEntity
  8
0
100
AcDbLine
 10
0.0649552251129673
 20
0.0792741086858643
 30
0.0
 11
0.064845109257035
 21
0.0792741086858643
 31
0.0
  0
LINE
  5
1D0
330
1F
100
AcDbEntity
  8
0
100
AcDbLine
 10
0.0613253553315327
 20
0.0792741086858643
 30
0.0
 11
0.061252378757231
 21
0.0792741086858643
 31
0.0
  0
LINE
  5
1D1
330
1F
100
AcDbEntity
  8
0
100
AcDbLine
 10
0.0365394641562627
 20
0.0742741097289455
 30
0.0
 11
0.0365155543118046
 21
0.0513741095143688
 31
0.0
  0
LINE
  5
1D2
330
1F
100
AcDbEntity
  8
0
100
AcDbLine
 10
0.0247394646435306
 20
0.0792741086858643
 30
0.0
 11
0.0247394646435306
 21
0.0513741095143688
 31
0.0
  0
LINE
  5
1D3
330
1F
100
AcDbEntity
  8
0
100
AcDbLine
 10
0.0365394641562627
 20
0.0742741097289455
 30
0.0
 11
0.0365394641562627
 21
0.0792741086858643
 31
0.0
  0
LINE
  5
1D4
330
1F
100
AcDbEntity
  8
0
100
AcDbLine
 10
0.0680898259311245
 20
0.0792741086858643
 30
0.0
 11
0.0680273807524965
 21
0.0792741086858643
 31
0.0
  0
LINE
  5
1D5
330
1F
100
AcDbEntity
  8
0
100
AcDbLine
 10
0.068739464405112
 20
0.0513741095143688
 30
0.0
 11
0.068739464405112
 21
0.0792741086858643
 31
0.0
  0
LINE
  5
1D6
330
1F
100
AcDbEntity
  8
0
100
AcDbLine
 10
0.061252378757231
 20
0.0792741086858643
 30
0.0
 11
0.0612473570659087
 21
0.0793123785931003
 31
0.0
  0
LINE
  5
1D7
330
1F
100
AcDbEntity
  8
0
100
AcDbLine
 10
0.0613253553315327
 20
0.0792741086858643
 30
0.0
 11
0.0612473570659087
 21
0.0793123785931003
 31
0.0
  0
LINE
  5
1D8
330
1F
100
AcDbEntity
  8
0
100
AcDbLine
 10
0.064845109257035
 20
0.0792741086858643
 30
0.0
 11
0.0649489219217823
 21
0.0793123785931003
 31
0.0
  0
LINE
  5
1D9
330
1F
100
AcDbEntity
  8
0
100
AcDbLine
 10
0.0649552251129673
 20
0.0792741086858643
 30
0.0
 11
0.0649489219217823
 21
0.0793123785931003
 31
0.0
  0
LINE
  5
1DA
330
1F
100
AcDbEntity
  8
0
100
AcDbLine
 10
0.0680273807524965
 20
0.0792741086858643
 30
0.0
 11
0.0680200139909313
 21
0.0793123785931003
 31
0.0
  0
LINE
  5
1DB
330
1F
100
AcDbEntity
  8
0
100
AcDbLine
 10
0.0680898259311245
 20
0.0792741086858643
 30
0.0
 11
0.0680200139909313
 21
0.0793123785931003
 31
0.0
  0
LINE
  5
1DC
330
1F
100
AcDbEntity
  8
0
100
AcDbLine
 10
0.0227417881341643
 20
-0.0794258902919161
 30
0.0
 11
0.0227417881341643
 21
-0.0756258904606717
 31
0.0
  0
LINE
  5
1DD
330
1F
100
AcDbEntity
  8
0
100
AcDbLine
 10
0.0707371409144784
 20
-0.0794258902919161
 30
0.0
 11
0.0707371409144784
 21
-0.0756258904606717
 31
0.0
  0
LINE
  5
1DE
330
1F
100
AcDbEntity
  8
0
100
AcDbLine
 10
-0.1176661463557235
 20
0.0792741094584895
 30
0.0
 11
-0.1176661463557235
 21
0.0742741095702482
 31
0.0
  0
LINE
  5
1DF
330
1F
100
AcDbEntity
  8
0
100
AcDbLine
 10
-0.1553408101133326
 20
0.0181282885713667
 30
0.0
 11
-0.1552940960587669
 21
0.018103145308974
 31
0.0
  0
LINE
  5
1E0
330
1F
100
AcDbEntity
  8
0
100
AcDbLine
 10
-0.1552457090814808
 20
0.0180768196389536
 30
0.0
 11
-0.1552940960587669
 21
0.018103145308974
 31
0.0
  0
LINE
  5
1E1
330
1F
100
AcDbEntity
  8
0
100
AcDbLine
 10
-0.1525121681862902
 20
0.0188445836299661
 30
0.0
 11
-0.1552457090814808
 21
0.0180768196389536
 31
0.0
  0
LINE
  5
1E2
330
1F
100
AcDbEntity
  8
0
100
AcDbLine
 10
-0.1573130469599683
 20
0.0176384993383948
 30
0.0
 11
-0.1559799037655265
 21
0.0179695746467374
 31
0.0
  0
LINE
  5
1E3
330
1F
100
AcDbEntity
  8
0
100
AcDbLine
 10
-0.1579598711766176
 20
0.0175018945514143
 30
0.0
 11
-0.1573130469599683
 21
0.0176384993383948
 31
0.0
  0
LINE
  5
1E4
330
1F
100
AcDbEntity
  8
0
100
AcDbLine
 10
-0.1578570684499674
 20
0.0206055879531352
 30
0.0
 11
-0.1580835008415681
 21
0.0196275834100273
 31
0.0
  0
LINE
  5
1E5
330
1F
100
AcDbEntity
  8
0
100
AcDbLine
 10
-0.1538895455516613
 20
0.0200479891430589
 30
0.0
 11
-0.1547042959996889
 21
0.0191526671176988
 31
0.0
  0
LINE
  5
1E6
330
1F
100
AcDbEntity
  8
0
100
AcDbLine
 10
-0.1504255582462943
 20
0.0195611574519611
 30
0.0
 11
-0.1506545446478253
 21
0.0185835116545427
 31
0.0
  0
LINE
  5
1E7
330
1F
100
AcDbEntity
  8
0
100
AcDbLine
 10
-0.1506545446478253
 20
0.0185835116545427
 30
0.0
 11
-0.1503515773955726
 21
0.0195507601209403
 31
0.0
  0
LINE
  5
1E8
330
1F
100
AcDbEntity
  8
0
100
AcDbLine
 10
-0.1506545446478253
 20
0.0185835116545427
 30
0.0
 11
-0.1504907505260178
 21
0.018560491890819
 31
0.0
  0
LINE
  5
1E9
330
1F
100
AcDbEntity
  8
0
100
AcDbLine
 10
-0.1504907505260178
 20
0.018560491890819
 30
0.0
 11
-0.1503515773955726
 21
0.0195507601209403
 31
0.0
  0
LINE
  5
1EA
330
1F
100
AcDbEntity
  8
0
100
AcDbLine
 10
-0.1579443277388775
 20
0.0206178514426642
 30
0.0
 11
-0.1580835008415681
 21
0.0196275834100273
 31
0.0
  0
LINE
  5
1EB
330
1F
100
AcDbEntity
  8
0
100
AcDbLine
 10
-0.1519441462236516
 20
0.0197745811833782
 30
0.0
 11
-0.1520833193677512
 21
0.0187843128561006
 31
0.0
  0
LINE
  5
1EC
330
1F
100
AcDbEntity
  8
0
100
AcDbLine
 10
-0.1520689596988167
 20
0.0197921224751425
 30
0.0
 11
-0.1520833193677512
 21
0.0187843128561006
 31
0.0
  0
LINE
  5
1ED
330
1F
100
AcDbEntity
  8
0
100
AcDbLine
 10
-0.1648993574935803
 20
0.0217764429151415
 30
0.0
 11
-0.1648801176183048
 21
0.0218279873287167
 31
0.0
  0
LINE
  5
1EE
330
1F
100
AcDbEntity
  8
0
100
AcDbLine
 10
-0.1648998612538604
 20
0.0217373647696744
 30
0.0
 11
-0.1648993574935803
 21
0.0217764429151415
 31
0.0
  0
LINE
  5
1EF
330
1F
100
AcDbEntity
  8
0
100
AcDbLine
 10
-0.1604317653890897
 20
0.0209674382247729
 30
0.0
 11
-0.1603445060837577
 21
0.0209551747285663
 31
0.0
  0
LINE
  5
1F0
330
1F
100
AcDbEntity
  8
0
100
AcDbLine
 10
-0.167937256399308
 20
0.0220222662477747
 30
0.0
 11
-0.1678632755485862
 21
0.0220118689167539
 31
0.0
  0
LINE
  5
1F1
330
1F
100
AcDbEntity
  8
0
100
AcDbLine
 10
-0.1679126354079457
 20
0.0210089782539296
 30
0.0
 11
-0.1678632755485862
 21
0.0220118689167539
 31
0.0
  0
LINE
  5
1F2
330
1F
100
AcDbEntity
  8
0
100
AcDbLine
 10
-0.1678632755485862
 20
0.0220118689167539
 30
0.0
 11
-0.1680764295297532
 21
0.0210319980176533
 31
0.0
  0
LINE
  5
1F3
330
1F
100
AcDbEntity
  8
0
100
AcDbLine
 10
-0.1680764295297532
 20
0.0210319980176533
 30
0.0
 11
-0.1679126354079457
 21
0.0210089782539296
 31
0.0
  0
LINE
  5
1F4
330
1F
100
AcDbEntity
  8
0
100
AcDbLine
 10
-0.167937256399308
 20
0.0220222662477747
 30
0.0
 11
-0.1680764295297532
 21
0.0210319980176533
 31
0.0
  0
LINE
  5
1F5
330
1F
100
AcDbEntity
  8
0
100
AcDbLine
 10
-0.1662198740960639
 20
0.0217809038935725
 30
0.0
 11
-0.1664838606880197
 21
0.0208081770523717
 31
0.0
  0
LINE
  5
1F6
330
1F
100
AcDbEntity
  8
0
100
AcDbLine
 10
-0.1643992882432192
 20
0.0215250372256561
 30
0.0
 11
-0.164845611435437
 21
0.0205779361237058
 31
0.0
  0
LINE
  5
1F7
330
1F
100
AcDbEntity
  8
0
100
AcDbLine
 10
-0.1647064383049918
 20
0.0215682043538271
 30
0.0
 11
-0.164845611435437
 21
0.0205779361237058
 31
0.0
  0
LINE
  5
1F8
330
1F
100
AcDbEntity
  8
0
100
AcDbLine
 10
-0.1604317653890897
 20
0.0209674382247729
 30
0.0
 11
-0.1616614130727683
 21
0.0201304262060779
 31
0.0
  0
LINE
  5
1F9
330
1F
100
AcDbEntity
  8
0
100
AcDbLine
 10
-0.1616614130727683
 20
0.0201304262060779
 30
0.0
 11
-0.1603445060837577
 21
0.0209551747285663
 31
0.0
  0
LINE
  5
1FA
330
1F
100
AcDbEntity
  8
0
100
AcDbLine
 10
-0.1663446875575745
 20
0.021798445282493
 30
0.0
 11
-0.1664838606880197
 21
0.0208081770523717
 31
0.0
  0
LINE
  5
1FB
330
1F
100
AcDbEntity
  8
0
100
AcDbLine
 10
-0.1678080058398079
 20
0.0220041013826949
 30
0.0
 11
-0.1679126354079457
 21
0.0210089782539296
 31
0.0
  0
LINE
  5
1FC
330
1F
100
AcDbEntity
  8
0
100
AcDbLine
 10
-0.1617725529159805
 20
0.0182652420584568
 30
0.0
 11
-0.161188438958958
 21
0.017955640184623
 31
0.0
  0
LINE
  5
1FD
330
1F
100
AcDbEntity
  8
0
100
AcDbLine
 10
-0.1635852192830448
 20
0.0192683867445074
 30
0.0
 11
-0.1635333844292148
 21
0.0192796798603777
 31
0.0
  0
LINE
  5
1FE
330
1F
100
AcDbEntity
  8
0
100
AcDbLine
 10
-0.1660550118694807
 20
0.0207479062785062
 30
0.0
 11
-0.1636389881691279
 21
0.0192564181454966
 31
0.0
  0
LINE
  5
1FF
330
1F
100
AcDbEntity
  8
0
100
AcDbLine
 10
-0.1636389881691279
 20
0.0192564181454966
 30
0.0
 11
-0.1635852192830448
 21
0.0192683867445074
 31
0.0
  0
LINE
  5
200
330
1F
100
AcDbEntity
  8
0
100
AcDbLine
 10
-0.083651449353964
 20
0.0188741095143688
 30
0.0
 11
-0.0834903538142144
 21
0.0188741095143688
 31
0.0
  0
LINE
  5
201
330
1F
100
AcDbEntity
  8
0
100
AcDbLine
 10
-0.0800016376641491
 20
0.0188741095143688
 30
0.0
 11
-0.0800016376641491
 21
0.018903398845656
 31
0.0
  0
LINE
  5
202
330
1F
100
AcDbEntity
  8
0
100
AcDbLine
 10
-0.0839952382992446
 20
0.0188741095143688
 30
0.0
 11
-0.0839952382992446
 21
0.018903398845656
 31
0.0
  0
LINE
  5
203
330
1F
100
AcDbEntity
  8
0
100
AcDbLine
 10
-0.0830385496899896
 20
0.0188741095143688
 30
0.0
 11
-0.082952804487687
 21
0.0188741095143688
 31
0.0
  0
LINE
  5
204
330
1F
100
AcDbEntity
  8
0
100
AcDbLine
 10
-0.0809583262734041
 20
0.0188741095143688
 30
0.0
 11
-0.0810440714757066
 21
0.0188741095143688
 31
0.0
  0
LINE
  5
205
330
1F
100
AcDbEntity
  8
0
100
AcDbLine
 10
-0.0820841831839994
 20
0.0188741095143688
 30
0.0
 11
-0.0820841831839994
 21
0.018903398845656
 31
0.0
  0
LINE
  5
206
330
1F
100
AcDbEntity
  8
0
100
AcDbLine
 10
-0.0830385496899896
 20
0.018903398845656
 30
0.0
 11
-0.0830385496899896
 21
0.0188741095143688
 31
0.0
  0
LINE
  5
207
330
1F
100
AcDbEntity
  8
0
100
AcDbLine
 10
-0.082952804487687
 20
0.018903398845656
 30
0.0
 11
-0.082952804487687
 21
0.0188741095143688
 31
0.0
  0
LINE
  5
208
330
1F
100
AcDbEntity
  8
0
100
AcDbLine
 10
-0.0819126927793943
 20
0.018903398845656
 30
0.0
 11
-0.0819126927793943
 21
0.0188741095143688
 31
0.0
  0
LINE
  5
209
330
1F
100
AcDbEntity
  8
0
100
AcDbLine
 10
-0.0809583262734041
 20
0.018903398845656
 30
0.0
 11
-0.0809583262734041
 21
0.0188741095143688
 31
0.0
  0
LINE
  5
20A
330
1F
100
AcDbEntity
  8
0
100
AcDbLine
 10
-0.0810440714757066
 20
0.018903398845656
 30
0.0
 11
-0.0810440714757066
 21
0.0188741095143688
 31
0.0
  0
LINE
  5
20B
330
1F
100
AcDbEntity
  8
0
100
AcDbLine
 10
-0.073657850965808
 20
-0.0799258904986697
 30
0.0
 11
-0.0741211945580982
 21
-0.0798524752714353
 31
0.0
  0
LINE
  5
20C
330
1F
100
AcDbEntity
  8
0
100
AcDbLine
 10
-0.0741211945580982
 20
-0.0798524752714353
 30
0.0
 11
-0.0745391815273301
 21
-0.0796394160239639
 31
0.0
  0
LINE
  5
20D
330
1F
100
AcDbEntity
  8
0
100
AcDbLine
 10
-0.0745391815273301
 20
-0.0796394160239639
 30
0.0
 11
-0.074752622424117
 21
-0.0794258902919161
 31
0.0
  0
LINE
  5
20E
330
1F
100
AcDbEntity
  8
0
100
AcDbLine
 10
-0.0316744417456389
 20
-0.0799258904986697
 30
0.0
 11
-0.0312110981533488
 21
-0.0798524752714353
 31
0.0
  0
LINE
  5
20F
330
1F
100
AcDbEntity
  8
0
100
AcDbLine
 10
-0.0312110981533488
 20
-0.0798524752714353
 30
0.0
 11
-0.0307931111841169
 21
-0.0796394160239639
 31
0.0
  0
LINE
  5
210
330
1F
100
AcDbEntity
  8
0
100
AcDbLine
 10
-0.0307931111841169
 20
-0.0796394160239639
 30
0.0
 11
-0.03057967028733
 21
-0.0794258902919161
 31
0.0
  0
LINE
  5
211
330
1F
100
AcDbEntity
  8
0
100
AcDbLine
 10
-0.0823670113074487
 20
0.018903398845656
 30
0.0
 11
-0.0823711924585758
 21
0.0188741095143688
 31
0.0
  0
LINE
  5
212
330
1F
100
AcDbEntity
  8
0
100
AcDbLine
 10
-0.0834903538142144
 20
0.0188741095143688
 30
0.0
 11
-0.0834842512937497
 21
0.0189287307021917
 31
0.0
  0
LINE
  5
213
330
1F
100
AcDbEntity
  8
0
100
AcDbLine
 10
-0.0836483590753672
 20
0.018903398845656
 30
0.0
 11
-0.083651449353964
 21
0.0188741095143688
 31
0.0
  0
LINE
  5
214
330
1F
100
AcDbEntity
  8
0
100
AcDbLine
 10
-0.0803484378192742
 20
0.018903398845656
 30
0.0
 11
-0.0803257017885658
 21
0.0188741095143688
 31
0.0
  0
LINE
  5
215
330
1F
100
AcDbEntity
  8
0
100
AcDbLine
 10
-0.0805118392963131
 20
0.018903398845656
 30
0.0
 11
-0.0805118392963131
 21
0.0188741096820069
 31
0.0
  0
LINE
  5
216
330
1F
100
AcDbEntity
  8
0
100
AcDbLine
 10
-0.08163127785513
 20
0.018903398845656
 30
0.0
 11
-0.0816256835048179
 21
0.0188741095143688
 31
0.0
  0
LINE
  5
217
330
1F
100
AcDbEntity
  8
0
100
AcDbLine
 10
-0.0746661463562567
 20
0.018903398845656
 30
0.0
 11
-0.0746661463562567
 21
0.0188741096820069
 31
0.0
  0
LINE
  5
218
330
1F
100
AcDbEntity
  8
0
100
AcDbLine
 10
-0.1648828914688464
 20
0.0220979165851704
 30
0.0
 11
-0.1648310774712749
 21
0.0220906346198374
 31
0.0
  0
LINE
  5
219
330
1F
100
AcDbEntity
  8
0
100
AcDbLine
 10
-0.0659984379816969
 20
0.0189741095121336
 30
0.0
 11
-0.0659984379816969
 21
0.033774109516604
 31
0.0
  0
LINE
  5
21A
330
1F
100
AcDbEntity
  8
0
100
AcDbLine
 10
-0.1629984408427198
 20
0.033774109516604
 30
0.0
 11
-0.1629984408427198
 21
0.0213281604986024
 31
0.0
  0
LINE
  5
21B
330
1F
100
AcDbEntity
  8
0
100
AcDbLine
 10
-0.0729006151326699
 20
0.0338741093467307
 30
0.0
 11
-0.0733704834055324
 21
0.0338741093467307
 31
0.0
  0
LINE
  5
21C
330
1F
100
AcDbEntity
  8
0
100
AcDbLine
 10
-0.0733704834055324
 20
0.0338741093467307
 30
0.0
 11
-0.0735925015614399
 21
0.0338741093467307
 31
0.0
  0
LINE
  5
21D
330
1F
100
AcDbEntity
  8
0
100
AcDbLine
 10
-0.0746276242444165
 20
0.0338741093467307
 30
0.0
 11
-0.0746661462365142
 21
0.0338741093467307
 31
0.0
  0
LINE
  5
21E
330
1F
100
AcDbEntity
  8
0
100
AcDbLine
 10
-0.1739984407831152
 20
0.0228741094063354
 30
0.0
 11
-0.1739984407831152
 21
0.0338741093467307
 31
0.0
  0
LINE
  5
21F
330
1F
100
AcDbEntity
  8
0
100
AcDbLine
 10
-0.0660084236614502
 20
0.0338123780268562
 30
0.0
 11
-0.0660367958698124
 21
0.0338448201830817
 31
0.0
  0
LINE
  5
220
330
1F
100
AcDbEntity
  8
0
100
AcDbLine
 10
-0.0659984379816969
 20
0.033774109516604
 30
0.0
 11
-0.0660084236614502
 21
0.0338123780268562
 31
0.0
  0
LINE
  5
221
330
1F
100
AcDbEntity
  8
0
100
AcDbLine
 10
-0.1644783049632032
 20
0.0338741093467307
 30
0.0
 11
-0.1642798736501653
 21
0.0338709069940579
 31
0.0
  0
LINE
  5
222
330
1F
100
AcDbEntity
  8
0
100
AcDbLine
 10
-0.06607908030849
 20
0.0338664976473284
 30
0.0
 11
-0.0661286869798722
 21
0.0338741093467307
 31
0.0
  0
LINE
  5
223
330
1F
100
AcDbEntity
  8
0
100
AcDbLine
 10
-0.0660367958698124
 20
0.0338448201830817
 30
0.0
 11
-0.06607908030849
 21
0.0338664976473284
 31
0.0
  0
LINE
  5
224
330
1F
100
AcDbEntity
  8
0
100
AcDbLine
 10
-0.0661286869798722
 20
0.0188741096820069
 30
0.0
 11
-0.06607908030849
 21
0.0188817213814092
 31
0.0
  0
LINE
  5
225
330
1F
100
AcDbEntity
  8
0
100
AcDbLine
 10
-0.06607908030849
 20
0.0188817213814092
 30
0.0
 11
-0.0660367958698124
 21
0.018903398845656
 31
0.0
  0
LINE
  5
226
330
1F
100
AcDbEntity
  8
0
100
AcDbLine
 10
-0.0660367958698124
 20
0.018903398845656
 30
0.0
 11
-0.0660084236614502
 21
0.0189358410018814
 31
0.0
  0
LINE
  5
227
330
1F
100
AcDbEntity
  8
0
100
AcDbLine
 10
-0.0660084236614502
 20
0.0189358410018814
 30
0.0
 11
-0.0659984379816969
 21
0.0189741095121336
 31
0.0
  0
LINE
  5
228
330
1F
100
AcDbEntity
  8
0
100
AcDbLine
 10
-0.073369446187957
 20
0.0338423473146376
 30
0.0
 11
-0.0733704834055324
 21
0.0338741093467307
 31
0.0
  0
LINE
  5
229
330
1F
100
AcDbEntity
  8
0
100
AcDbLine
 10
-0.0733696616078353
 20
0.018903398845656
 30
0.0
 11
-0.0733704834055324
 21
0.0188741096820069
 31
0.0
  0
LINE
  5
22A
330
1F
100
AcDbEntity
  8
0
100
AcDbLine
 10
-0.0661286869798722
 20
0.0188741096820069
 30
0.0
 11
-0.0661357448605199
 21
0.018903398845656
 31
0.0
  0
LINE
  5
22B
330
1F
100
AcDbEntity
  8
0
100
AcDbLine
 10
-0.067917961328866
 20
0.0188741096820069
 30
0.0
 11
-0.0679179610546082
 21
0.018903398845656
 31
0.0
  0
LINE
  5
22C
330
1F
100
AcDbEntity
  8
0
100
AcDbLine
 10
-0.0745209084633906
 20
0.0338419589946439
 30
0.0
 11
-0.0745209084633906
 21
0.0338741093467307
 31
0.0
  0
LINE
  5
22D
330
1F
100
AcDbEntity
  8
0
100
AcDbLine
 10
-0.0745215611404312
 20
0.018903398845656
 30
0.0
 11
-0.0745209084633906
 21
0.0188741096820069
 31
0.0
  0
LINE
  5
22E
330
1F
100
AcDbEntity
  8
0
100
AcDbLine
 10
-0.0306661464749328
 20
0.0493741095143688
 30
0.0
 11
-0.0306661464749328
 21
-0.0756258904606717
 31
0.0
  0
LINE
  5
22F
330
1F
100
AcDbEntity
  8
0
100
AcDbLine
 10
-0.0477015372834739
 20
0.0493741095143688
 30
0.0
 11
-0.0477751387567065
 21
0.0517162004339827
 31
0.0
  0
LINE
  5
230
330
1F
100
AcDbEntity
  8
0
100
AcDbLine
 10
-0.0418753711518134
 20
0.0493741095143688
 30
0.0
 11
-0.042035346967594
 21
0.0517162004339827
 31
0.0
  0
LINE
  5
231
330
1F
100
AcDbEntity
  8
0
100
AcDbLine
 10
-0.042035346967594
 20
0.0517162004339827
 30
0.0
 11
-0.0420775358295544
 21
0.0493741095143688
 31
0.0
  0
LINE
  5
232
330
1F
100
AcDbEntity
  8
0
100
AcDbLine
 10
-0.037281998365905
 20
0.0493741095143688
 30
0.0
 11
-0.0375100721920832
 21
0.0517162004339827
 31
0.0
  0
LINE
  5
233
330
1F
100
AcDbEntity
  8
0
100
AcDbLine
 10
-0.0375100721920832
 20
0.0517162004339827
 30
0.0
 11
-0.0373190541525951
 21
0.0493741095143688
 31
0.0
  0
LINE
  5
234
330
1F
100
AcDbEntity
  8
0
100
AcDbLine
 10
-0.0336531457035295
 20
0.0493741095143688
 30
0.0
 11
-0.0339579024848864
 21
0.0517162004339827
 31
0.0
  0
LINE
  5
235
330
1F
100
AcDbEntity
  8
0
100
AcDbLine
 10
-0.0339579024848864
 20
0.0517162004339827
 30
0.0
 11
-0.0336988250873817
 21
0.0493741095143688
 31
0.0
  0
LINE
  5
236
330
1F
100
AcDbEntity
  8
0
100
AcDbLine
 10
-0.0356731775490685
 20
0.0592980613300997
 30
0.0
 11
-0.0354593221102399
 21
0.0586264558456225
 31
0.0
  0
LINE
  5
237
330
1F
100
AcDbEntity
  8
0
100
AcDbLine
 10
-0.0354593221102399
 20
0.0586264558456225
 30
0.0
 11
-0.0348503681963968
 21
0.0563475283648205
 31
0.0
  0
LINE
  5
238
330
1F
100
AcDbEntity
  8
0
100
AcDbLine
 10
-0.0348503681963968
 20
0.0563475283648205
 30
0.0
 11
-0.0343495241861604
 21
0.0540423997531963
 31
0.0
  0
LINE
  5
239
330
1F
100
AcDbEntity
  8
0
100
AcDbLine
 10
-0.0343495241861604
 20
0.0540423997531963
 30
0.0
 11
-0.0339579024848864
 21
0.0517162004339827
 31
0.0
  0
LINE
  5
23A
330
1F
100
AcDbEntity
  8
0
100
AcDbLine
 10
-0.034417217746486
 20
0.0493741095143688
 30
0.0
 11
-0.0347163033635665
 21
0.0517162004339827
 31
0.0
  0
LINE
  5
23B
330
1F
100
AcDbEntity
  8
0
100
AcDbLine
 10
-0.0347163033635665
 20
0.0517162004339827
 30
0.0
 11
-0.03444618972311
 21
0.0493741095143688
 31
0.0
  0
LINE
  5
23C
330
1F
100
AcDbEntity
  8
0
100
AcDbLine
 10
-0.0403213465263268
 20
0.0493741095143688
 30
0.0
 11
-0.0407670784032406
 21
0.0517162004339827
 31
0.0
  0
LINE
  5
23D
330
1F
100
AcDbEntity
  8
0
100
AcDbLine
 10
-0.0407670784032406
 20
0.0517162004339827
 30
0.0
 11
-0.0405880171075713
 21
0.0493741095143688
 31
0.0
  0
LINE
  5
23E
330
1F
100
AcDbEntity
  8
0
100
AcDbLine
 10
-0.0459985350057065
 20
0.0493741095143688
 30
0.0
 11
-0.0462604827754034
 21
0.0517162004339827
 31
0.0
  0
LINE
  5
23F
330
1F
100
AcDbEntity
  8
0
100
AcDbLine
 10
-0.0462604827754034
 20
0.0517162004339827
 30
0.0
 11
-0.0461640886849267
 21
0.0493741095143688
 31
0.0
  0
LINE
  5
240
330
1F
100
AcDbEntity
  8
0
100
AcDbLine
 10
-0.0714132399132237
 20
0.0513741095143688
 30
0.0
 11
-0.0715529784941051
 21
0.0501017409566443
 31
0.0
  0
LINE
  5
241
330
1F
100
AcDbEntity
  8
0
100
AcDbLine
 10
-0.0707788372496337
 20
0.0493741095143688
 30
0.0
 11
-0.0705495349631547
 21
0.0513741095143688
 31
0.0
  0
LINE
  5
242
330
1F
100
AcDbEntity
  8
0
100
AcDbLine
 10
-0.0705495349631547
 20
0.0513741095143688
 30
0.0
 11
-0.0708100370906173
 21
0.0493741095143688
 31
0.0
  0
LINE
  5
243
330
1F
100
AcDbEntity
  8
0
100
AcDbLine
 10
-0.0644592684637821
 20
0.0493741095143688
 30
0.0
 11
-0.0643099693830875
 21
0.0513741095143688
 31
0.0
  0
LINE
  5
244
330
1F
100
AcDbEntity
  8
0
100
AcDbLine
 10
-0.0643495864834625
 20
0.0513741095143688
 30
0.0
 11
-0.0647305029389751
 21
0.0493741095143688
 31
0.0
  0
LINE
  5
245
330
1F
100
AcDbEntity
  8
0
100
AcDbLine
 10
-0.0588228126949744
 20
0.0493741095143688
 30
0.0
 11
-0.0587448707273559
 21
0.0513741095143688
 31
0.0
  0
LINE
  5
246
330
1F
100
AcDbEntity
  8
0
100
AcDbLine
 10
-0.0587448707273559
 20
0.0513741095143688
 30
0.0
 11
-0.0589896540144536
 21
0.0493741095143688
 31
0.0
  0
LINE
  5
247
330
1F
100
AcDbEntity
  8
0
100
AcDbLine
 10
-0.057217895896306
 20
0.0513741095143688
 30
0.0
 11
-0.0572762591122031
 21
0.0493741095143688
 31
0.0
  0
LINE
  5
248
330
1F
100
AcDbEntity
  8
0
100
AcDbLine
 10
-0.0629488460030645
 20
0.0493741095143688
 30
0.0
 11
-0.0629907765567025
 21
0.0513741095143688
 31
0.0
  0
LINE
  5
249
330
1F
100
AcDbEntity
  8
0
100
AcDbLine
 10
-0.0630206578131309
 20
0.0513741095143688
 30
0.0
 11
-0.0631534250062911
 21
0.0493741095143688
 31
0.0
  0
LINE
  5
24A
330
1F
100
AcDbEntity
  8
0
100
AcDbLine
 10
-0.0677945192340123
 20
0.0493741095143688
 30
0.0
 11
-0.0676349240338111
 21
0.0513741095143688
 31
0.0
  0
LINE
  5
24B
330
1F
100
AcDbEntity
  8
0
100
AcDbLine
 10
-0.0676349240338111
 20
0.0513741095143688
 30
0.0
 11
-0.0678324705440497
 21
0.0493741095143688
 31
0.0
  0
LINE
  5
24C
330
1F
100
AcDbEntity
  8
0
100
AcDbLine
 10
-0.0297211451046884
 20
0.0642676314970796
 30
0.0
 11
-0.0297682888753322
 21
0.0640127248995324
 31
0.0
  0
LINE
  5
24D
330
1F
100
AcDbEntity
  8
0
100
AcDbLine
 10
-0.0297682888753322
 20
0.0640127248995324
 30
0.0
 11
-0.0298294326398015
 21
0.0637628299233822
 31
0.0
  0
LINE
  5
24E
330
1F
100
AcDbEntity
  8
0
100
AcDbLine
 10
-0.0298294326398015
 20
0.0637628299233822
 30
0.0
 11
-0.0299046522463165
 21
0.0635175221183655
 31
0.0
  0
LINE
  5
24F
330
1F
100
AcDbEntity
  8
0
100
AcDbLine
 10
-0.0299046522463165
 20
0.0635175221183655
 30
0.0
 11
-0.0299941177703864
 21
0.0632764068947492
 31
0.0
  0
LINE
  5
250
330
1F
100
AcDbEntity
  8
0
100
AcDbLine
 10
-0.0299941177703864
 20
0.0632764068947492
 30
0.0
 11
-0.0300980926598847
 21
0.0630391219680515
 31
0.0
  0
LINE
  5
251
330
1F
100
AcDbEntity
  8
0
100
AcDbLine
 10
-0.0300980926598847
 20
0.0630391219680515
 30
0.0
 11
-0.030216932097958
 21
0.0628053414917869
 31
0.0
  0
LINE
  5
252
330
1F
100
AcDbEntity
  8
0
100
AcDbLine
 10
-0.030216932097958
 20
0.0628053414917869
 30
0.0
 11
-0.0303510807911358
 21
0.0625747781529409
 31
0.0
  0
LINE
  5
253
330
1F
100
AcDbEntity
  8
0
100
AcDbLine
 10
-0.0303510807911358
 20
0.0625747781529409
 30
0.0
 11
-0.0305010642963886
 21
0.0623471938821805
 31
0.0
  0
LINE
  5
254
330
1F
100
AcDbEntity
  8
0
100
AcDbLine
 10
-0.0298294326398015
 20
0.0659853891053555
 30
0.0
 11
-0.0297682888753322
 21
0.0657354941292052
 31
0.0
  0
LINE
  5
255
330
1F
100
AcDbEntity
  8
0
100
AcDbLine
 10
-0.0297682888753322
 20
0.0657354941292052
 30
0.0
 11
-0.0297211451046884
 21
0.065480587531658
 31
0.0
  0
LINE
  5
256
330
1F
100
AcDbEntity
  8
0
100
AcDbLine
 10
-0.0296880197251291
 20
0.0645604272946568
 30
0.0
 11
-0.0296880197251291
 21
0.0646293727556096
 31
0.0
  0
LINE
  5
257
330
1F
100
AcDbEntity
  8
0
100
AcDbLine
 10
-0.0296880197251291
 20
0.0646755889544349
 30
0.0
 11
-0.0296880197251291
 21
0.0647010545004943
 31
0.0
  0
LINE
  5
258
330
1F
100
AcDbEntity
  8
0
100
AcDbLine
 10
-0.0297211451046884
 20
0.0647687957104264
 30
0.0
 11
-0.0296880197251291
 21
0.064784529648625
 31
0.0
  0
LINE
  5
259
330
1F
100
AcDbEntity
  8
0
100
AcDbLine
 10
-0.0297211451046884
 20
0.0647687957104264
 30
0.0
 11
-0.0296880197251291
 21
0.0648140081399671
 31
0.0
  0
LINE
  5
25A
330
1F
100
AcDbEntity
  8
0
100
AcDbLine
 10
-0.0297211451046884
 20
0.0648212514721874
 30
0.0
 11
-0.0296880197251291
 21
0.0648140081399671
 31
0.0
  0
LINE
  5
25B
330
1F
100
AcDbEntity
  8
0
100
AcDbLine
 10
-0.0297211451046884
 20
0.0648212514721874
 30
0.0
 11
-0.0296880197251291
 21
0.0648439440380227
 31
0.0
  0
LINE
  5
25C
330
1F
100
AcDbEntity
  8
0
100
AcDbLine
 10
-0.0297211451046884
 20
0.0648741095143688
 30
0.0
 11
-0.0296880197251291
 21
0.0648439440380227
 31
0.0
  0
LINE
  5
25D
330
1F
100
AcDbEntity
  8
0
100
AcDbLine
 10
-0.0297211451046884
 20
0.0648741095143688
 30
0.0
 11
-0.0296880197251291
 21
0.0648741095143688
 31
0.0
  0
LINE
  5
25E
330
1F
100
AcDbEntity
  8
0
100
AcDbLine
 10
-0.0297211451046884
 20
0.0649269675565503
 30
0.0
 11
-0.0296880197251291
 21
0.0648741095143688
 31
0.0
  0
LINE
  5
25F
330
1F
100
AcDbEntity
  8
0
100
AcDbLine
 10
-0.0297211451046884
 20
0.0649269675565503
 30
0.0
 11
-0.0296880197251291
 21
0.064904274990715
 31
0.0
  0
LINE
  5
260
330
1F
100
AcDbEntity
  8
0
100
AcDbLine
 10
-0.0297000553856563
 20
0.064969406094651
 30
0.0
 11
-0.0296880197251291
 21
0.0649342108887705
 31
0.0
  0
LINE
  5
261
330
1F
100
AcDbEntity
  8
0
100
AcDbLine
 10
-0.0297000553849514
 20
0.0650065078009724
 30
0.0
 11
-0.0297000553856563
 21
0.064969406094651
 31
0.0
  0
LINE
  5
262
330
1F
100
AcDbEntity
  8
0
100
AcDbLine
 10
-0.0297000553870617
 20
0.0651106781167269
 30
0.0
 11
-0.0296880197251291
 21
0.0650471645282434
 31
0.0
  0
LINE
  5
263
330
1F
100
AcDbEntity
  8
0
100
AcDbLine
 10
-0.0297211451046884
 20
0.0651304181889483
 30
0.0
 11
-0.0296880197251291
 21
0.0650726300743028
 31
0.0
  0
LINE
  5
264
330
1F
100
AcDbEntity
  8
0
100
AcDbLine
 10
-0.0307611911666859
 20
0.064364533882631
 30
0.0
 11
-0.030666146403221
 21
0.0643741094906201
 31
0.0
  0
LINE
  5
265
330
1F
100
AcDbEntity
  8
0
100
AcDbLine
 10
-0.0307673520173292
 20
0.0669741094394905
 30
0.0
 11
-0.030666146403221
 21
0.0669741094394905
 31
0.0
  0
LINE
  5
266
330
1F
100
AcDbEntity
  8
0
100
AcDbLine
 10
-0.030666146403221
 20
0.0669741094394905
 30
0.0
 11
-0.0306747110927346
 21
0.0669002087154473
 31
0.0
  0
LINE
  5
267
330
1F
100
AcDbEntity
  8
0
100
AcDbLine
 10
-0.0307605821615936
 20
0.065383631050102
 30
0.0
 11
-0.030666146403221
 21
0.0653741095381176
 31
0.0
  0
LINE
  5
268
330
1F
100
AcDbEntity
  8
0
100
AcDbLine
 10
-0.0306716614883099
 20
0.0628202725606458
 30
0.0
 11
-0.030666146403221
 21
0.0627792553793026
 31
0.0
  0
LINE
  5
269
330
1F
100
AcDbEntity
  8
0
100
AcDbLine
 10
-0.0307527701245227
 20
0.0627792596873275
 30
0.0
 11
-0.0308010283932817
 21
0.0627792620873379
 31
0.0
  0
LINE
  5
26A
330
1F
100
AcDbEntity
  8
0
100
AcDbLine
 10
-0.0297211451046884
 20
0.0650310775751333
 30
0.0
 11
-0.0297000553849514
 21
0.0650065078009724
 31
0.0
  0
LINE
  5
26B
330
1F
100
AcDbEntity
  8
0
100
AcDbLine
 10
-0.0297211451046884
 20
0.0650310775751333
 30
0.0
 11
-0.0297000553856563
 21
0.064969406094651
 31
0.0
  0
LINE
  5
26C
330
1F
100
AcDbEntity
  8
0
100
AcDbLine
 10
-0.0297211451046884
 20
0.0649269675565503
 30
0.0
 11
-0.0296880197251291
 21
0.0649342108887705
 31
0.0
  0
LINE
  5
26D
330
1F
100
AcDbEntity
  8
0
100
AcDbLine
 10
-0.0297211451046884
 20
0.0648741095143688
 30
0.0
 11
-0.0296880197251291
 21
0.064904274990715
 31
0.0
  0
LINE
  5
26E
330
1F
100
AcDbEntity
  8
0
100
AcDbLine
 10
-0.0297211451046884
 20
0.0648212514721874
 30
0.0
 11
-0.0296880197251291
 21
0.0648741095143688
 31
0.0
  0
LINE
  5
26F
330
1F
100
AcDbEntity
  8
0
100
AcDbLine
 10
-0.0297211451046884
 20
0.0647171414536043
 30
0.0
 11
-0.0296880197251291
 21
0.064784529648625
 31
0.0
  0
LINE
  5
270
330
1F
100
AcDbEntity
  8
0
100
AcDbLine
 10
-0.0307537783412686
 20
0.0644844202849401
 30
0.0
 11
-0.0307572447238914
 21
0.0648741098645461
 31
0.0
  0
LINE
  5
271
330
1F
100
AcDbEntity
  8
0
100
AcDbLine
 10
-0.0307611911666859
 20
0.064364533882631
 30
0.0
 11
-0.0307537783412686
 21
0.0644844202849401
 31
0.0
  0
LINE
  5
272
330
1F
100
AcDbEntity
  8
0
100
AcDbLine
 10
-0.0306661464749328
 20
0.0792741086858643
 30
0.0
 11
-0.0306795444814912
 21
0.0793241095322502
 31
0.0
  0
LINE
  5
273
330
1F
100
AcDbEntity
  8
0
100
AcDbLine
 10
-0.0306795444814912
 20
0.0793241095322502
 30
0.0
 11
-0.0307161454586736
 21
0.0793607123720778
 31
0.0
  0
LINE
  5
274
330
1F
100
AcDbEntity
  8
0
100
AcDbLine
 10
-0.0307161454586736
 20
0.0793607123720778
 30
0.0
 11
-0.0307661463050595
 21
0.0793741103786362
 31
0.0
  0
LINE
  5
275
330
1F
100
AcDbEntity
  8
0
100
AcDbLine
 10
-0.0746661462365142
 20
0.0742741095702482
 30
0.0
 11
-0.0746661462365142
 21
0.0513741095143688
 31
0.0
  0
LINE
  5
276
330
1F
100
AcDbEntity
  8
0
100
AcDbLine
 10
-0.0722620636700145
 20
0.0792741094584895
 30
0.0
 11
-0.0722620636700145
 21
0.0742741095702482
 31
0.0
  0
LINE
  5
277
330
1F
100
AcDbEntity
  8
0
100
AcDbLine
 10
-0.0691304449467412
 20
0.0792741086858643
 30
0.0
 11
-0.0692002121834508
 21
0.0792741086858643
 31
0.0
  0
LINE
  5
278
330
1F
100
AcDbEntity
  8
0
100
AcDbLine
 10
-0.0650025196848861
 20
0.0792741086858643
 30
0.0
 11
-0.0651591476528398
 21
0.0792741086858643
 31
0.0
  0
LINE
  5
279
330
1F
100
AcDbEntity
  8
0
100
AcDbLine
 10
-0.0579288551127962
 20
0.0792741086858643
 30
0.0
 11
-0.0582181397369555
 21
0.0792741086858643
 31
0.0
  0
LINE
  5
27A
330
1F
100
AcDbEntity
  8
0
100
AcDbLine
 10
-0.0308265518872491
 20
0.0615580799582732
 30
0.0
 11
-0.0307062846152536
 21
0.0616141614097488
 31
0.0
  0
LINE
  5
27B
330
1F
100
AcDbEntity
  8
0
100
AcDbLine
 10
-0.0307537820665589
 20
0.0652636457759274
 30
0.0
 11
-0.0307605821615936
 21
0.065383631050102
 31
0.0
  0
LINE
  5
27C
330
1F
100
AcDbEntity
  8
0
100
AcDbLine
 10
-0.030666146403221
 20
0.0676136449261886
 30
0.0
 11
-0.0306661464749328
 21
0.0792741086858643
 31
0.0
  0
LINE
  5
27D
330
1F
100
AcDbEntity
  8
0
100
AcDbLine
 10
-0.0307572447238914
 20
0.0648741098645461
 30
0.0
 11
-0.0307537820665589
 21
0.0652636457759274
 31
0.0
  0
LINE
  5
27E
330
1F
100
AcDbEntity
  8
0
100
AcDbLine
 10
-0.0722400099514476
 20
0.0793336276489628
 30
0.0
 11
-0.0722620636700145
 21
0.0792741094584895
 31
0.0
  0
LINE
  5
27F
330
1F
100
AcDbEntity
  8
0
100
AcDbLine
 10
-0.0722156484155408
 20
0.0793550927716625
 30
0.0
 11
-0.0722400099514476
 21
0.0793336276489628
 31
0.0
  0
LINE
  5
280
330
1F
100
AcDbEntity
  8
0
100
AcDbLine
 10
-0.0721828584103337
 20
0.0793696661073101
 30
0.0
 11
-0.0722156484155408
 21
0.0793550927716625
 31
0.0
  0
LINE
  5
281
330
1F
100
AcDbEntity
  8
0
100
AcDbLine
 10
-0.0721497294037095
 20
0.0793741103786362
 30
0.0
 11
-0.0721828584103337
 21
0.0793696661073101
 31
0.0
  0
LINE
  5
282
330
1F
100
AcDbEntity
  8
0
100
AcDbLine
 10
-0.0692002121834508
 20
0.0792741086858643
 30
0.0
 11
-0.0691944920001975
 21
0.0793123785931003
 31
0.0
  0
LINE
  5
283
330
1F
100
AcDbEntity
  8
0
100
AcDbLine
 10
-0.0691304449467412
 20
0.0792741086858643
 30
0.0
 11
-0.0691944920001975
 21
0.0793123785931003
 31
0.0
  0
LINE
  5
284
330
1F
100
AcDbEntity
  8
0
100
AcDbLine
 10
-0.0651591476528398
 20
0.0792741086858643
 30
0.0
 11
-0.064998250502204
 21
0.0793123785931003
 31
0.0
  0
LINE
  5
285
330
1F
100
AcDbEntity
  8
0
100
AcDbLine
 10
-0.0650025196848861
 20
0.0792741086858643
 30
0.0
 11
-0.064998250502204
 21
0.0793123785931003
 31
0.0
  0
LINE
  5
286
330
1F
100
AcDbEntity
  8
0
100
AcDbLine
 10
-0.0582181397369555
 20
0.0792741086858643
 30
0.0
 11
-0.0582162188841454
 21
0.0793123785931003
 31
0.0
  0
LINE
  5
287
330
1F
100
AcDbEntity
  8
0
100
AcDbLine
 10
-0.0579288551127962
 20
0.0792741086858643
 30
0.0
 11
-0.0582162188841454
 21
0.0793123785931003
 31
0.0
  0
LINE
  5
288
330
1F
100
AcDbEntity
  8
0
100
AcDbLine
 10
-0.0721828584103337
 20
0.0793696661073101
 30
0.0
 11
-0.0722400099514476
 21
0.0793336276489628
 31
0.0
  0
LINE
  5
289
330
1F
100
AcDbEntity
  8
0
100
AcDbLine
 10
-0.0286896501644226
 20
-0.0756258904606717
 30
0.0
 11
-0.0286896501644226
 21
-0.0794258902919161
 31
0.0
  0
LINE
  5
28A
330
1F
100
AcDbEntity
  8
0
100
AcDbLine
 10
-0.0766426425470244
 20
-0.0794258902919161
 30
0.0
 11
-0.0766426425470244
 21
-0.0756258904606717
 31
0.0
  0
LINE
  5
28B
330
1F
100
AcDbEntity
  8
0
100
AcDbLine
 10
0.1417394646360801
 20
-0.0165994799705155
 30
0.0
 11
0.1517394644125627
 21
-0.0165994799705155
 31
0.0
  0
LINE
  5
28C
330
1F
100
AcDbEntity
  8
0
100
AcDbLine
 10
0.1517394644125627
 20
-0.0165994799705155
 30
0.0
 11
0.1527149163103924
 21
-0.0165034063708086
 31
0.0
  0
LINE
  5
28D
330
1F
100
AcDbEntity
  8
0
100
AcDbLine
 10
0.156739464300804
 20
-0.0115994800822742
 30
0.0
 11
0.156739464300804
 21
0.0288046030014764
 31
0.0
  0
LINE
  5
28E
330
1F
100
AcDbEntity
  8
0
100
AcDbLine
 10
0.1407640127382503
 20
-0.0165034063708086
 30
0.0
 11
0.1417394646360801
 21
-0.0165994799705155
 31
0.0
  0
LINE
  5
28F
330
1F
100
AcDbEntity
  8
0
100
AcDbLine
 10
0.1367394647478388
 20
-0.0115994800822742
 30
0.0
 11
0.136835538121991
 21
-0.0125749315144427
 31
0.0
  0
LINE
  5
290
330
1F
100
AcDbEntity
  8
0
100
AcDbLine
 10
0.136835538121991
 20
-0.0125749315144427
 30
0.0
 11
0.1371200664817618
 21
-0.0135128972129829
 31
0.0
  0
LINE
  5
291
330
1F
100
AcDbEntity
  8
0
100
AcDbLine
 10
0.1371200664817618
 20
-0.0135128972129829
 30
0.0
 11
0.1375821161001252
 21
-0.0143773310361363
 31
0.0
  0
LINE
  5
292
330
1F
100
AcDbEntity
  8
0
100
AcDbLine
 10
0.1375821161001252
 20
-0.0143773310361363
 30
0.0
 11
0.1382039303808735
 21
-0.0151350138718195
 31
0.0
  0
LINE
  5
293
330
1F
100
AcDbEntity
  8
0
100
AcDbLine
 10
0.1382039303808735
 20
-0.0151350138718195
 30
0.0
 11
0.1407640127382503
 21
-0.0165034063708086
 31
0.0
  0
LINE
  5
294
330
1F
100
AcDbEntity
  8
0
100
AcDbLine
 10
0.1382039303808735
 20
-0.0151350138718195
 30
0.0
 11
0.1389616134493874
 21
-0.0157568280361525
 31
0.0
  0
LINE
  5
295
330
1F
100
AcDbEntity
  8
0
100
AcDbLine
 10
0.1389616134493874
 20
-0.0157568280361525
 30
0.0
 11
0.1398260475053714
 21
-0.0162188776254121
 31
0.0
  0
LINE
  5
296
330
1F
100
AcDbEntity
  8
0
100
AcDbLine
 10
0.1398260475053714
 20
-0.0162188776254121
 30
0.0
 11
0.1407640127382503
 21
-0.0165034063708086
 31
0.0
  0
LINE
  5
297
330
1F
100
AcDbEntity
  8
0
100
AcDbLine
 10
0.136835538121991
 20
0.0493759700087898
 30
0.0
 11
0.1367394647478388
 21
0.0484005176452987
 31
0.0
  0
LINE
  5
298
330
1F
100
AcDbEntity
  8
0
100
AcDbLine
 10
0.1371200664817618
 20
0.0503139385012977
 30
0.0
 11
0.136835538121991
 21
0.0493759700087898
 31
0.0
  0
LINE
  5
299
330
1F
100
AcDbEntity
  8
0
100
AcDbLine
 10
0.1527149163103924
 20
-0.0165034063708086
 30
0.0
 11
0.1536528815432714
 21
-0.0162188776254121
 31
0.0
  0
LINE
  5
29A
330
1F
100
AcDbEntity
  8
0
100
AcDbLine
 10
0.1536528815432714
 20
-0.0162188776254121
 30
0.0
 11
0.1545173155992554
 21
-0.0157568280361525
 31
0.0
  0
LINE
  5
29B
330
1F
100
AcDbEntity
  8
0
100
AcDbLine
 10
0.1545173155992554
 20
-0.0157568280361525
 30
0.0
 11
0.1552749986677693
 21
-0.0151350138718195
 31
0.0
  0
LINE
  5
29C
330
1F
100
AcDbEntity
  8
0
100
AcDbLine
 10
0.1552749986677693
 20
-0.0151350138718195
 30
0.0
 11
0.1558968129485176
 21
-0.0143773310361363
 31
0.0
  0
LINE
  5
29D
330
1F
100
AcDbEntity
  8
0
100
AcDbLine
 10
0.1558968129485176
 20
-0.0143773310361363
 30
0.0
 11
0.156739464300804
 21
-0.0115994800822742
 31
0.0
  0
LINE
  5
29E
330
1F
100
AcDbEntity
  8
0
100
AcDbLine
 10
0.1558968129485176
 20
-0.0143773310361363
 30
0.0
 11
0.156358862566881
 21
-0.0135128972129829
 31
0.0
  0
LINE
  5
29F
330
1F
100
AcDbEntity
  8
0
100
AcDbLine
 10
0.156358862566881
 20
-0.0135128972129829
 30
0.0
 11
0.1566433909266518
 21
-0.0125749315144427
 31
0.0
  0
LINE
  5
2A0
330
1F
100
AcDbEntity
  8
0
100
AcDbLine
 10
0.1566433909266518
 20
-0.0125749315144427
 30
0.0
 11
0.156739464300804
 21
-0.0115994800822742
 31
0.0
  0
LINE
  5
2A1
330
1F
100
AcDbEntity
  8
0
100
AcDbLine
 10
0.1407640127382503
 20
0.0533044450907104
 30
0.0
 11
0.1398260475053714
 21
0.0530199148682945
 31
0.0
  0
LINE
  5
2A2
330
1F
100
AcDbEntity
  8
0
100
AcDbLine
 10
0.1398260475053714
 20
0.0530199148682945
 30
0.0
 11
0.1389616134493874
 21
0.0525578671125763
 31
0.0
  0
LINE
  5
2A3
330
1F
100
AcDbEntity
  8
0
100
AcDbLine
 10
0.1389616134493874
 20
0.0525578671125763
 30
0.0
 11
0.1382039303808735
 21
0.0519360565571182
 31
0.0
  0
LINE
  5
2A4
330
1F
100
AcDbEntity
  8
0
100
AcDbLine
 10
0.1382039303808735
 20
0.0519360565571182
 30
0.0
 11
0.1407640127382503
 21
0.0533044450907104
 31
0.0
  0
LINE
  5
2A5
330
1F
100
AcDbEntity
  8
0
100
AcDbLine
 10
0.1382039303808735
 20
0.0519360565571182
 30
0.0
 11
0.1375821161001251
 21
0.051178369763314
 31
0.0
  0
LINE
  5
2A6
330
1F
100
AcDbEntity
  8
0
100
AcDbLine
 10
0.1375821161001251
 20
0.051178369763314
 30
0.0
 11
0.1371200664817618
 21
0.0503139385012977
 31
0.0
  0
LINE
  5
2A7
330
1F
100
AcDbEntity
  8
0
100
AcDbLine
 10
0.1364091657231758
 20
0.04815052001761
 30
0.0
 11
0.1365394641562627
 21
0.04815052001761
 31
0.0
  0
LINE
  5
2A8
330
1F
100
AcDbEntity
  8
0
100
AcDbLine
 10
0.156739464300804
 20
0.04815052001761
 30
0.0
 11
0.1568070104779756
 21
0.04815052001761
 31
0.0
  0
LINE
  5
2A9
330
1F
100
AcDbEntity
  8
0
100
AcDbLine
 10
0.1292414928703831
 20
0.0350655672711265
 30
0.0
 11
0.1292687545447872
 21
0.0350298705153956
 31
0.0
  0
LINE
  5
2AA
330
1F
100
AcDbEntity
  8
0
100
AcDbLine
 10
0.1292687545447872
 20
0.0350298705153956
 30
0.0
 11
0.1293049840516011
 21
0.0349909566623254
 31
0.0
  0
LINE
  5
2AB
330
1F
100
AcDbEntity
  8
0
100
AcDbLine
 10
0.1293049840516011
 20
0.0349909566623254
 30
0.0
 11
0.1293394642799424
 21
0.0349379794053358
 31
0.0
  0
LINE
  5
2AC
330
1F
100
AcDbEntity
  8
0
100
AcDbLine
 10
0.1293394642799424
 20
0.0349379794053358
 30
0.0
 11
0.1293698991540976
 21
0.0349027344275749
 31
0.0
  0
LINE
  5
2AD
330
1F
100
AcDbEntity
  8
0
100
AcDbLine
 10
0.1307524874789083
 20
0.033301633844346
 30
0.0
 11
0.1308844930409716
 21
0.0331487653594787
 31
0.0
  0
LINE
  5
2AE
330
1F
100
AcDbEntity
  8
0
100
AcDbLine
 10
0.1327387357979344
 20
0.0314305585626836
 30
0.0
 11
0.1328649831804035
 21
0.0313380578134447
 31
0.0
  0
LINE
  5
2AF
330
1F
100
AcDbEntity
  8
0
100
AcDbLine
 10
0.1327387357979344
 20
0.0314305585626836
 30
0.0
 11
0.1326022892237049
 21
0.0315569860196933
 31
0.0
  0
LINE
  5
2B0
330
1F
100
AcDbEntity
  8
0
100
AcDbLine
 10
0.1309784599359367
 20
0.0330615793642291
 30
0.0
 11
0.1308844930409716
 21
0.0331487653594787
 31
0.0
  0
LINE
  5
2B1
330
1F
100
AcDbEntity
  8
0
100
AcDbLine
 10
0.1292394644498155
 20
-0.0451818261943434
 30
0.0
 11
0.1292394644498155
 21
-0.0619317744575118
 31
0.0
  0
LINE
  5
2B2
330
1F
100
AcDbEntity
  8
0
100
AcDbLine
 10
0.162598815086417
 20
0.0331589042475633
 30
0.0
 11
0.162571370182853
 21
0.0331272742491946
 31
0.0
  0
LINE
  5
2B3
330
1F
100
AcDbEntity
  8
0
100
AcDbLine
 10
0.1609338278125087
 20
0.031609974758186
 30
0.0
 11
0.1607401932507084
 21
0.0314305585626836
 31
0.0
  0
LINE
  5
2B4
330
1F
100
AcDbEntity
  8
0
100
AcDbLine
 10
0.1607401932507084
 20
0.0314305585626836
 30
0.0
 11
0.1604156588555427
 21
0.0311927740310799
 31
0.0
  0
LINE
  5
2B5
330
1F
100
AcDbEntity
  8
0
100
AcDbLine
 10
0.1590345486341729
 20
0.0301808423160648
 30
0.0
 11
0.158969902128703
 21
0.0301334761839939
 31
0.0
  0
LINE
  5
2B6
330
1F
100
AcDbEntity
  8
0
100
AcDbLine
 10
0.1640723499386833
 20
-0.063841902156887
 30
0.0
 11
0.1641394647687004
 21
-0.0634116385779952
 31
0.0
  0
LINE
  5
2B7
330
1F
100
AcDbEntity
  8
0
100
AcDbLine
 10
0.1402394643902109
 20
-0.0729317743979071
 30
0.0
 11
0.1532394646584318
 21
-0.0729317743979071
 31
0.0
  0
LINE
  5
2B8
330
1F
100
AcDbEntity
  8
0
100
AcDbLine
 10
0.1532394646584318
 20
-0.0729317743979071
 30
0.0
 11
0.1551495942204521
 21
-0.0727646578751181
 31
0.0
  0
LINE
  5
2B9
330
1F
100
AcDbEntity
  8
0
100
AcDbLine
 10
0.1551495942204521
 20
-0.0727646578751181
 30
0.0
 11
0.1570016865535901
 21
-0.0722683896027183
 31
0.0
  0
LINE
  5
2BA
330
1F
100
AcDbEntity
  8
0
100
AcDbLine
 10
0.1570016865535901
 20
-0.0722683896027183
 30
0.0
 11
0.1587394646286295
 21
-0.0714580495558356
 31
0.0
  0
LINE
  5
2BB
330
1F
100
AcDbEntity
  8
0
100
AcDbLine
 10
0.1587394646286295
 20
-0.0714580495558356
 30
0.0
 11
0.160310128043525
 21
-0.0703582619033431
 31
0.0
  0
LINE
  5
2BC
330
1F
100
AcDbEntity
  8
0
100
AcDbLine
 10
0.160310128043525
 20
-0.0703582619033431
 30
0.0
 11
0.1616659530355857
 21
-0.0690024350486373
 31
0.0
  0
LINE
  5
2BD
330
1F
100
AcDbEntity
  8
0
100
AcDbLine
 10
0.1616659530355857
 20
-0.0690024350486373
 30
0.0
 11
0.1627657434820459
 21
-0.0674317707024192
 31
0.0
  0
LINE
  5
2BE
330
1F
100
AcDbEntity
  8
0
100
AcDbLine
 10
0.1627657434820459
 20
-0.0674317707024192
 30
0.0
 11
0.1635760835289286
 21
-0.0656939898334121
 31
0.0
  0
LINE
  5
2BF
330
1F
100
AcDbEntity
  8
0
100
AcDbLine
 10
0.1635760835289286
 20
-0.0656939898334121
 30
0.0
 11
0.1640723499386833
 21
-0.063841902156887
 31
0.0
  0
LINE
  5
2C0
330
1F
100
AcDbEntity
  8
0
100
AcDbLine
 10
0.1347394644200132
 20
-0.0714580495558356
 30
0.0
 11
0.1364772424950526
 21
-0.0722683896027183
 31
0.0
  0
LINE
  5
2C1
330
1F
100
AcDbEntity
  8
0
100
AcDbLine
 10
0.1364772424950526
 20
-0.0722683896027183
 30
0.0
 11
0.1383293348281906
 21
-0.0727646578751181
 31
0.0
  0
LINE
  5
2C2
330
1F
100
AcDbEntity
  8
0
100
AcDbLine
 10
0.1383293348281906
 20
-0.0727646578751181
 30
0.0
 11
0.1402394643902109
 21
-0.0729317743979071
 31
0.0
  0
LINE
  5
2C3
330
1F
100
AcDbEntity
  8
0
100
AcDbLine
 10
0.1299028455197141
 20
-0.0656939898334121
 30
0.0
 11
0.1307131855665968
 21
-0.0674317707024192
 31
0.0
  0
LINE
  5
2C4
330
1F
100
AcDbEntity
  8
0
100
AcDbLine
 10
0.1293394642799423
 20
-0.0634116385779952
 30
0.0
 11
0.1294065791099594
 21
-0.0638419021568869
 31
0.0
  0
LINE
  5
2C5
330
1F
100
AcDbEntity
  8
0
100
AcDbLine
 10
0.1294065791099594
 20
-0.0638419021568869
 30
0.0
 11
0.1299028455197141
 21
-0.0656939898334121
 31
0.0
  0
LINE
  5
2C6
330
1F
100
AcDbEntity
  8
0
100
AcDbLine
 10
0.1307131855665968
 20
-0.0674317707024192
 30
0.0
 11
0.131812976013057
 21
-0.0690024350486373
 31
0.0
  0
LINE
  5
2C7
330
1F
100
AcDbEntity
  8
0
100
AcDbLine
 10
0.131812976013057
 20
-0.0690024350486373
 30
0.0
 11
0.1331688010051177
 21
-0.0703582619033431
 31
0.0
  0
LINE
  5
2C8
330
1F
100
AcDbEntity
  8
0
100
AcDbLine
 10
0.1331688010051177
 20
-0.0703582619033431
 30
0.0
 11
0.1347394644200132
 21
-0.0714580495558356
 31
0.0
  0
LINE
  5
2C9
330
1F
100
AcDbEntity
  8
0
100
AcDbLine
 10
0.1292470770805405
 20
-0.0449095372758483
 30
0.0
 11
0.1292394644498155
 21
-0.0451818261943434
 31
0.0
  0
LINE
  5
2CA
330
1F
100
AcDbEntity
  8
0
100
AcDbLine
 10
0.1642394645988272
 20
0.0350682284035112
 30
0.0
 11
0.1642101745038556
 21
0.0350298705153956
 31
0.0
  0
LINE
  5
2CB
330
1F
100
AcDbEntity
  8
0
100
AcDbLine
 10
0.1641645694714512
 20
-0.0632132074907827
 30
0.0
 11
0.1641750543295667
 21
-0.0630831126771544
 31
0.0
  0
LINE
  5
2CC
330
1F
100
AcDbEntity
  8
0
100
AcDbLine
 10
0.1641777328132914
 20
0.034987586076718
 30
0.0
 11
0.1641394647687004
 21
0.0349379794053358
 31
0.0
  0
LINE
  5
2CD
330
1F
100
AcDbEntity
  8
0
100
AcDbLine
 10
0.1642101745038556
 20
0.0350298705153956
 30
0.0
 11
0.1641777328132914
 21
0.034987586076718
 31
0.0
  0
LINE
  5
2CE
330
1F
100
AcDbEntity
  8
0
100
AcDbLine
 10
0.1292483865200804
 20
-0.0623398502073859
 30
0.0
 11
0.1292501485823916
 21
-0.0624164645276641
 31
0.0
  0
LINE
  5
2CF
330
1F
100
AcDbEntity
  8
0
100
AcDbLine
 10
0.1293480269022804
 20
-0.0633083584720492
 30
0.0
 11
0.1293514242478876
 21
-0.0633393160117523
 31
0.0
  0
LINE
  5
2D0
330
1F
100
AcDbEntity
  8
0
100
AcDbLine
 10
0.164123093167748
 20
-0.0632619048825075
 30
0.0
 11
0.1641325649505685
 21
-0.063293206546639
 31
0.0
  0
LINE
  5
2D1
330
1F
100
AcDbEntity
  8
0
100
AcDbLine
 10
0.1641394647687004
 20
-0.0445721222071031
 30
0.0
 11
0.164175560560913
 21
-0.0445478266848893
 31
0.0
  0
LINE
  5
2D2
330
1F
100
AcDbEntity
  8
0
100
AcDbLine
 10
0.1249550630350103
 20
0.0514149689517416
 30
0.0
 11
0.1249633937060163
 21
0.0515314465472542
 31
0.0
  0
LINE
  5
2D3
330
1F
100
AcDbEntity
  8
0
100
AcDbLine
 10
0.1249633937060163
 20
0.0515314465472542
 30
0.0
 11
0.1249946788531005
 21
0.0516752621952066
 31
0.0
  0
LINE
  5
2D4
330
1F
100
AcDbEntity
  8
0
100
AcDbLine
 10
0.1256012525772715
 20
0.0544636394701452
 30
0.0
 11
0.125630619275503
 21
0.054598636141985
 31
0.0
  0
LINE
  5
2D5
330
1F
100
AcDbEntity
  8
0
100
AcDbLine
 10
0.125630619275503
 20
0.054598636141985
 30
0.0
 11
0.1256633460974541
 21
0.0546863801389285
 31
0.0
  0
LINE
  5
2D6
330
1F
100
AcDbEntity
  8
0
100
AcDbLine
 10
0.1267154807136003
 20
0.0575072619428821
 30
0.0
 11
0.1267275608062075
 21
0.0575396499214761
 31
0.0
  0
LINE
  5
2D7
330
1F
100
AcDbEntity
  8
0
100
AcDbLine
 10
0.1267275608062075
 20
0.0575396499214761
 30
0.0
 11
0.126761627694936
 21
0.0576020387665729
 31
0.0
  0
LINE
  5
2D8
330
1F
100
AcDbEntity
  8
0
100
AcDbLine
 10
0.128167494480034
 20
0.0601766914089379
 30
0.0
 11
0.1282318870454357
 21
0.060294617581188
 31
0.0
  0
LINE
  5
2D9
330
1F
100
AcDbEntity
  8
0
100
AcDbLine
 10
0.1282318870454357
 20
0.060294617581188
 30
0.0
 11
0.1283188386198309
 21
0.0604107713036511
 31
0.0
  0
LINE
  5
2DA
330
1F
100
AcDbEntity
  8
0
100
AcDbLine
 10
0.1300443516719679
 20
0.0627157872341695
 30
0.0
 11
0.1301129742442892
 21
0.062807456272661
 31
0.0
  0
LINE
  5
2DB
330
1F
100
AcDbEntity
  8
0
100
AcDbLine
 10
0.1301129742442892
 20
0.062807456272661
 30
0.0
 11
0.1301596363739804
 21
0.0628541184023522
 31
0.0
  0
LINE
  5
2DC
330
1F
100
AcDbEntity
  8
0
100
AcDbLine
 10
0.1323325282811449
 20
0.0650270103095167
 30
0.0
 11
0.1324241973196364
 21
0.0650956328818381
 31
0.0
  0
LINE
  5
2DD
330
1F
100
AcDbEntity
  8
0
100
AcDbLine
 10
0.1331913397631729
 20
0.0656699084352711
 30
0.0
 11
0.133216110027719
 21
0.0656884512202529
 31
0.0
  0
LINE
  5
2DE
330
1F
100
AcDbEntity
  8
0
100
AcDbLine
 10
0.1347292132501547
 20
0.066821145933975
 30
0.0
 11
0.1348453669726179
 21
0.0669080975083702
 31
0.0
  0
LINE
  5
2DF
330
1F
100
AcDbEntity
  8
0
100
AcDbLine
 10
0.1348453669726179
 20
0.0669080975083702
 30
0.0
 11
0.1349632931448681
 21
0.0669724900737719
 31
0.0
  0
LINE
  5
2E0
330
1F
100
AcDbEntity
  8
0
100
AcDbLine
 10
0.1375379457872327
 20
0.0683783568588697
 30
0.0
 11
0.1376003346323297
 21
0.0684124237475984
 31
0.0
  0
LINE
  5
2E1
330
1F
100
AcDbEntity
  8
0
100
AcDbLine
 10
0.1376003346323297
 20
0.0684124237475984
 30
0.0
 11
0.137632722610924
 21
0.0684245038402057
 31
0.0
  0
LINE
  5
2E2
330
1F
100
AcDbEntity
  8
0
100
AcDbLine
 10
0.1404536044148774
 20
0.0694766384563518
 30
0.0
 11
0.1405413484118209
 21
0.0695093652783029
 31
0.0
  0
LINE
  5
2E3
330
1F
100
AcDbEntity
  8
0
100
AcDbLine
 10
0.1405413484118209
 20
0.0695093652783029
 30
0.0
 11
0.1406763450836606
 21
0.0695387319765343
 31
0.0
  0
LINE
  5
2E4
330
1F
100
AcDbEntity
  8
0
100
AcDbLine
 10
0.1434647223585992
 20
0.0701453057007054
 30
0.0
 11
0.1436085380065517
 21
0.0701765908477895
 31
0.0
  0
LINE
  5
2E5
330
1F
100
AcDbEntity
  8
0
100
AcDbLine
 10
0.1436085380065517
 20
0.0701765908477895
 30
0.0
 11
0.1437250156020644
 21
0.0701849215187956
 31
0.0
  0
LINE
  5
2E6
330
1F
100
AcDbEntity
  8
0
100
AcDbLine
 10
0.1497539134465784
 20
0.0701849215187956
 30
0.0
 11
0.149870391042091
 21
0.0701765908477895
 31
0.0
  0
LINE
  5
2E7
330
1F
100
AcDbEntity
  8
0
100
AcDbLine
 10
0.149870391042091
 20
0.0701765908477895
 30
0.0
 11
0.1500142066900436
 21
0.0701453057007054
 31
0.0
  0
LINE
  5
2E8
330
1F
100
AcDbEntity
  8
0
100
AcDbLine
 10
0.1528025839649821
 20
0.0695387319765343
 30
0.0
 11
0.1529375806368218
 21
0.0695093652783029
 31
0.0
  0
LINE
  5
2E9
330
1F
100
AcDbEntity
  8
0
100
AcDbLine
 10
0.1529375806368218
 20
0.0695093652783029
 30
0.0
 11
0.1530253246337653
 21
0.0694766384563518
 31
0.0
  0
LINE
  5
2EA
330
1F
100
AcDbEntity
  8
0
100
AcDbLine
 10
0.1558462064377188
 20
0.0684245038402057
 30
0.0
 11
0.155878594416313
 21
0.0684124237475984
 31
0.0
  0
LINE
  5
2EB
330
1F
100
AcDbEntity
  8
0
100
AcDbLine
 10
0.155878594416313
 20
0.0684124237475984
 30
0.0
 11
0.15594098326141
 21
0.0683783568588697
 31
0.0
  0
LINE
  5
2EC
330
1F
100
AcDbEntity
  8
0
100
AcDbLine
 10
0.1585156359037747
 20
0.0669724900737719
 30
0.0
 11
0.1586335620760248
 21
0.0669080975083702
 31
0.0
  0
LINE
  5
2ED
330
1F
100
AcDbEntity
  8
0
100
AcDbLine
 10
0.1586335620760248
 20
0.0669080975083702
 30
0.0
 11
0.158749715798488
 21
0.066821145933975
 31
0.0
  0
LINE
  5
2EE
330
1F
100
AcDbEntity
  8
0
100
AcDbLine
 10
0.1610547317290062
 20
0.0650956328818382
 30
0.0
 11
0.1611464007674978
 21
0.0650270103095167
 31
0.0
  0
LINE
  5
2EF
330
1F
100
AcDbEntity
  8
0
100
AcDbLine
 10
0.1611464007674978
 20
0.0650270103095167
 30
0.0
 11
0.1611930628971891
 21
0.0649803481798254
 31
0.0
  0
LINE
  5
2F0
330
1F
100
AcDbEntity
  8
0
100
AcDbLine
 10
0.1633659548043535
 20
0.062807456272661
 30
0.0
 11
0.1634345773766749
 21
0.0627157872341695
 31
0.0
  0
LINE
  5
2F1
330
1F
100
AcDbEntity
  8
0
100
AcDbLine
 10
0.1651600904288119
 20
0.0604107713036511
 30
0.0
 11
0.165247042003207
 21
0.060294617581188
 31
0.0
  0
LINE
  5
2F2
330
1F
100
AcDbEntity
  8
0
100
AcDbLine
 10
0.165247042003207
 20
0.060294617581188
 30
0.0
 11
0.1653114345686088
 21
0.0601766914089379
 31
0.0
  0
LINE
  5
2F3
330
1F
100
AcDbEntity
  8
0
100
AcDbLine
 10
0.1667173013537067
 20
0.0576020387665729
 30
0.0
 11
0.1667513682424352
 21
0.0575396499214761
 31
0.0
  0
LINE
  5
2F4
330
1F
100
AcDbEntity
  8
0
100
AcDbLine
 10
0.1667513682424352
 20
0.0575396499214761
 30
0.0
 11
0.1667634483350425
 21
0.0575072619428821
 31
0.0
  0
LINE
  5
2F5
330
1F
100
AcDbEntity
  8
0
100
AcDbLine
 10
0.1678155829511885
 20
0.0546863801389287
 30
0.0
 11
0.1678483097731398
 21
0.054598636141985
 31
0.0
  0
LINE
  5
2F6
330
1F
100
AcDbEntity
  8
0
100
AcDbLine
 10
0.1678483097731398
 20
0.054598636141985
 30
0.0
 11
0.1678776764713713
 21
0.054463639470145
 31
0.0
  0
LINE
  5
2F7
330
1F
100
AcDbEntity
  8
0
100
AcDbLine
 10
0.1684842501955422
 20
0.0516752621952066
 30
0.0
 11
0.1685155353426264
 21
0.0515314465472542
 31
0.0
  0
LINE
  5
2F8
330
1F
100
AcDbEntity
  8
0
100
AcDbLine
 10
0.1685155353426264
 20
0.0515314465472542
 30
0.0
 11
0.1685238660136325
 21
0.0514149689517416
 31
0.0
  0
LINE
  5
2F9
330
1F
100
AcDbEntity
  8
0
100
AcDbLine
 10
0.1323325282811449
 20
0.0317740297494524
 30
0.0
 11
0.1324241973196363
 21
0.0317054071771311
 31
0.0
  0
LINE
  5
2FA
330
1F
100
AcDbEntity
  8
0
100
AcDbLine
 10
0.1249550630350103
 20
0.0453860711072275
 30
0.0
 11
0.1249633937060163
 21
0.0452695935117148
 31
0.0
  0
LINE
  5
2FB
330
1F
100
AcDbEntity
  8
0
100
AcDbLine
 10
0.1249633937060163
 20
0.0452695935117148
 30
0.0
 11
0.1249946788531005
 21
0.0451257778637624
 31
0.0
  0
LINE
  5
2FC
330
1F
100
AcDbEntity
  8
0
100
AcDbLine
 10
0.1256012525772715
 20
0.0423374005888238
 30
0.0
 11
0.125630619275503
 21
0.0422024039169841
 31
0.0
  0
LINE
  5
2FD
330
1F
100
AcDbEntity
  8
0
100
AcDbLine
 10
0.125630619275503
 20
0.0422024039169841
 30
0.0
 11
0.1256633460974541
 21
0.0421146599200405
 31
0.0
  0
LINE
  5
2FE
330
1F
100
AcDbEntity
  8
0
100
AcDbLine
 10
0.1267154807136003
 20
0.0392937781160869
 30
0.0
 11
0.1267275608062075
 21
0.0392613901374929
 31
0.0
  0
LINE
  5
2FF
330
1F
100
AcDbEntity
  8
0
100
AcDbLine
 10
0.1267275608062075
 20
0.0392613901374929
 30
0.0
 11
0.126761627694936
 21
0.0391990012923963
 31
0.0
  0
LINE
  5
300
330
1F
100
AcDbEntity
  8
0
100
AcDbLine
 10
0.128167494480034
 20
0.0366243486500312
 30
0.0
 11
0.1282318870454357
 21
0.0365064224777811
 31
0.0
  0
LINE
  5
301
330
1F
100
AcDbEntity
  8
0
100
AcDbLine
 10
0.1282318870454357
 20
0.0365064224777811
 30
0.0
 11
0.1283188386198308
 21
0.036390268755318
 31
0.0
  0
LINE
  5
302
330
1F
100
AcDbEntity
  8
0
100
AcDbLine
 10
0.1300443516719679
 20
0.0340852528247995
 30
0.0
 11
0.1301129742442892
 21
0.0339935837863081
 31
0.0
  0
LINE
  5
303
330
1F
100
AcDbEntity
  8
0
100
AcDbLine
 10
0.1322858661514538
 20
0.0318206918791435
 30
0.0
 11
0.1323325282811449
 21
0.0317740297494524
 31
0.0
  0
LINE
  5
304
330
1F
100
AcDbEntity
  8
0
100
AcDbLine
 10
0.1610209113424508
 20
0.0316800895566941
 30
0.0
 11
0.1611464007674978
 21
0.0317740297494524
 31
0.0
  0
LINE
  5
305
330
1F
100
AcDbEntity
  8
0
100
AcDbLine
 10
0.1611464007674978
 20
0.0317740297494524
 30
0.0
 11
0.1611828220029707
 21
0.0318104509849252
 31
0.0
  0
LINE
  5
306
330
1F
100
AcDbEntity
  8
0
100
AcDbLine
 10
0.1651391911949613
 20
0.0363623506431359
 30
0.0
 11
0.165247042003207
 21
0.0365064224777811
 31
0.0
  0
LINE
  5
307
330
1F
100
AcDbEntity
  8
0
100
AcDbLine
 10
0.1667310463679056
 20
0.0392241734050755
 30
0.0
 11
0.1667513682424352
 21
0.0392613901374929
 31
0.0
  0
LINE
  5
308
330
1F
100
AcDbEntity
  8
0
100
AcDbLine
 10
0.1677405688597433
 20
0.0419135393767652
 30
0.0
 11
0.1678483097731398
 21
0.0422024039169841
 31
0.0
  0
LINE
  5
309
330
1F
100
AcDbEntity
  8
0
100
AcDbLine
 10
0.1678483097731398
 20
0.0422024039169841
 30
0.0
 11
0.1678994201268469
 21
0.0424373546626429
 31
0.0
  0
LINE
  5
30A
330
1F
100
AcDbEntity
  8
0
100
AcDbLine
 10
0.1684951355969365
 20
0.0451758172978276
 30
0.0
 11
0.1685155353426264
 21
0.0452695935117148
 31
0.0
  0
LINE
  5
30B
330
1F
100
AcDbEntity
  8
0
100
AcDbLine
 10
0.1685155353426264
 20
0.0452695935117148
 30
0.0
 11
0.1685218915367729
 21
0.0453584644094196
 31
0.0
  0
LINE
  5
30C
330
1F
100
AcDbEntity
  8
0
100
AcDbLine
 10
0.1685328843175009
 20
0.0455121630330071
 30
0.0
 11
0.1685375599615677
 21
0.0455775368519931
 31
0.0
  0
LINE
  5
30D
330
1F
100
AcDbEntity
  8
0
100
AcDbLine
 10
0.1294515333335527
 20
0.0348771655328825
 30
0.0
 11
0.129479811515494
 21
0.0348393902985659
 31
0.0
  0
LINE
  5
30E
330
1F
100
AcDbEntity
  8
0
100
AcDbLine
 10
0.1564179125327115
 20
0.0506830443176071
 30
0.0
 11
0.1564569907827272
 21
0.0506254947701119
 31
0.0
  0
LINE
  5
30F
330
1F
100
AcDbEntity
  8
0
100
AcDbLine
 10
0.1567907918728305
 20
0.0482660826495389
 30
0.0
 11
0.1567482180182544
 21
0.0482880309705329
 31
0.0
  0
LINE
  5
310
330
1F
100
AcDbEntity
  8
0
100
AcDbLine
 10
0.1442125488921331
 20
0.0705656020888194
 30
0.0
 11
0.1444401331628935
 21
0.0707155855940722
 31
0.0
  0
LINE
  5
311
330
1F
100
AcDbEntity
  8
0
100
AcDbLine
 10
0.1444401331628935
 20
0.0707155855940722
 30
0.0
 11
0.1446706965017394
 21
0.07084973428725
 31
0.0
  0
LINE
  5
312
330
1F
100
AcDbEntity
  8
0
100
AcDbLine
 10
0.1446706965017394
 20
0.07084973428725
 30
0.0
 11
0.1449044769780041
 21
0.0709685737253234
 31
0.0
  0
LINE
  5
313
330
1F
100
AcDbEntity
  8
0
100
AcDbLine
 10
0.1449044769780041
 20
0.0709685737253234
 30
0.0
 11
0.1451417619047017
 21
0.0710725486148216
 31
0.0
  0
LINE
  5
314
330
1F
100
AcDbEntity
  8
0
100
AcDbLine
 10
0.1451417619047017
 20
0.0710725486148216
 30
0.0
 11
0.145382877128318
 21
0.0711620141388915
 31
0.0
  0
LINE
  5
315
330
1F
100
AcDbEntity
  8
0
100
AcDbLine
 10
0.145382877128318
 20
0.0711620141388915
 30
0.0
 11
0.1456281849333347
 21
0.0712372337454066
 31
0.0
  0
LINE
  5
316
330
1F
100
AcDbEntity
  8
0
100
AcDbLine
 10
0.1456281849333347
 20
0.0712372337454066
 30
0.0
 11
0.1458780799094849
 21
0.0712983775098759
 31
0.0
  0
LINE
  5
317
330
1F
100
AcDbEntity
  8
0
100
AcDbLine
 10
0.1458780799094849
 20
0.0712983775098759
 30
0.0
 11
0.1461329865070322
 21
0.0713455212805196
 31
0.0
  0
LINE
  5
318
330
1F
100
AcDbEntity
  8
0
100
AcDbLine
 10
0.1467394645243214
 20
0.0713455212805196
 30
0.0
 11
0.1467394645243214
 21
0.071378646660079
 31
0.0
  0
LINE
  5
319
330
1F
100
AcDbEntity
  8
0
100
AcDbLine
 10
0.1467394645243214
 20
0.071378646660079
 30
0.0
 11
0.1466866064821399
 21
0.0713455212805196
 31
0.0
  0
LINE
  5
31A
330
1F
100
AcDbEntity
  8
0
100
AcDbLine
 10
0.1466341507203789
 20
0.0713455212805196
 30
0.0
 11
0.1466793631499197
 21
0.071378646660079
 31
0.0
  0
LINE
  5
31B
330
1F
100
AcDbEntity
  8
0
100
AcDbLine
 10
0.1465824964635569
 20
0.0713455212805196
 30
0.0
 11
0.1466498846585775
 21
0.071378646660079
 31
0.0
  0
LINE
  5
31C
330
1F
100
AcDbEntity
  8
0
100
AcDbLine
 10
0.1465824964635569
 20
0.0713455212805196
 30
0.0
 11
0.1466210879244638
 21
0.071378646660079
 31
0.0
  0
LINE
  5
31D
330
1F
100
AcDbEntity
  8
0
100
AcDbLine
 10
0.1465320368243876
 20
0.0713455212805196
 30
0.0
 11
0.1465931921066978
 21
0.071378646660079
 31
0.0
  0
LINE
  5
31E
330
1F
100
AcDbEntity
  8
0
100
AcDbLine
 10
0.1465028959219633
 20
0.0713666109981463
 30
0.0
 11
0.1465664095104468
 21
0.071378646660079
 31
0.0
  0
LINE
  5
31F
330
1F
100
AcDbEntity
  8
0
100
AcDbLine
 10
0.146471431883138
 20
0.071366611001026
 30
0.0
 11
0.1465409439643874
 21
0.071378646660079
 31
0.0
  0
LINE
  5
320
330
1F
100
AcDbEntity
  8
0
100
AcDbLine
 10
0.1466341507203789
 20
0.0713455212805196
 30
0.0
 11
0.1466498846585775
 21
0.071378646660079
 31
0.0
  0
LINE
  5
321
330
1F
100
AcDbEntity
  8
0
100
AcDbLine
 10
0.1466866064821399
 20
0.0713455212805196
 30
0.0
 11
0.1466793631499197
 21
0.071378646660079
 31
0.0
  0
LINE
  5
322
330
1F
100
AcDbEntity
  8
0
100
AcDbLine
 10
0.1487790723714308
 20
0.0703608830306915
 30
0.0
 11
0.1487790723714308
 21
0.070400519981987
 31
0.0
  0
LINE
  5
323
330
1F
100
AcDbEntity
  8
0
100
AcDbLine
 10
0.1446998566772119
 20
0.0703134166848487
 30
0.0
 11
0.1446998566772119
 21
0.070400519981987
 31
0.0
  0
LINE
  5
324
330
1F
100
AcDbEntity
  8
0
100
AcDbLine
 10
0.1494789999361412
 20
0.070400519981987
 30
0.0
 11
0.149256764483756
 21
0.0705656020888204
 31
0.0
  0
LINE
  5
325
330
1F
100
AcDbEntity
  8
0
100
AcDbLine
 10
0.1490387958857493
 20
0.0707155855940722
 30
0.0
 11
0.1488082325469033
 21
0.07084973428725
 31
0.0
  0
LINE
  5
326
330
1F
100
AcDbEntity
  8
0
100
AcDbLine
 10
0.1488082325469033
 20
0.07084973428725
 30
0.0
 11
0.1485744520706386
 21
0.0709685737253234
 31
0.0
  0
LINE
  5
327
330
1F
100
AcDbEntity
  8
0
100
AcDbLine
 10
0.1485744520706386
 20
0.0709685737253234
 30
0.0
 11
0.148337167143941
 21
0.0710725486148216
 31
0.0
  0
LINE
  5
328
330
1F
100
AcDbEntity
  8
0
100
AcDbLine
 10
0.148337167143941
 20
0.0710725486148216
 30
0.0
 11
0.1480960519203247
 21
0.0711620141388915
 31
0.0
  0
LINE
  5
329
330
1F
100
AcDbEntity
  8
0
100
AcDbLine
 10
0.1480960519203247
 20
0.0711620141388915
 30
0.0
 11
0.147850744115308
 21
0.0712372337454066
 31
0.0
  0
LINE
  5
32A
330
1F
100
AcDbEntity
  8
0
100
AcDbLine
 10
0.147850744115308
 20
0.0712372337454066
 30
0.0
 11
0.1476008491391578
 21
0.0712983775098759
 31
0.0
  0
LINE
  5
32B
330
1F
100
AcDbEntity
  8
0
100
AcDbLine
 10
0.1476008491391578
 20
0.0712983775098759
 30
0.0
 11
0.1473459425416106
 21
0.0713455212805196
 31
0.0
  0
LINE
  5
32C
330
1F
100
AcDbEntity
  8
0
100
AcDbLine
 10
0.1467696300006675
 20
0.071378646660079
 30
0.0
 11
0.1467394645243214
 21
0.0713455212805196
 31
0.0
  0
LINE
  5
32D
330
1F
100
AcDbEntity
  8
0
100
AcDbLine
 10
0.1468447783282638
 20
0.0713455212805196
 30
0.0
 11
0.1467995658987231
 21
0.071378646660079
 31
0.0
  0
LINE
  5
32E
330
1F
100
AcDbEntity
  8
0
100
AcDbLine
 10
0.1468964325850859
 20
0.0713455212805196
 30
0.0
 11
0.1468290443900652
 21
0.071378646660079
 31
0.0
  0
LINE
  5
32F
330
1F
100
AcDbEntity
  8
0
100
AcDbLine
 10
0.1471108028220902
 20
0.0713666110015073
 30
0.0
 11
0.1470531467440334
 21
0.071378646660079
 31
0.0
  0
LINE
  5
330
330
1F
100
AcDbEntity
  8
0
100
AcDbLine
 10
0.1470873260205873
 20
0.0713455212805196
 30
0.0
 11
0.1470229812640493
 21
0.071378646660079
 31
0.0
  0
LINE
  5
331
330
1F
100
AcDbEntity
  8
0
100
AcDbLine
 10
0.1470427035329659
 20
0.0713455212805196
 30
0.0
 11
0.1469842012830806
 21
0.071378646660079
 31
0.0
  0
LINE
  5
332
330
1F
100
AcDbEntity
  8
0
100
AcDbLine
 10
0.1469957731989008
 20
0.0713455212805196
 30
0.0
 11
0.1469842012830806
 21
0.071378646660079
 31
0.0
  0
LINE
  5
333
330
1F
100
AcDbEntity
  8
0
100
AcDbLine
 10
0.1469842012830806
 20
0.071378646660079
 30
0.0
 11
0.1469379850842553
 21
0.071378646660079
 31
0.0
  0
LINE
  5
334
330
1F
100
AcDbEntity
  8
0
100
AcDbLine
 10
0.1468964325850859
 20
0.0713455212805196
 30
0.0
 11
0.1468578411241789
 21
0.071378646660079
 31
0.0
  0
LINE
  5
335
330
1F
100
AcDbEntity
  8
0
100
AcDbLine
 10
0.1468447783282638
 20
0.0713455212805196
 30
0.0
 11
0.1468290443900652
 21
0.071378646660079
 31
0.0
  0
LINE
  5
336
330
1F
100
AcDbEntity
  8
0
100
AcDbLine
 10
0.1467923225665028
 20
0.0713455212805196
 30
0.0
 11
0.1467995658987231
 21
0.071378646660079
 31
0.0
  0
LINE
  5
337
330
1F
100
AcDbEntity
  8
0
100
AcDbLine
 10
0.1365394641562627
 20
0.0290208912072771
 30
0.0
 11
0.1354097661479638
 21
0.0296589105008238
 31
0.0
  0
LINE
  5
338
330
1F
100
AcDbEntity
  8
0
100
AcDbLine
 10
0.1354097661479638
 20
0.0296589105008238
 30
0.0
 11
0.1342988463967369
 21
0.0303771725473993
 31
0.0
  0
LINE
  5
339
330
1F
100
AcDbEntity
  8
0
100
AcDbLine
 10
0.1342988463967369
 20
0.0303771725473993
 30
0.0
 11
0.1332333211704419
 21
0.031161202731549
 31
0.0
  0
LINE
  5
33A
330
1F
100
AcDbEntity
  8
0
100
AcDbLine
 10
0.1332333211704419
 20
0.031161202731549
 30
0.0
 11
0.1322170787408278
 21
0.0320081344423883
 31
0.0
  0
LINE
  5
33B
330
1F
100
AcDbEntity
  8
0
100
AcDbLine
 10
0.1322170787408278
 20
0.0320081344423883
 30
0.0
 11
0.1312538257717417
 21
0.0329148812769048
 31
0.0
  0
LINE
  5
33C
330
1F
100
AcDbEntity
  8
0
100
AcDbLine
 10
0.1312538257717417
 20
0.0329148812769048
 30
0.0
 11
0.1303470789372252
 21
0.033878134245991
 31
0.0
  0
LINE
  5
33D
330
1F
100
AcDbEntity
  8
0
100
AcDbLine
 10
0.1303470789372252
 20
0.033878134245991
 30
0.0
 11
0.1295001472263859
 21
0.0348943766756051
 31
0.0
  0
LINE
  5
33E
330
1F
100
AcDbEntity
  8
0
100
AcDbLine
 10
0.1295001472263859
 20
0.0348943766756051
 30
0.0
 11
0.1287161170422361
 21
0.0359599019019001
 31
0.0
  0
LINE
  5
33F
330
1F
100
AcDbEntity
  8
0
100
AcDbLine
 10
0.1287161170422361
 20
0.0359599019019001
 30
0.0
 11
0.1279978549956606
 21
0.037070821653127
 31
0.0
  0
LINE
  5
340
330
1F
100
AcDbEntity
  8
0
100
AcDbLine
 10
0.1279978549956606
 20
0.037070821653127
 30
0.0
 11
0.1273479781030939
 21
0.0382230828134411
 31
0.0
  0
LINE
  5
341
330
1F
100
AcDbEntity
  8
0
100
AcDbLine
 10
0.1273479781030939
 20
0.0382230828134411
 30
0.0
 11
0.1267688575118111
 21
0.0394124795300954
 31
0.0
  0
LINE
  5
342
330
1F
100
AcDbEntity
  8
0
100
AcDbLine
 10
0.1267688575118111
 20
0.0394124795300954
 30
0.0
 11
0.1262626091867016
 21
0.0406346727712147
 31
0.0
  0
LINE
  5
343
330
1F
100
AcDbEntity
  8
0
100
AcDbLine
 10
0.1262626091867016
 20
0.0406346727712147
 30
0.0
 11
0.1258310771464632
 21
0.041885203364312
 31
0.0
  0
LINE
  5
344
330
1F
100
AcDbEntity
  8
0
100
AcDbLine
 10
0.1258310771464632
 20
0.041885203364312
 30
0.0
 11
0.1254758390515373
 21
0.0431595068974488
 31
0.0
  0
LINE
  5
345
330
1F
100
AcDbEntity
  8
0
100
AcDbLine
 10
0.1254758390515373
 20
0.0431595068974488
 30
0.0
 11
0.1251981894403026
 21
0.0444529346739941
 31
0.0
  0
LINE
  5
346
330
1F
100
AcDbEntity
  8
0
100
AcDbLine
 10
0.1251981894403026
 20
0.0444529346739941
 30
0.0
 11
0.1249991397290752
 21
0.0457607667511397
 31
0.0
  0
LINE
  5
347
330
1F
100
AcDbEntity
  8
0
100
AcDbLine
 10
0.1249991397290752
 20
0.0457607667511397
 30
0.0
 11
0.1248794200747536
 21
0.0470782309155979
 31
0.0
  0
LINE
  5
348
330
1F
100
AcDbEntity
  8
0
100
AcDbLine
 10
0.1248794200747536
 20
0.0470782309155979
 30
0.0
 11
0.1248394644736574
 21
0.0484005200294845
 31
0.0
  0
LINE
  5
349
330
1F
100
AcDbEntity
  8
0
100
AcDbLine
 10
0.1365155543118046
 20
0.0289204871831529
 30
0.0
 11
0.1365394641562627
 21
0.0289079571692341
 31
0.0
  0
LINE
  5
34A
330
1F
100
AcDbEntity
  8
0
100
AcDbLine
 10
0.1353580330415891
 20
0.0295733312694423
 30
0.0
 11
0.1365155543118046
 21
0.0289204871831529
 31
0.0
  0
LINE
  5
34B
330
1F
100
AcDbEntity
  8
0
100
AcDbLine
 10
0.1331716489895509
 20
0.0310824836222522
 30
0.0
 11
0.1342420403762982
 21
0.0302948752967708
 31
0.0
  0
LINE
  5
34C
330
1F
100
AcDbEntity
  8
0
100
AcDbLine
 10
0.131183115105264
 20
0.0328441706104272
 30
0.0
 11
0.1321507657795475
 21
0.0319332840470665
 31
0.0
  0
LINE
  5
34D
330
1F
100
AcDbEntity
  8
0
100
AcDbLine
 10
0.1272594316779898
 20
0.0381766098169677
 30
0.0
 11
0.1279122757642792
 21
0.0370190885467522
 31
0.0
  0
LINE
  5
34E
330
1F
100
AcDbEntity
  8
0
100
AcDbLine
 10
0.1261691062628553
 20
0.0405992126641863
 30
0.0
 11
0.1266776679932402
 21
0.0393714380068772
 31
0.0
  0
LINE
  5
34F
330
1F
100
AcDbEntity
  8
0
100
AcDbLine
 10
0.1257356054066942
 20
0.0418554527303271
 30
0.0
 11
0.1261691062628553
 21
0.0405992126641863
 31
0.0
  0
LINE
  5
350
330
1F
100
AcDbEntity
  8
0
100
AcDbLine
 10
0.1250998268752621
 20
0.0444349093912237
 30
0.0
 11
0.1253787449478434
 21
0.0431355756325715
 31
0.0
  0
LINE
  5
351
330
1F
100
AcDbEntity
  8
0
100
AcDbLine
 10
0.1247796027838514
 20
0.0470721930349313
 30
0.0
 11
0.124899870055847
 21
0.0457487131087177
 31
0.0
  0
LINE
  5
352
330
1F
100
AcDbEntity
  8
0
100
AcDbLine
 10
0.1247394646435307
 20
0.0484005200294845
 30
0.0
 11
0.1247796027838514
 21
0.0470721930349313
 31
0.0
  0
LINE
  5
353
330
1F
100
AcDbEntity
  8
0
100
AcDbLine
 10
0.1687394644051121
 20
0.0484005200294845
 30
0.0
 11
0.1686993262647913
 21
0.0497288470240377
 31
0.0
  0
LINE
  5
354
330
1F
100
AcDbEntity
  8
0
100
AcDbLine
 10
0.1685995089738891
 20
0.0497228091433712
 30
0.0
 11
0.1686394645749853
 21
0.0484005200294845
 31
0.0
  0
LINE
  5
355
330
1F
100
AcDbEntity
  8
0
100
AcDbLine
 10
0.1686993262647913
 20
0.0497288470240377
 30
0.0
 11
0.1685790589927957
 21
0.0510523269502514
 31
0.0
  0
LINE
  5
356
330
1F
100
AcDbEntity
  8
0
100
AcDbLine
 10
0.1683791021733807
 20
0.0523661306677454
 30
0.0
 11
0.1681001841007994
 21
0.0536654644263976
 31
0.0
  0
LINE
  5
357
330
1F
100
AcDbEntity
  8
0
100
AcDbLine
 10
0.1677433236419485
 20
0.0549455873286419
 30
0.0
 11
0.1673098227857874
 21
0.0562018273947828
 31
0.0
  0
LINE
  5
358
330
1F
100
AcDbEntity
  8
0
100
AcDbLine
 10
0.1673098227857874
 20
0.0562018273947828
 30
0.0
 11
0.1668012610554025
 21
0.0574296020520918
 31
0.0
  0
LINE
  5
359
330
1F
100
AcDbEntity
  8
0
100
AcDbLine
 10
0.166219497370653
 20
0.0586244302420013
 30
0.0
 11
0.1655666532843636
 21
0.0597819515122168
 31
0.0
  0
LINE
  5
35A
330
1F
100
AcDbEntity
  8
0
100
AcDbLine
 10
0.164845109257035
 20
0.0608979441775077
 30
0.0
 11
0.1640575009315536
 21
0.061968335564255
 31
0.0
  0
LINE
  5
35B
330
1F
100
AcDbEntity
  8
0
100
AcDbLine
 10
0.1631947658708219
 20
0.0629786452061927
 30
0.0
 11
0.1622958139433787
 21
0.0639568694485419
 31
0.0
  0
LINE
  5
35C
330
1F
100
AcDbEntity
  8
0
100
AcDbLine
 10
0.1622958139433787
 20
0.0639568694485419
 30
0.0
 11
0.1613281632690952
 21
0.0648677560119026
 31
0.0
  0
LINE
  5
35D
330
1F
100
AcDbEntity
  8
0
100
AcDbLine
 10
0.1603072800590918
 20
0.0657185564367168
 30
0.0
 11
0.1592368886723445
 21
0.0665061647621982
 31
0.0
  0
LINE
  5
35E
330
1F
100
AcDbEntity
  8
0
100
AcDbLine
 10
0.1581208960070537
 20
0.0672277087895267
 30
0.0
 11
0.1569633747368382
 21
0.0678805528758161
 31
0.0
  0
LINE
  5
35F
330
1F
100
AcDbEntity
  8
0
100
AcDbLine
 10
0.1557685465469287
 20
0.0684623165605657
 30
0.0
 11
0.1545407718896196
 21
0.0689708782909506
 31
0.0
  0
LINE
  5
360
330
1F
100
AcDbEntity
  8
0
100
AcDbLine
 10
0.1545407718896196
 20
0.0689708782909506
 30
0.0
 11
0.1532845318234787
 21
0.0694043791471117
 31
0.0
  0
LINE
  5
361
330
1F
100
AcDbEntity
  8
0
100
AcDbLine
 10
0.1520044089212344
 20
0.0697612396059625
 30
0.0
 11
0.1507050751625822
 21
0.0700401576785438
 31
0.0
  0
LINE
  5
362
330
1F
100
AcDbEntity
  8
0
100
AcDbLine
 10
0.1427738538860605
 20
0.0700401576785438
 30
0.0
 11
0.1414745201274083
 21
0.0697612396059625
 31
0.0
  0
LINE
  5
363
330
1F
100
AcDbEntity
  8
0
100
AcDbLine
 10
0.140194397225164
 20
0.0694043791471117
 30
0.0
 11
0.1389381571590231
 21
0.0689708782909506
 31
0.0
  0
LINE
  5
364
330
1F
100
AcDbEntity
  8
0
100
AcDbLine
 10
0.1389381571590231
 20
0.0689708782909506
 30
0.0
 11
0.1377103825017141
 21
0.0684623165605657
 31
0.0
  0
LINE
  5
365
330
1F
100
AcDbEntity
  8
0
100
AcDbLine
 10
0.1365155543118046
 20
0.0678805528758161
 30
0.0
 11
0.1353580330415891
 21
0.0672277087895267
 31
0.0
  0
LINE
  5
366
330
1F
100
AcDbEntity
  8
0
100
AcDbLine
 10
0.1342420403762982
 20
0.0665061647621982
 30
0.0
 11
0.1331716489895509
 21
0.0657185564367168
 31
0.0
  0
LINE
  5
367
330
1F
100
AcDbEntity
  8
0
100
AcDbLine
 10
0.1321613393476133
 20
0.064855821375985
 30
0.0
 11
0.131183115105264
 21
0.0639568694485419
 31
0.0
  0
LINE
  5
368
330
1F
100
AcDbEntity
  8
0
100
AcDbLine
 10
0.131183115105264
 20
0.0639568694485419
 30
0.0
 11
0.1302722285419033
 21
0.0629892187742584
 31
0.0
  0
LINE
  5
369
330
1F
100
AcDbEntity
  8
0
100
AcDbLine
 10
0.1294214281170891
 20
0.061968335564255
 30
0.0
 11
0.1286338197916077
 21
0.0608979441775077
 31
0.0
  0
LINE
  5
36A
330
1F
100
AcDbEntity
  8
0
100
AcDbLine
 10
0.1279122757642792
 20
0.0597819515122168
 30
0.0
 11
0.1272594316779898
 21
0.0586244302420013
 31
0.0
  0
LINE
  5
36B
330
1F
100
AcDbEntity
  8
0
100
AcDbLine
 10
0.1266776679932402
 20
0.0574296020520918
 30
0.0
 11
0.1261691062628553
 21
0.0562018273947828
 31
0.0
  0
LINE
  5
36C
330
1F
100
AcDbEntity
  8
0
100
AcDbLine
 10
0.1261691062628553
 20
0.0562018273947828
 30
0.0
 11
0.1257356054066942
 21
0.0549455873286419
 31
0.0
  0
LINE
  5
36D
330
1F
100
AcDbEntity
  8
0
100
AcDbLine
 10
0.1253787449478434
 20
0.0536654644263976
 30
0.0
 11
0.1250998268752621
 21
0.0523661306677454
 31
0.0
  0
LINE
  5
36E
330
1F
100
AcDbEntity
  8
0
100
AcDbLine
 10
0.124899870055847
 20
0.0510523269502514
 30
0.0
 11
0.1247796027838514
 21
0.0497288470240377
 31
0.0
  0
LINE
  5
36F
330
1F
100
AcDbEntity
  8
0
100
AcDbLine
 10
0.1247796027838514
 20
0.0497288470240377
 30
0.0
 11
0.1247394646435307
 21
0.0484005200294845
 31
0.0
  0
LINE
  5
370
330
1F
100
AcDbEntity
  8
0
100
AcDbLine
 10
0.1684797893195675
 20
0.0510402733078294
 30
0.0
 11
0.1685995089738891
 21
0.0497228091433712
 31
0.0
  0
LINE
  5
371
330
1F
100
AcDbEntity
  8
0
100
AcDbLine
 10
0.1682807396083401
 20
0.052348105384975
 30
0.0
 11
0.1684797893195675
 21
0.0510402733078294
 31
0.0
  0
LINE
  5
372
330
1F
100
AcDbEntity
  8
0
100
AcDbLine
 10
0.1680030899971054
 20
0.0536415331615203
 30
0.0
 11
0.1682807396083401
 21
0.052348105384975
 31
0.0
  0
LINE
  5
373
330
1F
100
AcDbEntity
  8
0
100
AcDbLine
 10
0.1676478519021795
 20
0.0549158366946571
 30
0.0
 11
0.1680030899971054
 21
0.0536415331615203
 31
0.0
  0
LINE
  5
374
330
1F
100
AcDbEntity
  8
0
100
AcDbLine
 10
0.1672163198619411
 20
0.0561663672877543
 30
0.0
 11
0.1676478519021795
 21
0.0549158366946571
 31
0.0
  0
LINE
  5
375
330
1F
100
AcDbEntity
  8
0
100
AcDbLine
 10
0.1667100715368316
 20
0.0573885605288737
 30
0.0
 11
0.1672163198619411
 21
0.0561663672877543
 31
0.0
  0
LINE
  5
376
330
1F
100
AcDbEntity
  8
0
100
AcDbLine
 10
0.1661309509455488
 20
0.058577957245528
 30
0.0
 11
0.1667100715368316
 21
0.0573885605288737
 31
0.0
  0
LINE
  5
377
330
1F
100
AcDbEntity
  8
0
100
AcDbLine
 10
0.1654810740529821
 20
0.0597302184058421
 30
0.0
 11
0.1661309509455488
 21
0.058577957245528
 31
0.0
  0
LINE
  5
378
330
1F
100
AcDbEntity
  8
0
100
AcDbLine
 10
0.1647628120064066
 20
0.060841138157069
 30
0.0
 11
0.1654810740529821
 21
0.0597302184058421
 31
0.0
  0
LINE
  5
379
330
1F
100
AcDbEntity
  8
0
100
AcDbLine
 10
0.1639787818222568
 20
0.061906663383364
 30
0.0
 11
0.1647628120064066
 21
0.060841138157069
 31
0.0
  0
LINE
  5
37A
330
1F
100
AcDbEntity
  8
0
100
AcDbLine
 10
0.1631318501114176
 20
0.062922905812978
 30
0.0
 11
0.1639787818222568
 21
0.061906663383364
 31
0.0
  0
LINE
  5
37B
330
1F
100
AcDbEntity
  8
0
100
AcDbLine
 10
0.162225103276901
 20
0.0638861587820642
 30
0.0
 11
0.1631318501114176
 21
0.062922905812978
 31
0.0
  0
LINE
  5
37C
330
1F
100
AcDbEntity
  8
0
100
AcDbLine
 10
0.1612618503078149
 20
0.0647929056165807
 30
0.0
 11
0.162225103276901
 21
0.0638861587820642
 31
0.0
  0
LINE
  5
37D
330
1F
100
AcDbEntity
  8
0
100
AcDbLine
 10
0.1602456078782008
 20
0.06563983732742
 30
0.0
 11
0.1612618503078149
 21
0.0647929056165807
 31
0.0
  0
LINE
  5
37E
330
1F
100
AcDbEntity
  8
0
100
AcDbLine
 10
0.1591800826519058
 20
0.0664238675115698
 30
0.0
 11
0.1602456078782008
 21
0.06563983732742
 31
0.0
  0
LINE
  5
37F
330
1F
100
AcDbEntity
  8
0
100
AcDbLine
 10
0.1580691629006789
 20
0.0671421295581453
 30
0.0
 11
0.1591800826519058
 21
0.0664238675115698
 31
0.0
  0
LINE
  5
380
330
1F
100
AcDbEntity
  8
0
100
AcDbLine
 10
0.1569169017403648
 20
0.067792006450712
 30
0.0
 11
0.1580691629006789
 21
0.0671421295581453
 31
0.0
  0
LINE
  5
381
330
1F
100
AcDbEntity
  8
0
100
AcDbLine
 10
0.1557275050237105
 20
0.0683711270419948
 30
0.0
 11
0.1569169017403648
 21
0.067792006450712
 31
0.0
  0
LINE
  5
382
330
1F
100
AcDbEntity
  8
0
100
AcDbLine
 10
0.1545053117825911
 20
0.0688773753671043
 30
0.0
 11
0.1557275050237105
 21
0.0683711270419948
 31
0.0
  0
LINE
  5
383
330
1F
100
AcDbEntity
  8
0
100
AcDbLine
 10
0.1532547811894939
 20
0.0693089074073427
 30
0.0
 11
0.1545053117825911
 21
0.0688773753671043
 31
0.0
  0
LINE
  5
384
330
1F
100
AcDbEntity
  8
0
100
AcDbLine
 10
0.1519804776563571
 20
0.0696641455022686
 30
0.0
 11
0.1532547811894939
 21
0.0693089074073427
 31
0.0
  0
LINE
  5
385
330
1F
100
AcDbEntity
  8
0
100
AcDbLine
 10
0.1506870498798118
 20
0.0699417951135032
 30
0.0
 11
0.1519804776563571
 21
0.0696641455022686
 31
0.0
  0
LINE
  5
386
330
1F
100
AcDbEntity
  8
0
100
AcDbLine
 10
0.1493792178026662
 20
0.0701408448247307
 30
0.0
 11
0.1506870498798118
 21
0.0699417951135032
 31
0.0
  0
LINE
  5
387
330
1F
100
AcDbEntity
  8
0
100
AcDbLine
 10
0.148061753638208
 20
0.0702605644790523
 30
0.0
 11
0.1493792178026662
 21
0.0701408448247307
 31
0.0
  0
LINE
  5
388
330
1F
100
AcDbEntity
  8
0
100
AcDbLine
 10
0.1467394645243214
 20
0.0703005200801485
 30
0.0
 11
0.148061753638208
 21
0.0702605644790523
 31
0.0
  0
LINE
  5
389
330
1F
100
AcDbEntity
  8
0
100
AcDbLine
 10
0.1454171754104347
 20
0.0702605644790523
 30
0.0
 11
0.1467394645243214
 21
0.0703005200801485
 31
0.0
  0
LINE
  5
38A
330
1F
100
AcDbEntity
  8
0
100
AcDbLine
 10
0.1427918791688309
 20
0.0699417951135032
 30
0.0
 11
0.1440997112459765
 21
0.0701408448247307
 31
0.0
  0
LINE
  5
38B
330
1F
100
AcDbEntity
  8
0
100
AcDbLine
 10
0.1414984513922856
 20
0.0696641455022686
 30
0.0
 11
0.1427918791688309
 21
0.0699417951135032
 31
0.0
  0
LINE
  5
38C
330
1F
100
AcDbEntity
  8
0
100
AcDbLine
 10
0.1402241478591488
 20
0.0693089074073427
 30
0.0
 11
0.1414984513922856
 21
0.0696641455022686
 31
0.0
  0
LINE
  5
38D
330
1F
100
AcDbEntity
  8
0
100
AcDbLine
 10
0.1389736172660516
 20
0.0688773753671043
 30
0.0
 11
0.1402241478591488
 21
0.0693089074073427
 31
0.0
  0
LINE
  5
38E
330
1F
100
AcDbEntity
  8
0
100
AcDbLine
 10
0.1377514240249322
 20
0.0683711270419948
 30
0.0
 11
0.1389736172660516
 21
0.0688773753671043
 31
0.0
  0
LINE
  5
38F
330
1F
100
AcDbEntity
  8
0
100
AcDbLine
 10
0.1365620273082779
 20
0.067792006450712
 30
0.0
 11
0.1377514240249322
 21
0.0683711270419948
 31
0.0
  0
LINE
  5
390
330
1F
100
AcDbEntity
  8
0
100
AcDbLine
 10
0.1354097661479638
 20
0.0671421295581453
 30
0.0
 11
0.1365620273082779
 21
0.067792006450712
 31
0.0
  0
LINE
  5
391
330
1F
100
AcDbEntity
  8
0
100
AcDbLine
 10
0.1342988463967369
 20
0.0664238675115698
 30
0.0
 11
0.1354097661479638
 21
0.0671421295581453
 31
0.0
  0
LINE
  5
392
330
1F
100
AcDbEntity
  8
0
100
AcDbLine
 10
0.1332333211704419
 20
0.06563983732742
 30
0.0
 11
0.1342988463967369
 21
0.0664238675115698
 31
0.0
  0
LINE
  5
393
330
1F
100
AcDbEntity
  8
0
100
AcDbLine
 10
0.1322170787408278
 20
0.0647929056165807
 30
0.0
 11
0.1332333211704419
 21
0.06563983732742
 31
0.0
  0
LINE
  5
394
330
1F
100
AcDbEntity
  8
0
100
AcDbLine
 10
0.1312538257717417
 20
0.0638861587820642
 30
0.0
 11
0.1322170787408278
 21
0.0647929056165807
 31
0.0
  0
LINE
  5
395
330
1F
100
AcDbEntity
  8
0
100
AcDbLine
 10
0.1303470789372252
 20
0.062922905812978
 30
0.0
 11
0.1312538257717417
 21
0.0638861587820642
 31
0.0
  0
LINE
  5
396
330
1F
100
AcDbEntity
  8
0
100
AcDbLine
 10
0.1295001472263859
 20
0.061906663383364
 30
0.0
 11
0.1303470789372252
 21
0.062922905812978
 31
0.0
  0
LINE
  5
397
330
1F
100
AcDbEntity
  8
0
100
AcDbLine
 10
0.1287161170422361
 20
0.060841138157069
 30
0.0
 11
0.1295001472263859
 21
0.061906663383364
 31
0.0
  0
LINE
  5
398
330
1F
100
AcDbEntity
  8
0
100
AcDbLine
 10
0.1279978549956606
 20
0.0597302184058421
 30
0.0
 11
0.1287161170422361
 21
0.060841138157069
 31
0.0
  0
LINE
  5
399
330
1F
100
AcDbEntity
  8
0
100
AcDbLine
 10
0.1273479781030939
 20
0.058577957245528
 30
0.0
 11
0.1279978549956606
 21
0.0597302184058421
 31
0.0
  0
LINE
  5
39A
330
1F
100
AcDbEntity
  8
0
100
AcDbLine
 10
0.1267688575118111
 20
0.0573885605288737
 30
0.0
 11
0.1273479781030939
 21
0.058577957245528
 31
0.0
  0
LINE
  5
39B
330
1F
100
AcDbEntity
  8
0
100
AcDbLine
 10
0.1262626091867016
 20
0.0561663672877543
 30
0.0
 11
0.1267688575118111
 21
0.0573885605288737
 31
0.0
  0
LINE
  5
39C
330
1F
100
AcDbEntity
  8
0
100
AcDbLine
 10
0.1258310771464632
 20
0.0549158366946571
 30
0.0
 11
0.1262626091867016
 21
0.0561663672877543
 31
0.0
  0
LINE
  5
39D
330
1F
100
AcDbEntity
  8
0
100
AcDbLine
 10
0.1254758390515373
 20
0.0536415331615203
 30
0.0
 11
0.1258310771464632
 21
0.0549158366946571
 31
0.0
  0
LINE
  5
39E
330
1F
100
AcDbEntity
  8
0
100
AcDbLine
 10
0.1251981894403026
 20
0.052348105384975
 30
0.0
 11
0.1254758390515373
 21
0.0536415331615203
 31
0.0
  0
LINE
  5
39F
330
1F
100
AcDbEntity
  8
0
100
AcDbLine
 10
0.1249991397290752
 20
0.0510402733078294
 30
0.0
 11
0.1251981894403026
 21
0.052348105384975
 31
0.0
  0
LINE
  5
3A0
330
1F
100
AcDbEntity
  8
0
100
AcDbLine
 10
0.1248794200747536
 20
0.0497228091433712
 30
0.0
 11
0.1249991397290752
 21
0.0510402733078294
 31
0.0
  0
LINE
  5
3A1
330
1F
100
AcDbEntity
  8
0
100
AcDbLine
 10
0.1248394644736574
 20
0.0484005200294845
 30
0.0
 11
0.1248794200747536
 21
0.0497228091433712
 31
0.0
  0
LINE
  5
3A2
330
1F
100
AcDbEntity
  8
0
100
AcDbLine
 10
0.1367394647478388
 20
0.0288180916809898
 30
0.0
 11
0.1365394641562627
 21
0.0289079571692341
 31
0.0
  0
LINE
  5
3A3
330
1F
100
AcDbEntity
  8
0
100
AcDbLine
 10
0.1646739173979831
 20
0.0356845855824037
 30
0.0
 11
0.1648390867734844
 21
0.0359074451042631
 31
0.0
  0
LINE
  5
3A4
330
1F
100
AcDbEntity
  8
0
100
AcDbLine
 10
0.1648390867734844
 20
0.0359074451042631
 30
0.0
 11
0.1649299161384347
 21
0.0360433834936566
 31
0.0
  0
LINE
  5
3A5
330
1F
100
AcDbEntity
  8
0
100
AcDbLine
 10
0.1680898257553802
 20
0.0431378104582557
 30
0.0
 11
0.1681611101736417
 21
0.043468038676426
 31
0.0
  0
LINE
  5
3A6
330
1F
100
AcDbEntity
  8
0
100
AcDbLine
 10
0.1687394644051121
 20
0.0484005200294845
 30
0.0
 11
0.1686523764311598
 21
0.0465318805389174
 31
0.0
  0
LINE
  5
3A7
330
1F
100
AcDbEntity
  8
0
100
AcDbLine
 10
0.1440876576035545
 20
0.0702401144979589
 30
0.0
 11
0.1446998566772119
 21
0.0703134166848487
 31
0.0
  0
LINE
  5
3A8
330
1F
100
AcDbEntity
  8
0
100
AcDbLine
 10
0.1487790723714308
 20
0.0703052101360035
 30
0.0
 11
0.1493912714450882
 21
0.0702401144979589
 31
0.0
  0
LINE
  5
3A9
330
1F
100
AcDbEntity
  8
0
100
AcDbLine
 10
0.1384220153942035
 20
0.0523096776185625
 30
0.0
 11
0.1393700458958075
 21
0.0529053645758026
 31
0.0
  0
LINE
  5
3AA
330
1F
100
AcDbEntity
  8
0
100
AcDbLine
 10
0.1366648248314188
 20
0.0495131246596642
 30
0.0
 11
0.1370346204295085
 21
0.0505699386438422
 31
0.0
  0
LINE
  5
3AB
330
1F
100
AcDbEntity
  8
0
100
AcDbLine
 10
0.1370346204295085
 20
0.0505699386438422
 30
0.0
 11
0.1376303073867486
 21
0.0515179691454463
 31
0.0
  0
LINE
  5
3AC
330
1F
100
AcDbEntity
  8
0
100
AcDbLine
 10
0.1376303073867486
 20
0.0515179691454463
 30
0.0
 11
0.1384220153942035
 21
0.0523096776185625
 31
0.0
  0
LINE
  5
3AD
330
1F
100
AcDbEntity
  8
0
100
AcDbLine
 10
0.1365394641562627
 20
0.0484005200294845
 30
0.0
 11
0.1366648248314188
 21
0.0495131246596642
 31
0.0
  0
LINE
  5
3AE
330
1F
100
AcDbEntity
  8
0
100
AcDbLine
 10
0.1567394643008039
 20
0.0289169369814985
 30
0.0
 11
0.1581920807167218
 21
0.0297337702093713
 31
0.0
  0
LINE
  5
3AF
330
1F
100
AcDbEntity
  8
0
100
AcDbLine
 10
0.1679306181996391
 20
0.0428737631617181
 30
0.0
 11
0.1683234705507086
 21
0.0446936729447984
 31
0.0
  0
LINE
  5
3B0
330
1F
100
AcDbEntity
  8
0
100
AcDbLine
 10
0.1683234705507086
 20
0.0446936729447984
 30
0.0
 11
0.1685603226452396
 21
0.0465403743172132
 31
0.0
  0
LINE
  5
3B1
330
1F
100
AcDbEntity
  8
0
100
AcDbLine
 10
0.1685603226452396
 20
0.0465403743172132
 30
0.0
 11
0.1686394645749853
 21
0.0484005200294845
 31
0.0
  0
LINE
  5
3B2
330
1F
100
AcDbEntity
  8
0
100
AcDbLine
 10
0.1581920807167218
 20
0.0297337702093713
 30
0.0
 11
0.1597362126141117
 21
0.0307739904699915
 31
0.0
  0
LINE
  5
3B3
330
1F
100
AcDbEntity
  8
0
100
AcDbLine
 10
0.1597362126141117
 20
0.0307739904699915
 30
0.0
 11
0.1611864103853033
 21
0.0319416082082384
 31
0.0
  0
LINE
  5
3B4
330
1F
100
AcDbEntity
  8
0
100
AcDbLine
 10
0.1611864103853033
 20
0.0319416082082384
 30
0.0
 11
0.1625321919947193
 21
0.0332281847102635
 31
0.0
  0
LINE
  5
3B5
330
1F
100
AcDbEntity
  8
0
100
AcDbLine
 10
0.1625321919947193
 20
0.0332281847102635
 30
0.0
 11
0.1637638307093905
 21
0.0346244197888367
 31
0.0
  0
LINE
  5
3B6
330
1F
100
AcDbEntity
  8
0
100
AcDbLine
 10
0.1637638307093905
 20
0.0346244197888367
 30
0.0
 11
0.1648724249481485
 21
0.0361202216325395
 31
0.0
  0
LINE
  5
3B7
330
1F
100
AcDbEntity
  8
0
100
AcDbLine
 10
0.1648724249481485
 20
0.0361202216325395
 30
0.0
 11
0.1658499634742067
 21
0.0377047803802483
 31
0.0
  0
LINE
  5
3B8
330
1F
100
AcDbEntity
  8
0
100
AcDbLine
 10
0.1658499634742067
 20
0.0377047803802483
 30
0.0
 11
0.1666893775492237
 21
0.0393666426269405
 31
0.0
  0
LINE
  5
3B9
330
1F
100
AcDbEntity
  8
0
100
AcDbLine
 10
0.1666893775492237
 20
0.0393666426269405
 30
0.0
 11
0.1673846042632387
 21
0.0410937980366938
 31
0.0
  0
LINE
  5
3BA
330
1F
100
AcDbEntity
  8
0
100
AcDbLine
 10
0.1673846042632387
 20
0.0410937980366938
 30
0.0
 11
0.1679306181996391
 21
0.0428737631617181
 31
0.0
  0
LINE
  5
3BB
330
1F
100
AcDbEntity
  8
0
100
AcDbLine
 10
0.1456775603845266
 20
0.0723770162207855
 30
0.0
 11
0.1429012394118659
 21
0.072091616372801
 31
0.0
  0
LINE
  5
3BC
330
1F
100
AcDbEntity
  8
0
100
AcDbLine
 10
0.1429012394118659
 20
0.072091616372801
 30
0.0
 11
0.1401768238532314
 21
0.0714858351009247
 31
0.0
  0
LINE
  5
3BD
330
1F
100
AcDbEntity
  8
0
100
AcDbLine
 10
0.1401768238532314
 20
0.0714858351009247
 30
0.0
 11
0.1375411564570376
 21
0.0705678633569161
 31
0.0
  0
LINE
  5
3BE
330
1F
100
AcDbEntity
  8
0
100
AcDbLine
 10
0.1375411564570376
 20
0.0705678633569161
 30
0.0
 11
0.1350298804043736
 21
0.0693501179255922
 31
0.0
  0
LINE
  5
3BF
330
1F
100
AcDbEntity
  8
0
100
AcDbLine
 10
0.1350298804043736
 20
0.0693501179255922
 30
0.0
 11
0.1326769563707025
 21
0.0678490634202181
 31
0.0
  0
LINE
  5
3C0
330
1F
100
AcDbEntity
  8
0
100
AcDbLine
 10
0.1326769563707025
 20
0.0678490634202181
 30
0.0
 11
0.1305142038660804
 21
0.0660850017926987
 31
0.0
  0
LINE
  5
3C1
330
1F
100
AcDbEntity
  8
0
100
AcDbLine
 10
0.1305142038660804
 20
0.0660850017926987
 30
0.0
 11
0.1285708705278395
 21
0.0640817885029243
 31
0.0
  0
LINE
  5
3C2
330
1F
100
AcDbEntity
  8
0
100
AcDbLine
 10
0.1285708705278395
 20
0.0640817885029243
 30
0.0
 11
0.1268732351607236
 21
0.0618665128933479
 31
0.0
  0
LINE
  5
3C3
330
1F
100
AcDbEntity
  8
0
100
AcDbLine
 10
0.1268732351607236
 20
0.0618665128933479
 30
0.0
 11
0.1254442585099196
 21
0.0594691322013748
 31
0.0
  0
LINE
  5
3C4
330
1F
100
AcDbEntity
  8
0
100
AcDbLine
 10
0.1254442585099196
 20
0.0594691322013748
 30
0.0
 11
0.1243032618162883
 21
0.0569220676483157
 31
0.0
  0
LINE
  5
3C5
330
1F
100
AcDbEntity
  8
0
100
AcDbLine
 10
0.1243032618162883
 20
0.0569220676483157
 30
0.0
 11
0.1234656750634767
 21
0.0542597635288211
 31
0.0
  0
LINE
  5
3C6
330
1F
100
AcDbEntity
  8
0
100
AcDbLine
 10
0.1234656750634767
 20
0.0542597635288211
 30
0.0
 11
0.1229428281854956
 21
0.0515182234987666
 31
0.0
  0
LINE
  5
3C7
330
1F
100
AcDbEntity
  8
0
100
AcDbLine
 10
0.1229428281854956
 20
0.0515182234987666
 30
0.0
 11
0.1227417881341644
 21
0.048734521742883
 31
0.0
  0
LINE
  5
3C8
330
1F
100
AcDbEntity
  8
0
100
AcDbLine
 10
0.1227417881341644
 20
0.048734521742883
 30
0.0
 11
0.1228652766057221
 21
0.0459463031485502
 31
0.0
  0
LINE
  5
3C9
330
1F
100
AcDbEntity
  8
0
100
AcDbLine
 10
0.1228652766057221
 20
0.0459463031485502
 30
0.0
 11
0.1233116236226773
 21
0.0431912737642416
 31
0.0
  0
LINE
  5
3CA
330
1F
100
AcDbEntity
  8
0
100
AcDbLine
 10
0.1233116236226773
 20
0.0431912737642416
 30
0.0
 11
0.1240747901360133
 21
0.0405066904693654
 31
0.0
  0
LINE
  5
3CB
330
1F
100
AcDbEntity
  8
0
100
AcDbLine
 10
0.1240747901360133
 20
0.0405066904693654
 30
0.0
 11
0.1251444593077914
 21
0.03792885753139
 31
0.0
  0
LINE
  5
3CC
330
1F
100
AcDbEntity
  8
0
100
AcDbLine
 10
0.1251444593077914
 20
0.03792885753139
 30
0.0
 11
0.1265061626497144
 21
0.0354926360100739
 31
0.0
  0
LINE
  5
3CD
330
1F
100
AcDbEntity
  8
0
100
AcDbLine
 10
0.1265061626497144
 20
0.0354926360100739
 30
0.0
 11
0.128141485533128
 21
0.0332309712431883
 31
0.0
  0
LINE
  5
3CE
330
1F
100
AcDbEntity
  8
0
100
AcDbLine
 10
0.1649080585208033
 20
0.0327192515560448
 30
0.0
 11
0.1642394645988272
 21
0.0320300562421944
 31
0.0
  0
LINE
  5
3CF
330
1F
100
AcDbEntity
  8
0
100
AcDbLine
 10
0.1641785666336173
 20
0.0319672818273125
 30
0.0
 11
0.1641394647687004
 21
0.0319269751162016
 31
0.0
  0
LINE
  5
3D0
330
1F
100
AcDbEntity
  8
0
100
AcDbLine
 10
0.1666056938879191
 20
0.0349345271656212
 30
0.0
 11
0.1649080585208033
 21
0.0327192515560448
 31
0.0
  0
LINE
  5
3D1
330
1F
100
AcDbEntity
  8
0
100
AcDbLine
 10
0.1680346705387231
 20
0.0373319078575943
 30
0.0
 11
0.1666056938879191
 21
0.0349345271656212
 31
0.0
  0
LINE
  5
3D2
330
1F
100
AcDbEntity
  8
0
100
AcDbLine
 10
0.1691756672323544
 20
0.0398789724106534
 30
0.0
 11
0.1680346705387231
 21
0.0373319078575943
 31
0.0
  0
LINE
  5
3D3
330
1F
100
AcDbEntity
  8
0
100
AcDbLine
 10
0.170013253985166
 20
0.042541276530148
 30
0.0
 11
0.1691756672323544
 21
0.0398789724106534
 31
0.0
  0
LINE
  5
3D4
330
1F
100
AcDbEntity
  8
0
100
AcDbLine
 10
0.1705361008631471
 20
0.0452828165602025
 30
0.0
 11
0.170013253985166
 21
0.042541276530148
 31
0.0
  0
LINE
  5
3D5
330
1F
100
AcDbEntity
  8
0
100
AcDbLine
 10
0.1707371409144784
 20
0.0480665183160861
 30
0.0
 11
0.1705361008631471
 21
0.0452828165602025
 31
0.0
  0
LINE
  5
3D6
330
1F
100
AcDbEntity
  8
0
100
AcDbLine
 10
0.1706136524429206
 20
0.0508547369104189
 30
0.0
 11
0.1707371409144784
 21
0.0480665183160861
 31
0.0
  0
LINE
  5
3D7
330
1F
100
AcDbEntity
  8
0
100
AcDbLine
 10
0.1701673054259655
 20
0.0536097662947275
 30
0.0
 11
0.1706136524429206
 21
0.0508547369104189
 31
0.0
  0
LINE
  5
3D8
330
1F
100
AcDbEntity
  8
0
100
AcDbLine
 10
0.1694041389126295
 20
0.0562943495896037
 30
0.0
 11
0.1701673054259655
 21
0.0536097662947275
 31
0.0
  0
LINE
  5
3D9
330
1F
100
AcDbEntity
  8
0
100
AcDbLine
 10
0.1683344697408513
 20
0.0588721825275791
 30
0.0
 11
0.1694041389126295
 21
0.0562943495896037
 31
0.0
  0
LINE
  5
3DA
330
1F
100
AcDbEntity
  8
0
100
AcDbLine
 10
0.1669727663989284
 20
0.0613084040488952
 30
0.0
 11
0.1683344697408513
 21
0.0588721825275791
 31
0.0
  0
LINE
  5
3DB
330
1F
100
AcDbEntity
  8
0
100
AcDbLine
 10
0.1653374435155147
 20
0.0635700688157808
 30
0.0
 11
0.1669727663989284
 21
0.0613084040488952
 31
0.0
  0
LINE
  5
3DC
330
1F
100
AcDbEntity
  8
0
100
AcDbLine
 10
0.1634506128900781
 20
0.065626590650574
 30
0.0
 11
0.1653374435155147
 21
0.0635700688157808
 31
0.0
  0
LINE
  5
3DD
330
1F
100
AcDbEntity
  8
0
100
AcDbLine
 10
0.1613377937468775
 20
0.0674501594636361
 30
0.0
 11
0.1634506128900781
 21
0.065626590650574
 31
0.0
  0
LINE
  5
3DE
330
1F
100
AcDbEntity
  8
0
100
AcDbLine
 10
0.1590275568408889
 20
0.0690161151654819
 30
0.0
 11
0.1613377937468775
 21
0.0674501594636361
 31
0.0
  0
LINE
  5
3DF
330
1F
100
AcDbEntity
  8
0
100
AcDbLine
 10
0.1565511442429435
 20
0.0703032813478642
 30
0.0
 11
0.1590275568408889
 21
0.0690161151654819
 31
0.0
  0
LINE
  5
3E0
330
1F
100
AcDbEntity
  8
0
100
AcDbLine
 10
0.1539420456775314
 20
0.0712942485643542
 30
0.0
 11
0.1565511442429435
 21
0.0703032813478642
 31
0.0
  0
LINE
  5
3E1
330
1F
100
AcDbEntity
  8
0
100
AcDbLine
 10
0.151235544409735
 20
0.0719756189728503
 30
0.0
 11
0.1539420456775314
 21
0.0712942485643542
 31
0.0
  0
LINE
  5
3E2
330
1F
100
AcDbEntity
  8
0
100
AcDbLine
 10
0.1484682417728693
 20
0.0723381754532534
 30
0.0
 11
0.151235544409735
 21
0.0719756189728503
 31
0.0
  0
LINE
  5
3E3
330
1F
100
AcDbEntity
  8
0
100
AcDbLine
 10
0.1456775603845266
 20
0.0723770162207855
 30
0.0
 11
0.1484682417728693
 21
0.0723381754532534
 31
0.0
  0
LINE
  5
3E4
330
1F
100
AcDbEntity
  8
0
100
AcDbLine
 10
0.0387819929897115
 20
0.0220365840454221
 30
0.0
 11
0.038832991692205
 21
0.0220355685046237
 31
0.0
  0
LINE
  5
3E5
330
1F
100
AcDbEntity
  8
0
100
AcDbLine
 10
0.038832991692205
 20
0.0220355685046237
 30
0.0
 11
0.0391666421173064
 21
0.0220785239606198
 31
0.0
  0
LINE
  5
3E6
330
1F
100
AcDbEntity
  8
0
100
AcDbLine
 10
0.0543122869313362
 20
0.0220785239606198
 30
0.0
 11
0.0546473483162444
 21
0.0220355966011669
 31
0.0
  0
LINE
  5
3E7
330
1F
100
AcDbEntity
  8
0
100
AcDbLine
 10
0.0546473483162444
 20
0.0220355966011669
 30
0.0
 11
0.0546969360589311
 21
0.0220365840454221
 31
0.0
  0
LINE
  5
3E8
330
1F
100
AcDbEntity
  8
0
100
AcDbLine
 10
-0.0716403706813066
 20
0.0493741095143688
 30
0.0
 11
-0.0715529784941051
 21
0.0501017409566443
 31
0.0
  0
LINE
  5
3E9
330
1F
100
AcDbEntity
  8
0
100
AcDbLine
 10
-0.0306858336961473
 20
0.063020414021926
 30
0.0
 11
-0.030666146403221
 21
0.0631064435516802
 31
0.0
  0
LINE
  5
3EA
330
1F
100
AcDbEntity
  8
0
100
AcDbLine
 10
-0.030666146403221
 20
0.0631064435516802
 30
0.0
 11
-0.0306999554903176
 21
0.0631402132111837
 31
0.0
  0
LINE
  5
3EB
330
1F
100
AcDbEntity
  8
0
100
AcDbLine
 10
0.1292742159928424
 20
-0.0625851032242719
 30
0.0
 11
0.1292501485823916
 21
-0.0624164645276641
 31
0.0
  0
LINE
  5
3EC
330
1F
100
AcDbEntity
  8
0
100
AcDbLine
 10
0.1641394647687004
 20
-0.0633843555354523
 30
0.0
 11
0.1641325649505685
 21
-0.063293206546639
 31
0.0
  0
LINE
  5
3ED
330
1F
100
AcDbEntity
  8
0
100
AcDbLine
 10
0.1485760220288082
 20
0.070323402051939
 30
0.0
 11
0.1486044714659384
 21
0.0703210127313012
 31
0.0
  0
LINE
  5
3EE
330
1F
100
AcDbEntity
  8
0
100
AcDbLine
 10
0.1486044714659384
 20
0.0703210127313012
 30
0.0
 11
0.1486908454464342
 21
0.0703142465022616
 31
0.0
  0
LINE
  5
3EF
330
1F
100
AcDbEntity
  8
0
100
AcDbLine
 10
0.1475555353505057
 20
0.0703844774995301
 30
0.0
 11
0.1476800199399033
 21
0.070400519981987
 31
0.0
  0
LINE
  5
3F0
330
1F
100
AcDbEntity
  8
0
100
AcDbLine
 10
0.1476800199399033
 20
0.070400519981987
 30
0.0
 11
0.1478023337446198
 21
0.070373909866773
 31
0.0
  0
LINE
  5
3F1
330
1F
100
AcDbEntity
  8
0
100
AcDbLine
 10
0.1478626139053621
 20
0.0703713796113404
 30
0.0
 11
0.1479016647591518
 21
0.070400519981987
 31
0.0
  0
LINE
  5
3F2
330
1F
100
AcDbEntity
  8
0
100
AcDbLine
 10
0.1479016647591518
 20
0.070400519981987
 30
0.0
 11
0.1480209117239772
 21
0.0703622140058441
 31
0.0
  0
LINE
  5
3F3
330
1F
100
AcDbEntity
  8
0
100
AcDbLine
 10
0.1472916591480496
 20
0.0703919552924734
 30
0.0
 11
0.1474512169171387
 21
0.070400519981987
 31
0.0
  0
LINE
  5
3F4
330
1F
100
AcDbEntity
  8
0
100
AcDbLine
 10
0.1474512169171387
 20
0.070400519981987
 30
0.0
 11
0.1475197903909169
 21
0.0703860356317991
 31
0.0
  0
LINE
  5
3F5
330
1F
100
AcDbEntity
  8
0
100
AcDbLine
 10
0.1571847244179978
 20
0.0290542978301817
 30
0.0
 11
0.1582403949379252
 21
0.0296485337046974
 31
0.0
  0
LINE
  5
3F6
330
1F
100
AcDbEntity
  8
0
100
AcDbLine
 10
0.159435333248053
 20
0.0304508348076621
 30
0.0
 11
0.1597910414367245
 21
0.0306935036345024
 31
0.0
  0
LINE
  5
3F7
330
1F
100
AcDbEntity
  8
0
100
AcDbLine
 10
0.1612644317541923
 20
0.0318884979181834
 30
0.0
 11
0.1612955865728743
 21
0.0319077618395921
 31
0.0
  0
LINE
  5
3F8
330
1F
100
AcDbEntity
  8
0
100
AcDbLine
 10
0.1631438062418518
 20
0.0337714352238063
 30
0.0
 11
0.1631918272852224
 21
0.033824942688464
 31
0.0
  0
LINE
  5
3F9
330
1F
100
AcDbEntity
  8
0
100
AcDbLine
 10
0.1631918272852224
 20
0.033824942688464
 30
0.0
 11
0.1633659548043535
 21
0.0339935837863081
 31
0.0
  0
LINE
  5
3FA
330
1F
100
AcDbEntity
  8
0
100
AcDbLine
 10
0.1649299161384347
 20
0.0360433834936566
 30
0.0
 11
0.1649489219217823
 21
0.0360641466777037
 31
0.0
  0
LINE
  5
3FB
330
1F
100
AcDbEntity
  8
0
100
AcDbLine
 10
0.1649489219217823
 20
0.0360641466777037
 30
0.0
 11
0.1651391911949613
 21
0.0363623506431359
 31
0.0
  0
LINE
  5
3FC
330
1F
100
AcDbEntity
  8
0
100
AcDbLine
 10
0.1680273807642683
 20
0.0428504475010626
 30
0.0
 11
0.1680423815536384
 21
0.042942518100413
 31
0.0
  0
LINE
  5
3FD
330
1F
100
AcDbEntity
  8
0
100
AcDbLine
 10
0.1673667249098835
 20
0.0407818183125632
 30
0.0
 11
0.1674716996877716
 21
0.0410604338711195
 31
0.0
  0
LINE
  5
3FE
330
1F
100
AcDbEntity
  8
0
100
AcDbLine
 10
0.1681611101736417
 20
0.043468038676426
 30
0.0
 11
0.1684145240961836
 21
0.0446767465183716
 31
0.0
  0
LINE
  5
3FF
330
1F
100
AcDbEntity
  8
0
100
AcDbLine
 10
0.1685965042211859
 20
0.0460371159544278
 30
0.0
 11
0.1686523764311598
 21
0.0465318805389174
 31
0.0
  0
LINE
  5
400
330
1F
100
AcDbEntity
  8
0
100
AcDbLine
 10
0.0454394645207823
 20
0.0192278246021066
 30
0.0
 11
0.045654024800733
 21
0.0192511806967679
 31
0.0
  0
LINE
  5
401
330
1F
100
AcDbEntity
  8
0
100
AcDbLine
 10
0.045654024800733
 20
0.0192511806967679
 30
0.0
 11
0.0456787963517493
 21
0.0192718343685684
 31
0.0
  0
LINE
  5
402
330
1F
100
AcDbEntity
  8
0
100
AcDbLine
 10
0.0456787963517493
 20
0.0192718343685684
 30
0.0
 11
0.0458079537238425
 21
0.019267936726822
 31
0.0
  0
LINE
  5
403
330
1F
100
AcDbEntity
  8
0
100
AcDbLine
 10
0.0514183808462645
 20
0.0187459285250018
 30
0.0
 11
0.0480394645278604
 21
0.0173590330834233
 31
0.0
  0
LINE
  5
404
330
1F
100
AcDbEntity
  8
0
100
AcDbLine
 10
0.041584015780529
 20
0.0189473994299226
 30
0.0
 11
0.0390948819845245
 21
0.0199632031098684
 31
0.0
  0
LINE
  5
405
330
1F
100
AcDbEntity
  8
0
100
AcDbLine
 10
0.0546501110225246
 20
0.0199621863644568
 30
0.0
 11
0.0545162453142845
 21
0.0200438120117665
 31
0.0
  0
LINE
  5
406
330
1F
100
AcDbEntity
  8
0
100
AcDbLine
 10
0.0545162453142845
 20
0.0200438120117665
 30
0.0
 11
0.0543840470641182
 21
0.0201244209136646
 31
0.0
  0
LINE
  5
407
330
1F
100
AcDbEntity
  8
0
100
AcDbLine
 10
0.0390948819845245
 20
0.0201244209136646
 30
0.0
 11
0.0389626837343582
 21
0.0200438120117665
 31
0.0
  0
LINE
  5
408
330
1F
100
AcDbEntity
  8
0
100
AcDbLine
 10
0.0389626837343582
 20
0.0200438120117665
 30
0.0
 11
0.0388288180261181
 21
0.0199621863644568
 31
0.0
  0
LINE
  5
409
330
1F
100
AcDbEntity
  8
0
100
AcDbLine
 10
0.0536432949743495
 20
0.0190145537847665
 30
0.0
 11
0.0528879794678427
 21
0.0188741095143688
 31
0.0
  0
LINE
  5
40A
330
1F
100
AcDbEntity
  8
0
100
AcDbLine
 10
0.0528879794678427
 20
0.0188741095143688
 30
0.0
 11
0.0528141873806045
 21
0.0188910017961735
 31
0.0
  0
LINE
  5
40B
330
1F
100
AcDbEntity
  8
0
100
AcDbLine
 10
0.0416070096112118
 20
0.0187843128561006
 30
0.0
 11
0.0408139329114864
 21
0.0188741095143688
 31
0.0
  0
LINE
  5
40C
330
1F
100
AcDbEntity
  8
0
100
AcDbLine
 10
0.0406647416680381
 20
0.0188910017961735
 30
0.0
 11
0.040626377303821
 21
0.0188741095143688
 31
0.0
  0
LINE
  5
40D
330
1F
100
AcDbEntity
  8
0
100
AcDbLine
 10
0.040626377303821
 20
0.0188741095143688
 30
0.0
 11
0.0398356340742932
 21
0.0190145537847665
 31
0.0
  0
LINE
  5
40E
330
1F
100
AcDbEntity
  8
0
100
AcDbLine
 10
0.0379223599015997
 20
0.0196275834100273
 30
0.0
 11
0.037907325732721
 21
0.0196581724835931
 31
0.0
  0
LINE
  5
40F
330
1F
100
AcDbEntity
  8
0
100
AcDbLine
 10
0.0378394647418783
 20
0.0197962449542362
 30
0.0
 11
0.0378394647418783
 21
0.0199449931561238
 31
0.0
  0
LINE
  5
410
330
1F
100
AcDbEntity
  8
0
100
AcDbLine
 10
0.0556698216974066
 20
0.0200179207181174
 30
0.0
 11
0.0556394643067644
 21
0.0197962449542362
 31
0.0
  0
LINE
  5
411
330
1F
100
AcDbEntity
  8
0
100
AcDbLine
 10
0.0556394643067644
 20
0.0197962449542362
 30
0.0
 11
0.0555716033159216
 21
0.0196581724835931
 31
0.0
  0
LINE
  5
412
330
1F
100
AcDbEntity
  8
0
100
AcDbLine
 10
0.0555716033159216
 20
0.0196581724835931
 30
0.0
 11
0.055556569147043
 21
0.0196275834100273
 31
0.0
  0
LINE
  5
413
330
1F
100
AcDbEntity
  8
0
100
AcDbLine
 10
0.0526649961371563
 20
0.0188741095143688
 30
0.0
 11
0.0518719194374309
 21
0.0187843128561006
 31
0.0
  0
LINE
  5
414
330
1F
100
AcDbEntity
  8
0
100
AcDbLine
 10
0.0541640859014616
 20
0.0218198208144122
 30
0.0
 11
0.0539519539020286
 21
0.0218471740140236
 31
0.0
  0
LINE
  5
415
330
1F
100
AcDbEntity
  8
0
100
AcDbLine
 10
0.0539519539020286
 20
0.0218471740140236
 30
0.0
 11
0.0535768190316186
 21
0.0218955454950777
 31
0.0
  0
LINE
  5
416
330
1F
100
AcDbEntity
  8
0
100
AcDbLine
 10
0.0556698216974065
 20
0.0215551056505976
 30
0.0
 11
0.0555440083994792
 21
0.0215802892156571
 31
0.0
  0
LINE
  5
417
330
1F
100
AcDbEntity
  8
0
100
AcDbLine
 10
0.0555440083994792
 20
0.0215802892156571
 30
0.0
 11
0.0554238268091605
 21
0.0216043455034153
 31
0.0
  0
LINE
  5
418
330
1F
100
AcDbEntity
  8
0
100
AcDbLine
 10
0.0522620290435181
 20
0.022029378744408
 30
0.0
 11
0.0520459785043523
 21
0.0220458101949921
 31
0.0
  0
LINE
  5
419
330
1F
100
AcDbEntity
  8
0
100
AcDbLine
 10
0.0491491380530671
 20
0.0222088288464851
 30
0.0
 11
0.0483092147493303
 21
0.0222298396313118
 31
0.0
  0
LINE
  5
41A
330
1F
100
AcDbEntity
  8
0
100
AcDbLine
 10
0.0483092147493303
 20
0.0222298396313118
 30
0.0
 11
0.0480394645278603
 21
0.0222365874663047
 31
0.0
  0
LINE
  5
41B
330
1F
100
AcDbEntity
  8
0
100
AcDbLine
 10
0.0399021100170241
 20
0.0218955454950777
 30
0.0
 11
0.0395269751466141
 21
0.0218471740140236
 31
0.0
  0
LINE
  5
41C
330
1F
100
AcDbEntity
  8
0
100
AcDbLine
 10
0.0395269751466141
 20
0.0218471740140236
 30
0.0
 11
0.039314843147181
 21
0.0218198208144122
 31
0.0
  0
LINE
  5
41D
330
1F
100
AcDbEntity
  8
0
100
AcDbLine
 10
0.0454394645207823
 20
0.0222365874663047
 30
0.0
 11
0.0453670310018794
 21
0.0222347755329137
 31
0.0
  0
LINE
  5
41E
330
1F
100
AcDbEntity
  8
0
100
AcDbLine
 10
0.0453670310018794
 20
0.0222347755329137
 30
0.0
 11
0.0443297909955756
 21
0.0222088288464851
 31
0.0
  0
LINE
  5
41F
330
1F
100
AcDbEntity
  8
0
100
AcDbLine
 10
0.0414329505442903
 20
0.0220458101949921
 30
0.0
 11
0.0412169000051246
 21
0.022029378744408
 31
0.0
  0
LINE
  5
420
330
1F
100
AcDbEntity
  8
0
100
AcDbLine
 10
0.0380551022394822
 20
0.0216043455034153
 30
0.0
 11
0.0379349206491635
 21
0.0215802892156571
 31
0.0
  0
LINE
  5
421
330
1F
100
AcDbEntity
  8
0
100
AcDbLine
 10
0.0379349206491635
 20
0.0215802892156571
 30
0.0
 11
0.0378091073512361
 21
0.0215551056505976
 31
0.0
  0
LINE
  5
422
330
1F
100
AcDbEntity
  8
0
100
AcDbLine
 10
0.0365197052165196
 20
0.0204511514309811
 30
0.0
 11
0.0367758153773688
 21
0.0203013608239393
 31
0.0
  0
LINE
  5
423
330
1F
100
AcDbEntity
  8
0
100
AcDbLine
 10
0.0367758153773688
 20
0.0203013608239393
 30
0.0
 11
0.0368220330133364
 21
0.0203076798764033
 31
0.0
  0
LINE
  5
424
330
1F
100
AcDbEntity
  8
0
100
AcDbLine
 10
0.0378091073512361
 20
0.0206055881439421
 30
0.0
 11
0.0378091073512361
 21
0.0202816210895087
 31
0.0
  0
LINE
  5
425
330
1F
100
AcDbEntity
  8
0
100
AcDbLine
 10
0.0355192691936419
 20
0.0213787307305534
 30
0.0
 11
0.0355478103780446
 21
0.0213744759736158
 31
0.0
  0
LINE
  5
426
330
1F
100
AcDbEntity
  8
0
100
AcDbLine
 10
0.0399226875893102
 20
0.0221609594943903
 30
0.0
 11
0.0399547151205355
 21
0.0221577033004864
 31
0.0
  0
LINE
  5
427
330
1F
100
AcDbEntity
  8
0
100
AcDbLine
 10
0.0522620290435181
 20
0.0222647084029712
 30
0.0
 11
0.0523161426103935
 21
0.0222652931833453
 31
0.0
  0
LINE
  5
428
330
1F
100
AcDbEntity
  8
0
100
AcDbLine
 10
0.0535242140275522
 20
0.0221577032914443
 30
0.0
 11
0.0535562414593325
 21
0.0221609594747517
 31
0.0
  0
LINE
  5
429
330
1F
100
AcDbEntity
  8
0
100
AcDbLine
 10
0.0549947031691001
 20
0.021995142871349
 30
0.0
 11
0.0553609234439715
 21
0.0219441748576169
 31
0.0
  0
LINE
  5
42A
330
1F
100
AcDbEntity
  8
0
100
AcDbLine
 10
0.0553609234439715
 20
0.0219441748576169
 30
0.0
 11
0.0554238268091605
 21
0.021935420400803
 31
0.0
  0
LINE
  5
42B
330
1F
100
AcDbEntity
  8
0
100
AcDbLine
 10
0.0586984780534432
 20
0.0208808147688914
 30
0.0
 11
0.0587394646286295
 21
0.0207865131843575
 31
0.0
  0
LINE
  5
42C
330
1F
100
AcDbEntity
  8
0
100
AcDbLine
 10
0.0362798579885886
 20
0.0212653464923117
 30
0.0
 11
0.0355478103780446
 21
0.0213744759736158
 31
0.0
  0
LINE
  5
42D
330
1F
100
AcDbEntity
  8
0
100
AcDbLine
 10
0.0408630970782862
 20
0.021995142871349
 30
0.0
 11
0.038832991692205
 21
0.0220355685046237
 31
0.0
  0
LINE
  5
42E
330
1F
100
AcDbEntity
  8
0
100
AcDbLine
 10
0.0408630970782862
 20
0.021995142871349
 30
0.0
 11
0.0399547151205355
 21
0.0221577033004864
 31
0.0
  0
LINE
  5
42F
330
1F
100
AcDbEntity
  8
0
100
AcDbLine
 10
0.0412169000051246
 20
0.022029378744408
 30
0.0
 11
0.0399547151205355
 21
0.0221577033004864
 31
0.0
  0
LINE
  5
430
330
1F
100
AcDbEntity
  8
0
100
AcDbLine
 10
0.0491491380530671
 20
0.0222088288464851
 30
0.0
 11
0.0501800236675218
 21
0.0222422091305534
 31
0.0
  0
LINE
  5
431
330
1F
100
AcDbEntity
  8
0
100
AcDbLine
 10
0.0501800236675218
 20
0.0221667529474782
 30
0.0
 11
0.0501800236675218
 21
0.0222422091305534
 31
0.0
  0
LINE
  5
432
330
1F
100
AcDbEntity
  8
0
100
AcDbLine
 10
0.0520459785043523
 20
0.0222243143806182
 30
0.0
 11
0.0501800236675218
 21
0.0222422091305534
 31
0.0
  0
LINE
  5
433
330
1F
100
AcDbEntity
  8
0
100
AcDbLine
 10
0.0522620290435181
 20
0.022029378744408
 30
0.0
 11
0.0535242140275522
 21
0.0221577032914443
 31
0.0
  0
LINE
  5
434
330
1F
100
AcDbEntity
  8
0
100
AcDbLine
 10
0.0526158319703565
 20
0.021995142871349
 30
0.0
 11
0.0535242140275522
 21
0.0221577032914443
 31
0.0
  0
LINE
  5
435
330
1F
100
AcDbEntity
  8
0
100
AcDbLine
 10
0.0526158319703565
 20
0.021995142871349
 30
0.0
 11
0.0546473483162444
 21
0.0220355966011669
 31
0.0
  0
LINE
  5
436
330
1F
100
AcDbEntity
  8
0
100
AcDbLine
 10
0.0535768190316186
 20
0.0218955454950777
 30
0.0
 11
0.0553609234439715
 21
0.0219441748576169
 31
0.0
  0
LINE
  5
437
330
1F
100
AcDbEntity
  8
0
100
AcDbLine
 10
0.0547081901609228
 20
0.0217380890591262
 30
0.0
 11
0.0553609234439715
 21
0.0219441748576169
 31
0.0
  0
LINE
  5
438
330
1F
100
AcDbEntity
  8
0
100
AcDbLine
 10
0.0571586777373479
 20
0.0209674382247729
 30
0.0
 11
0.0586984780534432
 21
0.0207912042010992
 31
0.0
  0
LINE
  5
439
330
1F
100
AcDbEntity
  8
0
100
AcDbLine
 10
0.0586984780534432
 20
0.0207912042010992
 30
0.0
 11
0.0587394646286295
 21
0.0207865131843575
 31
0.0
  0
LINE
  5
43A
330
1F
100
AcDbEntity
  8
0
100
AcDbLine
 10
0.0586984780534432
 20
0.0207912042010992
 30
0.0
 11
0.0571586777373479
 21
0.0206055881439421
 31
0.0
  0
LINE
  5
43B
330
1F
100
AcDbEntity
  8
0
100
AcDbLine
 10
0.0586984780534432
 20
0.0207912042010992
 30
0.0
 11
0.0572089440106676
 21
0.0206751747010638
 31
0.0
  0
LINE
  5
43C
330
1F
100
AcDbEntity
  8
0
100
AcDbLine
 10
0.0556394643067644
 20
0.0206055881439421
 30
0.0
 11
0.0556698216974066
 21
0.020628989117999
 31
0.0
  0
LINE
  5
43D
330
1F
100
AcDbEntity
  8
0
100
AcDbLine
 10
0.0572089440106676
 20
0.0208978516676512
 30
0.0
 11
0.0586984780534432
 21
0.0207912042010992
 31
0.0
  0
LINE
  5
43E
330
1F
100
AcDbEntity
  8
0
100
AcDbLine
 10
0.0579596598550007
 20
0.0201942956381616
 30
0.0
 11
0.0579271363551992
 21
0.0201969189417049
 31
0.0
  0
LINE
  5
43F
330
1F
100
AcDbEntity
  8
0
100
AcDbLine
 10
0.0579271363551992
 20
0.0201969189417049
 30
0.0
 11
0.0566419380634353
 21
0.0203005813781961
 31
0.0
  0
LINE
  5
440
330
1F
100
AcDbEntity
  8
0
100
AcDbLine
 10
0.0355192691936419
 20
0.0201942956381616
 30
0.0
 11
0.0355478100890804
 21
0.0201985503520221
 31
0.0
  0
LINE
  5
441
330
1F
100
AcDbEntity
  8
0
100
AcDbLine
 10
0.0355478100890804
 20
0.0201985503520221
 30
0.0
 11
0.0362798579885886
 21
0.0203076798764033
 31
0.0
  0
LINE
  5
442
330
1F
100
AcDbEntity
  8
0
100
AcDbLine
 10
0.0363202513112948
 20
0.0206055881439421
 30
0.0
 11
0.0368248581060038
 21
0.0206055881439421
 31
0.0
  0
LINE
  5
443
330
1F
100
AcDbEntity
  8
0
100
AcDbLine
 10
0.0454394645207823
 20
0.0222365874663047
 30
0.0
 11
0.045939464544531
 21
0.0222435831797718
 31
0.0
  0
LINE
  5
444
330
1F
100
AcDbEntity
  8
0
100
AcDbLine
 10
0.0478304075540791
 20
0.0192728268029768
 30
0.0
 11
0.0480394645278603
 21
0.0192796798603777
 31
0.0
  0
LINE
  5
445
330
1F
100
AcDbEntity
  8
0
100
AcDbLine
 10
0.0480394645278603
 20
0.0192796798603777
 30
0.0
 11
0.0480394645278603
 21
0.0192278246021066
 31
0.0
  0
LINE
  5
446
330
1F
100
AcDbEntity
  8
0
100
AcDbLine
 10
0.0458079537238425
 20
0.019267936726822
 30
0.0
 11
0.0461321070474834
 21
0.019261854902593
 31
0.0
  0
LINE
  5
447
330
1F
100
AcDbEntity
  8
0
100
AcDbLine
 10
0.0461321070474834
 20
0.019261854902593
 30
0.0
 11
0.0464218791316991
 21
0.0192564181454966
 31
0.0
  0
LINE
  5
448
330
1F
100
AcDbEntity
  8
0
100
AcDbLine
 10
0.0454394645207823
 20
0.0192796798603777
 30
0.0
 11
0.0456787963517493
 21
0.0192718343685684
 31
0.0
  0
LINE
  5
449
330
1F
100
AcDbEntity
  8
0
100
AcDbLine
 10
0.0454394645207823
 20
0.0192278246021066
 30
0.0
 11
0.0454394645207823
 21
0.0192796798603777
 31
0.0
  0
LINE
  5
44A
330
1F
100
AcDbEntity
  8
0
100
AcDbLine
 10
0.0248664293527148
 20
-0.0796394160239639
 30
0.0
 11
0.0246933485826064
 21
-0.0794258902919161
 31
0.0
  0
LINE
  5
44B
330
1F
100
AcDbEntity
  8
0
100
AcDbLine
 10
0.0527394645764754
 20
0.0188741096820069
 30
0.0
 11
0.0528141873806045
 21
0.0188910017961735
 31
0.0
  0
LINE
  5
44C
330
1F
100
AcDbEntity
  8
0
100
AcDbLine
 10
0.0487145997035579
 20
0.0224338126893473
 30
0.0
 11
0.04850825599402
 21
0.0224361923016534
 31
0.0
  0
LINE
  5
44D
330
1F
100
AcDbEntity
  8
0
100
AcDbLine
 10
0.0569307310570612
 20
0.0216625997974342
 30
0.0
 11
0.0567854623227642
 21
0.0216999584402275
 31
0.0
  0
LINE
  5
44E
330
1F
100
AcDbEntity
  8
0
100
AcDbLine
 10
0.0586984780534432
 20
0.0206485990959537
 30
0.0
 11
0.0586984780534432
 21
0.0206922115998236
 31
0.0
  0
LINE
  5
44F
330
1F
100
AcDbEntity
  8
0
100
AcDbLine
 10
0.0567883687485201
 20
0.0198776518735257
 30
0.0
 11
0.0569307543035035
 21
0.0199104319230844
 31
0.0
  0
LINE
  5
450
330
1F
100
AcDbEntity
  8
0
100
AcDbLine
 10
0.0406647416680381
 20
0.0188910017961735
 30
0.0
 11
0.0407394644721673
 21
0.0188741096820069
 31
0.0
  0
LINE
  5
451
330
1F
100
AcDbEntity
  8
0
100
AcDbLine
 10
0.0292394644498155
 20
0.033774109516604
 30
0.0
 11
0.0294065791099594
 21
0.0215966114367676
 31
0.0
  0
LINE
  5
452
330
1F
100
AcDbEntity
  8
0
100
AcDbLine
 10
0.0640723499386833
 20
0.0215966114367676
 30
0.0
 11
0.0642394645988272
 21
0.033774109516604
 31
0.0
  0
LINE
  5
453
330
1F
100
AcDbEntity
  8
0
100
AcDbLine
 10
0.0641394647687004
 20
0.0188741096820069
 30
0.0
 11
0.0557215939193294
 21
0.0196790471419851
 31
0.0
  0
LINE
  5
454
330
1F
100
AcDbEntity
  8
0
100
AcDbLine
 10
0.0350881627678201
 20
0.0211861888272486
 30
0.0
 11
0.0355192691936419
 21
0.0213787307305534
 31
0.0
  0
LINE
  5
455
330
1F
100
AcDbEntity
  8
0
100
AcDbLine
 10
0.0293394642799423
 20
0.0188741096820069
 30
0.0
 11
0.0377573351293132
 21
0.0196790471419851
 31
0.0
  0
LINE
  5
456
330
1F
100
AcDbEntity
  8
0
100
AcDbLine
 10
0.028399544203623
 20
0.0493741095143688
 30
0.0
 11
0.0286182858863692
 21
0.0513741095143688
 31
0.0
  0
LINE
  5
457
330
1F
100
AcDbEntity
  8
0
100
AcDbLine
 10
0.0286182858863692
 20
0.0513741095143688
 30
0.0
 11
0.0286344929826049
 21
0.0513979564287012
 31
0.0
  0
LINE
  5
458
330
1F
100
AcDbEntity
  8
0
100
AcDbLine
 10
0.0279808727261622
 20
0.0513741095143688
 30
0.0
 11
0.0286344929826049
 21
0.0513979564287012
 31
0.0
  0
LINE
  5
459
330
1F
100
AcDbEntity
  8
0
100
AcDbLine
 10
0.0286344929826049
 20
0.0513979564287012
 30
0.0
 11
0.0291226448357919
 21
0.0513741095143688
 31
0.0
  0
LINE
  5
45A
330
1F
100
AcDbEntity
  8
0
100
AcDbLine
 10
0.0357303773687699
 20
0.0513741095143688
 30
0.0
 11
0.0365155543118046
 21
0.0513741095143688
 31
0.0
  0
LINE
  5
45B
330
1F
100
AcDbEntity
  8
0
100
AcDbLine
 10
-0.0746661462365142
 20
0.0742741095702482
 30
0.0
 11
-0.0722620636700145
 21
0.0742741095702482
 31
0.0
  0
LINE
  5
45C
330
1F
100
AcDbEntity
  8
0
100
AcDbLine
 10
-0.1559799037655265
 20
0.0179695746467374
 30
0.0
 11
-0.1553885425197742
 21
0.0181531615127822
 31
0.0
  0
LINE
  5
45D
330
1F
100
AcDbEntity
  8
0
100
AcDbLine
 10
-0.1547042959996889
 20
0.0191526671176988
 30
0.0
 11
-0.153622010664382
 21
0.0200103895648502
 31
0.0
  0
LINE
  5
45E
330
1F
100
AcDbEntity
  8
0
100
AcDbLine
 10
-0.1538895455516613
 20
0.0200479891430589
 30
0.0
 11
-0.153622010664382
 21
0.0200103895648502
 31
0.0
  0
LINE
  5
45F
330
1F
100
AcDbEntity
  8
0
100
AcDbLine
 10
-0.1663446875575745
 20
0.021798445282493
 30
0.0
 11
-0.1662198740960639
 21
0.0217809038935725
 31
0.0
  0
LINE
  5
460
330
1F
100
AcDbEntity
  8
0
100
AcDbLine
 10
-0.1520689596988167
 20
0.0197921224751425
 30
0.0
 11
-0.1519441462236516
 21
0.0197745811833782
 31
0.0
  0
LINE
  5
461
330
1F
100
AcDbEntity
  8
0
100
AcDbLine
 10
-0.1634065165925939
 20
0.0338119831460846
 30
0.0
 11
-0.1629984408427198
 21
0.033774109516604
 31
0.0
  0
LINE
  5
462
330
1F
100
AcDbEntity
  8
0
100
AcDbLine
 10
-0.1634831309128721
 20
0.0338190830837322
 30
0.0
 11
-0.1634065165925939
 21
0.0338119831460846
 31
0.0
  0
LINE
  5
463
330
1F
100
AcDbEntity
  8
0
100
AcDbLine
 10
-0.0746661463562567
 20
0.0188741096820069
 30
0.0
 11
-0.0746661462365142
 21
-0.0756258904606717
 31
0.0
  0
LINE
  5
464
330
1F
100
AcDbEntity
  8
0
100
AcDbLine
 10
-0.0746661462365142
 20
0.0338419100145493
 30
0.0
 11
-0.0746661462365142
 21
0.0338741093467307
 31
0.0
  0
LINE
  5
465
330
1F
100
AcDbEntity
  8
0
100
AcDbLine
 10
-0.0746661462365142
 20
0.0338741093467307
 30
0.0
 11
-0.0746661462365142
 21
0.0493741095143688
 31
0.0
  0
LINE
  5
466
330
1F
100
AcDbEntity
  8
0
100
AcDbLine
 10
-0.0716121851230099
 20
0.0493741095143688
 30
0.0
 11
-0.0715529784941051
 21
0.0501017409566443
 31
0.0
  0
LINE
  5
467
330
1F
100
AcDbEntity
  8
0
100
AcDbLine
 10
-0.0297211451046884
 20
0.0645262480181028
 30
0.0
 11
-0.0296880197251291
 21
0.0645905927746409
 31
0.0
  0
LINE
  5
468
330
1F
100
AcDbEntity
  8
0
100
AcDbLine
 10
-0.0297211451046884
 20
0.0645262480181028
 30
0.0
 11
-0.0297211451046884
 21
0.0645708705057242
 31
0.0
  0
LINE
  5
469
330
1F
100
AcDbEntity
  8
0
100
AcDbLine
 10
-0.0297211451046884
 20
0.0645708705057242
 30
0.0
 11
-0.0296880197251291
 21
0.0646293727556096
 31
0.0
  0
LINE
  5
46A
330
1F
100
AcDbEntity
  8
0
100
AcDbLine
 10
-0.0297211451046884
 20
0.0645708705057242
 30
0.0
 11
-0.0297211451046884
 21
0.0646178008397893
 31
0.0
  0
LINE
  5
46B
330
1F
100
AcDbEntity
  8
0
100
AcDbLine
 10
-0.0297211451046884
 20
0.0646178008397893
 30
0.0
 11
-0.0296880197251291
 21
0.0646755889544349
 31
0.0
  0
LINE
  5
46C
330
1F
100
AcDbEntity
  8
0
100
AcDbLine
 10
-0.0297211451046884
 20
0.0646666818144351
 30
0.0
 11
-0.0296880197251291
 21
0.0647010545004943
 31
0.0
  0
LINE
  5
46D
330
1F
100
AcDbEntity
  8
0
100
AcDbLine
 10
-0.0297211451046884
 20
0.0651304181889483
 30
0.0
 11
-0.0297211451046884
 21
0.0650815372143026
 31
0.0
  0
LINE
  5
46E
330
1F
100
AcDbEntity
  8
0
100
AcDbLine
 10
-0.0297211451046884
 20
0.0651773485230134
 30
0.0
 11
-0.0297211451046884
 21
0.0651304181889483
 31
0.0
  0
LINE
  5
46F
330
1F
100
AcDbEntity
  8
0
100
AcDbLine
 10
-0.0296880197251291
 20
0.0652202195421179
 30
0.0
 11
-0.0297211451046884
 21
0.0651773485230134
 31
0.0
  0
LINE
  5
470
330
1F
100
AcDbEntity
  8
0
100
AcDbLine
 10
-0.0297211451046884
 20
0.0651773485230134
 30
0.0
 11
-0.0297000553870617
 21
0.0651106781167269
 31
0.0
  0
LINE
  5
471
330
1F
100
AcDbEntity
  8
0
100
AcDbLine
 10
-0.0297211451046884
 20
0.0651773485230134
 30
0.0
 11
-0.0296880197251291
 21
0.065139245176999
 31
0.0
  0
LINE
  5
472
330
1F
100
AcDbEntity
  8
0
100
AcDbLine
 10
-0.0297000553837008
 20
0.0652454478121377
 30
0.0
 11
-0.0296880197251291
 21
0.0652202195421179
 31
0.0
  0
LINE
  5
473
330
1F
100
AcDbEntity
  8
0
100
AcDbLine
 10
-0.0296880197251291
 20
0.0652202195421179
 30
0.0
 11
-0.0296880197251291
 21
0.0651738495732044
 31
0.0
  0
LINE
  5
474
330
1F
100
AcDbEntity
  8
0
100
AcDbLine
 10
-0.030692756518435
 20
0.0666850412615322
 30
0.0
 11
-0.030666146403221
 21
0.0666417754770574
 31
0.0
  0
LINE
  5
475
330
1F
100
AcDbEntity
  8
0
100
AcDbLine
 10
-0.030666146403221
 20
0.0666417754770574
 30
0.0
 11
-0.0307024013052703
 21
0.0665376568737758
 31
0.0
  0
LINE
  5
476
330
1F
100
AcDbEntity
  8
0
100
AcDbLine
 10
-0.0307024013052703
 20
0.0665376568737758
 30
0.0
 11
-0.030666146403221
 21
0.0664514446913583
 31
0.0
  0
LINE
  5
477
330
1F
100
AcDbEntity
  8
0
100
AcDbLine
 10
-0.0297211451046884
 20
0.0652639460683187
 30
0.0
 11
-0.0296880197251291
 21
0.0652202195421179
 31
0.0
  0
LINE
  5
478
330
1F
100
AcDbEntity
  8
0
100
AcDbLine
 10
-0.0297211451046884
 20
0.0652219710106348
 30
0.0
 11
-0.0297211451046884
 21
0.0651773485230134
 31
0.0
  0
LINE
  5
479
330
1F
100
AcDbEntity
  8
0
100
AcDbLine
 10
-0.0297211451046884
 20
0.0650815372143026
 30
0.0
 11
-0.0296880197251291
 21
0.0650471645282434
 31
0.0
  0
LINE
  5
47A
330
1F
100
AcDbEntity
  8
0
100
AcDbLine
 10
-0.0297211451046884
 20
0.0650815372143026
 30
0.0
 11
-0.0297211451046884
 21
0.0650310775751333
 31
0.0
  0
LINE
  5
47B
330
1F
100
AcDbEntity
  8
0
100
AcDbLine
 10
-0.0297211451046884
 20
0.0647687957104264
 30
0.0
 11
-0.0297211451046884
 21
0.0648212514721874
 31
0.0
  0
LINE
  5
47C
330
1F
100
AcDbEntity
  8
0
100
AcDbLine
 10
-0.0297211451046884
 20
0.0647171414536043
 30
0.0
 11
-0.0297211451046884
 21
0.0647687957104264
 31
0.0
  0
LINE
  5
47D
330
1F
100
AcDbEntity
  8
0
100
AcDbLine
 10
-0.0297211451046884
 20
0.0646666818144351
 30
0.0
 11
-0.0297211451046884
 21
0.0647171414536043
 31
0.0
  0
LINE
  5
47E
330
1F
100
AcDbEntity
  8
0
100
AcDbLine
 10
-0.0297211451046884
 20
0.0647171414536043
 30
0.0
 11
-0.0296880197251291
 21
0.0647557329145112
 31
0.0
  0
LINE
  5
47F
330
1F
100
AcDbEntity
  8
0
100
AcDbLine
 10
-0.0297211451046884
 20
0.0646178008397893
 30
0.0
 11
-0.0297211451046884
 21
0.0646666818144351
 31
0.0
  0
LINE
  5
480
330
1F
100
AcDbEntity
  8
0
100
AcDbLine
 10
-0.0297211451046884
 20
0.0646666818144351
 30
0.0
 11
-0.0296880197251291
 21
0.0647278370967453
 31
0.0
  0
LINE
  5
481
330
1F
100
AcDbEntity
  8
0
100
AcDbLine
 10
-0.0297211451046884
 20
0.064484272960419
 30
0.0
 11
-0.0297211451046884
 21
0.0645262480181028
 31
0.0
  0
LINE
  5
482
330
1F
100
AcDbEntity
  8
0
100
AcDbLine
 10
-0.030666146403221
 20
0.06212410952927
 30
0.0
 11
-0.0306661464749328
 21
0.0616328781995309
 31
0.0
  0
LINE
  5
483
330
1F
100
AcDbEntity
  8
0
100
AcDbLine
 10
-0.030666146403221
 20
0.06212410952927
 30
0.0
 11
-0.0307062846152536
 21
0.0616141614097488
 31
0.0
  0
LINE
  5
484
330
1F
100
AcDbEntity
  8
0
100
AcDbLine
 10
-0.0308265518872491
 20
0.0792741086858643
 30
0.0
 11
-0.0307673520173292
 21
0.0669741094394905
 31
0.0
  0
LINE
  5
485
330
1F
100
AcDbEntity
  8
0
100
AcDbLine
 10
0.1367394647478388
 20
-0.0115994800822742
 30
0.0
 11
0.1367394647478388
 21
0.0288180916809898
 31
0.0
  0
LINE
  5
486
330
1F
100
AcDbEntity
  8
0
100
AcDbLine
 10
0.1367394647478388
 20
0.0288180916809898
 30
0.0
 11
0.1367394647478388
 21
0.0484005176452987
 31
0.0
  0
LINE
  5
487
330
1F
100
AcDbEntity
  8
0
100
AcDbLine
 10
0.1415394645101652
 20
0.0534005199177258
 30
0.0
 11
0.1407640127382503
 21
0.0533044450907104
 31
0.0
  0
LINE
  5
488
330
1F
100
AcDbEntity
  8
0
100
AcDbLine
 10
0.1347292132501549
 20
0.0299798941249939
 30
0.0
 11
0.1347779001026676
 21
0.029936474310639
 31
0.0
  0
LINE
  5
489
330
1F
100
AcDbEntity
  8
0
100
AcDbLine
 10
0.1348453669726179
 20
0.0298929425505989
 30
0.0
 11
0.1349320162018778
 21
0.029848772063809
 31
0.0
  0
LINE
  5
48A
330
1F
100
AcDbEntity
  8
0
100
AcDbLine
 10
0.1641394647687004
 20
0.0349379794053358
 30
0.0
 11
0.1640804882159359
 21
0.034880914156023
 31
0.0
  0
LINE
  5
48B
330
1F
100
AcDbEntity
  8
0
100
AcDbLine
 10
0.1640804882159359
 20
0.034880914156023
 30
0.0
 11
0.1640176094007873
 21
0.0347968547693368
 31
0.0
  0
LINE
  5
48C
330
1F
100
AcDbEntity
  8
0
100
AcDbLine
 10
0.1588168891512391
 20
0.0300213644333828
 30
0.0
 11
0.1587263611052403
 21
0.0299624110232532
 31
0.0
  0
LINE
  5
48D
330
1F
100
AcDbEntity
  8
0
100
AcDbLine
 10
0.1587263611052403
 20
0.0299624110232532
 30
0.0
 11
0.1587010289459752
 21
0.029936474310639
 31
0.0
  0
LINE
  5
48E
330
1F
100
AcDbEntity
  8
0
100
AcDbLine
 10
0.1586335620760248
 20
0.0298929425505989
 30
0.0
 11
0.1585861188529037
 21
0.0298710828726422
 31
0.0
  0
LINE
  5
48F
330
1F
100
AcDbEntity
  8
0
100
AcDbLine
 10
0.1292689239430629
 20
0.0320021371993912
 30
0.0
 11
0.1292687545447872
 21
-0.0446786959372138
 31
0.0
  0
LINE
  5
490
330
1F
100
AcDbEntity
  8
0
100
AcDbLine
 10
0.1642047057776974
 20
-0.0627151881061171
 30
0.0
 11
0.1641750656709329
 21
-0.0626678569524592
 31
0.0
  0
LINE
  5
491
330
1F
100
AcDbEntity
  8
0
100
AcDbLine
 10
0.1641750656709329
 20
-0.0626678569524592
 30
0.0
 11
0.1642287804662512
 21
-0.0624164645276641
 31
0.0
  0
LINE
  5
492
330
1F
100
AcDbEntity
  8
0
100
AcDbLine
 10
0.129314359548621
 20
-0.0632132072649573
 30
0.0
 11
0.1293480269022804
 21
-0.0633083584720492
 31
0.0
  0
LINE
  5
493
330
1F
100
AcDbEntity
  8
0
100
AcDbLine
 10
0.1292394644498155
 20
-0.0619317744575118
 30
0.0
 11
0.12925021765911
 21
-0.0620546840987899
 31
0.0
  0
LINE
  5
494
330
1F
100
AcDbEntity
  8
0
100
AcDbLine
 10
0.12925021765911
 20
-0.0620546840987899
 30
0.0
 11
0.1292483865200804
 21
-0.0623398502073859
 31
0.0
  0
LINE
  5
495
330
1F
100
AcDbEntity
  8
0
100
AcDbLine
 10
0.1292742016542064
 20
-0.0623288221865907
 30
0.0
 11
0.12925021765911
 21
-0.0620546840987899
 31
0.0
  0
LINE
  5
496
330
1F
100
AcDbEntity
  8
0
100
AcDbLine
 10
0.1641750602412931
 20
-0.062866659192682
 30
0.0
 11
0.1641750591671634
 21
-0.0629059876559243
 31
0.0
  0
LINE
  5
497
330
1F
100
AcDbEntity
  8
0
100
AcDbLine
 10
0.1585476472127072
 20
0.0298460294832992
 30
0.0
 11
0.1585861188529037
 21
0.0298710828726422
 31
0.0
  0
LINE
  5
498
330
1F
100
AcDbEntity
  8
0
100
AcDbLine
 10
0.1633659548043535
 20
0.0339935837863081
 30
0.0
 11
0.1634167095322006
 21
0.0340798780440243
 31
0.0
  0
LINE
  5
499
330
1F
100
AcDbEntity
  8
0
100
AcDbLine
 10
0.1634167095322006
 20
0.0340798780440243
 30
0.0
 11
0.1635081707446838
 21
0.0341835620699432
 31
0.0
  0
LINE
  5
49A
330
1F
100
AcDbEntity
  8
0
100
AcDbLine
 10
0.165247042003207
 20
0.0365064224777811
 30
0.0
 11
0.1652562302432321
 21
0.036562049685949
 31
0.0
  0
LINE
  5
49B
330
1F
100
AcDbEntity
  8
0
100
AcDbLine
 10
0.1652562302432321
 20
0.036562049685949
 30
0.0
 11
0.16539320502995
 21
0.0367741000607561
 31
0.0
  0
LINE
  5
49C
330
1F
100
AcDbEntity
  8
0
100
AcDbLine
 10
0.1586621857692543
 20
0.029914369975726
 30
0.0
 11
0.1587010289459752
 21
0.029936474310639
 31
0.0
  0
LINE
  5
49D
330
1F
100
AcDbEntity
  8
0
100
AcDbLine
 10
0.1347779001026676
 20
0.029936474310639
 30
0.0
 11
0.1348167432793883
 21
0.0299143699757261
 31
0.0
  0
LINE
  5
49E
330
1F
100
AcDbEntity
  8
0
100
AcDbLine
 10
0.1453644645317719
 20
0.070400519981987
 30
0.0
 11
0.1454111375297681
 21
0.0703603817699545
 31
0.0
  0
LINE
  5
49F
330
1F
100
AcDbEntity
  8
0
100
AcDbLine
 10
0.1454111375297681
 20
0.0703603817699545
 30
0.0
 11
0.145577264289491
 21
0.070400519981987
 31
0.0
  0
LINE
  5
4A0
330
1F
100
AcDbEntity
  8
0
100
AcDbLine
 10
0.1466341507203789
 20
0.0713455212805196
 30
0.0
 11
0.1466866064821399
 21
0.0713455212805196
 31
0.0
  0
LINE
  5
4A1
330
1F
100
AcDbEntity
  8
0
100
AcDbLine
 10
0.1466866064821399
 20
0.0713455212805196
 30
0.0
 11
0.1467092990479752
 21
0.071378646660079
 31
0.0
  0
LINE
  5
4A2
330
1F
100
AcDbEntity
  8
0
100
AcDbLine
 10
0.1465824964635569
 20
0.0713455212805196
 30
0.0
 11
0.1466341507203789
 21
0.0713455212805196
 31
0.0
  0
LINE
  5
4A3
330
1F
100
AcDbEntity
  8
0
100
AcDbLine
 10
0.1465320368243876
 20
0.0713455212805196
 30
0.0
 11
0.1465824964635569
 21
0.0713455212805196
 31
0.0
  0
LINE
  5
4A4
330
1F
100
AcDbEntity
  8
0
100
AcDbLine
 10
0.146471431883138
 20
0.071366611001026
 30
0.0
 11
0.1465028959219633
 21
0.0713666109981463
 31
0.0
  0
LINE
  5
4A5
330
1F
100
AcDbEntity
  8
0
100
AcDbLine
 10
0.146471431883138
 20
0.071366611001026
 30
0.0
 11
0.1465320368243876
 21
0.0713455212805196
 31
0.0
  0
LINE
  5
4A6
330
1F
100
AcDbEntity
  8
0
100
AcDbLine
 10
0.1465320368243876
 20
0.0713455212805196
 30
0.0
 11
0.1465664095104468
 21
0.071378646660079
 31
0.0
  0
LINE
  5
4A7
330
1F
100
AcDbEntity
  8
0
100
AcDbLine
 10
0.1446998566772119
 20
0.0703134166848487
 30
0.0
 11
0.1446998566772119
 21
0.0702225797212071
 31
0.0
  0
LINE
  5
4A8
330
1F
100
AcDbEntity
  8
0
100
AcDbLine
 10
0.1471307985867635
 20
0.0703970386264913
 30
0.0
 11
0.1471773574686406
 21
0.070400519981987
 31
0.0
  0
LINE
  5
4A9
330
1F
100
AcDbEntity
  8
0
100
AcDbLine
 10
0.1471773574686406
 20
0.070400519981987
 30
0.0
 11
0.1472169970021379
 21
0.070400519981987
 31
0.0
  0
LINE
  5
4AA
330
1F
100
AcDbEntity
  8
0
100
AcDbLine
 10
0.1472169970021379
 20
0.070400519981987
 30
0.0
 11
0.1472916591480496
 21
0.0703919552924734
 31
0.0
  0
LINE
  5
4AB
330
1F
100
AcDbEntity
  8
0
100
AcDbLine
 10
0.1469791428190685
 20
0.070400519981987
 30
0.0
 11
0.1471307985867635
 21
0.0703970386264913
 31
0.0
  0
LINE
  5
4AC
330
1F
100
AcDbEntity
  8
0
100
AcDbLine
 10
0.1486840082017035
 20
0.070400519981987
 30
0.0
 11
0.1487790723714308
 21
0.0703608830306915
 31
0.0
  0
LINE
  5
4AD
330
1F
100
AcDbEntity
  8
0
100
AcDbLine
 10
0.1487790723714308
 20
0.0703608830306915
 30
0.0
 11
0.1488460868514405
 21
0.070400519981987
 31
0.0
  0
LINE
  5
4AE
330
1F
100
AcDbEntity
  8
0
100
AcDbLine
 10
0.1468447783282638
 20
0.0713455212805196
 30
0.0
 11
0.1467923225665028
 21
0.0713455212805196
 31
0.0
  0
LINE
  5
4AF
330
1F
100
AcDbEntity
  8
0
100
AcDbLine
 10
0.1467923225665028
 20
0.0713455212805196
 30
0.0
 11
0.1467696300006675
 21
0.071378646660079
 31
0.0
  0
LINE
  5
4B0
330
1F
100
AcDbEntity
  8
0
100
AcDbLine
 10
0.1468964325850859
 20
0.0713455212805196
 30
0.0
 11
0.1468447783282638
 21
0.0713455212805196
 31
0.0
  0
LINE
  5
4B1
330
1F
100
AcDbEntity
  8
0
100
AcDbLine
 10
0.1468578411241789
 20
0.071378646660079
 30
0.0
 11
0.1468290443900652
 21
0.071378646660079
 31
0.0
  0
LINE
  5
4B2
330
1F
100
AcDbEntity
  8
0
100
AcDbLine
 10
0.1469468922242551
 20
0.0713455212805196
 30
0.0
 11
0.1468857369419449
 21
0.071378646660079
 31
0.0
  0
LINE
  5
4B3
330
1F
100
AcDbEntity
  8
0
100
AcDbLine
 10
0.1468857369419449
 20
0.071378646660079
 30
0.0
 11
0.1468578411241789
 21
0.071378646660079
 31
0.0
  0
LINE
  5
4B4
330
1F
100
AcDbEntity
  8
0
100
AcDbLine
 10
0.1469957731989008
 20
0.0713455212805196
 30
0.0
 11
0.1469468922242551
 21
0.0713455212805196
 31
0.0
  0
LINE
  5
4B5
330
1F
100
AcDbEntity
  8
0
100
AcDbLine
 10
0.1469468922242551
 20
0.0713455212805196
 30
0.0
 11
0.1469125195381959
 21
0.071378646660079
 31
0.0
  0
LINE
  5
4B6
330
1F
100
AcDbEntity
  8
0
100
AcDbLine
 10
0.1469957731989008
 20
0.0713455212805196
 30
0.0
 11
0.1469379850842553
 21
0.071378646660079
 31
0.0
  0
LINE
  5
4B7
330
1F
100
AcDbEntity
  8
0
100
AcDbLine
 10
0.1470873260205873
 20
0.0713455212805196
 30
0.0
 11
0.1470531467440334
 21
0.071378646660079
 31
0.0
  0
LINE
  5
4B8
330
1F
100
AcDbEntity
  8
0
100
AcDbLine
 10
0.1471293010782712
 20
0.0713455212805196
 30
0.0
 11
0.1470803163630219
 21
0.071378646660079
 31
0.0
  0
LINE
  5
4B9
330
1F
100
AcDbEntity
  8
0
100
AcDbLine
 10
0.1302841631778208
 20
0.0338223948527764
 30
0.0
 11
0.1307524874789083
 21
0.033301633844346
 31
0.0
  0
LINE
  5
4BA
330
1F
100
AcDbEntity
  8
0
100
AcDbLine
 10
0.1294214281170891
 20
0.034832704494714
 30
0.0
 11
0.1300443516719679
 21
0.0340852528247995
 31
0.0
  0
LINE
  5
4BB
330
1F
100
AcDbEntity
  8
0
100
AcDbLine
 10
0.1286338197916077
 20
0.0359030958814614
 30
0.0
 11
0.1292414928703831
 21
0.0350655672711265
 31
0.0
  0
LINE
  5
4BC
330
1F
100
AcDbEntity
  8
0
100
AcDbLine
 10
0.1279122757642792
 20
0.0370190885467522
 30
0.0
 11
0.128167494480034
 21
0.0366243486500312
 31
0.0
  0
LINE
  5
4BD
330
1F
100
AcDbEntity
  8
0
100
AcDbLine
 10
0.1266776679932402
 20
0.0393714380068772
 30
0.0
 11
0.1267154807136003
 21
0.0392937781160869
 31
0.0
  0
LINE
  5
4BE
330
1F
100
AcDbEntity
  8
0
100
AcDbLine
 10
0.1253787449478434
 20
0.0431355756325715
 30
0.0
 11
0.1256012525772715
 21
0.0423374005888238
 31
0.0
  0
LINE
  5
4BF
330
1F
100
AcDbEntity
  8
0
100
AcDbLine
 10
0.124899870055847
 20
0.0457487131087177
 30
0.0
 11
0.1249550630350103
 21
0.0453860711072275
 31
0.0
  0
LINE
  5
4C0
330
1F
100
AcDbEntity
  8
0
100
AcDbLine
 10
0.1684842501955422
 20
0.0516752621952066
 30
0.0
 11
0.1683791021733807
 21
0.0523661306677454
 31
0.0
  0
LINE
  5
4C1
330
1F
100
AcDbEntity
  8
0
100
AcDbLine
 10
0.1678155829511885
 20
0.0546863801389287
 30
0.0
 11
0.1677433236419485
 21
0.0549455873286419
 31
0.0
  0
LINE
  5
4C2
330
1F
100
AcDbEntity
  8
0
100
AcDbLine
 10
0.1667173013537067
 20
0.0576020387665729
 30
0.0
 11
0.166219497370653
 21
0.0586244302420013
 31
0.0
  0
LINE
  5
4C3
330
1F
100
AcDbEntity
  8
0
100
AcDbLine
 10
0.1651600904288119
 20
0.0604107713036511
 30
0.0
 11
0.164845109257035
 21
0.0608979441775077
 31
0.0
  0
LINE
  5
4C4
330
1F
100
AcDbEntity
  8
0
100
AcDbLine
 10
0.1610547317290062
 20
0.0650956328818382
 30
0.0
 11
0.1603072800590918
 21
0.0657185564367168
 31
0.0
  0
LINE
  5
4C5
330
1F
100
AcDbEntity
  8
0
100
AcDbLine
 10
0.1585156359037747
 20
0.0669724900737719
 30
0.0
 11
0.1581208960070537
 21
0.0672277087895267
 31
0.0
  0
LINE
  5
4C6
330
1F
100
AcDbEntity
  8
0
100
AcDbLine
 10
0.1558462064377188
 20
0.0684245038402057
 30
0.0
 11
0.1557685465469287
 21
0.0684623165605657
 31
0.0
  0
LINE
  5
4C7
330
1F
100
AcDbEntity
  8
0
100
AcDbLine
 10
0.1528025839649821
 20
0.0695387319765343
 30
0.0
 11
0.1520044089212344
 21
0.0697612396059625
 31
0.0
  0
LINE
  5
4C8
330
1F
100
AcDbEntity
  8
0
100
AcDbLine
 10
0.1497539134465784
 20
0.0701849215187956
 30
0.0
 11
0.1493912714450882
 21
0.0702401144979589
 31
0.0
  0
LINE
  5
4C9
330
1F
100
AcDbEntity
  8
0
100
AcDbLine
 10
0.1434647223585992
 20
0.0701453057007054
 30
0.0
 11
0.1427738538860605
 21
0.0700401576785438
 31
0.0
  0
LINE
  5
4CA
330
1F
100
AcDbEntity
  8
0
100
AcDbLine
 10
0.1404536044148774
 20
0.0694766384563518
 30
0.0
 11
0.140194397225164
 21
0.0694043791471117
 31
0.0
  0
LINE
  5
4CB
330
1F
100
AcDbEntity
  8
0
100
AcDbLine
 10
0.1375379457872327
 20
0.0683783568588697
 30
0.0
 11
0.1365155543118046
 21
0.0678805528758161
 31
0.0
  0
LINE
  5
4CC
330
1F
100
AcDbEntity
  8
0
100
AcDbLine
 10
0.1347292132501547
 20
0.066821145933975
 30
0.0
 11
0.1342420403762982
 21
0.0665061647621982
 31
0.0
  0
LINE
  5
4CD
330
1F
100
AcDbEntity
  8
0
100
AcDbLine
 10
0.1300443516719679
 20
0.0627157872341695
 30
0.0
 11
0.1294214281170891
 21
0.061968335564255
 31
0.0
  0
LINE
  5
4CE
330
1F
100
AcDbEntity
  8
0
100
AcDbLine
 10
0.128167494480034
 20
0.0601766914089379
 30
0.0
 11
0.1279122757642792
 21
0.0597819515122168
 31
0.0
  0
LINE
  5
4CF
330
1F
100
AcDbEntity
  8
0
100
AcDbLine
 10
0.1267154807136003
 20
0.0575072619428821
 30
0.0
 11
0.1266776679932402
 21
0.0574296020520918
 31
0.0
  0
LINE
  5
4D0
330
1F
100
AcDbEntity
  8
0
100
AcDbLine
 10
0.1256012525772715
 20
0.0544636394701452
 30
0.0
 11
0.1253787449478434
 21
0.0536654644263976
 31
0.0
  0
LINE
  5
4D1
330
1F
100
AcDbEntity
  8
0
100
AcDbLine
 10
0.1249550630350103
 20
0.0514149689517416
 30
0.0
 11
0.124899870055847
 21
0.0510523269502514
 31
0.0
  0
LINE
  5
4D2
330
1F
100
AcDbEntity
  8
0
100
AcDbLine
 10
0.1440997112459765
 20
0.0701408448247307
 30
0.0
 11
0.1446998566772119
 21
0.0702225797212071
 31
0.0
  0
LINE
  5
4D3
330
1F
100
AcDbEntity
  8
0
100
AcDbLine
 10
0.1446998566772119
 20
0.0702225797212071
 30
0.0
 11
0.1454171754104347
 21
0.0702605644790523
 31
0.0
  0
LINE
  5
4D4
330
1F
100
AcDbEntity
  8
0
100
AcDbLine
 10
0.1629823456013066
 20
0.0335874663792778
 30
0.0
 11
0.1631438062418518
 21
0.0337714352238063
 31
0.0
  0
LINE
  5
4D5
330
1F
100
AcDbEntity
  8
0
100
AcDbLine
 10
0.1671526455364219
 20
0.0402499792641889
 30
0.0
 11
0.1667735393076465
 21
0.0393253923859884
 31
0.0
  0
LINE
  5
4D6
330
1F
100
AcDbEntity
  8
0
100
AcDbLine
 10
0.1677405688597433
 20
0.0419135393767652
 30
0.0
 11
0.1674716996877716
 21
0.0410604338711195
 31
0.0
  0
LINE
  5
4D7
330
1F
100
AcDbEntity
  8
0
100
AcDbLine
 10
0.168513937264929
 20
0.0453933551009287
 30
0.0
 11
0.1685328843175009
 21
0.0455121630330071
 31
0.0
  0
LINE
  5
4D8
330
1F
100
AcDbEntity
  8
0
100
AcDbLine
 10
0.1684951355969365
 20
0.0451758172978276
 30
0.0
 11
0.1684145240961836
 21
0.0446767465183716
 31
0.0
  0
LINE
  5
4D9
330
1F
100
AcDbEntity
  8
0
100
AcDbLine
 10
0.1447619243482271
 20
0.0703112095971396
 30
0.0
 11
0.1446998566772119
 21
0.0703134166848487
 31
0.0
  0
LINE
  5
4DA
330
1F
100
AcDbEntity
  8
0
100
AcDbLine
 10
0.1487790723714308
 20
0.0703052101360035
 30
0.0
 11
0.148716356738487
 21
0.0703112822143562
 31
0.0
  0
LINE
  5
4DB
330
1F
100
AcDbEntity
  8
0
100
AcDbLine
 10
0.1365394641562627
 20
0.0290208912072771
 30
0.0
 11
0.1365394641562627
 21
0.04815052001761
 31
0.0
  0
LINE
  5
4DC
330
1F
100
AcDbEntity
  8
0
100
AcDbLine
 10
0.1365394641562627
 20
0.04815052001761
 30
0.0
 11
0.1365394641562627
 21
0.0484005200294845
 31
0.0
  0
LINE
  5
4DD
330
1F
100
AcDbEntity
  8
0
100
AcDbLine
 10
0.1393700458958075
 20
0.0529053645758026
 30
0.0
 11
0.1398260475053714
 21
0.0530199148682945
 31
0.0
  0
LINE
  5
4DE
330
1F
100
AcDbEntity
  8
0
100
AcDbLine
 10
0.1398260475053714
 20
0.0530199148682945
 30
0.0
 11
0.1404268599964009
 21
0.053275159708231
 31
0.0
  0
LINE
  5
4DF
330
1F
100
AcDbEntity
  8
0
100
AcDbLine
 10
0.1404268599964009
 20
0.053275159708231
 30
0.0
 11
0.1407640127382503
 21
0.0533044450907104
 31
0.0
  0
LINE
  5
4E0
330
1F
100
AcDbEntity
  8
0
100
AcDbLine
 10
0.128141485533128
 20
0.0332309712431883
 30
0.0
 11
0.1292414294342276
 21
0.0320321044137211
 31
0.0
  0
LINE
  5
4E1
330
1F
100
AcDbEntity
  8
0
100
AcDbLine
 10
0.1292414294342276
 20
0.0320321044137211
 30
0.0
 11
0.1292689239430629
 21
0.0320021371993912
 31
0.0
  0
LINE
  5
4E2
330
1F
100
AcDbEntity
  8
0
100
AcDbLine
 10
0.164123093167748
 20
-0.0632619048825075
 30
0.0
 11
0.1641645694714512
 21
-0.0632132074907827
 31
0.0
  0
LINE
  5
4E3
330
1F
100
AcDbEntity
  8
0
100
AcDbLine
 10
0.162598815086417
 20
0.0331589042475633
 30
0.0
 11
0.1629823456013066
 21
0.0335874663792778
 31
0.0
  0
LINE
  5
4E4
330
1F
100
AcDbEntity
  8
0
100
AcDbLine
 10
0.1635081707446838
 20
0.0341835620699432
 30
0.0
 11
0.1638356505810545
 21
0.0345615145368569
 31
0.0
  0
LINE
  5
4E5
330
1F
100
AcDbEntity
  8
0
100
AcDbLine
 10
0.1642394645988272
 20
0.0350682284035112
 30
0.0
 11
0.1646739173979831
 21
0.0356845855824037
 31
0.0
  0
LINE
  5
4E6
330
1F
100
AcDbEntity
  8
0
100
AcDbLine
 10
0.16539320502995
 20
0.0367741000607561
 30
0.0
 11
0.1659372238068223
 21
0.0376559394871858
 31
0.0
  0
LINE
  5
4E7
330
1F
100
AcDbEntity
  8
0
100
AcDbLine
 10
0.166377146355712
 20
0.0385268913703131
 30
0.0
 11
0.1667310463679056
 21
0.0392241734050755
 31
0.0
  0
LINE
  5
4E8
330
1F
100
AcDbEntity
  8
0
100
AcDbLine
 10
0.1667513682424352
 20
0.0392613901374929
 30
0.0
 11
0.1667735393076465
 21
0.0393253923859884
 31
0.0
  0
LINE
  5
4E9
330
1F
100
AcDbEntity
  8
0
100
AcDbLine
 10
0.0477486018378706
 20
0.0192278246021066
 30
0.0
 11
0.0478304075540791
 21
0.0192728268029768
 31
0.0
  0
LINE
  5
4EA
330
1F
100
AcDbEntity
  8
0
100
AcDbLine
 10
0.0543840470641182
 20
0.0199632031098684
 30
0.0
 11
0.0519157984491714
 21
0.0189500964122842
 31
0.0
  0
LINE
  5
4EB
330
1F
100
AcDbEntity
  8
0
100
AcDbLine
 10
0.0519157984491714
 20
0.0189500964122842
 30
0.0
 11
0.0514183808462645
 21
0.0187459285250018
 31
0.0
  0
LINE
  5
4EC
330
1F
100
AcDbEntity
  8
0
100
AcDbLine
 10
0.0454394645207823
 20
0.0173590330834233
 30
0.0
 11
0.0420821899452194
 21
0.0187440969194032
 31
0.0
  0
LINE
  5
4ED
330
1F
100
AcDbEntity
  8
0
100
AcDbLine
 10
0.0420821899452194
 20
0.0187440969194032
 30
0.0
 11
0.041584015780529
 21
0.0189473994299226
 31
0.0
  0
LINE
  5
4EE
330
1F
100
AcDbEntity
  8
0
100
AcDbLine
 10
0.037907325732721
 20
0.0196581724835931
 30
0.0
 11
0.0378518716386534
 21
0.0197710014252296
 31
0.0
  0
LINE
  5
4EF
330
1F
100
AcDbEntity
  8
0
100
AcDbLine
 10
0.0378518716386534
 20
0.0197710014252296
 30
0.0
 11
0.0378394647418783
 21
0.0197962449542362
 31
0.0
  0
LINE
  5
4F0
330
1F
100
AcDbEntity
  8
0
100
AcDbLine
 10
0.0378394647418783
 20
0.0199449931561238
 30
0.0
 11
0.0378091073512361
 21
0.0200179207181174
 31
0.0
  0
LINE
  5
4F1
330
1F
100
AcDbEntity
  8
0
100
AcDbLine
 10
0.0556394643067644
 20
0.0207865131843575
 30
0.0
 11
0.0556698216974066
 21
0.020628989117999
 31
0.0
  0
LINE
  5
4F2
330
1F
100
AcDbEntity
  8
0
100
AcDbLine
 10
0.0587394646286295
 20
0.0207865131843575
 30
0.0
 11
0.0586984780534432
 21
0.0206922115998236
 31
0.0
  0
LINE
  5
4F3
330
1F
100
AcDbEntity
  8
0
100
AcDbLine
 10
0.0586984780534432
 20
0.0206485990959537
 30
0.0
 11
0.0586684029694703
 21
0.0206230150870449
 31
0.0
  0
LINE
  5
4F4
330
1F
100
AcDbEntity
  8
0
100
AcDbLine
 10
0.0586684029694703
 20
0.0206230150870449
 30
0.0
 11
0.0586519705980346
 21
0.0205852076182093
 31
0.0
  0
LINE
  5
4F5
330
1F
100
AcDbEntity
  8
0
100
AcDbLine
 10
0.0577287440105603
 20
0.0201156506839526
 30
0.0
 11
0.057599801677747
 21
0.0200830167737872
 31
0.0
  0
LINE
  5
4F6
330
1F
100
AcDbEntity
  8
0
100
AcDbLine
 10
0.057599801677747
 20
0.0200830167737872
 30
0.0
 11
0.0573649368166254
 21
0.0200103895648502
 31
0.0
  0
LINE
  5
4F7
330
1F
100
AcDbEntity
  8
0
100
AcDbLine
 10
0.0368636584758089
 20
0.0198378011542714
 30
0.0
 11
0.036767086138513
 21
0.0198600340650439
 31
0.0
  0
LINE
  5
4F8
330
1F
100
AcDbEntity
  8
0
100
AcDbLine
 10
0.036767086138513
 20
0.0198600340650439
 30
0.0
 11
0.0366934667258785
 21
0.0198730672302974
 31
0.0
  0
LINE
  5
4F9
330
1F
100
AcDbEntity
  8
0
100
AcDbLine
 10
0.0366934667258785
 20
0.0198730672302974
 30
0.0
 11
0.036548175309856
 21
0.0199104317778564
 31
0.0
  0
LINE
  5
4FA
330
1F
100
AcDbEntity
  8
0
100
AcDbLine
 10
0.036548175309856
 20
0.0199104317778564
 30
0.0
 11
0.0362798579885886
 21
0.0199722038673542
 31
0.0
  0
LINE
  5
4FB
330
1F
100
AcDbEntity
  8
0
100
AcDbLine
 10
0.0361139922320173
 20
0.0200103895648502
 30
0.0
 11
0.0358892339378816
 21
0.0200798915223186
 31
0.0
  0
LINE
  5
4FC
330
1F
100
AcDbEntity
  8
0
100
AcDbLine
 10
0.0358892339378816
 20
0.0200798915223186
 30
0.0
 11
0.0357501850380824
 21
0.0201156506839526
 31
0.0
  0
LINE
  5
4FD
330
1F
100
AcDbEntity
  8
0
100
AcDbLine
 10
0.034826958450608
 20
0.0205852076182093
 30
0.0
 11
0.0348105260791724
 21
0.0206230150870449
 31
0.0
  0
LINE
  5
4FE
330
1F
100
AcDbEntity
  8
0
100
AcDbLine
 10
0.0348105260791724
 20
0.0206230150870449
 30
0.0
 11
0.0347804509951994
 21
0.0206485990959537
 31
0.0
  0
LINE
  5
4FF
330
1F
100
AcDbEntity
  8
0
100
AcDbLine
 10
0.0347804509951994
 20
0.0206485990959537
 30
0.0
 11
0.0347804509951994
 21
0.0206922115998237
 31
0.0
  0
LINE
  5
500
330
1F
100
AcDbEntity
  8
0
100
AcDbLine
 10
0.0347804509951994
 20
0.0206922115998237
 30
0.0
 11
0.0347394644200132
 21
0.0207865131843575
 31
0.0
  0
LINE
  5
501
330
1F
100
AcDbEntity
  8
0
100
AcDbLine
 10
0.0520459785043523
 20
0.0220458101949921
 30
0.0
 11
0.0518719194374309
 21
0.0220590480372482
 31
0.0
  0
LINE
  5
502
330
1F
100
AcDbEntity
  8
0
100
AcDbLine
 10
0.0518719194374309
 20
0.0220590480372482
 30
0.0
 11
0.051272662255101
 21
0.0221046237845554
 31
0.0
  0
LINE
  5
503
330
1F
100
AcDbEntity
  8
0
100
AcDbLine
 10
0.0422062667935417
 20
0.0221046237845554
 30
0.0
 11
0.0416070096112118
 21
0.0220590480372482
 31
0.0
  0
LINE
  5
504
330
1F
100
AcDbEntity
  8
0
100
AcDbLine
 10
0.0416070096112118
 20
0.0220590480372482
 30
0.0
 11
0.0414329505442903
 21
0.0220458101949921
 31
0.0
  0
LINE
  5
505
330
1F
100
AcDbEntity
  8
0
100
AcDbLine
 10
0.0378091073512361
 20
0.0202816210895087
 30
0.0
 11
0.0378091073512361
 21
0.0202113779936749
 31
0.0
  0
LINE
  5
506
330
1F
100
AcDbEntity
  8
0
100
AcDbLine
 10
0.0378091073512361
 20
0.0202113779936749
 30
0.0
 11
0.0378091073512361
 21
0.0200179207181174
 31
0.0
  0
LINE
  5
507
330
1F
100
AcDbEntity
  8
0
100
AcDbLine
 10
0.0347394644200132
 20
0.0207865131843575
 30
0.0
 11
0.0347804509951994
 21
0.0208808147688913
 31
0.0
  0
LINE
  5
508
330
1F
100
AcDbEntity
  8
0
100
AcDbLine
 10
0.0347804509951994
 20
0.0208808147688913
 30
0.0
 11
0.0347804509951994
 21
0.0209244270402325
 31
0.0
  0
LINE
  5
509
330
1F
100
AcDbEntity
  8
0
100
AcDbLine
 10
0.0348079856762891
 20
0.0209441663430248
 30
0.0
 11
0.034826958450608
 21
0.0209878187505057
 31
0.0
  0
LINE
  5
50A
330
1F
100
AcDbEntity
  8
0
100
AcDbLine
 10
0.0362798579885886
 20
0.0216008225013608
 30
0.0
 11
0.0365481985562672
 21
0.021662599942654
 31
0.0
  0
LINE
  5
50B
330
1F
100
AcDbEntity
  8
0
100
AcDbLine
 10
0.0365481985562672
 20
0.021662599942654
 30
0.0
 11
0.0366934667258785
 21
0.0216999584402275
 31
0.0
  0
LINE
  5
50C
330
1F
100
AcDbEntity
  8
0
100
AcDbLine
 10
0.0366934667258785
 20
0.0216999584402275
 30
0.0
 11
0.0367696145777201
 21
0.0217135744016596
 31
0.0
  0
LINE
  5
50D
330
1F
100
AcDbEntity
  8
0
100
AcDbLine
 10
0.0367696145777201
 20
0.0217135744016596
 30
0.0
 11
0.0368636584758089
 21
0.0217352252144436
 31
0.0
  0
LINE
  5
50E
330
1F
100
AcDbEntity
  8
0
100
AcDbLine
 10
0.0399547151205355
 20
0.0221577033004864
 30
0.0
 11
0.0408307431946624
 21
0.0222373573480834
 31
0.0
  0
LINE
  5
50F
330
1F
100
AcDbEntity
  8
0
100
AcDbLine
 10
0.0408307431946624
 20
0.0222373573480834
 30
0.0
 11
0.0408884108915255
 21
0.0222422091305534
 31
0.0
  0
LINE
  5
510
330
1F
100
AcDbEntity
  8
0
100
AcDbLine
 10
0.0427030569688136
 20
0.0223575534336221
 30
0.0
 11
0.0428534502761848
 21
0.0223661008815599
 31
0.0
  0
LINE
  5
511
330
1F
100
AcDbEntity
  8
0
100
AcDbLine
 10
0.0438676766502932
 20
0.022408061057779
 30
0.0
 11
0.0444682997498698
 21
0.022423379579965
 31
0.0
  0
LINE
  5
512
330
1F
100
AcDbEntity
  8
0
100
AcDbLine
 10
0.0444682997498698
 20
0.022423379579965
 30
0.0
 11
0.0447643293450848
 21
0.0224338126893473
 31
0.0
  0
LINE
  5
513
330
1F
100
AcDbEntity
  8
0
100
AcDbLine
 10
0.0447643293450848
 20
0.0224338126893473
 30
0.0
 11
0.0449706730546226
 21
0.0224361923016534
 31
0.0
  0
LINE
  5
514
330
1F
100
AcDbEntity
  8
0
100
AcDbLine
 10
0.0449706730546226
 20
0.0224361923016534
 30
0.0
 11
0.0452930244068877
 21
0.0224444136743326
 31
0.0
  0
LINE
  5
515
330
1F
100
AcDbEntity
  8
0
100
AcDbLine
 10
0.048185904641755
 20
0.0224444136743326
 30
0.0
 11
0.04850825599402
 21
0.0224361923016534
 31
0.0
  0
LINE
  5
516
330
1F
100
AcDbEntity
  8
0
100
AcDbLine
 10
0.0487145997035579
 20
0.0224338126893473
 30
0.0
 11
0.0490106292987727
 21
0.022423379579965
 31
0.0
  0
LINE
  5
517
330
1F
100
AcDbEntity
  8
0
100
AcDbLine
 10
0.0490106292987727
 20
0.022423379579965
 30
0.0
 11
0.0496112523983494
 21
0.022408061057779
 31
0.0
  0
LINE
  5
518
330
1F
100
AcDbEntity
  8
0
100
AcDbLine
 10
0.0509947230025456
 20
0.0223480626367769
 30
0.0
 11
0.0520459785043523
 21
0.0222623736443809
 31
0.0
  0
LINE
  5
519
330
1F
100
AcDbEntity
  8
0
100
AcDbLine
 10
0.0520459785043523
 20
0.0222623736443809
 30
0.0
 11
0.0522620290435181
 21
0.0222647084029712
 31
0.0
  0
LINE
  5
51A
330
1F
100
AcDbEntity
  8
0
100
AcDbLine
 10
0.0525905181571171
 20
0.0222422091305534
 30
0.0
 11
0.0526481860266181
 21
0.0222373573323861
 31
0.0
  0
LINE
  5
51B
330
1F
100
AcDbEntity
  8
0
100
AcDbLine
 10
0.0526481860266181
 20
0.0222373573323861
 30
0.0
 11
0.0535242140275522
 21
0.0221577032914443
 31
0.0
  0
LINE
  5
51C
330
1F
100
AcDbEntity
  8
0
100
AcDbLine
 10
0.0566152705728338
 20
0.0217352252144436
 30
0.0
 11
0.0567093143826797
 21
0.0217135744174383
 31
0.0
  0
LINE
  5
51D
330
1F
100
AcDbEntity
  8
0
100
AcDbLine
 10
0.0567093143826797
 20
0.0217135744174383
 30
0.0
 11
0.0567854623227642
 21
0.0216999584402275
 31
0.0
  0
LINE
  5
51E
330
1F
100
AcDbEntity
  8
0
100
AcDbLine
 10
0.0569307310570612
 20
0.0216625997974342
 30
0.0
 11
0.0573649368166254
 21
0.0215626368038648
 31
0.0
  0
LINE
  5
51F
330
1F
100
AcDbEntity
  8
0
100
AcDbLine
 10
0.0573649368166254
 20
0.0215626368038648
 30
0.0
 11
0.0575897008957861
 21
0.0214931330574944
 31
0.0
  0
LINE
  5
520
330
1F
100
AcDbEntity
  8
0
100
AcDbLine
 10
0.0575897008957861
 20
0.0214931330574944
 30
0.0
 11
0.0577287440105603
 21
0.0214573754522336
 31
0.0
  0
LINE
  5
521
330
1F
100
AcDbEntity
  8
0
100
AcDbLine
 10
0.0577287440105603
 20
0.0214573754522336
 30
0.0
 11
0.0578008394720071
 21
0.0214278427223773
 31
0.0
  0
LINE
  5
522
330
1F
100
AcDbEntity
  8
0
100
AcDbLine
 10
0.0578008394720071
 20
0.0214278427223773
 30
0.0
 11
0.0579596598550007
 21
0.0213787307305534
 31
0.0
  0
LINE
  5
523
330
1F
100
AcDbEntity
  8
0
100
AcDbLine
 10
0.0586984780534432
 20
0.0209244270402325
 30
0.0
 11
0.0586984780534432
 21
0.0208808147688914
 31
0.0
  0
LINE
  5
524
330
1F
100
AcDbEntity
  8
0
100
AcDbLine
 10
0.0408884108915255
 20
0.0222422091305534
 30
0.0
 11
0.0410280957735405
 21
0.0222553019005192
 31
0.0
  0
LINE
  5
525
330
1F
100
AcDbEntity
  8
0
100
AcDbLine
 10
0.0410280957735405
 20
0.0222553019005192
 30
0.0
 11
0.0411627864382491
 21
0.0222652931833453
 31
0.0
  0
LINE
  5
526
330
1F
100
AcDbEntity
  8
0
100
AcDbLine
 10
0.0428534502761848
 20
0.0223661008815599
 30
0.0
 11
0.0432964629236618
 21
0.0222425264779166
 31
0.0
  0
LINE
  5
527
330
1F
100
AcDbEntity
  8
0
100
AcDbLine
 10
0.0501800236675218
 20
0.0222422091305534
 30
0.0
 11
0.0506254787724579
 21
0.0223661008815599
 31
0.0
  0
LINE
  5
528
330
1F
100
AcDbEntity
  8
0
100
AcDbLine
 10
0.0506254787724579
 20
0.0223661008815599
 30
0.0
 11
0.050775872079829
 21
0.0223575534336221
 31
0.0
  0
LINE
  5
529
330
1F
100
AcDbEntity
  8
0
100
AcDbLine
 10
0.0475394645041116
 20
0.0222435831797718
 30
0.0
 11
0.0480394645278603
 21
0.0222365874663047
 31
0.0
  0
LINE
  5
52A
330
1F
100
AcDbEntity
  8
0
100
AcDbLine
 10
0.0525905181571171
 20
0.0222422091305534
 30
0.0
 11
0.0525653878451281
 21
0.022225927026267
 31
0.0
  0
LINE
  5
52B
330
1F
100
AcDbEntity
  8
0
100
AcDbLine
 10
0.0522620290435181
 20
0.0222079145705169
 30
0.0
 11
0.0520459785043523
 21
0.0222243143806182
 31
0.0
  0
LINE
  5
52C
330
1F
100
AcDbEntity
  8
0
100
AcDbLine
 10
0.0522620290435181
 20
0.0222647084029712
 30
0.0
 11
0.0520459785043523
 21
0.0222243143806182
 31
0.0
  0
LINE
  5
52D
330
1F
100
AcDbEntity
  8
0
100
AcDbLine
 10
0.0535768190316186
 20
0.0218955454950777
 30
0.0
 11
0.05318772177317
 21
0.0219398038524129
 31
0.0
  0
LINE
  5
52E
330
1F
100
AcDbEntity
  8
0
100
AcDbLine
 10
0.0549947031691001
 20
0.021995142871349
 30
0.0
 11
0.0549631022529006
 21
0.021995142871349
 31
0.0
  0
LINE
  5
52F
330
1F
100
AcDbEntity
  8
0
100
AcDbLine
 10
0.0549631022529006
 20
0.021995142871349
 30
0.0
 11
0.0546969360589311
 21
0.0220365840454221
 31
0.0
  0
LINE
  5
530
330
1F
100
AcDbEntity
  8
0
100
AcDbLine
 10
0.0556698216974066
 20
0.020628989117999
 30
0.0
 11
0.0566419380634353
 21
0.0206055881439421
 31
0.0
  0
LINE
  5
531
330
1F
100
AcDbEntity
  8
0
100
AcDbLine
 10
0.0566419380634353
 20
0.0206055881439421
 30
0.0
 11
0.0571586777373479
 21
0.0206055881439421
 31
0.0
  0
LINE
  5
532
330
1F
100
AcDbEntity
  8
0
100
AcDbLine
 10
0.0368248581060038
 20
0.0206055881439421
 30
0.0
 11
0.0378091073512361
 21
0.0206055881439421
 31
0.0
  0
LINE
  5
533
330
1F
100
AcDbEntity
  8
0
100
AcDbLine
 10
0.0378091073512361
 20
0.0206055881439421
 30
0.0
 11
0.0378577189873463
 21
0.0206055881439421
 31
0.0
  0
LINE
  5
534
330
1F
100
AcDbEntity
  8
0
100
AcDbLine
 10
0.0432964629236618
 20
0.0222425264779166
 30
0.0
 11
0.0443297909955756
 21
0.0222088288464851
 31
0.0
  0
LINE
  5
535
330
1F
100
AcDbEntity
  8
0
100
AcDbLine
 10
0.0470570499169436
 20
0.0192564181454966
 30
0.0
 11
0.0471578115591998
 21
0.0192278246021066
 31
0.0
  0
LINE
  5
536
330
1F
100
AcDbEntity
  8
0
100
AcDbLine
 10
0.0472809809576283
 20
0.0192606195808345
 30
0.0
 11
0.0476709753248002
 21
0.019267936726822
 31
0.0
  0
LINE
  5
537
330
1F
100
AcDbEntity
  8
0
100
AcDbLine
 10
0.0476709753248002
 20
0.019267936726822
 30
0.0
 11
0.0477030388302007
 21
0.0192644464337096
 31
0.0
  0
LINE
  5
538
330
1F
100
AcDbEntity
  8
0
100
AcDbLine
 10
0.0557215939193294
 20
0.0218939792267299
 30
0.0
 11
0.0555681510745809
 21
0.0219176252897215
 31
0.0
  0
LINE
  5
539
330
1F
100
AcDbEntity
  8
0
100
AcDbLine
 10
0.0586709433723536
 20
0.0209441663430248
 30
0.0
 11
0.0586519705980346
 21
0.0209878187505057
 31
0.0
  0
LINE
  5
53A
330
1F
100
AcDbEntity
  8
0
100
AcDbLine
 10
0.0534268553304675
 20
0.0188741096820069
 30
0.0
 11
0.0534553727052436
 21
0.0188741096820069
 31
0.0
  0
LINE
  5
53B
330
1F
100
AcDbEntity
  8
0
100
AcDbLine
 10
0.0357501850380824
 20
0.0214573754522336
 30
0.0
 11
0.0358892281528567
 21
0.0214931330574944
 31
0.0
  0
LINE
  5
53C
330
1F
100
AcDbEntity
  8
0
100
AcDbLine
 10
0.0358892281528567
 20
0.0214931330574944
 30
0.0
 11
0.0361139922320173
 21
0.0215626368038648
 31
0.0
  0
LINE
  5
53D
330
1F
100
AcDbEntity
  8
0
100
AcDbLine
 10
0.0361139922320173
 20
0.0215626368038648
 30
0.0
 11
0.0362798579885886
 21
0.0216008225013608
 31
0.0
  0
LINE
  5
53E
330
1F
100
AcDbEntity
  8
0
100
AcDbLine
 10
0.0355424093141511
 20
0.0493741095143688
 30
0.0
 11
0.0355892174848612
 21
0.0493741095143688
 31
0.0
  0
LINE
  5
53F
330
1F
100
AcDbEntity
  8
0
100
AcDbLine
 10
0.0413512201604484
 20
0.0493741095143688
 30
0.0
 11
0.0414670591428994
 21
0.0493741095143688
 31
0.0
  0
LINE
  5
540
330
1F
100
AcDbEntity
  8
0
100
AcDbLine
 10
0.0458183893756916
 20
0.0493741095143688
 30
0.0
 11
0.0461161122247589
 21
0.0493741095143688
 31
0.0
  0
LINE
  5
541
330
1F
100
AcDbEntity
  8
0
100
AcDbLine
 10
0.047728803002013
 20
0.0493741095143688
 30
0.0
 11
0.0480260377070028
 21
0.0493741095143688
 31
0.0
  0
LINE
  5
542
330
1F
100
AcDbEntity
  8
0
100
AcDbLine
 10
0.0523627093963972
 20
0.0493741095143688
 30
0.0
 11
0.0524779683015082
 21
0.0493741095143688
 31
0.0
  0
LINE
  5
543
330
1F
100
AcDbEntity
  8
0
100
AcDbLine
 10
0.0581842287869969
 20
0.0493741095143688
 30
0.0
 11
0.0582303138630943
 21
0.0493741095143688
 31
0.0
  0
LINE
  5
544
330
1F
100
AcDbEntity
  8
0
100
AcDbLine
 10
0.0283075374788709
 20
0.0493741095143688
 30
0.0
 11
0.028399544203623
 21
0.0493741095143688
 31
0.0
  0
LINE
  5
545
330
1F
100
AcDbEntity
  8
0
100
AcDbLine
 10
0.0309738959666932
 20
0.0493741095143688
 30
0.0
 11
0.0311010763558618
 21
0.0493741095143688
 31
0.0
  0
LINE
  5
546
330
1F
100
AcDbEntity
  8
0
100
AcDbLine
 10
0.0311010763558618
 20
0.0493741095143688
 30
0.0
 11
0.0320725357360278
 21
0.0493741095143688
 31
0.0
  0
LINE
  5
547
330
1F
100
AcDbEntity
  8
0
100
AcDbLine
 10
0.0320725357360278
 20
0.0493741095143688
 30
0.0
 11
0.0323325282811449
 21
0.0493741095143688
 31
0.0
  0
LINE
  5
548
330
1F
100
AcDbEntity
  8
0
100
AcDbLine
 10
0.0614024053963269
 20
0.0493741095143688
 30
0.0
 11
0.0616365205140249
 21
0.0493741095143688
 31
0.0
  0
LINE
  5
549
330
1F
100
AcDbEntity
  8
0
100
AcDbLine
 10
0.0646491391306794
 20
0.0493741095143688
 30
0.0
 11
0.0647143208293123
 21
0.0493741095143688
 31
0.0
  0
LINE
  5
54A
330
1F
100
AcDbEntity
  8
0
100
AcDbLine
 10
0.0647143208293123
 20
0.0493741095143688
 30
0.0
 11
0.0651716885079423
 21
0.0493741095143688
 31
0.0
  0
LINE
  5
54B
330
1F
100
AcDbEntity
  8
0
100
AcDbLine
 10
0.0477162781583583
 20
0.0513741095143688
 30
0.0
 11
0.0477596929091348
 21
0.0513741095143688
 31
0.0
  0
LINE
  5
54C
330
1F
100
AcDbEntity
  8
0
100
AcDbLine
 10
0.0460805177035382
 20
0.0513741095143688
 30
0.0
 11
0.0461240037537058
 21
0.0513741095143688
 31
0.0
  0
LINE
  5
54D
330
1F
100
AcDbEntity
  8
0
100
AcDbLine
 10
0.0322582159762642
 20
0.0513741095143688
 30
0.0
 11
0.0322931687611357
 21
0.0513741095143688
 31
0.0
  0
LINE
  5
54E
330
1F
100
AcDbEntity
  8
0
100
AcDbLine
 10
0.0614137315336957
 20
0.0513741095143688
 30
0.0
 11
0.0614479268995707
 21
0.0513741095143688
 31
0.0
  0
LINE
  5
54F
330
1F
100
AcDbEntity
  8
0
100
AcDbLine
 10
0.0614479268995707
 20
0.0513741095143688
 30
0.0
 11
0.0624004083518821
 21
0.0513741095143688
 31
0.0
  0
LINE
  5
550
330
1F
100
AcDbEntity
  8
0
100
AcDbLine
 10
0.0649383395736845
 20
0.0513741095143688
 30
0.0
 11
0.0654980563224805
 21
0.0513741095143688
 31
0.0
  0
LINE
  5
551
330
1F
100
AcDbEntity
  8
0
100
AcDbLine
 10
-0.1504255582462943
 20
0.0195611574519611
 30
0.0
 11
-0.1503515773955726
 21
0.0195507601209403
 31
0.0
  0
LINE
  5
552
330
1F
100
AcDbEntity
  8
0
100
AcDbLine
 10
-0.164908568542095
 20
0.0215966114367676
 30
0.0
 11
-0.1647064383049918
 21
0.0215682043538271
 31
0.0
  0
LINE
  5
553
330
1F
100
AcDbEntity
  8
0
100
AcDbLine
 10
-0.164908568542095
 20
0.0215966114367676
 30
0.0
 11
-0.1648998612538604
 21
0.0217373647696744
 31
0.0
  0
LINE
  5
554
330
1F
100
AcDbEntity
  8
0
100
AcDbLine
 10
-0.1579443277388775
 20
0.0206178514426642
 30
0.0
 11
-0.1578570684499674
 21
0.0206055879531352
 31
0.0
  0
LINE
  5
555
330
1F
100
AcDbEntity
  8
0
100
AcDbLine
 10
-0.0716403706813066
 20
0.0493741095143688
 30
0.0
 11
-0.0716121851230099
 21
0.0493741095143688
 31
0.0
  0
LINE
  5
556
330
1F
100
AcDbEntity
  8
0
100
AcDbLine
 10
-0.0708100370906173
 20
0.0493741095143688
 30
0.0
 11
-0.0707788372496337
 21
0.0493741095143688
 31
0.0
  0
LINE
  5
557
330
1F
100
AcDbEntity
  8
0
100
AcDbLine
 10
-0.0678324705440497
 20
0.0493741095143688
 30
0.0
 11
-0.0677945192340123
 21
0.0493741095143688
 31
0.0
  0
LINE
  5
558
330
1F
100
AcDbEntity
  8
0
100
AcDbLine
 10
-0.0588228126949744
 20
0.0493741095143688
 30
0.0
 11
-0.0572762591122031
 21
0.0493741095143688
 31
0.0
  0
LINE
  5
559
330
1F
100
AcDbEntity
  8
0
100
AcDbLine
 10
-0.0305010642963886
 20
0.0623471938821805
 30
0.0
 11
-0.030666146403221
 21
0.0622178133859617
 31
0.0
  0
LINE
  5
55A
330
1F
100
AcDbEntity
  8
0
100
AcDbLine
 10
-0.0297211451046884
 20
0.0653029542233182
 30
0.0
 11
-0.0297000553837008
 21
0.0652454478121377
 31
0.0
  0
LINE
  5
55B
330
1F
100
AcDbEntity
  8
0
100
AcDbLine
 10
-0.030666146403221
 20
0.0632967743373794
 30
0.0
 11
-0.0307022013001836
 21
0.0631752409158227
 31
0.0
  0
LINE
  5
55C
330
1F
100
AcDbEntity
  8
0
100
AcDbLine
 10
-0.0297211451046884
 20
0.0653386986456664
 30
0.0
 11
-0.0297211451046884
 21
0.0653029542233182
 31
0.0
  0
LINE
  5
55D
330
1F
100
AcDbEntity
  8
0
100
AcDbLine
 10
-0.0643495864834625
 20
0.0513741095143688
 30
0.0
 11
-0.0643099693830875
 21
0.0513741095143688
 31
0.0
  0
LINE
  5
55E
330
1F
100
AcDbEntity
  8
0
100
AcDbLine
 10
-0.0308010283932817
 20
0.0627792620873379
 30
0.0
 11
-0.0308265518872491
 21
0.0615580799582732
 31
0.0
  0
LINE
  5
55F
330
1F
100
AcDbEntity
  8
0
100
AcDbLine
 10
0.1553260554201438
 20
0.0518405359166681
 30
0.0
 11
0.1566141036256478
 21
0.0495131246596642
 31
0.0
  0
LINE
  5
560
330
1F
100
AcDbEntity
  8
0
100
AcDbLine
 10
0.1348167432793883
 20
0.0299143699757261
 30
0.0
 11
0.1348453669726179
 21
0.0298929425505989
 31
0.0
  0
LINE
  5
561
330
1F
100
AcDbEntity
  8
0
100
AcDbLine
 10
0.1586621857692543
 20
0.029914369975726
 30
0.0
 11
0.1586335620760248
 21
0.0298929425505989
 31
0.0
  0
LINE
  5
562
330
1F
100
AcDbEntity
  8
0
100
AcDbLine
 10
0.1641394647687004
 20
-0.0634116385779952
 30
0.0
 11
0.1641394647687004
 21
-0.0633843555354523
 31
0.0
  0
LINE
  5
563
330
1F
100
AcDbEntity
  8
0
100
AcDbLine
 10
0.1641645694714512
 20
-0.0632132074907827
 30
0.0
 11
0.1641394647687004
 21
-0.0630747767847376
 31
0.0
  0
LINE
  5
564
330
1F
100
AcDbEntity
  8
0
100
AcDbLine
 10
0.1641750543295667
 20
-0.0630831126771544
 30
0.0
 11
0.1641645154662343
 21
-0.0630020647342885
 31
0.0
  0
LINE
  5
565
330
1F
100
AcDbEntity
  8
0
100
AcDbLine
 10
0.1641644609870555
 20
-0.0627890689418789
 30
0.0
 11
0.1642047057776974
 21
-0.0627151881061171
 31
0.0
  0
LINE
  5
566
330
1F
100
AcDbEntity
  8
0
100
AcDbLine
 10
0.1293514242478876
 20
-0.0633393160117523
 30
0.0
 11
0.1293394642799423
 21
-0.0634116385779952
 31
0.0
  0
LINE
  5
567
330
1F
100
AcDbEntity
  8
0
100
AcDbLine
 10
0.1641645154662343
 20
-0.0630020647342885
 30
0.0
 11
0.1641394647687004
 21
-0.0630747767847376
 31
0.0
  0
LINE
  5
568
330
1F
100
AcDbEntity
  8
0
100
AcDbLine
 10
0.1641394647687004
 20
-0.0630747767847376
 30
0.0
 11
0.1641394647687004
 21
-0.0632046411995648
 31
0.0
  0
LINE
  5
569
330
1F
100
AcDbEntity
  8
0
100
AcDbLine
 10
0.1440831683959142
 20
0.070400519981987
 30
0.0
 11
0.1442125488921331
 21
0.0705656020888194
 31
0.0
  0
LINE
  5
56A
330
1F
100
AcDbEntity
  8
0
100
AcDbLine
 10
0.146310619815372
 20
0.0713455212805196
 30
0.0
 11
0.1463489209019274
 21
0.0713666109915261
 31
0.0
  0
LINE
  5
56B
330
1F
100
AcDbEntity
  8
0
100
AcDbLine
 10
0.1480209117239772
 20
0.0703622140058441
 30
0.0
 11
0.1480933645270585
 21
0.0703580578994748
 31
0.0
  0
LINE
  5
56C
330
1F
100
AcDbEntity
  8
0
100
AcDbLine
 10
0.1480933645270585
 20
0.0703580578994748
 30
0.0
 11
0.1481144645168708
 21
0.070400519981987
 31
0.0
  0
LINE
  5
56D
330
1F
100
AcDbEntity
  8
0
100
AcDbLine
 10
0.1470427035329659
 20
0.0713455212805196
 30
0.0
 11
0.1469957731989008
 21
0.0713455212805196
 31
0.0
  0
LINE
  5
56E
330
1F
100
AcDbEntity
  8
0
100
AcDbLine
 10
0.1470873260205873
 20
0.0713455212805196
 30
0.0
 11
0.1470427035329659
 21
0.0713455212805196
 31
0.0
  0
LINE
  5
56F
330
1F
100
AcDbEntity
  8
0
100
AcDbLine
 10
0.1471293010782712
 20
0.0713455212805196
 30
0.0
 11
0.1470873260205873
 21
0.0713455212805196
 31
0.0
  0
LINE
  5
570
330
1F
100
AcDbEntity
  8
0
100
AcDbLine
 10
0.1471683092332707
 20
0.0713455212805196
 30
0.0
 11
0.1471293010782712
 21
0.0713455212805196
 31
0.0
  0
LINE
  5
571
330
1F
100
AcDbEntity
  8
0
100
AcDbLine
 10
0.1328649831804035
 20
0.0313380578134447
 30
0.0
 11
0.1331716489895509
 21
0.0310824836222522
 31
0.0
  0
LINE
  5
572
330
1F
100
AcDbEntity
  8
0
100
AcDbLine
 10
0.158914704371605
 20
0.0301001079516426
 30
0.0
 11
0.158969902128703
 21
0.0301334761839939
 31
0.0
  0
LINE
  5
573
330
1F
100
AcDbEntity
  8
0
100
AcDbLine
 10
0.1610209113424508
 20
0.0316800895566941
 30
0.0
 11
0.1609338278125087
 21
0.031609974758186
 31
0.0
  0
LINE
  5
574
330
1F
100
AcDbEntity
  8
0
100
AcDbLine
 10
0.1447619243482271
 20
0.0703112095971396
 30
0.0
 11
0.1448797007881021
 21
0.0703215518340782
 31
0.0
  0
LINE
  5
575
330
1F
100
AcDbEntity
  8
0
100
AcDbLine
 10
0.1638356505810545
 20
0.0345615145368569
 30
0.0
 11
0.1640176094007873
 21
0.0347968547693368
 31
0.0
  0
LINE
  5
576
330
1F
100
AcDbEntity
  8
0
100
AcDbLine
 10
0.0378091073512361
 20
0.0206055881439421
 30
0.0
 11
0.0378394647418783
 21
0.0207865131843575
 31
0.0
  0
LINE
  5
577
330
1F
100
AcDbEntity
  8
0
100
AcDbLine
 10
0.0525653878451281
 20
0.022225927026267
 30
0.0
 11
0.0524508332751021
 21
0.0222553019005192
 31
0.0
  0
LINE
  5
578
330
1F
100
AcDbEntity
  8
0
100
AcDbLine
 10
0.0524508332751021
 20
0.0222553019005192
 30
0.0
 11
0.0523161426103935
 21
0.0222652931833453
 31
0.0
  0
LINE
  5
579
330
1F
100
AcDbEntity
  8
0
100
AcDbLine
 10
0.0555681510745809
 20
0.0219176252897215
 30
0.0
 11
0.0554238268091605
 21
0.021935420400803
 31
0.0
  0
LINE
  5
57A
330
1F
100
AcDbEntity
  8
0
100
AcDbLine
 10
0.028399544203623
 20
0.0493741095143688
 30
0.0
 11
0.0288866427405369
 21
0.0493741095143688
 31
0.0
  0
LINE
  5
57B
330
1F
100
AcDbEntity
  8
0
100
AcDbLine
 10
0.0288866427405369
 20
0.0493741095143688
 30
0.0
 11
0.0289550288430642
 21
0.0493741095143688
 31
0.0
  0
LINE
  5
57C
330
1F
100
AcDbEntity
  8
0
100
AcDbLine
 10
0.0616365205140249
 20
0.0493741095143688
 30
0.0
 11
0.0625829805644585
 21
0.0493741095143688
 31
0.0
  0
LINE
  5
57D
330
1F
100
AcDbEntity
  8
0
100
AcDbLine
 10
-0.0820841831839994
 20
0.0188741095143688
 30
0.0
 11
-0.0819126927793943
 21
0.0188741095143688
 31
0.0
  0
LINE
  5
57E
330
1F
100
AcDbEntity
  8
0
100
AcDbLine
 10
-0.0735925015614399
 20
0.0338741093467307
 30
0.0
 11
-0.073369446187957
 21
0.0338423473146376
 31
0.0
  0
LINE
  5
57F
330
1F
100
AcDbEntity
  8
0
100
AcDbLine
 10
-0.1648801176183048
 20
0.0218279873287167
 30
0.0
 11
-0.1648828914688464
 21
0.0220979165851704
 31
0.0
  0
LINE
  5
580
330
1F
100
AcDbEntity
  8
0
100
AcDbLine
 10
-0.1648828914688464
 20
0.0220979165851704
 30
0.0
 11
-0.1634831309128721
 21
0.0338190830837322
 31
0.0
  0
LINE
  5
581
330
1F
100
AcDbEntity
  8
0
100
AcDbLine
 10
-0.1634065165925939
 20
0.0338119831460846
 30
0.0
 11
-0.1648828914688464
 21
0.0220979165851704
 31
0.0
  0
LINE
  5
582
330
1F
100
AcDbEntity
  8
0
100
AcDbLine
 10
-0.034417217746486
 20
0.0493741095143688
 30
0.0
 11
-0.03444618972311
 21
0.0493741095143688
 31
0.0
  0
LINE
  5
583
330
1F
100
AcDbEntity
  8
0
100
AcDbLine
 10
-0.0336531457035295
 20
0.0493741095143688
 30
0.0
 11
-0.0336988250873817
 21
0.0493741095143688
 31
0.0
  0
LINE
  5
584
330
1F
100
AcDbEntity
  8
0
100
AcDbLine
 10
-0.0644592684637821
 20
0.0493741095143688
 30
0.0
 11
-0.0631534250062911
 21
0.0493741095143688
 31
0.0
  0
LINE
  5
585
330
1F
100
AcDbEntity
  8
0
100
AcDbLine
 10
-0.0631534250062911
 20
0.0493741095143688
 30
0.0
 11
-0.0629488460030645
 21
0.0493741095143688
 31
0.0
  0
LINE
  5
586
330
1F
100
AcDbEntity
  8
0
100
AcDbLine
 10
-0.0418753711518134
 20
0.0493741095143688
 30
0.0
 11
-0.0420775358295544
 21
0.0493741095143688
 31
0.0
  0
LINE
  5
587
330
1F
100
AcDbEntity
  8
0
100
AcDbLine
 10
-0.0297211451046884
 20
0.0645262480181028
 30
0.0
 11
-0.0296880197251291
 21
0.0645604272946568
 31
0.0
  0
LINE
  5
588
330
1F
100
AcDbEntity
  8
0
100
AcDbLine
 10
-0.0643099693830875
 20
0.0513741095143688
 30
0.0
 11
-0.0630206578131309
 21
0.0513741095143688
 31
0.0
  0
LINE
  5
589
330
1F
100
AcDbEntity
  8
0
100
AcDbLine
 10
-0.0630206578131309
 20
0.0513741095143688
 30
0.0
 11
-0.0629907765567025
 21
0.0513741095143688
 31
0.0
  0
LINE
  5
58A
330
1F
100
AcDbEntity
  8
0
100
AcDbLine
 10
0.1641750602412931
 20
-0.062866659192682
 30
0.0
 11
0.1641644609870555
 21
-0.0627890689418789
 31
0.0
  0
LINE
  5
58B
330
1F
100
AcDbEntity
  8
0
100
AcDbLine
 10
0.1641645154662343
 20
-0.0630020647342885
 30
0.0
 11
0.1641645064638104
 21
-0.06296686819776
 31
0.0
  0
LINE
  5
58C
330
1F
100
AcDbEntity
  8
0
100
AcDbLine
 10
0.1641645064638104
 20
-0.06296686819776
 30
0.0
 11
0.1641750591671634
 21
-0.0629059876559243
 31
0.0
  0
LINE
  5
58D
330
1F
100
AcDbEntity
  8
0
100
AcDbLine
 10
0.1463489209019274
 20
0.0713666109915261
 30
0.0
 11
0.1464142275018414
 21
0.071378646660079
 31
0.0
  0
LINE
  5
58E
330
1F
100
AcDbEntity
  8
0
100
AcDbLine
 10
0.1472040536556189
 20
0.0713455212805196
 30
0.0
 11
0.1471293010782712
 21
0.0713455212805196
 31
0.0
  0
LINE
  5
58F
330
1F
100
AcDbEntity
  8
0
100
AcDbLine
 10
0.1472362622536049
 20
0.0713455212805196
 30
0.0
 11
0.1471683092332707
 21
0.0713455212805196
 31
0.0
  0
LINE
  5
590
330
1F
100
AcDbEntity
  8
0
100
AcDbLine
 10
0.1472040536556189
 20
0.0713455212805196
 30
0.0
 11
0.1471683092332707
 21
0.0713455212805196
 31
0.0
  0
LINE
  5
591
330
1F
100
AcDbEntity
  8
0
100
AcDbLine
 10
0.1309784599359367
 20
0.0330615793642291
 30
0.0
 11
0.131183115105264
 21
0.0328441706104272
 31
0.0
  0
LINE
  5
592
330
1F
100
AcDbEntity
  8
0
100
AcDbLine
 10
0.1283188386198308
 20
0.036390268755318
 30
0.0
 11
0.1286338197916077
 21
0.0359030958814614
 31
0.0
  0
LINE
  5
593
330
1F
100
AcDbEntity
  8
0
100
AcDbLine
 10
0.126761627694936
 20
0.0391990012923963
 30
0.0
 11
0.1272594316779898
 21
0.0381766098169677
 31
0.0
  0
LINE
  5
594
330
1F
100
AcDbEntity
  8
0
100
AcDbLine
 10
0.1256633460974541
 20
0.0421146599200405
 30
0.0
 11
0.1257356054066942
 21
0.0418554527303271
 31
0.0
  0
LINE
  5
595
330
1F
100
AcDbEntity
  8
0
100
AcDbLine
 10
0.1249946788531005
 20
0.0451257778637624
 30
0.0
 11
0.1250998268752621
 21
0.0444349093912237
 31
0.0
  0
LINE
  5
596
330
1F
100
AcDbEntity
  8
0
100
AcDbLine
 10
0.1685790589927957
 20
0.0510523269502514
 30
0.0
 11
0.1685238660136325
 21
0.0514149689517416
 31
0.0
  0
LINE
  5
597
330
1F
100
AcDbEntity
  8
0
100
AcDbLine
 10
0.1681001841007994
 20
0.0536654644263976
 30
0.0
 11
0.1678776764713713
 21
0.054463639470145
 31
0.0
  0
LINE
  5
598
330
1F
100
AcDbEntity
  8
0
100
AcDbLine
 10
0.1668012610554025
 20
0.0574296020520918
 30
0.0
 11
0.1667634483350425
 21
0.0575072619428821
 31
0.0
  0
LINE
  5
599
330
1F
100
AcDbEntity
  8
0
100
AcDbLine
 10
0.1655666532843636
 20
0.0597819515122168
 30
0.0
 11
0.1653114345686088
 21
0.0601766914089379
 31
0.0
  0
LINE
  5
59A
330
1F
100
AcDbEntity
  8
0
100
AcDbLine
 10
0.1640575009315536
 20
0.061968335564255
 30
0.0
 11
0.1634345773766749
 21
0.0627157872341695
 31
0.0
  0
LINE
  5
59B
330
1F
100
AcDbEntity
  8
0
100
AcDbLine
 10
0.1613281632690952
 20
0.0648677560119026
 30
0.0
 11
0.1611930628971891
 21
0.0649803481798254
 31
0.0
  0
LINE
  5
59C
330
1F
100
AcDbEntity
  8
0
100
AcDbLine
 10
0.1592368886723445
 20
0.0665061647621982
 30
0.0
 11
0.158749715798488
 21
0.066821145933975
 31
0.0
  0
LINE
  5
59D
330
1F
100
AcDbEntity
  8
0
100
AcDbLine
 10
0.1569633747368382
 20
0.0678805528758161
 30
0.0
 11
0.15594098326141
 21
0.0683783568588697
 31
0.0
  0
LINE
  5
59E
330
1F
100
AcDbEntity
  8
0
100
AcDbLine
 10
0.1532845318234787
 20
0.0694043791471117
 30
0.0
 11
0.1530253246337653
 21
0.0694766384563518
 31
0.0
  0
LINE
  5
59F
330
1F
100
AcDbEntity
  8
0
100
AcDbLine
 10
0.1507050751625822
 20
0.0700401576785438
 30
0.0
 11
0.1500142066900436
 21
0.0701453057007054
 31
0.0
  0
LINE
  5
5A0
330
1F
100
AcDbEntity
  8
0
100
AcDbLine
 10
0.1453644645317719
 20
0.070400519981987
 30
0.0
 11
0.1453136609084105
 21
0.070353943132667
 31
0.0
  0
LINE
  5
5A1
330
1F
100
AcDbEntity
  8
0
100
AcDbLine
 10
0.1440876576035545
 20
0.0702401144979589
 30
0.0
 11
0.1437250156020644
 21
0.0701849215187956
 31
0.0
  0
LINE
  5
5A2
330
1F
100
AcDbEntity
  8
0
100
AcDbLine
 10
0.1414745201274083
 20
0.0697612396059625
 30
0.0
 11
0.1406763450836606
 21
0.0695387319765343
 31
0.0
  0
LINE
  5
5A3
330
1F
100
AcDbEntity
  8
0
100
AcDbLine
 10
0.1377103825017141
 20
0.0684623165605657
 30
0.0
 11
0.137632722610924
 21
0.0684245038402057
 31
0.0
  0
LINE
  5
5A4
330
1F
100
AcDbEntity
  8
0
100
AcDbLine
 10
0.1353580330415891
 20
0.0672277087895267
 30
0.0
 11
0.1349632931448681
 21
0.0669724900737719
 31
0.0
  0
LINE
  5
5A5
330
1F
100
AcDbEntity
  8
0
100
AcDbLine
 10
0.1302722285419033
 20
0.0629892187742584
 30
0.0
 11
0.1301596363739804
 21
0.0628541184023522
 31
0.0
  0
LINE
  5
5A6
330
1F
100
AcDbEntity
  8
0
100
AcDbLine
 10
0.1286338197916077
 20
0.0608979441775077
 30
0.0
 11
0.1283188386198309
 21
0.0604107713036511
 31
0.0
  0
LINE
  5
5A7
330
1F
100
AcDbEntity
  8
0
100
AcDbLine
 10
0.1272594316779898
 20
0.0586244302420013
 30
0.0
 11
0.126761627694936
 21
0.0576020387665729
 31
0.0
  0
LINE
  5
5A8
330
1F
100
AcDbEntity
  8
0
100
AcDbLine
 10
0.1257356054066942
 20
0.0549455873286419
 30
0.0
 11
0.1256633460974541
 21
0.0546863801389285
 31
0.0
  0
LINE
  5
5A9
330
1F
100
AcDbEntity
  8
0
100
AcDbLine
 10
0.1250998268752621
 20
0.0523661306677454
 30
0.0
 11
0.1249946788531005
 21
0.0516752621952066
 31
0.0
  0
LINE
  5
5AA
330
1F
100
AcDbEntity
  8
0
100
AcDbLine
 10
0.1604156588555427
 20
0.0311927740310799
 30
0.0
 11
0.1597910414367245
 21
0.0306935036345024
 31
0.0
  0
LINE
  5
5AB
330
1F
100
AcDbEntity
  8
0
100
AcDbLine
 10
0.1680273807642683
 20
0.0428504475010626
 30
0.0
 11
0.1678994201268469
 21
0.0424373546626429
 31
0.0
  0
LINE
  5
5AC
330
1F
100
AcDbEntity
  8
0
100
AcDbLine
 10
0.1486908454464342
 20
0.0703142465022616
 30
0.0
 11
0.148716356738487
 21
0.0703112822143562
 31
0.0
  0
LINE
  5
5AD
330
1F
100
AcDbEntity
  8
0
100
AcDbLine
 10
0.1567394643008039
 20
0.0484005200294845
 30
0.0
 11
0.1567482180182544
 21
0.0482880309705329
 31
0.0
  0
LINE
  5
5AE
330
1F
100
AcDbEntity
  8
0
100
AcDbLine
 10
0.1567482180182544
 20
0.0482880309705329
 30
0.0
 11
0.156739464300804
 21
0.04815052001761
 31
0.0
  0
LINE
  5
5AF
330
1F
100
AcDbEntity
  8
0
100
AcDbLine
 10
0.1588168891512391
 20
0.0300213644333828
 30
0.0
 11
0.158914704371605
 21
0.0301001079516426
 31
0.0
  0
LINE
  5
5B0
330
1F
100
AcDbEntity
  8
0
100
AcDbLine
 10
0.0625829805644585
 20
0.0493741095143688
 30
0.0
 11
0.0627062398024652
 21
0.0493741095143688
 31
0.0
  0
LINE
  5
5B1
330
1F
100
AcDbEntity
  8
0
100
AcDbLine
 10
-0.1678632755485862
 20
0.0220118689167539
 30
0.0
 11
-0.1678080058398079
 21
0.0220041013826949
 31
0.0
  0
LINE
  5
5B2
330
1F
100
AcDbEntity
  8
0
100
AcDbLine
 10
-0.1629984408427198
 20
0.033774109516604
 30
0.0
 11
-0.0775164846551698
 21
0.0338737378000836
 31
0.0
  0
LINE
  5
5B3
330
1F
100
AcDbEntity
  8
0
100
AcDbLine
 10
-0.0775164846551698
 20
0.0338737378000836
 30
0.0
 11
-0.0746661462365142
 21
0.0338419100145493
 31
0.0
  0
LINE
  5
5B4
330
1F
100
AcDbEntity
  8
0
100
AcDbLine
 10
-0.0746661462365142
 20
0.0338419100145493
 30
0.0
 11
-0.0746276242444165
 21
0.0338741093467307
 31
0.0
  0
LINE
  5
5B5
330
1F
100
AcDbEntity
  8
0
100
AcDbLine
 10
-0.0746276242444165
 20
0.0338741093467307
 30
0.0
 11
-0.0745209084633906
 21
0.0338419589946439
 31
0.0
  0
LINE
  5
5B6
330
1F
100
AcDbEntity
  8
0
100
AcDbLine
 10
-0.073369446187957
 20
0.0338423473146376
 30
0.0
 11
-0.0729006151326699
 21
0.0338741093467307
 31
0.0
  0
LINE
  5
5B7
330
1F
100
AcDbEntity
  8
0
100
AcDbLine
 10
-0.0746661462365142
 20
0.0338741093467307
 30
0.0
 11
-0.0775164846551698
 21
0.0338737378000836
 31
0.0
  0
LINE
  5
5B8
330
1F
100
AcDbEntity
  8
0
100
AcDbLine
 10
-0.0403213465263268
 20
0.0493741095143688
 30
0.0
 11
-0.0405880171075713
 21
0.0493741095143688
 31
0.0
  0
LINE
  5
5B9
330
1F
100
AcDbEntity
  8
0
100
AcDbLine
 10
-0.0459985350057065
 20
0.0493741095143688
 30
0.0
 11
-0.0461640886849267
 21
0.0493741095143688
 31
0.0
  0
LINE
  5
5BA
330
1F
100
AcDbEntity
  8
0
100
AcDbLine
 10
-0.037281998365905
 20
0.0493741095143688
 30
0.0
 11
-0.0373190541525951
 21
0.0493741095143688
 31
0.0
  0
LINE
  5
5BB
330
1F
100
AcDbEntity
  8
0
100
AcDbLine
 10
-0.0307179390361661
 20
0.0663437048657374
 30
0.0
 11
-0.0307451152288032
 21
0.0658431562323108
 31
0.0
  0
LINE
  5
5BC
330
1F
100
AcDbEntity
  8
0
100
AcDbLine
 10
0.1642394645988272
 20
0.0320300562421944
 30
0.0
 11
0.1641394647687004
 21
0.0349379794053358
 31
0.0
  0
LINE
  5
5BD
330
1F
100
AcDbEntity
  8
0
100
AcDbLine
 10
0.1472646898856648
 20
0.0713455212805196
 30
0.0
 11
0.1472040536556189
 21
0.0713455212805196
 31
0.0
  0
LINE
  5
5BE
330
1F
100
AcDbEntity
  8
0
100
AcDbLine
 10
0.1472362622536049
 20
0.0713455212805196
 30
0.0
 11
0.1472040536556189
 21
0.0713455212805196
 31
0.0
  0
LINE
  5
5BF
330
1F
100
AcDbEntity
  8
0
100
AcDbLine
 10
0.1321507657795475
 20
0.0319332840470665
 30
0.0
 11
0.1322858661514538
 21
0.0318206918791435
 31
0.0
  0
LINE
  5
5C0
330
1F
100
AcDbEntity
  8
0
100
AcDbLine
 10
0.1324241973196363
 20
0.0317054071771311
 30
0.0
 11
0.1326022892237049
 21
0.0315569860196933
 31
0.0
  0
LINE
  5
5C1
330
1F
100
AcDbEntity
  8
0
100
AcDbLine
 10
0.1293698991540976
 20
0.0349027344275749
 30
0.0
 11
0.1294214281170891
 21
0.034832704494714
 31
0.0
  0
LINE
  5
5C2
330
1F
100
AcDbEntity
  8
0
100
AcDbLine
 10
0.1480933645270585
 20
0.0703580578994748
 30
0.0
 11
0.1480677915188746
 21
0.0703603817699545
 31
0.0
  0
LINE
  5
5C3
330
1F
100
AcDbEntity
  8
0
100
AcDbLine
 10
0.1480677915188746
 20
0.0703603817699545
 30
0.0
 11
0.1480209117239772
 21
0.0703622140058441
 31
0.0
  0
LINE
  5
5C4
330
1F
100
AcDbEntity
  8
0
100
AcDbLine
 10
0.1452399106684927
 20
0.0703487273283305
 30
0.0
 11
0.1448797007881021
 21
0.0703215518340782
 31
0.0
  0
LINE
  5
5C5
330
1F
100
AcDbEntity
  8
0
100
AcDbLine
 10
0.1331716489895509
 20
0.0657185564367168
 30
0.0
 11
0.1324241973196364
 21
0.0650956328818381
 31
0.0
  0
LINE
  5
5C6
330
1F
100
AcDbEntity
  8
0
100
AcDbLine
 10
0.1612644317541923
 20
0.0318884979181834
 30
0.0
 11
0.1611828220029707
 21
0.0318104509849252
 31
0.0
  0
LINE
  5
5C7
330
1F
100
AcDbEntity
  8
0
100
AcDbLine
 10
0.168513937264929
 20
0.0453933551009287
 30
0.0
 11
0.1685218915367729
 21
0.0453584644094196
 31
0.0
  0
LINE
  5
5C8
330
1F
100
AcDbEntity
  8
0
100
AcDbLine
 10
-0.1455369621325452
 20
0.0188741096820069
 30
0.0
 11
-0.0839952382992446
 21
0.0188741095143688
 31
0.0
  0
LINE
  5
5C9
330
1F
100
AcDbEntity
  8
0
100
AcDbLine
 10
-0.0745209084633906
 20
0.0338419589946439
 30
0.0
 11
-0.0743346800536987
 21
0.0338741093467307
 31
0.0
  0
LINE
  5
5CA
330
1F
100
AcDbEntity
  8
0
100
AcDbLine
 10
-0.0297211451046884
 20
0.064484272960419
 30
0.0
 11
-0.0296880197251291
 21
0.0645293165513632
 31
0.0
  0
LINE
  5
5CB
330
1F
100
AcDbEntity
  8
0
100
AcDbLine
 10
0.1293698991540976
 20
0.0349027344275749
 30
0.0
 11
0.1292414294342276
 21
0.0320321044137211
 31
0.0
  0
LINE
  5
5CC
330
1F
100
AcDbEntity
  8
0
100
AcDbLine
 10
0.1641750656709329
 20
-0.0626678569524592
 30
0.0
 11
0.164175560560913
 21
-0.0445478266848893
 31
0.0
  0
LINE
  5
5CD
330
1F
100
AcDbEntity
  8
0
100
AcDbLine
 10
0.1473093674668373
 20
0.0713455212805196
 30
0.0
 11
0.1472362622536049
 21
0.0713455212805196
 31
0.0
  0
LINE
  5
5CE
330
1F
100
AcDbEntity
  8
0
100
AcDbLine
 10
0.1472646898856648
 20
0.0713455212805196
 30
0.0
 11
0.1472362622536049
 21
0.0713455212805196
 31
0.0
  0
LINE
  5
5CF
330
1F
100
AcDbEntity
  8
0
100
AcDbLine
 10
0.1582403949379252
 20
0.0296485337046974
 30
0.0
 11
0.1585476472127072
 21
0.0298460294832992
 31
0.0
  0
LINE
  5
5D0
330
1F
100
AcDbEntity
  8
0
100
AcDbLine
 10
-0.030666146403221
 20
0.06212410952927
 30
0.0
 11
-0.0308265518872491
 21
0.0615580799582732
 31
0.0
  0
LINE
  5
5D1
330
1F
100
AcDbEntity
  8
0
100
AcDbLine
 10
0.1473459425416106
 20
0.0713455212805196
 30
0.0
 11
0.1473093674668373
 21
0.0713455212805196
 31
0.0
  0
LINE
  5
5D2
330
1F
100
AcDbEntity
  8
0
100
AcDbLine
 10
0.1473093674668373
 20
0.0713455212805196
 30
0.0
 11
0.1472646898856648
 21
0.0713455212805196
 31
0.0
  0
LINE
  5
5D3
330
1F
100
AcDbEntity
  8
0
100
AcDbLine
 10
0.0454394645207823
 20
0.0173590330834233
 30
0.0
 11
0.0454394645207823
 21
0.0174291964636936
 31
0.0
  0
LINE
  5
5D4
330
1F
100
AcDbEntity
  8
0
100
AcDbLine
 10
-0.0306999554903176
 20
0.0631402132111837
 30
0.0
 11
-0.0308010283932817
 21
0.0627792620873379
 31
0.0
  0
LINE
  5
5D5
330
1F
100
AcDbEntity
  8
0
100
AcDbLine
 10
-0.030666146403221
 20
0.0664514446913583
 30
0.0
 11
-0.030712723252541
 21
0.0664099349884049
 31
0.0
  0
LINE
  5
5D6
330
1F
100
AcDbEntity
  8
0
100
AcDbLine
 10
0.1641394647687004
 20
-0.0444702957473372
 30
0.0
 11
0.1641394647687004
 21
0.0319269751162016
 31
0.0
  0
LINE
  5
5D7
330
1F
100
AcDbEntity
  8
0
100
AcDbLine
 10
0.1293698991540976
 20
0.0349027344275749
 30
0.0
 11
0.1292687545447872
 21
-0.0446786959372138
 31
0.0
  0
LINE
  5
5D8
330
1F
100
AcDbEntity
  8
0
100
AcDbLine
 10
-0.0307673520173292
 20
0.0669741094394905
 30
0.0
 11
-0.0306821888856779
 21
0.0668090564716994
 31
0.0
  0
LINE
  5
5D9
330
1F
100
AcDbEntity
  8
0
100
AcDbLine
 10
-0.030692756518435
 20
0.0666850412615322
 30
0.0
 11
-0.0306952867738676
 21
0.0666443935416963
 31
0.0
  0
LINE
  5
5DA
330
1F
100
AcDbEntity
  8
0
100
AcDbLine
 10
0.1641785666336173
 20
0.0319672818273125
 30
0.0
 11
0.1641394647687004
 21
0.0349379794053358
 31
0.0
  0
LINE
  5
5DB
330
1F
100
AcDbEntity
  8
0
100
AcDbLine
 10
-0.0800016376641491
 20
0.0188741095143688
 30
0.0
 11
-0.0746661463562567
 21
0.0188741096820069
 31
0.0
  0
LINE
  5
5DC
330
1F
100
AcDbEntity
  8
0
100
AcDbLine
 10
-0.0745209084633906
 20
0.0188741096820069
 30
0.0
 11
-0.0746661463562567
 21
0.0188741096820069
 31
0.0
  0
LINE
  5
5DD
330
1F
100
AcDbEntity
  8
0
100
AcDbLine
 10
0.043147735047443
 20
0.0223768383009527
 30
0.0
 11
0.0438676766502932
 21
0.022408061057779
 31
0.0
  0
LINE
  5
5DE
330
1F
100
AcDbEntity
  8
0
100
AcDbLine
 10
0.0503311940011997
 20
0.0223768383009527
 30
0.0
 11
0.0496112523983494
 21
0.022408061057779
 31
0.0
  0
LINE
  5
5DF
330
1F
100
AcDbEntity
  8
0
100
AcDbLine
 10
-0.0307598772905054
 20
0.0654210801097843
 30
0.0
 11
-0.0307531581697159
 21
0.0656486217120926
 31
0.0
  0
LINE
  5
5E0
330
1F
100
AcDbEntity
  8
0
100
AcDbLine
 10
-0.030679083892204
 20
0.0629010827695335
 30
0.0
 11
-0.0306858336961473
 21
0.063020414021926
 31
0.0
  0
LINE
  5
5E1
330
1F
100
AcDbEntity
  8
0
100
AcDbLine
 10
-0.0307532548159743
 20
0.0640858935577073
 30
0.0
 11
-0.0307611911666859
 21
0.064364533882631
 31
0.0
  0
LINE
  5
5E2
330
1F
100
AcDbEntity
  8
0
100
AcDbLine
 10
0.1292742159928424
 20
-0.0625851032242719
 30
0.0
 11
0.1292742232709453
 21
-0.0627151881061171
 31
0.0
  0
LINE
  5
5E3
330
1F
100
AcDbEntity
  8
0
100
AcDbLine
 10
0.159435333248053
 20
0.0304508348076621
 30
0.0
 11
0.1590345486341729
 21
0.0301808423160648
 31
0.0
  0
LINE
  5
5E4
330
1F
100
AcDbEntity
  8
0
100
AcDbLine
 10
0.1671526455364219
 20
0.0402499792641889
 30
0.0
 11
0.1673667249098835
 21
0.0407818183125632
 31
0.0
  0
LINE
  5
5E5
330
1F
100
AcDbEntity
  8
0
100
AcDbLine
 10
0.1685965042211859
 20
0.0460371159544278
 30
0.0
 11
0.1685375599615677
 21
0.0455775368519931
 31
0.0
  0
LINE
  5
5E6
330
1F
100
AcDbEntity
  8
0
100
AcDbLine
 10
0.0367394647478388
 20
0.0792741094584895
 30
0.0
 11
0.0567394643008039
 21
0.0792741094584895
 31
0.0
  0
LINE
  5
5E7
330
1F
100
AcDbEntity
  8
0
100
AcDbLine
 10
0.0567394643008039
 20
0.0742741095702482
 30
0.0
 11
0.0367394647478388
 21
0.0742741095702482
 31
0.0
  0
LINE
  5
5E8
330
1F
100
AcDbEntity
  8
0
100
AcDbLine
 10
0.0355192691936419
 20
0.0201942956381616
 30
0.0
 11
0.0350881627678201
 21
0.0203868375414664
 31
0.0
  0
LINE
  5
5E9
330
1F
100
AcDbEntity
  8
0
100
AcDbLine
 10
0.0380551022394822
 20
0.0219354199849684
 30
0.0
 11
0.0387819929897115
 21
0.0220365840454221
 31
0.0
  0
LINE
  5
5EA
330
1F
100
AcDbEntity
  8
0
100
AcDbLine
 10
0.0480394645278604
 20
0.0181282885713664
 30
0.0
 11
0.0480394645278604
 21
0.0185231691782942
 31
0.0
  0
LINE
  5
5EB
330
1F
100
AcDbEntity
  8
0
100
AcDbLine
 10
0.0480394645278604
 20
0.0173886557117137
 30
0.0
 11
0.0480394645278604
 21
0.0181282885713664
 31
0.0
  0
LINE
  5
5EC
330
1F
100
AcDbEntity
  8
0
100
AcDbLine
 10
0.0480394645278603
 20
0.0192278246021066
 30
0.0
 11
0.0480394645278604
 21
0.0185231691782942
 31
0.0
  0
LINE
  5
5ED
330
1F
100
AcDbEntity
  8
0
100
AcDbLine
 10
0.0454394645207823
 20
0.0192278246021066
 30
0.0
 11
0.0454394645207823
 21
0.0185231691782942
 31
0.0
  0
LINE
  5
5EE
330
1F
100
AcDbEntity
  8
0
100
AcDbLine
 10
0.0454394645207823
 20
0.0185231691782942
 30
0.0
 11
0.0454394645207823
 21
0.0181282885713664
 31
0.0
  0
LINE
  5
5EF
330
1F
100
AcDbEntity
  8
0
100
AcDbLine
 10
0.0454394645207823
 20
0.0174291964636936
 30
0.0
 11
0.0454394645207823
 21
0.0181282885713664
 31
0.0
  0
LINE
  5
5F0
330
1F
100
AcDbEntity
  8
0
100
AcDbLine
 10
0.0528879794678427
 20
0.0188741095143688
 30
0.0
 11
0.0534553727052436
 21
0.0188741096820069
 31
0.0
  0
LINE
  5
5F1
330
1F
100
AcDbEntity
  8
0
100
AcDbLine
 10
0.0677311691344059
 20
-0.0799258904986697
 30
0.0
 11
0.0257477599142368
 21
-0.0799258904986697
 31
0.0
  0
LINE
  5
5F2
330
1F
100
AcDbEntity
  8
0
100
AcDbLine
 10
0.040626377303821
 20
0.0188741095143688
 30
0.0
 11
0.0293394642799423
 21
0.0188741096820069
 31
0.0
  0
LINE
  5
5F3
330
1F
100
AcDbEntity
  8
0
100
AcDbLine
 10
0.0641394647687004
 20
0.0188741096820069
 30
0.0
 11
0.0534553727052436
 21
0.0188741096820069
 31
0.0
  0
LINE
  5
5F4
330
1F
100
AcDbEntity
  8
0
100
AcDbLine
 10
0.0641394647687004
 20
0.0338741093467307
 30
0.0
 11
0.0293394642799423
 21
0.0338741093467307
 31
0.0
  0
LINE
  5
5F5
330
1F
100
AcDbEntity
  8
0
100
AcDbLine
 10
0.0323325282811449
 20
0.0493741095143688
 30
0.0
 11
0.0355424093141511
 21
0.0493741095143688
 31
0.0
  0
LINE
  5
5F6
330
1F
100
AcDbEntity
  8
0
100
AcDbLine
 10
0.0413512201604484
 20
0.0493741095143688
 30
0.0
 11
0.0355892174848612
 21
0.0493741095143688
 31
0.0
  0
LINE
  5
5F7
330
1F
100
AcDbEntity
  8
0
100
AcDbLine
 10
0.0414670591428994
 20
0.0493741095143688
 30
0.0
 11
0.0458183893756916
 21
0.0493741095143688
 31
0.0
  0
LINE
  5
5F8
330
1F
100
AcDbEntity
  8
0
100
AcDbLine
 10
0.0461161122247589
 20
0.0493741095143688
 30
0.0
 11
0.047728803002013
 21
0.0493741095143688
 31
0.0
  0
LINE
  5
5F9
330
1F
100
AcDbEntity
  8
0
100
AcDbLine
 10
0.0480260377070028
 20
0.0493741095143688
 30
0.0
 11
0.0523627093963972
 21
0.0493741095143688
 31
0.0
  0
LINE
  5
5FA
330
1F
100
AcDbEntity
  8
0
100
AcDbLine
 10
0.0581842287869969
 20
0.0493741095143688
 30
0.0
 11
0.0524779683015082
 21
0.0493741095143688
 31
0.0
  0
LINE
  5
5FB
330
1F
100
AcDbEntity
  8
0
100
AcDbLine
 10
0.0277403479715734
 20
0.0493741095143688
 30
0.0
 11
0.0247394646435306
 21
0.0493741095143688
 31
0.0
  0
LINE
  5
5FC
330
1F
100
AcDbEntity
  8
0
100
AcDbLine
 10
0.0277403479715734
 20
0.0493741095143688
 30
0.0
 11
0.0283075374788709
 21
0.0493741095143688
 31
0.0
  0
LINE
  5
5FD
330
1F
100
AcDbEntity
  8
0
100
AcDbLine
 10
0.0289550288430642
 20
0.0493741095143688
 30
0.0
 11
0.0309738959666932
 21
0.0493741095143688
 31
0.0
  0
LINE
  5
5FE
330
1F
100
AcDbEntity
  8
0
100
AcDbLine
 10
0.0614024053963269
 20
0.0493741095143688
 30
0.0
 11
0.0582303138630943
 21
0.0493741095143688
 31
0.0
  0
LINE
  5
5FF
330
1F
100
AcDbEntity
  8
0
100
AcDbLine
 10
0.0646491391306794
 20
0.0493741095143688
 30
0.0
 11
0.0627062398024652
 21
0.0493741095143688
 31
0.0
  0
LINE
  5
600
330
1F
100
AcDbEntity
  8
0
100
AcDbLine
 10
0.0657385810770693
 20
0.0493741095143688
 30
0.0
 11
0.0651716885079423
 21
0.0493741095143688
 31
0.0
  0
LINE
  5
601
330
1F
100
AcDbEntity
  8
0
100
AcDbLine
 10
0.0687394644051121
 20
0.0493741095143688
 30
0.0
 11
0.0657385810770693
 21
0.0493741095143688
 31
0.0
  0
LINE
  5
602
330
1F
100
AcDbEntity
  8
0
100
AcDbLine
 10
0.0248394644736574
 20
0.0793741103786362
 30
0.0
 11
0.0365394641562627
 21
0.0793741103786362
 31
0.0
  0
LINE
  5
603
330
1F
100
AcDbEntity
  8
0
100
AcDbLine
 10
0.0247394646435306
 20
0.0792741086858643
 30
0.0
 11
0.0365394641562627
 21
0.0792741086858643
 31
0.0
  0
LINE
  5
604
330
1F
100
AcDbEntity
  8
0
100
AcDbLine
 10
0.0477596929091348
 20
0.0513741095143688
 30
0.0
 11
0.0524053198754795
 21
0.0513741095143688
 31
0.0
  0
LINE
  5
605
330
1F
100
AcDbEntity
  8
0
100
AcDbLine
 10
0.0477162781583583
 20
0.0513741095143688
 30
0.0
 11
0.0461240037537058
 21
0.0513741095143688
 31
0.0
  0
LINE
  5
606
330
1F
100
AcDbEntity
  8
0
100
AcDbLine
 10
0.0414363540819475
 20
0.0513741095143688
 30
0.0
 11
0.0460805177035382
 21
0.0513741095143688
 31
0.0
  0
LINE
  5
607
330
1F
100
AcDbEntity
  8
0
100
AcDbLine
 10
0.0365155543118046
 20
0.0513741095143688
 30
0.0
 11
0.0414363540819475
 21
0.0513741095143688
 31
0.0
  0
LINE
  5
608
330
1F
100
AcDbEntity
  8
0
100
AcDbLine
 10
0.0580460716487979
 20
0.0513741095143688
 30
0.0
 11
0.0524053198754795
 21
0.0513741095143688
 31
0.0
  0
LINE
  5
609
330
1F
100
AcDbEntity
  8
0
100
AcDbLine
 10
0.0291226448357919
 20
0.0513741095143688
 30
0.0
 11
0.0312990551977534
 21
0.0513741095143688
 31
0.0
  0
LINE
  5
60A
330
1F
100
AcDbEntity
  8
0
100
AcDbLine
 10
0.0312990551977534
 20
0.0513741095143688
 30
0.0
 11
0.0322582159762642
 21
0.0513741095143688
 31
0.0
  0
LINE
  5
60B
330
1F
100
AcDbEntity
  8
0
100
AcDbLine
 10
0.0322931687611357
 20
0.0513741095143688
 30
0.0
 11
0.0357303773687699
 21
0.0513741095143688
 31
0.0
  0
LINE
  5
60C
330
1F
100
AcDbEntity
  8
0
100
AcDbLine
 10
0.0567394643008039
 20
0.0792741094584895
 30
0.0
 11
0.061252378757231
 21
0.0792741086858643
 31
0.0
  0
LINE
  5
60D
330
1F
100
AcDbEntity
  8
0
100
AcDbLine
 10
0.0614137315336957
 20
0.0513741095143688
 30
0.0
 11
0.0580460716487979
 21
0.0513741095143688
 31
0.0
  0
LINE
  5
60E
330
1F
100
AcDbEntity
  8
0
100
AcDbLine
 10
0.0644867624287928
 20
0.0513741095143688
 30
0.0
 11
0.0624004083518821
 21
0.0513741095143688
 31
0.0
  0
LINE
  5
60F
330
1F
100
AcDbEntity
  8
0
100
AcDbLine
 10
0.064845109257035
 20
0.0792741086858643
 30
0.0
 11
0.0613253553315327
 21
0.0792741086858643
 31
0.0
  0
LINE
  5
610
330
1F
100
AcDbEntity
  8
0
100
AcDbLine
 10
0.0644867624287928
 20
0.0513741095143688
 30
0.0
 11
0.0649383395736845
 21
0.0513741095143688
 31
0.0
  0
LINE
  5
611
330
1F
100
AcDbEntity
  8
0
100
AcDbLine
 10
0.0674788745968864
 20
0.0792741086858643
 30
0.0
 11
0.0649552251129673
 21
0.0792741086858643
 31
0.0
  0
LINE
  5
612
330
1F
100
AcDbEntity
  8
0
100
AcDbLine
 10
0.0654980563224805
 20
0.0513741095143688
 30
0.0
 11
0.068739464405112
 21
0.0513741095143688
 31
0.0
  0
LINE
  5
613
330
1F
100
AcDbEntity
  8
0
100
AcDbLine
 10
0.0247394646435306
 20
0.0513741095143688
 30
0.0
 11
0.0279808727261622
 21
0.0513741095143688
 31
0.0
  0
LINE
  5
614
330
1F
100
AcDbEntity
  8
0
100
AcDbLine
 10
0.0567394643008039
 20
0.0793741103786362
 30
0.0
 11
0.0365394641562627
 21
0.0793741103786362
 31
0.0
  0
LINE
  5
615
330
1F
100
AcDbEntity
  8
0
100
AcDbLine
 10
0.0686394645749853
 20
0.0793741103786362
 30
0.0
 11
0.0567394643008039
 21
0.0793741103786362
 31
0.0
  0
LINE
  5
616
330
1F
100
AcDbEntity
  8
0
100
AcDbLine
 10
0.0567394643008039
 20
0.0792741094584895
 30
0.0
 11
0.0567394643008039
 21
0.0793741103786362
 31
0.0
  0
LINE
  5
617
330
1F
100
AcDbEntity
  8
0
100
AcDbLine
 10
0.0365394641562627
 20
0.0742741097289455
 30
0.0
 11
0.0367394647478388
 21
0.0742741095702482
 31
0.0
  0
LINE
  5
618
330
1F
100
AcDbEntity
  8
0
100
AcDbLine
 10
0.0247394646435307
 20
-0.0756258904606717
 30
0.0
 11
0.0227417881341643
 21
-0.0756258904606717
 31
0.0
  0
LINE
  5
619
330
1F
100
AcDbEntity
  8
0
100
AcDbLine
 10
0.0688259405927149
 20
-0.0794258902919161
 30
0.0
 11
0.0707371409144784
 21
-0.0794258902919161
 31
0.0
  0
LINE
  5
61A
330
1F
100
AcDbEntity
  8
0
100
AcDbLine
 10
0.0246933485826064
 20
-0.0794258902919161
 30
0.0
 11
0.0688259405927149
 21
-0.0794258902919161
 31
0.0
  0
LINE
  5
61B
330
1F
100
AcDbEntity
  8
0
100
AcDbLine
 10
0.0246933485826064
 20
-0.0794258902919161
 30
0.0
 11
0.0227417881341643
 21
-0.0794258902919161
 31
0.0
  0
LINE
  5
61C
330
1F
100
AcDbEntity
  8
0
100
AcDbLine
 10
0.0687394644051121
 20
-0.0756258904606717
 30
0.0
 11
0.0247394646435307
 21
-0.0756258904606717
 31
0.0
  0
LINE
  5
61D
330
1F
100
AcDbEntity
  8
0
100
AcDbLine
 10
0.0707371409144784
 20
-0.0756258904606717
 30
0.0
 11
0.0687394644051121
 21
-0.0756258904606717
 31
0.0
  0
LINE
  5
61E
330
1F
100
AcDbEntity
  8
0
100
AcDbLine
 10
-0.1176661463557235
 20
0.0792741094584895
 30
0.0
 11
-0.0722620636700145
 21
0.0792741094584895
 31
0.0
  0
LINE
  5
61F
330
1F
100
AcDbEntity
  8
0
100
AcDbLine
 10
-0.1176661463557235
 20
0.0742741095702482
 30
0.0
 11
-0.0746661462365142
 21
0.0742741095702482
 31
0.0
  0
LINE
  5
620
330
1F
100
AcDbEntity
  8
0
100
AcDbLine
 10
-0.1579598711766176
 20
0.0175018945514143
 30
0.0
 11
-0.158727608790191
 21
0.0173837494121954
 31
0.0
  0
LINE
  5
621
330
1F
100
AcDbEntity
  8
0
100
AcDbLine
 10
-0.158727608790191
 20
0.0173837494121954
 30
0.0
 11
-0.1592211801255689
 21
0.0173590330834233
 31
0.0
  0
LINE
  5
622
330
1F
100
AcDbEntity
  8
0
100
AcDbLine
 10
-0.1592211801255689
 20
0.0173590330834233
 30
0.0
 11
-0.159621954646194
 21
0.0173886557117137
 31
0.0
  0
LINE
  5
623
330
1F
100
AcDbEntity
  8
0
100
AcDbLine
 10
-0.1660550118694807
 20
0.0207479062785062
 30
0.0
 11
-0.1664838606880197
 21
0.0208081770523717
 31
0.0
  0
LINE
  5
624
330
1F
100
AcDbEntity
  8
0
100
AcDbLine
 10
-0.1643992882432192
 20
0.0215250372256561
 30
0.0
 11
-0.1647064383049918
 21
0.0215682043538271
 31
0.0
  0
LINE
  5
625
330
1F
100
AcDbEntity
  8
0
100
AcDbLine
 10
-0.1643992882432192
 20
0.0215250372256561
 30
0.0
 11
-0.1629984408427198
 21
0.0213281604986024
 31
0.0
  0
LINE
  5
626
330
1F
100
AcDbEntity
  8
0
100
AcDbLine
 10
-0.164908568542095
 20
0.0215966114367676
 30
0.0
 11
-0.1662198740960639
 21
0.0217809038935725
 31
0.0
  0
LINE
  5
627
330
1F
100
AcDbEntity
  8
0
100
AcDbLine
 10
-0.1629984408427198
 20
0.0213281604986024
 30
0.0
 11
-0.1604317653890897
 21
0.0209674382247729
 31
0.0
  0
LINE
  5
628
330
1F
100
AcDbEntity
  8
0
100
AcDbLine
 10
-0.164845611435437
 20
0.0205779361237058
 30
0.0
 11
-0.1660550118694807
 21
0.0207479062785062
 31
0.0
  0
LINE
  5
629
330
1F
100
AcDbEntity
  8
0
100
AcDbLine
 10
-0.1616614130727683
 20
0.0201304262060779
 30
0.0
 11
-0.1580835008415681
 21
0.0196275834100273
 31
0.0
  0
LINE
  5
62A
330
1F
100
AcDbEntity
  8
0
100
AcDbLine
 10
-0.1679126354079457
 20
0.0210089782539296
 30
0.0
 11
-0.1664838606880197
 21
0.0208081770523717
 31
0.0
  0
LINE
  5
62B
330
1F
100
AcDbEntity
  8
0
100
AcDbLine
 10
-0.1616614130727683
 20
0.0201304262060779
 30
0.0
 11
-0.164845611435437
 21
0.0205779361237058
 31
0.0
  0
LINE
  5
62C
330
1F
100
AcDbEntity
  8
0
100
AcDbLine
 10
-0.1580835008415681
 20
0.0196275834100273
 30
0.0
 11
-0.1547042959996889
 21
0.0191526671176988
 31
0.0
  0
LINE
  5
62D
330
1F
100
AcDbEntity
  8
0
100
AcDbLine
 10
-0.1520833193677512
 20
0.0187843128561006
 30
0.0
 11
-0.1506545446478253
 21
0.0185835116545427
 31
0.0
  0
LINE
  5
62E
330
1F
100
AcDbEntity
  8
0
100
AcDbLine
 10
-0.1520833193677512
 20
0.0187843128561006
 30
0.0
 11
-0.1525121681862902
 21
0.0188445836299661
 31
0.0
  0
LINE
  5
62F
330
1F
100
AcDbEntity
  8
0
100
AcDbLine
 10
-0.1525121681862902
 20
0.0188445836299661
 30
0.0
 11
-0.1547042959996889
 21
0.0191526671176988
 31
0.0
  0
LINE
  5
630
330
1F
100
AcDbEntity
  8
0
100
AcDbLine
 10
-0.161188438958958
 20
0.017955640184623
 30
0.0
 11
-0.1604830074166582
 21
0.0176304546124568
 31
0.0
  0
LINE
  5
631
330
1F
100
AcDbEntity
  8
0
100
AcDbLine
 10
-0.1604830074166582
 20
0.0176304546124568
 30
0.0
 11
-0.1600153689434082
 21
0.0174706490482511
 31
0.0
  0
LINE
  5
632
330
1F
100
AcDbEntity
  8
0
100
AcDbLine
 10
-0.1600153689434082
 20
0.0174706490482511
 30
0.0
 11
-0.159621954646194
 21
0.0173886557117137
 31
0.0
  0
LINE
  5
633
330
1F
100
AcDbEntity
  8
0
100
AcDbLine
 10
-0.1635333844292148
 20
0.0192796798603777
 30
0.0
 11
-0.1617725529159805
 21
0.0182652420584568
 31
0.0
  0
LINE
  5
634
330
1F
100
AcDbEntity
  8
0
100
AcDbLine
 10
-0.0803257017885658
 20
0.0188741095143688
 30
0.0
 11
-0.0805118392963131
 21
0.0188741096820069
 31
0.0
  0
LINE
  5
635
330
1F
100
AcDbEntity
  8
0
100
AcDbLine
 10
-0.0800016376641491
 20
0.0188741095143688
 30
0.0
 11
-0.0803257017885658
 21
0.0188741095143688
 31
0.0
  0
LINE
  5
636
330
1F
100
AcDbEntity
  8
0
100
AcDbLine
 10
-0.0809583262734041
 20
0.0188741095143688
 30
0.0
 11
-0.0805118392963131
 21
0.0188741096820069
 31
0.0
  0
LINE
  5
637
330
1F
100
AcDbEntity
  8
0
100
AcDbLine
 10
-0.0816256835048179
 20
0.0188741095143688
 30
0.0
 11
-0.0810440714757066
 21
0.0188741095143688
 31
0.0
  0
LINE
  5
638
330
1F
100
AcDbEntity
  8
0
100
AcDbLine
 10
-0.0823711924585758
 20
0.0188741095143688
 30
0.0
 11
-0.0820841831839994
 21
0.0188741095143688
 31
0.0
  0
LINE
  5
639
330
1F
100
AcDbEntity
  8
0
100
AcDbLine
 10
-0.082952804487687
 20
0.0188741095143688
 30
0.0
 11
-0.0823711924585758
 21
0.0188741095143688
 31
0.0
  0
LINE
  5
63A
330
1F
100
AcDbEntity
  8
0
100
AcDbLine
 10
-0.0834903538142144
 20
0.0188741095143688
 30
0.0
 11
-0.0830385496899896
 21
0.0188741095143688
 31
0.0
  0
LINE
  5
63B
330
1F
100
AcDbEntity
  8
0
100
AcDbLine
 10
-0.0839952382992446
 20
0.0188741095143688
 30
0.0
 11
-0.083651449353964
 21
0.0188741095143688
 31
0.0
  0
LINE
  5
63C
330
1F
100
AcDbEntity
  8
0
100
AcDbLine
 10
-0.073657850965808
 20
-0.0799258904986697
 30
0.0
 11
-0.0316744417456389
 21
-0.0799258904986697
 31
0.0
  0
LINE
  5
63D
330
1F
100
AcDbEntity
  8
0
100
AcDbLine
 10
-0.0661286869798722
 20
0.0188741096820069
 30
0.0
 11
-0.067917961328866
 21
0.0188741096820069
 31
0.0
  0
LINE
  5
63E
330
1F
100
AcDbEntity
  8
0
100
AcDbLine
 10
-0.0733704834055324
 20
0.0188741096820069
 30
0.0
 11
-0.0745209084633906
 21
0.0188741096820069
 31
0.0
  0
LINE
  5
63F
330
1F
100
AcDbEntity
  8
0
100
AcDbLine
 10
-0.067917961328866
 20
0.0188741096820069
 30
0.0
 11
-0.0733704834055324
 21
0.0188741096820069
 31
0.0
  0
LINE
  5
640
330
1F
100
AcDbEntity
  8
0
100
AcDbLine
 10
-0.0729006151326699
 20
0.0338741093467307
 30
0.0
 11
-0.0661286869798722
 21
0.0338741093467307
 31
0.0
  0
LINE
  5
641
330
1F
100
AcDbEntity
  8
0
100
AcDbLine
 10
-0.0743346800536987
 20
0.0338741093467307
 30
0.0
 11
-0.0735925015614399
 21
0.0338741093467307
 31
0.0
  0
LINE
  5
642
330
1F
100
AcDbEntity
  8
0
100
AcDbLine
 10
-0.1644783049632032
 20
0.0338741093467307
 30
0.0
 11
-0.1739984407831152
 21
0.0338741093467307
 31
0.0
  0
LINE
  5
643
330
1F
100
AcDbEntity
  8
0
100
AcDbLine
 10
-0.1634831309128721
 20
0.0338190830837322
 30
0.0
 11
-0.1642798736501653
 21
0.0338709069940579
 31
0.0
  0
LINE
  5
644
330
1F
100
AcDbEntity
  8
0
100
AcDbLine
 10
-0.1663446875575745
 20
0.021798445282493
 30
0.0
 11
-0.1678080058398079
 21
0.0220041013826949
 31
0.0
  0
LINE
  5
645
330
1F
100
AcDbEntity
  8
0
100
AcDbLine
 10
-0.167937256399308
 20
0.0220222662477747
 30
0.0
 11
-0.1739984407831152
 21
0.0228741094063354
 31
0.0
  0
LINE
  5
646
330
1F
100
AcDbEntity
  8
0
100
AcDbLine
 10
-0.1455369621325452
 20
0.0188741096820069
 30
0.0
 11
-0.1503515773955726
 21
0.0195507601209403
 31
0.0
  0
LINE
  5
647
330
1F
100
AcDbEntity
  8
0
100
AcDbLine
 10
-0.1579443277388775
 20
0.0206178514426642
 30
0.0
 11
-0.1603445060837577
 21
0.0209551747285663
 31
0.0
  0
LINE
  5
648
330
1F
100
AcDbEntity
  8
0
100
AcDbLine
 10
-0.1538895455516613
 20
0.0200479891430589
 30
0.0
 11
-0.1578570684499674
 21
0.0206055879531352
 31
0.0
  0
LINE
  5
649
330
1F
100
AcDbEntity
  8
0
100
AcDbLine
 10
-0.1520689596988167
 20
0.0197921224751425
 30
0.0
 11
-0.153622010664382
 21
0.0200103895648502
 31
0.0
  0
LINE
  5
64A
330
1F
100
AcDbEntity
  8
0
100
AcDbLine
 10
-0.1519441462236516
 20
0.0197745811833782
 30
0.0
 11
-0.1504255582462943
 21
0.0195611574519611
 31
0.0
  0
LINE
  5
64B
330
1F
100
AcDbEntity
  8
0
100
AcDbLine
 10
-0.0746661462365142
 20
0.0493741095143688
 30
0.0
 11
-0.0716403706813066
 21
0.0493741095143688
 31
0.0
  0
LINE
  5
64C
330
1F
100
AcDbEntity
  8
0
100
AcDbLine
 10
-0.0716121851230099
 20
0.0493741095143688
 30
0.0
 11
-0.0708100370906173
 21
0.0493741095143688
 31
0.0
  0
LINE
  5
64D
330
1F
100
AcDbEntity
  8
0
100
AcDbLine
 10
-0.0336531457035295
 20
0.0493741095143688
 30
0.0
 11
-0.0306661464749328
 21
0.0493741095143688
 31
0.0
  0
LINE
  5
64E
330
1F
100
AcDbEntity
  8
0
100
AcDbLine
 10
-0.0707788372496337
 20
0.0493741095143688
 30
0.0
 11
-0.0678324705440497
 21
0.0493741095143688
 31
0.0
  0
LINE
  5
64F
330
1F
100
AcDbEntity
  8
0
100
AcDbLine
 10
-0.0677945192340123
 20
0.0493741095143688
 30
0.0
 11
-0.0647305029389751
 21
0.0493741095143688
 31
0.0
  0
LINE
  5
650
330
1F
100
AcDbEntity
  8
0
100
AcDbLine
 10
-0.0647305029389751
 20
0.0493741095143688
 30
0.0
 11
-0.0644592684637821
 21
0.0493741095143688
 31
0.0
  0
LINE
  5
651
330
1F
100
AcDbEntity
  8
0
100
AcDbLine
 10
-0.0589896540144536
 20
0.0493741095143688
 30
0.0
 11
-0.0629488460030645
 21
0.0493741095143688
 31
0.0
  0
LINE
  5
652
330
1F
100
AcDbEntity
  8
0
100
AcDbLine
 10
-0.0589896540144536
 20
0.0493741095143688
 30
0.0
 11
-0.0588228126949744
 21
0.0493741095143688
 31
0.0
  0
LINE
  5
653
330
1F
100
AcDbEntity
  8
0
100
AcDbLine
 10
-0.0477015372834739
 20
0.0493741095143688
 30
0.0
 11
-0.0572762591122031
 21
0.0493741095143688
 31
0.0
  0
LINE
  5
654
330
1F
100
AcDbEntity
  8
0
100
AcDbLine
 10
-0.0477015372834739
 20
0.0493741095143688
 30
0.0
 11
-0.0461640886849267
 21
0.0493741095143688
 31
0.0
  0
LINE
  5
655
330
1F
100
AcDbEntity
  8
0
100
AcDbLine
 10
-0.0418753711518134
 20
0.0493741095143688
 30
0.0
 11
-0.0405880171075713
 21
0.0493741095143688
 31
0.0
  0
LINE
  5
656
330
1F
100
AcDbEntity
  8
0
100
AcDbLine
 10
-0.0336988250873817
 20
0.0493741095143688
 30
0.0
 11
-0.034417217746486
 21
0.0493741095143688
 31
0.0
  0
LINE
  5
657
330
1F
100
AcDbEntity
  8
0
100
AcDbLine
 10
-0.037281998365905
 20
0.0493741095143688
 30
0.0
 11
-0.03444618972311
 21
0.0493741095143688
 31
0.0
  0
LINE
  5
658
330
1F
100
AcDbEntity
  8
0
100
AcDbLine
 10
-0.0403213465263268
 20
0.0493741095143688
 30
0.0
 11
-0.0373190541525951
 21
0.0493741095143688
 31
0.0
  0
LINE
  5
659
330
1F
100
AcDbEntity
  8
0
100
AcDbLine
 10
-0.0420775358295544
 20
0.0493741095143688
 30
0.0
 11
-0.0459985350057065
 21
0.0493741095143688
 31
0.0
  0
LINE
  5
65A
330
1F
100
AcDbEntity
  8
0
100
AcDbLine
 10
-0.0297211451046884
 20
0.064484272960419
 30
0.0
 11
-0.0297211451046884
 21
0.0642676314970796
 31
0.0
  0
LINE
  5
65B
330
1F
100
AcDbEntity
  8
0
100
AcDbLine
 10
-0.030666146403221
 20
0.0669741094394905
 30
0.0
 11
-0.030666146403221
 21
0.0676136449261886
 31
0.0
  0
LINE
  5
65C
330
1F
100
AcDbEntity
  8
0
100
AcDbLine
 10
-0.030666146403221
 20
0.0653741095381176
 30
0.0
 11
-0.030666146403221
 21
0.0664514446913583
 31
0.0
  0
LINE
  5
65D
330
1F
100
AcDbEntity
  8
0
100
AcDbLine
 10
-0.030666146403221
 20
0.0643741094906201
 30
0.0
 11
-0.030666146403221
 21
0.0653741095381176
 31
0.0
  0
LINE
  5
65E
330
1F
100
AcDbEntity
  8
0
100
AcDbLine
 10
-0.030666146403221
 20
0.0632967743373794
 30
0.0
 11
-0.030666146403221
 21
0.0643741094906201
 31
0.0
  0
LINE
  5
65F
330
1F
100
AcDbEntity
  8
0
100
AcDbLine
 10
-0.030666146403221
 20
0.0622178133859617
 30
0.0
 11
-0.030666146403221
 21
0.0627792553793026
 31
0.0
  0
LINE
  5
660
330
1F
100
AcDbEntity
  8
0
100
AcDbLine
 10
-0.030666146403221
 20
0.0622178133859617
 30
0.0
 11
-0.030666146403221
 21
0.06212410952927
 31
0.0
  0
LINE
  5
661
330
1F
100
AcDbEntity
  8
0
100
AcDbLine
 10
-0.0297211451046884
 20
0.0653029542233182
 30
0.0
 11
-0.0297211451046884
 21
0.065480587531658
 31
0.0
  0
LINE
  5
662
330
1F
100
AcDbEntity
  8
0
100
AcDbLine
 10
-0.0308265518872491
 20
0.0792741086858643
 30
0.0
 11
-0.0461210790565661
 21
0.0792741086858643
 31
0.0
  0
LINE
  5
663
330
1F
100
AcDbEntity
  8
0
100
AcDbLine
 10
-0.0308265518872491
 20
0.0792741086858643
 30
0.0
 11
-0.0306661464749328
 21
0.0792741086858643
 31
0.0
  0
LINE
  5
664
330
1F
100
AcDbEntity
  8
0
100
AcDbLine
 10
-0.0714132399132237
 20
0.0513741095143688
 30
0.0
 11
-0.0746661462365142
 21
0.0513741095143688
 31
0.0
  0
LINE
  5
665
330
1F
100
AcDbEntity
  8
0
100
AcDbLine
 10
-0.0705495349631547
 20
0.0513741095143688
 30
0.0
 11
-0.0714132399132237
 21
0.0513741095143688
 31
0.0
  0
LINE
  5
666
330
1F
100
AcDbEntity
  8
0
100
AcDbLine
 10
-0.0722620636700145
 20
0.0792741094584895
 30
0.0
 11
-0.0692002121834508
 21
0.0792741086858643
 31
0.0
  0
LINE
  5
667
330
1F
100
AcDbEntity
  8
0
100
AcDbLine
 10
-0.0705495349631547
 20
0.0513741095143688
 30
0.0
 11
-0.0676349240338111
 21
0.0513741095143688
 31
0.0
  0
LINE
  5
668
330
1F
100
AcDbEntity
  8
0
100
AcDbLine
 10
-0.0651591476528398
 20
0.0792741086858643
 30
0.0
 11
-0.0691304449467412
 21
0.0792741086858643
 31
0.0
  0
LINE
  5
669
330
1F
100
AcDbEntity
  8
0
100
AcDbLine
 10
-0.0643495864834625
 20
0.0513741095143688
 30
0.0
 11
-0.0676349240338111
 21
0.0513741095143688
 31
0.0
  0
LINE
  5
66A
330
1F
100
AcDbEntity
  8
0
100
AcDbLine
 10
-0.0587448707273559
 20
0.0513741095143688
 30
0.0
 11
-0.0629907765567025
 21
0.0513741095143688
 31
0.0
  0
LINE
  5
66B
330
1F
100
AcDbEntity
  8
0
100
AcDbLine
 10
-0.0587448707273559
 20
0.0513741095143688
 30
0.0
 11
-0.057217895896306
 21
0.0513741095143688
 31
0.0
  0
LINE
  5
66C
330
1F
100
AcDbEntity
  8
0
100
AcDbLine
 10
-0.0600062325140885
 20
0.0792741086858643
 30
0.0
 11
-0.0650025196848861
 21
0.0792741086858643
 31
0.0
  0
LINE
  5
66D
330
1F
100
AcDbEntity
  8
0
100
AcDbLine
 10
-0.0526661463557235
 20
0.0513741095143688
 30
0.0
 11
-0.057217895896306
 21
0.0513741095143688
 31
0.0
  0
LINE
  5
66E
330
1F
100
AcDbEntity
  8
0
100
AcDbLine
 10
-0.0308265518872491
 20
0.0615580799582732
 30
0.0
 11
-0.0356731775490685
 21
0.0592980613300997
 31
0.0
  0
LINE
  5
66F
330
1F
100
AcDbEntity
  8
0
100
AcDbLine
 10
-0.0307661463050595
 20
0.0793741103786362
 30
0.0
 11
-0.0721497294037095
 21
0.0793741103786362
 31
0.0
  0
LINE
  5
670
330
1F
100
AcDbEntity
  8
0
100
AcDbLine
 10
-0.0526661463557235
 20
0.0513741095143688
 30
0.0
 11
-0.0356731775490685
 21
0.0592980613300997
 31
0.0
  0
LINE
  5
671
330
1F
100
AcDbEntity
  8
0
100
AcDbLine
 10
-0.03057967028733
 20
-0.0794258902919161
 30
0.0
 11
-0.0286896501644226
 21
-0.0794258902919161
 31
0.0
  0
LINE
  5
672
330
1F
100
AcDbEntity
  8
0
100
AcDbLine
 10
-0.074752622424117
 20
-0.0794258902919161
 30
0.0
 11
-0.03057967028733
 21
-0.0794258902919161
 31
0.0
  0
LINE
  5
673
330
1F
100
AcDbEntity
  8
0
100
AcDbLine
 10
-0.0766426425470244
 20
-0.0794258902919161
 30
0.0
 11
-0.074752622424117
 21
-0.0794258902919161
 31
0.0
  0
LINE
  5
674
330
1F
100
AcDbEntity
  8
0
100
AcDbLine
 10
-0.0746661462365142
 20
-0.0756258904606717
 30
0.0
 11
-0.0766426425470244
 21
-0.0756258904606717
 31
0.0
  0
LINE
  5
675
330
1F
100
AcDbEntity
  8
0
100
AcDbLine
 10
-0.0306661464749328
 20
-0.0756258904606717
 30
0.0
 11
-0.0746661462365142
 21
-0.0756258904606717
 31
0.0
  0
LINE
  5
676
330
1F
100
AcDbEntity
  8
0
100
AcDbLine
 10
-0.0286896501644226
 20
-0.0756258904606717
 30
0.0
 11
-0.0306661464749328
 21
-0.0756258904606717
 31
0.0
  0
LINE
  5
677
330
1F
100
AcDbEntity
  8
0
100
AcDbLine
 10
0.1528520693919883
 20
0.053275159708231
 30
0.0
 11
0.1517394644125626
 21
0.0534005199177258
 31
0.0
  0
LINE
  5
678
330
1F
100
AcDbEntity
  8
0
100
AcDbLine
 10
0.1415394645101652
 20
0.0534005199177258
 30
0.0
 11
0.1517394644125626
 21
0.0534005199177258
 31
0.0
  0
LINE
  5
679
330
1F
100
AcDbEntity
  8
0
100
AcDbLine
 10
0.1556486220016406
 20
0.0515179691454463
 30
0.0
 11
0.1553260554201438
 21
0.0518405359166681
 31
0.0
  0
LINE
  5
67A
330
1F
100
AcDbEntity
  8
0
100
AcDbLine
 10
0.1562443089588807
 20
0.0505699386438422
 30
0.0
 11
0.1556486220016406
 21
0.0515179691454463
 31
0.0
  0
LINE
  5
67B
330
1F
100
AcDbEntity
  8
0
100
AcDbLine
 10
0.1566141036256478
 20
0.0495131246596642
 30
0.0
 11
0.1567394643008039
 21
0.0484005200294845
 31
0.0
  0
LINE
  5
67C
330
1F
100
AcDbEntity
  8
0
100
AcDbLine
 10
0.1566141036256478
 20
0.0495131246596642
 30
0.0
 11
0.1562443089588807
 21
0.0505699386438422
 31
0.0
  0
LINE
  5
67D
330
1F
100
AcDbEntity
  8
0
100
AcDbLine
 10
0.1548569139941857
 20
0.0523096776185625
 30
0.0
 11
0.1553260554201438
 21
0.0518405359166681
 31
0.0
  0
LINE
  5
67E
330
1F
100
AcDbEntity
  8
0
100
AcDbLine
 10
0.1539088830269204
 20
0.0529053645758026
 30
0.0
 11
0.1548569139941857
 21
0.0523096776185625
 31
0.0
  0
LINE
  5
67F
330
1F
100
AcDbEntity
  8
0
100
AcDbLine
 10
0.1539088830269204
 20
0.0529053645758026
 30
0.0
 11
0.1528520693919883
 21
0.053275159708231
 31
0.0
  0
LINE
  5
680
330
1F
100
AcDbEntity
  8
0
100
AcDbLine
 10
0.1347292132501549
 20
0.0299798941249939
 30
0.0
 11
0.1342420403762982
 21
0.0302948752967708
 31
0.0
  0
LINE
  5
681
330
1F
100
AcDbEntity
  8
0
100
AcDbLine
 10
0.1642394645988272
 20
-0.0619317744575118
 30
0.0
 11
0.1642394645988272
 21
0.0320300562421944
 31
0.0
  0
LINE
  5
682
330
1F
100
AcDbEntity
  8
0
100
AcDbLine
 10
0.1642394645988272
 20
-0.0619317744575118
 30
0.0
 11
0.1642287804662512
 21
-0.0624164645276641
 31
0.0
  0
LINE
  5
683
330
1F
100
AcDbEntity
  8
0
100
AcDbLine
 10
0.129314359548621
 20
-0.0632132072649573
 30
0.0
 11
0.1292742232709453
 21
-0.0627151881061171
 31
0.0
  0
LINE
  5
684
330
1F
100
AcDbEntity
  8
0
100
AcDbLine
 10
0.1323325282811449
 20
0.0650270103095167
 30
0.0
 11
0.1321613393476133
 21
0.064855821375985
 31
0.0
  0
LINE
  5
685
330
1F
100
AcDbEntity
  8
0
100
AcDbLine
 10
0.1631947658708219
 20
0.0629786452061927
 30
0.0
 11
0.1633659548043535
 21
0.062807456272661
 31
0.0
  0
LINE
  5
686
330
1F
100
AcDbEntity
  8
0
100
AcDbLine
 10
0.1349320162018778
 20
0.029848772063809
 30
0.0
 11
0.1353580330415891
 21
0.0295733312694423
 31
0.0
  0
LINE
  5
687
330
1F
100
AcDbEntity
  8
0
100
AcDbLine
 10
0.1302841631778208
 20
0.0338223948527764
 30
0.0
 11
0.1301129742442892
 21
0.0339935837863081
 31
0.0
  0
LINE
  5
688
330
1F
100
AcDbEntity
  8
0
100
AcDbLine
 10
0.1439894645392225
 20
0.070400519981987
 30
0.0
 11
0.1440831683959142
 21
0.070400519981987
 31
0.0
  0
LINE
  5
689
330
1F
100
AcDbEntity
  8
0
100
AcDbLine
 10
0.1446998566772119
 20
0.070400519981987
 30
0.0
 11
0.1440831683959142
 21
0.070400519981987
 31
0.0
  0
LINE
  5
68A
330
1F
100
AcDbEntity
  8
0
100
AcDbLine
 10
0.1453644645317719
 20
0.070400519981987
 30
0.0
 11
0.1446998566772119
 21
0.070400519981987
 31
0.0
  0
LINE
  5
68B
330
1F
100
AcDbEntity
  8
0
100
AcDbLine
 10
0.1463489209019274
 20
0.0713666109915261
 30
0.0
 11
0.146471431883138
 21
0.071366611001026
 31
0.0
  0
LINE
  5
68C
330
1F
100
AcDbEntity
  8
0
100
AcDbLine
 10
0.146310619815372
 20
0.0713455212805196
 30
0.0
 11
0.1461329865070322
 21
0.0713455212805196
 31
0.0
  0
LINE
  5
68D
330
1F
100
AcDbEntity
  8
0
100
AcDbLine
 10
0.1486840082017035
 20
0.070400519981987
 30
0.0
 11
0.1481144645168708
 21
0.070400519981987
 31
0.0
  0
LINE
  5
68E
330
1F
100
AcDbEntity
  8
0
100
AcDbLine
 10
0.1494789999361412
 20
0.070400519981987
 30
0.0
 11
0.1488460868514405
 21
0.070400519981987
 31
0.0
  0
LINE
  5
68F
330
1F
100
AcDbEntity
  8
0
100
AcDbLine
 10
0.1365394641562627
 20
0.0290208912072771
 30
0.0
 11
0.1365394641562627
 21
0.0289414624301784
 31
0.0
  0
LINE
  5
690
330
1F
100
AcDbEntity
  8
0
100
AcDbLine
 10
0.156739464300804
 20
0.0288046030014764
 30
0.0
 11
0.1571847244179978
 21
0.0290542978301817
 31
0.0
  0
LINE
  5
691
330
1F
100
AcDbEntity
  8
0
100
AcDbLine
 10
0.162571370182853
 20
0.0331272742491946
 30
0.0
 11
0.1612955865728743
 21
0.0319077618395921
 31
0.0
  0
LINE
  5
692
330
1F
100
AcDbEntity
  8
0
100
AcDbLine
 10
0.1659372238068223
 20
0.0376559394871858
 30
0.0
 11
0.166377146355712
 21
0.0385268913703131
 31
0.0
  0
LINE
  5
693
330
1F
100
AcDbEntity
  8
0
100
AcDbLine
 10
0.1680898257553802
 20
0.0431378104582557
 30
0.0
 11
0.1680423815536384
 21
0.042942518100413
 31
0.0
  0
LINE
  5
694
330
1F
100
AcDbEntity
  8
0
100
AcDbLine
 10
0.156739464300804
 20
0.0288046030014764
 30
0.0
 11
0.1567394643008039
 21
0.0289169369814985
 31
0.0
  0
LINE
  5
695
330
1F
100
AcDbEntity
  8
0
100
AcDbLine
 10
0.1567394643008039
 20
0.0289169369814985
 30
0.0
 11
0.156739464300804
 21
0.04815052001761
 31
0.0
  0
LINE
  5
696
330
1F
100
AcDbEntity
  8
0
100
AcDbLine
 10
0.0577287440105603
 20
0.0201156506839526
 30
0.0
 11
0.0579271363551992
 21
0.0201969189417049
 31
0.0
  0
LINE
  5
697
330
1F
100
AcDbEntity
  8
0
100
AcDbLine
 10
0.0357501850380824
 20
0.0201156506839526
 30
0.0
 11
0.0355478100890804
 21
0.0201985503520221
 31
0.0
  0
LINE
  5
698
330
1F
100
AcDbEntity
  8
0
100
AcDbLine
 10
0.0355478103780446
 20
0.0213744759736158
 30
0.0
 11
0.0357501850380824
 21
0.0214573754522336
 31
0.0
  0
LINE
  5
699
330
1F
100
AcDbEntity
  8
0
100
AcDbLine
 10
0.1292687545447872
 20
-0.0446786959372138
 30
0.0
 11
0.1292470770805405
 21
-0.0449095372758483
 31
0.0
  0
LINE
  5
69A
330
1F
100
AcDbEntity
  8
0
100
AcDbLine
 10
0.164175560560913
 20
-0.0445478266848893
 30
0.0
 11
0.1641394647687004
 21
-0.0444702957473372
 31
0.0
  0
LINE
  5
69B
330
1F
100
AcDbEntity
  8
0
100
AcDbLine
 10
-0.0816256835048179
 20
0.0188741095143688
 30
0.0
 11
-0.0819126927793943
 21
0.0188741095143688
 31
0.0
  0
LINE
  5
69C
330
1F
100
AcDbEntity
  8
0
100
AcDbLine
 10
0.145577264289491
 20
0.070400519981987
 30
0.0
 11
0.1469791428190685
 21
0.070400519981987
 31
0.0
  0
LINE
  5
69D
330
1F
100
AcDbEntity
  8
0
100
AcDbLine
 10
-0.0296690246477034
 20
0.0647955132814442
 30
0.0
 11
-0.0296661463557235
 21
0.0648741095143688
 31
0.0
  0
LINE
  5
69E
330
1F
100
AcDbEntity
  8
0
100
AcDbLine
 10
-0.0296690246477034
 20
0.0648129724947122
 30
0.0
 11
-0.0296661463557235
 21
0.0648741095143688
 31
0.0
  0
LINE
  5
69F
330
1F
100
AcDbEntity
  8
0
100
AcDbLine
 10
-0.0296690246477034
 20
0.0648468133282787
 30
0.0
 11
-0.0296661463557235
 21
0.0648741095143688
 31
0.0
  0
LINE
  5
6A0
330
1F
100
AcDbEntity
  8
0
100
AcDbLine
 10
-0.0296690246477034
 20
0.0648129724947122
 30
0.0
 11
-0.0296690246477034
 21
0.0648468133282787
 31
0.0
  0
LINE
  5
6A1
330
1F
100
AcDbEntity
  8
0
100
AcDbLine
 10
-0.0296690246477034
 20
0.0648468133282787
 30
0.0
 11
-0.0296690246477034
 21
0.0648879681508899
 31
0.0
  0
LINE
  5
6A2
330
1F
100
AcDbEntity
  8
0
100
AcDbLine
 10
-0.0296690246477034
 20
0.0648879681508899
 30
0.0
 11
-0.0296690246477034
 21
0.0649254095630223
 31
0.0
  0
LINE
  5
6A3
330
1F
100
AcDbEntity
  8
0
100
AcDbLine
 10
-0.0296690246477034
 20
0.0649254095630223
 30
0.0
 11
-0.0296661463557235
 21
0.0648741095143688
 31
0.0
  0
LINE
  5
6A4
330
1F
100
AcDbEntity
  8
0
100
AcDbLine
 10
-0.0296690246477034
 20
0.0649491051669085
 30
0.0
 11
-0.0296661463557235
 21
0.0648741095143688
 31
0.0
  0
LINE
  5
6A5
330
1F
100
AcDbEntity
  8
0
100
AcDbLine
 10
-0.0296690246477034
 20
0.0647955132814442
 30
0.0
 11
-0.0296880197251291
 21
0.0645279994866197
 31
0.0
  0
LINE
  5
6A6
330
1F
100
AcDbEntity
  8
0
100
AcDbLine
 10
-0.0296880197251291
 20
0.0647010545004943
 30
0.0
 11
-0.0296880197251291
 21
0.0646755889544349
 31
0.0
  0
LINE
  5
6A7
330
1F
100
AcDbEntity
  8
0
100
AcDbLine
 10
-0.0296880197251291
 20
0.0647278370967453
 30
0.0
 11
-0.0296880197251291
 21
0.0647010545004943
 31
0.0
  0
LINE
  5
6A8
330
1F
100
AcDbEntity
  8
0
100
AcDbLine
 10
-0.0296880197251291
 20
0.0647557329145112
 30
0.0
 11
-0.0296880197251291
 21
0.0647278370967453
 31
0.0
  0
LINE
  5
6A9
330
1F
100
AcDbEntity
  8
0
100
AcDbLine
 10
-0.0296880197251291
 20
0.064784529648625
 30
0.0
 11
-0.0296880197251291
 21
0.0647557329145112
 31
0.0
  0
LINE
  5
6AA
330
1F
100
AcDbEntity
  8
0
100
AcDbLine
 10
-0.0296880197251291
 20
0.0648140081399671
 30
0.0
 11
-0.0296880197251291
 21
0.064784529648625
 31
0.0
  0
LINE
  5
6AB
330
1F
100
AcDbEntity
  8
0
100
AcDbLine
 10
-0.0296880197251291
 20
0.0648439440380227
 30
0.0
 11
-0.0296880197251291
 21
0.0648140081399671
 31
0.0
  0
LINE
  5
6AC
330
1F
100
AcDbEntity
  8
0
100
AcDbLine
 10
-0.0296880197251291
 20
0.0648741095143688
 30
0.0
 11
-0.0296880197251291
 21
0.0648439440380227
 31
0.0
  0
LINE
  5
6AD
330
1F
100
AcDbEntity
  8
0
100
AcDbLine
 10
-0.0296880197251291
 20
0.064904274990715
 30
0.0
 11
-0.0296880197251291
 21
0.0648741095143688
 31
0.0
  0
LINE
  5
6AE
330
1F
100
AcDbEntity
  8
0
100
AcDbLine
 10
-0.0296880197251291
 20
0.0649342108887705
 30
0.0
 11
-0.0296880197251291
 21
0.064904274990715
 31
0.0
  0
LINE
  5
6AF
330
1F
100
AcDbEntity
  8
0
100
AcDbLine
 10
-0.0296880197251291
 20
0.0649636893801127
 30
0.0
 11
-0.0296880197251291
 21
0.0649342108887705
 31
0.0
  0
LINE
  5
6B0
330
1F
100
AcDbEntity
  8
0
100
AcDbLine
 10
-0.0296880197251291
 20
0.0649924861142264
 30
0.0
 11
-0.0296880197251291
 21
0.0649636893801127
 31
0.0
  0
LINE
  5
6B1
330
1F
100
AcDbEntity
  8
0
100
AcDbLine
 10
-0.0296880197251291
 20
0.0650203819319924
 30
0.0
 11
-0.0296880197251291
 21
0.0649924861142264
 31
0.0
  0
LINE
  5
6B2
330
1F
100
AcDbEntity
  8
0
100
AcDbLine
 10
-0.0296880197251291
 20
0.0650471645282434
 30
0.0
 11
-0.0296880197251291
 21
0.0650203819319924
 31
0.0
  0
LINE
  5
6B3
330
1F
100
AcDbEntity
  8
0
100
AcDbLine
 10
-0.0296880197251291
 20
0.0650726300743028
 30
0.0
 11
-0.0296880197251291
 21
0.0650471645282434
 31
0.0
  0
LINE
  5
6B4
330
1F
100
AcDbEntity
  8
0
100
AcDbLine
 10
-0.0297211451046884
 20
0.0654782797143181
 30
0.0
 11
-0.0296880197251291
 21
0.0652189024773744
 31
0.0
  0
LINE
  5
6B5
330
1F
100
AcDbEntity
  8
0
100
AcDbLine
 10
-0.0296880197251291
 20
0.0652202195421179
 30
0.0
 11
-0.0296690246477034
 21
0.0649491051669085
 31
0.0
  0
LINE
  5
6B6
330
1F
100
AcDbEntity
  8
0
100
AcDbLine
 10
-0.0296690246477034
 20
0.0649491051669085
 30
0.0
 11
-0.0296880197251291
 21
0.0652189024773744
 31
0.0
  0
LINE
  5
6B7
330
1F
100
AcDbEntity
  8
0
100
AcDbLine
 10
-0.0296690246477034
 20
0.0649491051669085
 30
0.0
 11
-0.0296880197251291
 21
0.0652149613530693
 31
0.0
  0
LINE
  5
6B8
330
1F
100
AcDbEntity
  8
0
100
AcDbLine
 10
-0.0296690246477034
 20
0.0649491051669085
 30
0.0
 11
-0.0296880197251291
 21
0.0652084261170441
 31
0.0
  0
LINE
  5
6B9
330
1F
100
AcDbEntity
  8
0
100
AcDbLine
 10
-0.0296690246477034
 20
0.0649491051669085
 30
0.0
 11
-0.0296880197251291
 21
0.0651993465368488
 31
0.0
  0
LINE
  5
6BA
330
1F
100
AcDbEntity
  8
0
100
AcDbLine
 10
-0.0296690246477034
 20
0.0649491051669085
 30
0.0
 11
-0.0296880197251291
 21
0.0651877917340809
 31
0.0
  0
LINE
  5
6BB
330
1F
100
AcDbEntity
  8
0
100
AcDbLine
 10
-0.0296690246477034
 20
0.0649254095630223
 30
0.0
 11
-0.0296880197251291
 21
0.0651877917340809
 31
0.0
  0
LINE
  5
6BC
330
1F
100
AcDbEntity
  8
0
100
AcDbLine
 10
-0.0296690246477034
 20
0.0649254095630223
 30
0.0
 11
-0.0296880197251291
 21
0.0651738495732044
 31
0.0
  0
LINE
  5
6BD
330
1F
100
AcDbEntity
  8
0
100
AcDbLine
 10
-0.0296690246477034
 20
0.0649254095630223
 30
0.0
 11
-0.0296880197251291
 21
0.0651576262540968
 31
0.0
  0
LINE
  5
6BE
330
1F
100
AcDbEntity
  8
0
100
AcDbLine
 10
-0.0296690246477034
 20
0.0649254095630223
 30
0.0
 11
-0.0296880197251291
 21
0.065139245176999
 31
0.0
  0
LINE
  5
6BF
330
1F
100
AcDbEntity
  8
0
100
AcDbLine
 10
-0.0296690246477034
 20
0.0649254095630223
 30
0.0
 11
-0.0296880197251291
 21
0.0651188462731281
 31
0.0
  0
LINE
  5
6C0
330
1F
100
AcDbEntity
  8
0
100
AcDbLine
 10
-0.0296690246477034
 20
0.0649254095630223
 30
0.0
 11
-0.0296880197251291
 21
0.0650965847532117
 31
0.0
  0
LINE
  5
6C1
330
1F
100
AcDbEntity
  8
0
100
AcDbLine
 10
-0.0296690246477034
 20
0.0649254095630223
 30
0.0
 11
-0.0296880197251291
 21
0.0650726300743028
 31
0.0
  0
LINE
  5
6C2
330
1F
100
AcDbEntity
  8
0
100
AcDbLine
 10
-0.0296690246477034
 20
0.0648879681508899
 30
0.0
 11
-0.0296880197251291
 21
0.0650726300743028
 31
0.0
  0
LINE
  5
6C3
330
1F
100
AcDbEntity
  8
0
100
AcDbLine
 10
-0.0296690246477034
 20
0.0648879681508899
 30
0.0
 11
-0.0296880197251291
 21
0.0650471645282434
 31
0.0
  0
LINE
  5
6C4
330
1F
100
AcDbEntity
  8
0
100
AcDbLine
 10
-0.0296690246477034
 20
0.0648879681508899
 30
0.0
 11
-0.0296880197251291
 21
0.0650203819319924
 31
0.0
  0
LINE
  5
6C5
330
1F
100
AcDbEntity
  8
0
100
AcDbLine
 10
-0.0296690246477034
 20
0.0648879681508899
 30
0.0
 11
-0.0296880197251291
 21
0.0649924861142264
 31
0.0
  0
LINE
  5
6C6
330
1F
100
AcDbEntity
  8
0
100
AcDbLine
 10
-0.0296690246477034
 20
0.0648879681508899
 30
0.0
 11
-0.0296880197251291
 21
0.0649636893801127
 31
0.0
  0
LINE
  5
6C7
330
1F
100
AcDbEntity
  8
0
100
AcDbLine
 10
-0.0296690246477034
 20
0.0648879681508899
 30
0.0
 11
-0.0296880197251291
 21
0.0649342108887705
 31
0.0
  0
LINE
  5
6C8
330
1F
100
AcDbEntity
  8
0
100
AcDbLine
 10
-0.0296690246477034
 20
0.0648468133282787
 30
0.0
 11
-0.0296880197251291
 21
0.064904274990715
 31
0.0
  0
LINE
  5
6C9
330
1F
100
AcDbEntity
  8
0
100
AcDbLine
 10
-0.0296690246477034
 20
0.0648468133282787
 30
0.0
 11
-0.0296880197251291
 21
0.0648741095143688
 31
0.0
  0
LINE
  5
6CA
330
1F
100
AcDbEntity
  8
0
100
AcDbLine
 10
-0.0296690246477034
 20
0.0648468133282787
 30
0.0
 11
-0.0296880197251291
 21
0.0648140081399671
 31
0.0
  0
LINE
  5
6CB
330
1F
100
AcDbEntity
  8
0
100
AcDbLine
 10
-0.0296690246477034
 20
0.0648468133282787
 30
0.0
 11
-0.0296880197251291
 21
0.064784529648625
 31
0.0
  0
LINE
  5
6CC
330
1F
100
AcDbEntity
  8
0
100
AcDbLine
 10
-0.0296690246477034
 20
0.0648468133282787
 30
0.0
 11
-0.0296880197251291
 21
0.0647557329145112
 31
0.0
  0
LINE
  5
6CD
330
1F
100
AcDbEntity
  8
0
100
AcDbLine
 10
-0.0296690246477034
 20
0.0648468133282787
 30
0.0
 11
-0.0296880197251291
 21
0.0647278370967453
 31
0.0
  0
LINE
  5
6CE
330
1F
100
AcDbEntity
  8
0
100
AcDbLine
 10
-0.0296690246477034
 20
0.0648129724947122
 30
0.0
 11
-0.0296880197251291
 21
0.0647278370967453
 31
0.0
  0
LINE
  5
6CF
330
1F
100
AcDbEntity
  8
0
100
AcDbLine
 10
-0.0296690246477034
 20
0.0648129724947122
 30
0.0
 11
-0.0296880197251291
 21
0.0647010545004943
 31
0.0
  0
LINE
  5
6D0
330
1F
100
AcDbEntity
  8
0
100
AcDbLine
 10
-0.0296690246477034
 20
0.0648129724947122
 30
0.0
 11
-0.0296880197251291
 21
0.0646755889544349
 31
0.0
  0
LINE
  5
6D1
330
1F
100
AcDbEntity
  8
0
100
AcDbLine
 10
-0.0296690246477034
 20
0.0648129724947122
 30
0.0
 11
-0.0296880197251291
 21
0.0646516342755259
 31
0.0
  0
LINE
  5
6D2
330
1F
100
AcDbEntity
  8
0
100
AcDbLine
 10
-0.0296690246477034
 20
0.0648129724947122
 30
0.0
 11
-0.0296880197251291
 21
0.0646293727556096
 31
0.0
  0
LINE
  5
6D3
330
1F
100
AcDbEntity
  8
0
100
AcDbLine
 10
-0.0296690246477034
 20
0.0648129724947122
 30
0.0
 11
-0.0296880197251291
 21
0.0646089738517386
 31
0.0
  0
LINE
  5
6D4
330
1F
100
AcDbEntity
  8
0
100
AcDbLine
 10
-0.0296690246477034
 20
0.0648129724947122
 30
0.0
 11
-0.0296880197251291
 21
0.0645905927746409
 31
0.0
  0
LINE
  5
6D5
330
1F
100
AcDbEntity
  8
0
100
AcDbLine
 10
-0.0296690246477034
 20
0.0647955132814442
 30
0.0
 11
-0.0296880197251291
 21
0.0645905927746409
 31
0.0
  0
LINE
  5
6D6
330
1F
100
AcDbEntity
  8
0
100
AcDbLine
 10
-0.0296690246477034
 20
0.0647955132814442
 30
0.0
 11
-0.0296880197251291
 21
0.0645743694555332
 31
0.0
  0
LINE
  5
6D7
330
1F
100
AcDbEntity
  8
0
100
AcDbLine
 10
-0.0296690246477034
 20
0.0647955132814442
 30
0.0
 11
-0.0296880197251291
 21
0.0645604272946568
 31
0.0
  0
LINE
  5
6D8
330
1F
100
AcDbEntity
  8
0
100
AcDbLine
 10
-0.0296690246477034
 20
0.0647955132814442
 30
0.0
 11
-0.0296880197251291
 21
0.0645488724918888
 31
0.0
  0
LINE
  5
6D9
330
1F
100
AcDbEntity
  8
0
100
AcDbLine
 10
-0.0296690246477034
 20
0.0647955132814442
 30
0.0
 11
-0.0296880197251291
 21
0.0645397929116936
 31
0.0
  0
LINE
  5
6DA
330
1F
100
AcDbEntity
  8
0
100
AcDbLine
 10
-0.0296690246477034
 20
0.0647955132814442
 30
0.0
 11
-0.0296880197251291
 21
0.0645332576756684
 31
0.0
  0
LINE
  5
6DB
330
1F
100
AcDbEntity
  8
0
100
AcDbLine
 10
-0.0296690246477034
 20
0.0647955132814442
 30
0.0
 11
-0.0296880197251291
 21
0.0645293165513632
 31
0.0
  0
LINE
  5
6DC
330
1F
100
AcDbEntity
  8
0
100
AcDbLine
 10
-0.0296690246477034
 20
0.0649527057472934
 30
0.0
 11
-0.0296661463557235
 21
0.0648741095143688
 31
0.0
  0
LINE
  5
6DD
330
1F
100
AcDbEntity
  8
0
100
AcDbLine
 10
-0.0296690246477034
 20
0.0649352465340254
 30
0.0
 11
-0.0296661463557235
 21
0.0648741095143688
 31
0.0
  0
LINE
  5
6DE
330
1F
100
AcDbEntity
  8
0
100
AcDbLine
 10
-0.0296690246477034
 20
0.0649140138672575
 30
0.0
 11
-0.0296661463557235
 21
0.0648741095143688
 31
0.0
  0
LINE
  5
6DF
330
1F
100
AcDbEntity
  8
0
100
AcDbLine
 10
-0.0296690246477034
 20
0.0649140138672575
 30
0.0
 11
-0.0296690246477034
 21
0.0648810653016536
 31
0.0
  0
LINE
  5
6E0
330
1F
100
AcDbEntity
  8
0
100
AcDbLine
 10
-0.0296661463557235
 20
0.0648741095143688
 30
0.0
 11
-0.0296690246477034
 21
0.0648403808960776
 31
0.0
  0
LINE
  5
6E1
330
1F
100
AcDbEntity
  8
0
100
AcDbLine
 10
-0.0296690246477034
 20
0.0648810653016536
 30
0.0
 11
-0.0296690246477034
 21
0.0648403808960776
 31
0.0
  0
LINE
  5
6E2
330
1F
100
AcDbEntity
  8
0
100
AcDbLine
 10
-0.0296690246477034
 20
0.0648403808960776
 30
0.0
 11
-0.0296690246477034
 21
0.0648087340456752
 31
0.0
  0
LINE
  5
6E3
330
1F
100
AcDbEntity
  8
0
100
AcDbLine
 10
-0.0296690246477034
 20
0.0648087340456752
 30
0.0
 11
-0.0296661463557235
 21
0.0648741095143688
 31
0.0
  0
LINE
  5
6E4
330
1F
100
AcDbEntity
  8
0
100
AcDbLine
 10
-0.0296690246477034
 20
0.0647970202195776
 30
0.0
 11
-0.0296661463557235
 21
0.0648741095143688
 31
0.0
  0
LINE
  5
6E5
330
1F
100
AcDbEntity
  8
0
100
AcDbLine
 10
-0.0296880197251291
 20
0.0652202195421179
 30
0.0
 11
-0.0296690246477034
 21
0.0649527057472934
 31
0.0
  0
LINE
  5
6E6
330
1F
100
AcDbEntity
  8
0
100
AcDbLine
 10
-0.0296880197251291
 20
0.0650471645282434
 30
0.0
 11
-0.0296880197251291
 21
0.0650726300743028
 31
0.0
  0
LINE
  5
6E7
330
1F
100
AcDbEntity
  8
0
100
AcDbLine
 10
-0.0296880197251291
 20
0.0650203819319924
 30
0.0
 11
-0.0296880197251291
 21
0.0650471645282434
 31
0.0
  0
LINE
  5
6E8
330
1F
100
AcDbEntity
  8
0
100
AcDbLine
 10
-0.0296880197251291
 20
0.0649924861142264
 30
0.0
 11
-0.0296880197251291
 21
0.0650203819319924
 31
0.0
  0
LINE
  5
6E9
330
1F
100
AcDbEntity
  8
0
100
AcDbLine
 10
-0.0296880197251291
 20
0.0649636893801127
 30
0.0
 11
-0.0296880197251291
 21
0.0649924861142264
 31
0.0
  0
LINE
  5
6EA
330
1F
100
AcDbEntity
  8
0
100
AcDbLine
 10
-0.0296880197251291
 20
0.0649342108887705
 30
0.0
 11
-0.0296880197251291
 21
0.0649636893801127
 31
0.0
  0
LINE
  5
6EB
330
1F
100
AcDbEntity
  8
0
100
AcDbLine
 10
-0.0296880197251291
 20
0.064904274990715
 30
0.0
 11
-0.0296880197251291
 21
0.0649342108887705
 31
0.0
  0
LINE
  5
6EC
330
1F
100
AcDbEntity
  8
0
100
AcDbLine
 10
-0.0296880197251291
 20
0.0648741095143688
 30
0.0
 11
-0.0296880197251291
 21
0.064904274990715
 31
0.0
  0
LINE
  5
6ED
330
1F
100
AcDbEntity
  8
0
100
AcDbLine
 10
-0.0296880197251291
 20
0.0648439440380227
 30
0.0
 11
-0.0296880197251291
 21
0.0648741095143688
 31
0.0
  0
LINE
  5
6EE
330
1F
100
AcDbEntity
  8
0
100
AcDbLine
 10
-0.0296880197251291
 20
0.0648140081399671
 30
0.0
 11
-0.0296880197251291
 21
0.0648439440380227
 31
0.0
  0
LINE
  5
6EF
330
1F
100
AcDbEntity
  8
0
100
AcDbLine
 10
-0.0296880197251291
 20
0.064784529648625
 30
0.0
 11
-0.0296880197251291
 21
0.0648140081399671
 31
0.0
  0
LINE
  5
6F0
330
1F
100
AcDbEntity
  8
0
100
AcDbLine
 10
-0.0296880197251291
 20
0.0647557329145112
 30
0.0
 11
-0.0296880197251291
 21
0.064784529648625
 31
0.0
  0
LINE
  5
6F1
330
1F
100
AcDbEntity
  8
0
100
AcDbLine
 10
-0.0296880197251291
 20
0.0647278370967453
 30
0.0
 11
-0.0296880197251291
 21
0.0647557329145112
 31
0.0
  0
LINE
  5
6F2
330
1F
100
AcDbEntity
  8
0
100
AcDbLine
 10
-0.0296880197251291
 20
0.0647010545004943
 30
0.0
 11
-0.0296880197251291
 21
0.0647278370967453
 31
0.0
  0
LINE
  5
6F3
330
1F
100
AcDbEntity
  8
0
100
AcDbLine
 10
-0.0296880197251291
 20
0.0646755889544349
 30
0.0
 11
-0.0296880197251291
 21
0.0647010545004943
 31
0.0
  0
LINE
  5
6F4
330
1F
100
AcDbEntity
  8
0
100
AcDbLine
 10
-0.0297211451046884
 20
0.0642699393144195
 30
0.0
 11
-0.0296880197251291
 21
0.0645293165513632
 31
0.0
  0
LINE
  5
6F5
330
1F
100
AcDbEntity
  8
0
100
AcDbLine
 10
-0.0296690246477034
 20
0.0647955132814442
 30
0.0
 11
-0.0296880197251291
 21
0.0645293165513632
 31
0.0
  0
LINE
  5
6F6
330
1F
100
AcDbEntity
  8
0
100
AcDbLine
 10
-0.0296690246477034
 20
0.0647970202195776
 30
0.0
 11
-0.0296880197251291
 21
0.0645293165513632
 31
0.0
  0
LINE
  5
6F7
330
1F
100
AcDbEntity
  8
0
100
AcDbLine
 10
-0.0296690246477034
 20
0.0647970202195776
 30
0.0
 11
-0.0296880197251291
 21
0.0645332576756684
 31
0.0
  0
LINE
  5
6F8
330
1F
100
AcDbEntity
  8
0
100
AcDbLine
 10
-0.0296690246477034
 20
0.0647970202195776
 30
0.0
 11
-0.0296880197251291
 21
0.0645397929116936
 31
0.0
  0
LINE
  5
6F9
330
1F
100
AcDbEntity
  8
0
100
AcDbLine
 10
-0.0296690246477034
 20
0.0648087340456752
 30
0.0
 11
-0.0296880197251291
 21
0.0645397929116936
 31
0.0
  0
LINE
  5
6FA
330
1F
100
AcDbEntity
  8
0
100
AcDbLine
 10
-0.0296690246477034
 20
0.0648087340456752
 30
0.0
 11
-0.0296880197251291
 21
0.0645488724918888
 31
0.0
  0
LINE
  5
6FB
330
1F
100
AcDbEntity
  8
0
100
AcDbLine
 10
-0.0296690246477034
 20
0.0648087340456752
 30
0.0
 11
-0.0296880197251291
 21
0.0645604272946568
 31
0.0
  0
LINE
  5
6FC
330
1F
100
AcDbEntity
  8
0
100
AcDbLine
 10
-0.0296690246477034
 20
0.0648087340456752
 30
0.0
 11
-0.0296880197251291
 21
0.0645743694555332
 31
0.0
  0
LINE
  5
6FD
330
1F
100
AcDbEntity
  8
0
100
AcDbLine
 10
-0.0296690246477034
 20
0.0648087340456752
 30
0.0
 11
-0.0296880197251291
 21
0.0645905927746409
 31
0.0
  0
LINE
  5
6FE
330
1F
100
AcDbEntity
  8
0
100
AcDbLine
 10
-0.0296690246477034
 20
0.0648087340456752
 30
0.0
 11
-0.0296880197251291
 21
0.0646089738517386
 31
0.0
  0
LINE
  5
6FF
330
1F
100
AcDbEntity
  8
0
100
AcDbLine
 10
-0.0296690246477034
 20
0.0648403808960776
 30
0.0
 11
-0.0296880197251291
 21
0.0646089738517386
 31
0.0
  0
LINE
  5
700
330
1F
100
AcDbEntity
  8
0
100
AcDbLine
 10
-0.0296690246477034
 20
0.0648403808960776
 30
0.0
 11
-0.0296880197251291
 21
0.0646293727556096
 31
0.0
  0
LINE
  5
701
330
1F
100
AcDbEntity
  8
0
100
AcDbLine
 10
-0.0296690246477034
 20
0.0648403808960776
 30
0.0
 11
-0.0296880197251291
 21
0.0646516342755259
 31
0.0
  0
LINE
  5
702
330
1F
100
AcDbEntity
  8
0
100
AcDbLine
 10
-0.0296690246477034
 20
0.0648403808960776
 30
0.0
 11
-0.0296880197251291
 21
0.0646755889544349
 31
0.0
  0
LINE
  5
703
330
1F
100
AcDbEntity
  8
0
100
AcDbLine
 10
-0.0296690246477034
 20
0.0648403808960776
 30
0.0
 11
-0.0296880197251291
 21
0.0647010545004943
 31
0.0
  0
LINE
  5
704
330
1F
100
AcDbEntity
  8
0
100
AcDbLine
 10
-0.0296690246477034
 20
0.0648403808960776
 30
0.0
 11
-0.0296880197251291
 21
0.0647278370967453
 31
0.0
  0
LINE
  5
705
330
1F
100
AcDbEntity
  8
0
100
AcDbLine
 10
-0.0296690246477034
 20
0.0648403808960776
 30
0.0
 11
-0.0296880197251291
 21
0.0647557329145112
 31
0.0
  0
LINE
  5
706
330
1F
100
AcDbEntity
  8
0
100
AcDbLine
 10
-0.0296690246477034
 20
0.0648810653016536
 30
0.0
 11
-0.0296880197251291
 21
0.0647557329145112
 31
0.0
  0
LINE
  5
707
330
1F
100
AcDbEntity
  8
0
100
AcDbLine
 10
-0.0296690246477034
 20
0.0648810653016536
 30
0.0
 11
-0.0296880197251291
 21
0.064784529648625
 31
0.0
  0
LINE
  5
708
330
1F
100
AcDbEntity
  8
0
100
AcDbLine
 10
-0.0296690246477034
 20
0.0648810653016536
 30
0.0
 11
-0.0296880197251291
 21
0.0648140081399671
 31
0.0
  0
LINE
  5
709
330
1F
100
AcDbEntity
  8
0
100
AcDbLine
 10
-0.0296690246477034
 20
0.0648810653016536
 30
0.0
 11
-0.0296880197251291
 21
0.0648439440380227
 31
0.0
  0
LINE
  5
70A
330
1F
100
AcDbEntity
  8
0
100
AcDbLine
 10
-0.0296690246477034
 20
0.0648810653016536
 30
0.0
 11
-0.0296880197251291
 21
0.064904274990715
 31
0.0
  0
LINE
  5
70B
330
1F
100
AcDbEntity
  8
0
100
AcDbLine
 10
-0.0296690246477034
 20
0.0648810653016536
 30
0.0
 11
-0.0296880197251291
 21
0.0649342108887705
 31
0.0
  0
LINE
  5
70C
330
1F
100
AcDbEntity
  8
0
100
AcDbLine
 10
-0.0296690246477034
 20
0.0649140138672575
 30
0.0
 11
-0.0296880197251291
 21
0.0649342108887705
 31
0.0
  0
LINE
  5
70D
330
1F
100
AcDbEntity
  8
0
100
AcDbLine
 10
-0.0296690246477034
 20
0.0649140138672575
 30
0.0
 11
-0.0296880197251291
 21
0.0649636893801127
 31
0.0
  0
LINE
  5
70E
330
1F
100
AcDbEntity
  8
0
100
AcDbLine
 10
-0.0296690246477034
 20
0.0649140138672575
 30
0.0
 11
-0.0296880197251291
 21
0.0649924861142264
 31
0.0
  0
LINE
  5
70F
330
1F
100
AcDbEntity
  8
0
100
AcDbLine
 10
-0.0296690246477034
 20
0.0649140138672575
 30
0.0
 11
-0.0296880197251291
 21
0.0650203819319924
 31
0.0
  0
LINE
  5
710
330
1F
100
AcDbEntity
  8
0
100
AcDbLine
 10
-0.0296690246477034
 20
0.0649140138672575
 30
0.0
 11
-0.0296880197251291
 21
0.0650471645282434
 31
0.0
  0
LINE
  5
711
330
1F
100
AcDbEntity
  8
0
100
AcDbLine
 10
-0.0296690246477034
 20
0.0649352465340254
 30
0.0
 11
-0.0296880197251291
 21
0.0650471645282434
 31
0.0
  0
LINE
  5
712
330
1F
100
AcDbEntity
  8
0
100
AcDbLine
 10
-0.0296690246477034
 20
0.0649352465340254
 30
0.0
 11
-0.0296880197251291
 21
0.0650726300743028
 31
0.0
  0
LINE
  5
713
330
1F
100
AcDbEntity
  8
0
100
AcDbLine
 10
-0.0296690246477034
 20
0.0649352465340254
 30
0.0
 11
-0.0296880197251291
 21
0.0650965847532117
 31
0.0
  0
LINE
  5
714
330
1F
100
AcDbEntity
  8
0
100
AcDbLine
 10
-0.0296690246477034
 20
0.0649352465340254
 30
0.0
 11
-0.0296880197251291
 21
0.0651188462731281
 31
0.0
  0
LINE
  5
715
330
1F
100
AcDbEntity
  8
0
100
AcDbLine
 10
-0.0296690246477034
 20
0.0649352465340254
 30
0.0
 11
-0.0296880197251291
 21
0.065139245176999
 31
0.0
  0
LINE
  5
716
330
1F
100
AcDbEntity
  8
0
100
AcDbLine
 10
-0.0296690246477034
 20
0.0649352465340254
 30
0.0
 11
-0.0296880197251291
 21
0.0651576262540968
 31
0.0
  0
LINE
  5
717
330
1F
100
AcDbEntity
  8
0
100
AcDbLine
 10
-0.0296690246477034
 20
0.0649527057472934
 30
0.0
 11
-0.0296880197251291
 21
0.0651576262540968
 31
0.0
  0
LINE
  5
718
330
1F
100
AcDbEntity
  8
0
100
AcDbLine
 10
-0.0296690246477034
 20
0.0649527057472934
 30
0.0
 11
-0.0296880197251291
 21
0.0651738495732044
 31
0.0
  0
LINE
  5
719
330
1F
100
AcDbEntity
  8
0
100
AcDbLine
 10
-0.0296690246477034
 20
0.0649527057472934
 30
0.0
 11
-0.0296880197251291
 21
0.0651877917340809
 31
0.0
  0
LINE
  5
71A
330
1F
100
AcDbEntity
  8
0
100
AcDbLine
 10
-0.0296690246477034
 20
0.0649527057472934
 30
0.0
 11
-0.0296880197251291
 21
0.0651993465368488
 31
0.0
  0
LINE
  5
71B
330
1F
100
AcDbEntity
  8
0
100
AcDbLine
 10
-0.0296690246477034
 20
0.0649527057472934
 30
0.0
 11
-0.0296880197251291
 21
0.0652084261170441
 31
0.0
  0
LINE
  5
71C
330
1F
100
AcDbEntity
  8
0
100
AcDbLine
 10
-0.0296690246477034
 20
0.0649527057472934
 30
0.0
 11
-0.0296880197251291
 21
0.0652149613530693
 31
0.0
  0
LINE
  5
71D
330
1F
100
AcDbEntity
  8
0
100
AcDbLine
 10
-0.0296690246477034
 20
0.0649527057472934
 30
0.0
 11
-0.0296880197251291
 21
0.0652189024773744
 31
0.0
  0
LINE
  5
71E
330
1F
100
AcDbEntity
  8
0
100
AcDbLine
 10
0.1467256058878003
 20
0.0713976417375046
 30
0.0
 11
0.1466881644756678
 21
0.0713976417375046
 31
0.0
  0
LINE
  5
71F
330
1F
100
AcDbEntity
  8
0
100
AcDbLine
 10
0.1466881644756678
 20
0.0713976417375046
 30
0.0
 11
0.1467394645243214
 21
0.0714005200294845
 31
0.0
  0
LINE
  5
720
330
1F
100
AcDbEntity
  8
0
100
AcDbLine
 10
0.1466644688717817
 20
0.0713976417375046
 30
0.0
 11
0.1467394645243214
 21
0.0714005200294845
 31
0.0
  0
LINE
  5
721
330
1F
100
AcDbEntity
  8
0
100
AcDbLine
 10
0.1466608682913968
 20
0.0713976417375046
 30
0.0
 11
0.1467394645243214
 21
0.0714005200294845
 31
0.0
  0
LINE
  5
722
330
1F
100
AcDbEntity
  8
0
100
AcDbLine
 10
0.1466783275046648
 20
0.0713976417375046
 30
0.0
 11
0.1467394645243214
 21
0.0714005200294845
 31
0.0
  0
LINE
  5
723
330
1F
100
AcDbEntity
  8
0
100
AcDbLine
 10
0.1466783275046648
 20
0.0713976417375046
 30
0.0
 11
0.1467121683382313
 21
0.0713976417375046
 31
0.0
  0
LINE
  5
724
330
1F
100
AcDbEntity
  8
0
100
AcDbLine
 10
0.1467121683382313
 20
0.0713976417375046
 30
0.0
 11
0.1467394645243214
 21
0.0714005200294845
 31
0.0
  0
LINE
  5
725
330
1F
100
AcDbEntity
  8
0
100
AcDbLine
 10
0.1466793631499197
 20
0.071378646660079
 30
0.0
 11
0.1467092990479752
 21
0.071378646660079
 31
0.0
  0
LINE
  5
726
330
1F
100
AcDbEntity
  8
0
100
AcDbLine
 10
0.1466498846585775
 20
0.071378646660079
 30
0.0
 11
0.1466793631499197
 21
0.071378646660079
 31
0.0
  0
LINE
  5
727
330
1F
100
AcDbEntity
  8
0
100
AcDbLine
 10
0.1466210879244638
 20
0.071378646660079
 30
0.0
 11
0.1466498846585775
 21
0.071378646660079
 31
0.0
  0
LINE
  5
728
330
1F
100
AcDbEntity
  8
0
100
AcDbLine
 10
0.1465931921066978
 20
0.071378646660079
 30
0.0
 11
0.1466210879244638
 21
0.071378646660079
 31
0.0
  0
LINE
  5
729
330
1F
100
AcDbEntity
  8
0
100
AcDbLine
 10
0.1465664095104468
 20
0.071378646660079
 30
0.0
 11
0.1465931921066978
 21
0.071378646660079
 31
0.0
  0
LINE
  5
72A
330
1F
100
AcDbEntity
  8
0
100
AcDbLine
 10
0.1465409439643874
 20
0.071378646660079
 30
0.0
 11
0.1465664095104468
 21
0.071378646660079
 31
0.0
  0
LINE
  5
72B
330
1F
100
AcDbEntity
  8
0
100
AcDbLine
 10
0.1465664095104468
 20
0.071378646660079
 30
0.0
 11
0.1465409439643874
 21
0.071378646660079
 31
0.0
  0
LINE
  5
72C
330
1F
100
AcDbEntity
  8
0
100
AcDbLine
 10
0.1465931921066978
 20
0.071378646660079
 30
0.0
 11
0.1465664095104468
 21
0.071378646660079
 31
0.0
  0
LINE
  5
72D
330
1F
100
AcDbEntity
  8
0
100
AcDbLine
 10
0.1466210879244638
 20
0.071378646660079
 30
0.0
 11
0.1465931921066978
 21
0.071378646660079
 31
0.0
  0
LINE
  5
72E
330
1F
100
AcDbEntity
  8
0
100
AcDbLine
 10
0.1466498846585775
 20
0.071378646660079
 30
0.0
 11
0.1466210879244638
 21
0.071378646660079
 31
0.0
  0
LINE
  5
72F
330
1F
100
AcDbEntity
  8
0
100
AcDbLine
 10
0.1466793631499197
 20
0.071378646660079
 30
0.0
 11
0.1466498846585775
 21
0.071378646660079
 31
0.0
  0
LINE
  5
730
330
1F
100
AcDbEntity
  8
0
100
AcDbLine
 10
0.1466866064821399
 20
0.0713455212805196
 30
0.0
 11
0.1467092990479752
 21
0.071378646660079
 31
0.0
  0
LINE
  5
731
330
1F
100
AcDbEntity
  8
0
100
AcDbLine
 10
0.1467092990479752
 20
0.071378646660079
 30
0.0
 11
0.1466793631499197
 21
0.071378646660079
 31
0.0
  0
LINE
  5
732
330
1F
100
AcDbEntity
  8
0
100
AcDbLine
 10
0.1467394645243214
 20
0.071378646660079
 30
0.0
 11
0.1467092990479752
 21
0.071378646660079
 31
0.0
  0
LINE
  5
733
330
1F
100
AcDbEntity
  8
0
100
AcDbLine
 10
0.1467394645243214
 20
0.071378646660079
 30
0.0
 11
0.1467121683382313
 21
0.0713976417375046
 31
0.0
  0
LINE
  5
734
330
1F
100
AcDbEntity
  8
0
100
AcDbLine
 10
0.1467121683382313
 20
0.0713976417375046
 30
0.0
 11
0.1466793631499197
 21
0.071378646660079
 31
0.0
  0
LINE
  5
735
330
1F
100
AcDbEntity
  8
0
100
AcDbLine
 10
0.1467121683382313
 20
0.0713976417375046
 30
0.0
 11
0.1466498846585775
 21
0.071378646660079
 31
0.0
  0
LINE
  5
736
330
1F
100
AcDbEntity
  8
0
100
AcDbLine
 10
0.1467121683382313
 20
0.0713976417375046
 30
0.0
 11
0.1466210879244638
 21
0.071378646660079
 31
0.0
  0
LINE
  5
737
330
1F
100
AcDbEntity
  8
0
100
AcDbLine
 10
0.1467121683382313
 20
0.0713976417375046
 30
0.0
 11
0.1465931921066978
 21
0.071378646660079
 31
0.0
  0
LINE
  5
738
330
1F
100
AcDbEntity
  8
0
100
AcDbLine
 10
0.1466783275046648
 20
0.0713976417375046
 30
0.0
 11
0.1465931921066978
 21
0.071378646660079
 31
0.0
  0
LINE
  5
739
330
1F
100
AcDbEntity
  8
0
100
AcDbLine
 10
0.1466783275046648
 20
0.0713976417375046
 30
0.0
 11
0.1465664095104468
 21
0.071378646660079
 31
0.0
  0
LINE
  5
73A
330
1F
100
AcDbEntity
  8
0
100
AcDbLine
 10
0.1466783275046648
 20
0.0713976417375046
 30
0.0
 11
0.1465409439643874
 21
0.071378646660079
 31
0.0
  0
LINE
  5
73B
330
1F
100
AcDbEntity
  8
0
100
AcDbLine
 10
0.1466783275046648
 20
0.0713976417375046
 30
0.0
 11
0.1465169892854785
 21
0.071378646660079
 31
0.0
  0
LINE
  5
73C
330
1F
100
AcDbEntity
  8
0
100
AcDbLine
 10
0.1466783275046648
 20
0.0713976417375046
 30
0.0
 11
0.1464947277655621
 21
0.071378646660079
 31
0.0
  0
LINE
  5
73D
330
1F
100
AcDbEntity
  8
0
100
AcDbLine
 10
0.1466783275046648
 20
0.0713976417375046
 30
0.0
 11
0.1464743288616911
 21
0.071378646660079
 31
0.0
  0
LINE
  5
73E
330
1F
100
AcDbEntity
  8
0
100
AcDbLine
 10
0.1466783275046648
 20
0.0713976417375046
 30
0.0
 11
0.1464559477845934
 21
0.071378646660079
 31
0.0
  0
LINE
  5
73F
330
1F
100
AcDbEntity
  8
0
100
AcDbLine
 10
0.1466608682913968
 20
0.0713976417375046
 30
0.0
 11
0.1464559477845934
 21
0.071378646660079
 31
0.0
  0
LINE
  5
740
330
1F
100
AcDbEntity
  8
0
100
AcDbLine
 10
0.1466608682913968
 20
0.0713976417375046
 30
0.0
 11
0.1464397244654858
 21
0.071378646660079
 31
0.0
  0
LINE
  5
741
330
1F
100
AcDbEntity
  8
0
100
AcDbLine
 10
0.1466608682913968
 20
0.0713976417375046
 30
0.0
 11
0.1464257823046093
 21
0.071378646660079
 31
0.0
  0
LINE
  5
742
330
1F
100
AcDbEntity
  8
0
100
AcDbLine
 10
0.1466608682913968
 20
0.0713976417375046
 30
0.0
 11
0.1464142275018414
 21
0.071378646660079
 31
0.0
  0
LINE
  5
743
330
1F
100
AcDbEntity
  8
0
100
AcDbLine
 10
0.1466608682913968
 20
0.0713976417375046
 30
0.0
 11
0.1464051479216461
 21
0.071378646660079
 31
0.0
  0
LINE
  5
744
330
1F
100
AcDbEntity
  8
0
100
AcDbLine
 10
0.1466608682913968
 20
0.0713976417375046
 30
0.0
 11
0.1463986126856209
 21
0.071378646660079
 31
0.0
  0
LINE
  5
745
330
1F
100
AcDbEntity
  8
0
100
AcDbLine
 10
0.1466608682913968
 20
0.0713976417375046
 30
0.0
 11
0.1463946715613157
 21
0.071378646660079
 31
0.0
  0
LINE
  5
746
330
1F
100
AcDbEntity
  8
0
100
AcDbLine
 10
0.1466644688717817
 20
0.0713976417375046
 30
0.0
 11
0.1463946715613157
 21
0.071378646660079
 31
0.0
  0
LINE
  5
747
330
1F
100
AcDbEntity
  8
0
100
AcDbLine
 10
0.1466644688717817
 20
0.0713976417375046
 30
0.0
 11
0.1463933544965723
 21
0.071378646660079
 31
0.0
  0
LINE
  5
748
330
1F
100
AcDbEntity
  8
0
100
AcDbLine
 10
0.1466644688717817
 20
0.0713976417375046
 30
0.0
 11
0.1463946715613157
 21
0.071378646660079
 31
0.0
  0
LINE
  5
749
330
1F
100
AcDbEntity
  8
0
100
AcDbLine
 10
0.1466644688717817
 20
0.0713976417375046
 30
0.0
 11
0.1463986126856209
 21
0.071378646660079
 31
0.0
  0
LINE
  5
74A
330
1F
100
AcDbEntity
  8
0
100
AcDbLine
 10
0.1466644688717817
 20
0.0713976417375046
 30
0.0
 11
0.1464051479216461
 21
0.071378646660079
 31
0.0
  0
LINE
  5
74B
330
1F
100
AcDbEntity
  8
0
100
AcDbLine
 10
0.1466644688717817
 20
0.0713976417375046
 30
0.0
 11
0.1464142275018414
 21
0.071378646660079
 31
0.0
  0
LINE
  5
74C
330
1F
100
AcDbEntity
  8
0
100
AcDbLine
 10
0.1466644688717817
 20
0.0713976417375046
 30
0.0
 11
0.1464257823046093
 21
0.071378646660079
 31
0.0
  0
LINE
  5
74D
330
1F
100
AcDbEntity
  8
0
100
AcDbLine
 10
0.1466881644756678
 20
0.0713976417375046
 30
0.0
 11
0.1464257823046093
 21
0.071378646660079
 31
0.0
  0
LINE
  5
74E
330
1F
100
AcDbEntity
  8
0
100
AcDbLine
 10
0.1466881644756678
 20
0.0713976417375046
 30
0.0
 11
0.1464397244654858
 21
0.071378646660079
 31
0.0
  0
LINE
  5
74F
330
1F
100
AcDbEntity
  8
0
100
AcDbLine
 10
0.1466881644756678
 20
0.0713976417375046
 30
0.0
 11
0.1464559477845934
 21
0.071378646660079
 31
0.0
  0
LINE
  5
750
330
1F
100
AcDbEntity
  8
0
100
AcDbLine
 10
0.1466881644756678
 20
0.0713976417375046
 30
0.0
 11
0.1464743288616911
 21
0.071378646660079
 31
0.0
  0
LINE
  5
751
330
1F
100
AcDbEntity
  8
0
100
AcDbLine
 10
0.1466881644756678
 20
0.0713976417375046
 30
0.0
 11
0.1464947277655621
 21
0.071378646660079
 31
0.0
  0
LINE
  5
752
330
1F
100
AcDbEntity
  8
0
100
AcDbLine
 10
0.1466881644756678
 20
0.0713976417375046
 30
0.0
 11
0.1465169892854785
 21
0.071378646660079
 31
0.0
  0
LINE
  5
753
330
1F
100
AcDbEntity
  8
0
100
AcDbLine
 10
0.1466881644756678
 20
0.0713976417375046
 30
0.0
 11
0.1465409439643874
 21
0.071378646660079
 31
0.0
  0
LINE
  5
754
330
1F
100
AcDbEntity
  8
0
100
AcDbLine
 10
0.1467256058878003
 20
0.0713976417375046
 30
0.0
 11
0.1465409439643874
 21
0.071378646660079
 31
0.0
  0
LINE
  5
755
330
1F
100
AcDbEntity
  8
0
100
AcDbLine
 10
0.1467256058878003
 20
0.0713976417375046
 30
0.0
 11
0.1465664095104468
 21
0.071378646660079
 31
0.0
  0
LINE
  5
756
330
1F
100
AcDbEntity
  8
0
100
AcDbLine
 10
0.1467256058878003
 20
0.0713976417375046
 30
0.0
 11
0.1465931921066978
 21
0.071378646660079
 31
0.0
  0
LINE
  5
757
330
1F
100
AcDbEntity
  8
0
100
AcDbLine
 10
0.1467256058878003
 20
0.0713976417375046
 30
0.0
 11
0.1466210879244638
 21
0.071378646660079
 31
0.0
  0
LINE
  5
758
330
1F
100
AcDbEntity
  8
0
100
AcDbLine
 10
0.1467256058878003
 20
0.0713976417375046
 30
0.0
 11
0.1466498846585775
 21
0.071378646660079
 31
0.0
  0
LINE
  5
759
330
1F
100
AcDbEntity
  8
0
100
AcDbLine
 10
0.1467256058878003
 20
0.0713976417375046
 30
0.0
 11
0.1466793631499197
 21
0.071378646660079
 31
0.0
  0
LINE
  5
75A
330
1F
100
AcDbEntity
  8
0
100
AcDbLine
 10
0.1467394645243214
 20
0.071378646660079
 30
0.0
 11
0.1467092990479752
 21
0.071378646660079
 31
0.0
  0
LINE
  5
75B
330
1F
100
AcDbEntity
  8
0
100
AcDbLine
 10
0.1467533231608424
 20
0.0713976417375046
 30
0.0
 11
0.1467907645729749
 21
0.0713976417375046
 31
0.0
  0
LINE
  5
75C
330
1F
100
AcDbEntity
  8
0
100
AcDbLine
 10
0.1467907645729749
 20
0.0713976417375046
 30
0.0
 11
0.1467394645243214
 21
0.0714005200294845
 31
0.0
  0
LINE
  5
75D
330
1F
100
AcDbEntity
  8
0
100
AcDbLine
 10
0.1468085808902426
 20
0.0713976417375046
 30
0.0
 11
0.1467394645243214
 21
0.0714005200294845
 31
0.0
  0
LINE
  5
75E
330
1F
100
AcDbEntity
  8
0
100
AcDbLine
 10
0.1468189695389039
 20
0.0713976417375046
 30
0.0
 11
0.1467394645243214
 21
0.0714005200294845
 31
0.0
  0
LINE
  5
75F
330
1F
100
AcDbEntity
  8
0
100
AcDbLine
 10
0.1467394645243214
 20
0.0714005200294845
 30
0.0
 11
0.1468117957793904
 21
0.0713976417375046
 31
0.0
  0
LINE
  5
760
330
1F
100
AcDbEntity
  8
0
100
AcDbLine
 10
0.1468117957793904
 20
0.0713976417375046
 30
0.0
 11
0.1467852409206127
 21
0.0713976417375046
 31
0.0
  0
LINE
  5
761
330
1F
100
AcDbEntity
  8
0
100
AcDbLine
 10
0.1467852409206127
 20
0.0713976417375046
 30
0.0
 11
0.1467394645243214
 21
0.0714005200294845
 31
0.0
  0
LINE
  5
762
330
1F
100
AcDbEntity
  8
0
100
AcDbLine
 10
0.1467601205387065
 20
0.0713976417375046
 30
0.0
 11
0.1467256058878003
 21
0.0713976417375046
 31
0.0
  0
LINE
  5
763
330
1F
100
AcDbEntity
  8
0
100
AcDbLine
 10
0.1467121683382313
 20
0.0713976417375046
 30
0.0
 11
0.1467533231608424
 21
0.0713976417375046
 31
0.0
  0
LINE
  5
764
330
1F
100
AcDbEntity
  8
0
100
AcDbLine
 10
0.1467995658987231
 20
0.071378646660079
 30
0.0
 11
0.1467696300006675
 21
0.071378646660079
 31
0.0
  0
LINE
  5
765
330
1F
100
AcDbEntity
  8
0
100
AcDbLine
 10
0.1468290443900652
 20
0.071378646660079
 30
0.0
 11
0.1467995658987231
 21
0.071378646660079
 31
0.0
  0
LINE
  5
766
330
1F
100
AcDbEntity
  8
0
100
AcDbLine
 10
0.1468578411241789
 20
0.071378646660079
 30
0.0
 11
0.1468290443900652
 21
0.071378646660079
 31
0.0
  0
LINE
  5
767
330
1F
100
AcDbEntity
  8
0
100
AcDbLine
 10
0.1468857369419449
 20
0.071378646660079
 30
0.0
 11
0.1468578411241789
 21
0.071378646660079
 31
0.0
  0
LINE
  5
768
330
1F
100
AcDbEntity
  8
0
100
AcDbLine
 10
0.1469125195381959
 20
0.071378646660079
 30
0.0
 11
0.1468857369419449
 21
0.071378646660079
 31
0.0
  0
LINE
  5
769
330
1F
100
AcDbEntity
  8
0
100
AcDbLine
 10
0.1469379850842553
 20
0.071378646660079
 30
0.0
 11
0.1469125195381959
 21
0.071378646660079
 31
0.0
  0
LINE
  5
76A
330
1F
100
AcDbEntity
  8
0
100
AcDbLine
 10
0.1469125195381959
 20
0.071378646660079
 30
0.0
 11
0.1469379850842553
 21
0.071378646660079
 31
0.0
  0
LINE
  5
76B
330
1F
100
AcDbEntity
  8
0
100
AcDbLine
 10
0.1468857369419449
 20
0.071378646660079
 30
0.0
 11
0.1469125195381959
 21
0.071378646660079
 31
0.0
  0
LINE
  5
76C
330
1F
100
AcDbEntity
  8
0
100
AcDbLine
 10
0.1468578411241789
 20
0.071378646660079
 30
0.0
 11
0.1468857369419449
 21
0.071378646660079
 31
0.0
  0
LINE
  5
76D
330
1F
100
AcDbEntity
  8
0
100
AcDbLine
 10
0.1468290443900652
 20
0.071378646660079
 30
0.0
 11
0.1468578411241789
 21
0.071378646660079
 31
0.0
  0
LINE
  5
76E
330
1F
100
AcDbEntity
  8
0
100
AcDbLine
 10
0.1467995658987231
 20
0.071378646660079
 30
0.0
 11
0.1468290443900652
 21
0.071378646660079
 31
0.0
  0
LINE
  5
76F
330
1F
100
AcDbEntity
  8
0
100
AcDbLine
 10
0.1467923225665028
 20
0.0713455212805196
 30
0.0
 11
0.1467696300006675
 21
0.071378646660079
 31
0.0
  0
LINE
  5
770
330
1F
100
AcDbEntity
  8
0
100
AcDbLine
 10
0.1467696300006675
 20
0.071378646660079
 30
0.0
 11
0.1467995658987231
 21
0.071378646660079
 31
0.0
  0
LINE
  5
771
330
1F
100
AcDbEntity
  8
0
100
AcDbLine
 10
0.1467394645243214
 20
0.071378646660079
 30
0.0
 11
0.1467696300006675
 21
0.071378646660079
 31
0.0
  0
LINE
  5
772
330
1F
100
AcDbEntity
  8
0
100
AcDbLine
 10
0.1467256058878003
 20
0.0713976417375046
 30
0.0
 11
0.1467696300006675
 21
0.071378646660079
 31
0.0
  0
LINE
  5
773
330
1F
100
AcDbEntity
  8
0
100
AcDbLine
 10
0.1467601205387065
 20
0.0713976417375046
 30
0.0
 11
0.1467995658987231
 21
0.071378646660079
 31
0.0
  0
LINE
  5
774
330
1F
100
AcDbEntity
  8
0
100
AcDbLine
 10
0.1467601205387065
 20
0.0713976417375046
 30
0.0
 11
0.1468290443900652
 21
0.071378646660079
 31
0.0
  0
LINE
  5
775
330
1F
100
AcDbEntity
  8
0
100
AcDbLine
 10
0.1467852409206127
 20
0.0713976417375046
 30
0.0
 11
0.1468290443900652
 21
0.071378646660079
 31
0.0
  0
LINE
  5
776
330
1F
100
AcDbEntity
  8
0
100
AcDbLine
 10
0.1467852409206127
 20
0.0713976417375046
 30
0.0
 11
0.1468578411241789
 21
0.071378646660079
 31
0.0
  0
LINE
  5
777
330
1F
100
AcDbEntity
  8
0
100
AcDbLine
 10
0.1467852409206127
 20
0.0713976417375046
 30
0.0
 11
0.1468857369419449
 21
0.071378646660079
 31
0.0
  0
LINE
  5
778
330
1F
100
AcDbEntity
  8
0
100
AcDbLine
 10
0.1467852409206127
 20
0.0713976417375046
 30
0.0
 11
0.1469125195381959
 21
0.071378646660079
 31
0.0
  0
LINE
  5
779
330
1F
100
AcDbEntity
  8
0
100
AcDbLine
 10
0.1467852409206127
 20
0.0713976417375046
 30
0.0
 11
0.1469379850842553
 21
0.071378646660079
 31
0.0
  0
LINE
  5
77A
330
1F
100
AcDbEntity
  8
0
100
AcDbLine
 10
0.1467852409206127
 20
0.0713976417375046
 30
0.0
 11
0.1469619397631642
 21
0.071378646660079
 31
0.0
  0
LINE
  5
77B
330
1F
100
AcDbEntity
  8
0
100
AcDbLine
 10
0.1468117957793904
 20
0.0713976417375046
 30
0.0
 11
0.1469619397631642
 21
0.071378646660079
 31
0.0
  0
LINE
  5
77C
330
1F
100
AcDbEntity
  8
0
100
AcDbLine
 10
0.1468117957793904
 20
0.0713976417375046
 30
0.0
 11
0.1469842012830806
 21
0.071378646660079
 31
0.0
  0
LINE
  5
77D
330
1F
100
AcDbEntity
  8
0
100
AcDbLine
 10
0.1468117957793904
 20
0.0713976417375046
 30
0.0
 11
0.1470046001869516
 21
0.071378646660079
 31
0.0
  0
LINE
  5
77E
330
1F
100
AcDbEntity
  8
0
100
AcDbLine
 10
0.1468117957793904
 20
0.0713976417375046
 30
0.0
 11
0.1470229812640493
 21
0.071378646660079
 31
0.0
  0
LINE
  5
77F
330
1F
100
AcDbEntity
  8
0
100
AcDbLine
 10
0.1468117957793904
 20
0.0713976417375046
 30
0.0
 11
0.1470392045831569
 21
0.071378646660079
 31
0.0
  0
LINE
  5
780
330
1F
100
AcDbEntity
  8
0
100
AcDbLine
 10
0.1468117957793904
 20
0.0713976417375046
 30
0.0
 11
0.1470531467440334
 21
0.071378646660079
 31
0.0
  0
LINE
  5
781
330
1F
100
AcDbEntity
  8
0
100
AcDbLine
 10
0.1468117957793904
 20
0.0713976417375046
 30
0.0
 11
0.1470647015468014
 21
0.071378646660079
 31
0.0
  0
LINE
  5
782
330
1F
100
AcDbEntity
  8
0
100
AcDbLine
 10
0.1468189695389039
 20
0.0713976417375046
 30
0.0
 11
0.1470647015468014
 21
0.071378646660079
 31
0.0
  0
LINE
  5
783
330
1F
100
AcDbEntity
  8
0
100
AcDbLine
 10
0.1468189695389039
 20
0.0713976417375046
 30
0.0
 11
0.1470737811269966
 21
0.071378646660079
 31
0.0
  0
LINE
  5
784
330
1F
100
AcDbEntity
  8
0
100
AcDbLine
 10
0.1468189695389039
 20
0.0713976417375046
 30
0.0
 11
0.1470803163630219
 21
0.071378646660079
 31
0.0
  0
LINE
  5
785
330
1F
100
AcDbEntity
  8
0
100
AcDbLine
 10
0.1468189695389039
 20
0.0713976417375046
 30
0.0
 11
0.147084257487327
 21
0.071378646660079
 31
0.0
  0
LINE
  5
786
330
1F
100
AcDbEntity
  8
0
100
AcDbLine
 10
0.1468189695389039
 20
0.0713976417375046
 30
0.0
 11
0.1470855745520705
 21
0.071378646660079
 31
0.0
  0
LINE
  5
787
330
1F
100
AcDbEntity
  8
0
100
AcDbLine
 10
0.1468189695389039
 20
0.0713976417375046
 30
0.0
 11
0.147084257487327
 21
0.071378646660079
 31
0.0
  0
LINE
  5
788
330
1F
100
AcDbEntity
  8
0
100
AcDbLine
 10
0.1468189695389039
 20
0.0713976417375046
 30
0.0
 11
0.1470803163630219
 21
0.071378646660079
 31
0.0
  0
LINE
  5
789
330
1F
100
AcDbEntity
  8
0
100
AcDbLine
 10
0.1468085808902426
 20
0.0713976417375046
 30
0.0
 11
0.1470803163630219
 21
0.071378646660079
 31
0.0
  0
LINE
  5
78A
330
1F
100
AcDbEntity
  8
0
100
AcDbLine
 10
0.1468085808902426
 20
0.0713976417375046
 30
0.0
 11
0.1470737811269966
 21
0.071378646660079
 31
0.0
  0
LINE
  5
78B
330
1F
100
AcDbEntity
  8
0
100
AcDbLine
 10
0.1468085808902426
 20
0.0713976417375046
 30
0.0
 11
0.1470647015468014
 21
0.071378646660079
 31
0.0
  0
LINE
  5
78C
330
1F
100
AcDbEntity
  8
0
100
AcDbLine
 10
0.1468085808902426
 20
0.0713976417375046
 30
0.0
 11
0.1470531467440334
 21
0.071378646660079
 31
0.0
  0
LINE
  5
78D
330
1F
100
AcDbEntity
  8
0
100
AcDbLine
 10
0.1468085808902426
 20
0.0713976417375046
 30
0.0
 11
0.1470392045831569
 21
0.071378646660079
 31
0.0
  0
LINE
  5
78E
330
1F
100
AcDbEntity
  8
0
100
AcDbLine
 10
0.1467907645729749
 20
0.0713976417375046
 30
0.0
 11
0.1470392045831569
 21
0.071378646660079
 31
0.0
  0
LINE
  5
78F
330
1F
100
AcDbEntity
  8
0
100
AcDbLine
 10
0.1467907645729749
 20
0.0713976417375046
 30
0.0
 11
0.1470229812640493
 21
0.071378646660079
 31
0.0
  0
LINE
  5
790
330
1F
100
AcDbEntity
  8
0
100
AcDbLine
 10
0.1467907645729749
 20
0.0713976417375046
 30
0.0
 11
0.1470046001869516
 21
0.071378646660079
 31
0.0
  0
LINE
  5
791
330
1F
100
AcDbEntity
  8
0
100
AcDbLine
 10
0.1467907645729749
 20
0.0713976417375046
 30
0.0
 11
0.1469842012830806
 21
0.071378646660079
 31
0.0
  0
LINE
  5
792
330
1F
100
AcDbEntity
  8
0
100
AcDbLine
 10
0.1467907645729749
 20
0.0713976417375046
 30
0.0
 11
0.1469619397631642
 21
0.071378646660079
 31
0.0
  0
LINE
  5
793
330
1F
100
AcDbEntity
  8
0
100
AcDbLine
 10
0.1467907645729749
 20
0.0713976417375046
 30
0.0
 11
0.1469379850842553
 21
0.071378646660079
 31
0.0
  0
LINE
  5
794
330
1F
100
AcDbEntity
  8
0
100
AcDbLine
 10
0.1467533231608424
 20
0.0713976417375046
 30
0.0
 11
0.1469379850842553
 21
0.071378646660079
 31
0.0
  0
LINE
  5
795
330
1F
100
AcDbEntity
  8
0
100
AcDbLine
 10
0.1467533231608424
 20
0.0713976417375046
 30
0.0
 11
0.1469125195381959
 21
0.071378646660079
 31
0.0
  0
LINE
  5
796
330
1F
100
AcDbEntity
  8
0
100
AcDbLine
 10
0.1467533231608424
 20
0.0713976417375046
 30
0.0
 11
0.1468857369419449
 21
0.071378646660079
 31
0.0
  0
LINE
  5
797
330
1F
100
AcDbEntity
  8
0
100
AcDbLine
 10
0.1467533231608424
 20
0.0713976417375046
 30
0.0
 11
0.1468578411241789
 21
0.071378646660079
 31
0.0
  0
LINE
  5
798
330
1F
100
AcDbEntity
  8
0
100
AcDbLine
 10
0.1467533231608424
 20
0.0713976417375046
 30
0.0
 11
0.1468290443900652
 21
0.071378646660079
 31
0.0
  0
LINE
  5
799
330
1F
100
AcDbEntity
  8
0
100
AcDbLine
 10
0.1467533231608424
 20
0.0713976417375046
 30
0.0
 11
0.1467995658987231
 21
0.071378646660079
 31
0.0
  0
LINE
  5
79A
330
1F
100
AcDbEntity
  8
0
100
AcDbLine
 10
0.1467394645243214
 20
0.071378646660079
 30
0.0
 11
0.1467696300006675
 21
0.071378646660079
 31
0.0
  0
ENDSEC
  0
SECTION
  2
OBJECTS
  0
DICTIONARY
  5
C
330
0
100
AcDbDictionary
  3
ACAD_GROUP
350
D
  3
ACAD_LAYOUT
350
1A
  3
ACAD_MATERIAL
350
43
  3
ACAD_MLEADERSTYLE
350
5B
  3
ACAD_MLINESTYLE
350
17
  3
ACAD_PLOTSETTINGS
350
19
  3
ACAD_SCALELIST
350
47
  3
ACAD_VISUALSTYLE
350
2A
  3
ACDBHEADERROUNDTRIPXREC
350
79B
  3
ACDBVARIABLEDICTIONARY
350
7BC
  3
DWGPROPS
350
7C3
  0
DICTIONARY
  5
7C4
330
8
100
AcDbDictionary
280
     1
  3
ACAD_XREC_ROUNDTRIP
360
7C5
  0
DICTIONARY
  5
D
102
{ACAD_REACTORS
330
C
102
}
330
C
100
AcDbDictionary
  0
DICTIONARY
  5
1A
102
{ACAD_REACTORS
330
C
102
}
330
C
100
AcDbDictionary
  0
DICTIONARY
  5
43
102
{ACAD_REACTORS
330
C
102
}
330
C
100
AcDbDictionary
  3
BYBLOCK
350
45
  3
BYLAYER
350
44
  3
GLOBAL
350
46
  0
DICTIONARY
  5
5B
102
{ACAD_REACTORS
330
C
102
}
330
C
100
AcDbDictionary
  3
STANDARD
350
5C
  0
DICTIONARY
  5
17
102
{ACAD_REACTORS
330
C
102
}
330
C
100
AcDbDictionary
  3
STANDARD
350
18
  0
DICTIONARY
  5
19
102
{ACAD_REACTORS
330
C
102
}
330
C
100
AcDbDictionary
  0
DICTIONARY
  5
47
102
{ACAD_REACTORS
330
C
102
}
330
C
100
AcDbDictionary
  3
A0
350
48
  3
A1
350
49
  3
A2
350
4A
  3
A3
350
4B
  3
A4
350
4C
  3
A5
350
4D
  3
A6
350
4E
  3
A7
350
4F
  3
A8
350
50
  3
A9
350
51
  3
B1
350
52
  3
B2
350
53
  3
B3
350
54
  3
B4
350
55
  3
B5
350
56
  3
B6
350
57
  3
B7
350
58
  0
DICTIONARY
  5
2A
102
{ACAD_REACTORS
330
C
102
}
330
C
100
AcDbDictionary
  3
2DWIREFRAME
350
2F
  3
BASIC
350
32
  3
BRIGHTEN
350
36
  3
COLORCHANGE
350
3A
  3
CONCEPTUAL
350
34
  3
DIM
350
35
  3
EDGECOLOROFF
350
3D
  3
FACEPATTERN
350
39
  3
FLAT
350
2B
  3
FLATWITHEDGES
350
2C
  3
GOURAUD
350
2D
  3
GOURAUDWITHEDGES
350
2E
  3
HIDDEN
350
31
  3
JITTEROFF
350
3B
  3
LINEPATTERN
350
38
  3
OVERHANGOFF
350
3C
  3
REALISTIC
350
33
  3
SHADED
350
42
  3
SHADED_WITH_EDGES
350
41
  3
SHADES_OF_GRAY
350
3E
  3
SKETCHY
350
3F
  3
THICKEN
350
37
  3
WIREFRAME
350
30
  3
X-RAY
350
40
  0
DICTIONARY
  5
79B
102
{ACAD_REACTORS
330
C
102
}
330
C
100
AcDbDictionary
  3
CEPSNID
350
7A5
  3
CEPSNTYPE
350
7A4
  3
DIMSTYLEDATA
350
7BB
  3
FINGERPRINTGUID
350
7A6
  3
HYPERLINKBASE
350
79E
  3
INSUNITS
350
7A3
  3
LAYOUTDICT
350
7A0
  3
LWETCUNION
350
7A2
  3
PLOTSETDICT
350
7A1
  3
PSVPSCALE
350
7A8
  3
PUCSBASE
350
7AB
  3
PUCSORGBACK
350
7B1
  3
PUCSORGBOTTOM
350
7AD
  3
PUCSORGFRONT
350
7B0
  3
PUCSORGLEFT
350
7AE
  3
PUCSORGRIGHT
350
7AF
  3
PUCSORGTOP
350
7AC
  3
PUCSORTHOREF
350
7A9
  3
PUCSORTHOVIEW
350
7AA
  3
STYLESHEET
350
79F
  3
TSTACKALIGN
350
79C
  3
TSTACKSIZE
350
79D
  3
UCSBASE
350
7B4
  3
UCSORGBACK
350
7BA
  3
UCSORGBOTTOM
350
7B6
  3
UCSORGFRONT
350
7B9
  3
UCSORGLEFT
350
7B7
  3
UCSORGRIGHT
350
7B8
  3
UCSORGTOP
350
7B5
  3
UCSORTHOREF
350
7B2
  3
UCSORTHOVIEW
350
7B3
  3
VERSIONGUID
350
7A7
  0
DICTIONARY
  5
7BC
102
{ACAD_REACTORS
330
C
102
}
330
C
100
AcDbDictionary
  3
CANNOSCALE
350
7C6
  3
CMLEADERSTYLE
350
7BE
  3
CTABLESTYLE
350
7BD
  3
DIMASSOC
350
7C1
  3
HIDETEXT
350
7C2
  3
MSLTSCALE
350
7C7
  0
XRECORD
  5
7C3
102
{ACAD_REACTORS
330
C
102
}
330
C
100
AcDbXrecord
  1
DWGPROPS COOKIE
  2

  3

  4

  6

  7

  8
im_marketing1
  9

300
=
301
=
302
=
303
=
304
=
305
=
306
=
307
=
308
=
309
=
 40
0.0
 41
2460501.466489607
 42
2460501.466517014
  1

 90
        0
  0
XRECORD
  5
7C5
102
{ACAD_REACTORS
330
7C4
102
}
330
7C4
100
AcDbXrecord
102
VTR_0.000_0.000_1.000_1.000_VISUALSTYLE
340
2F
102
VTR_0.000_0.000_1.000_1.000_GRIDDISPLAY
 70
     3
102
VTR_0.000_0.000_1.000_1.000_GRIDMAJOR
 70
     5
102
VTR_0.000_0.000_1.000_1.000_DEFAULTLIGHTING
280
     1
102
VTR_0.000_0.000_1.000_1.000_DEFAULTLIGHTINGTYPE
 70
     1
102
VTR_0.000_0.000_1.000_1.000_BRIGHTNESS
141
0.0
102
VTR_0.000_0.000_1.000_1.000_CONTRAST
142
0.0
  0
MATERIAL
  5
45
102
{ACAD_REACTORS
330
43
102
}
102
{ACAD_XDICTIONARY
360
7CA
102
}
330
43
100
AcDbMaterial
  1
BYBLOCK
  0
MATERIAL
  5
44
102
{ACAD_REACTORS
330
43
102
}
102
{ACAD_XDICTIONARY
360
7C8
102
}
330
43
100
AcDbMaterial
  1
BYLAYER
  0
MATERIAL
  5
46
102
{ACAD_REACTORS
330
43
102
}
102
{ACAD_XDICTIONARY
360
7CC
102
}
330
43
100
AcDbMaterial
  1
GLOBAL
  0
ACAD_PROXY_OBJECT
  5
5C
102
{ACAD_REACTORS
330
5B
102
}
330
5B
100
AcDbProxyObject
 90
      499
 91
      505
 93
      610
310
40901902A4063FBFFFFFE056BD1B81E855B9FC0AD7A3703D0AD73F4214DD185B99185C9900AD7A3703D0AC73F90141901A02B5E8DC0F42B1CFC02B5E8DC0F42B1CFE5764000000000000300FC0
340
14
340
0
340
11
340
0
 94
        0
1001
ACAD_MLEADERVER
1070
     2
  0
MLINESTYLE
  5
18
102
{ACAD_REACTORS
330
17
102
}
330
17
100
AcDbMlineStyle
  2
Standard
 70
     0
  3

 62
   256
 51
90.0
 52
90.0
 71
     2
 49
0.5
 62
   256
  6
BYLAYER
 49
-0.5
 62
   256
  6
BYLAYER
  0
ACAD_PROXY_OBJECT
  5
48
102
{ACAD_REACTORS
330
47
102
}
330
47
100
AcDbProxyObject
 90
      499
 91
      503
 93
       41
310
903313A31580
  0
ACAD_PROXY_OBJECT
  5
49
102
{ACAD_REACTORS
330
47
102
}
330
47
100
AcDbProxyObject
 90
      499
 91
      503
 93
      257
310
90E312F31323822203D2031272D3022000000000000200FC000000000000284000
  0
ACAD_PROXY_OBJECT
  5
4A
102
{ACAD_REACTORS
330
47
102
}
330
47
100
AcDbProxyObject
 90
      499
 91
      503
 93
      249
310
90D312F363422203D2031272D3022000000000000240FC000000000000284000
  0
ACAD_PROXY_OBJECT
  5
4B
102
{ACAD_REACTORS
330
47
102
}
330
47
100
AcDbProxyObject
 90
      499
 91
      503
 93
      249
310
90D312F333222203D2031272D3022000000000000280FC000000000000284000
  0
ACAD_PROXY_OBJECT
  5
4C
102
{ACAD_REACTORS
330
47
102
}
330
47
100
AcDbProxyObject
 90
      499
 91
      503
 93
      249
310
90D312F313622203D2031272D30220000000000002C0FC000000000000284000
  0
ACAD_PROXY_OBJECT
  5
4D
102
{ACAD_REACTORS
330
47
102
}
330
47
100
AcDbProxyObject
 90
      499
 91
      503
 93
      249
310
90D332F333222203D2031272D30220000000000002E0FC000000000000284000
  0
ACAD_PROXY_OBJECT
  5
4E
102
{ACAD_REACTORS
330
47
102
}
330
47
100
AcDbProxyObject
 90
      499
 91
      503
 93
      241
310
90C312F3822203D2031272D3022000000000000300FC000000000000284000
  0
ACAD_PROXY_OBJECT
  5
4F
102
{ACAD_REACTORS
330
47
102
}
330
47
100
AcDbProxyObject
 90
      499
 91
      503
 93
      249
310
90D332F313622203D2031272D3022000000000000320FC000000000000284000
  0
ACAD_PROXY_OBJECT
  5
50
102
{ACAD_REACTORS
330
47
102
}
330
47
100
AcDbProxyObject
 90
      499
 91
      503
 93
      241
310
90C312F3422203D2031272D3022000000000000340FC000000000000284000
  0
ACAD_PROXY_OBJECT
  5
51
102
{ACAD_REACTORS
330
47
102
}
330
47
100
AcDbProxyObject
 90
      499
 91
      503
 93
      241
310
90C332F3822203D2031272D3022000000000000360FC000000000000284000
  0
ACAD_PROXY_OBJECT
  5
52
102
{ACAD_REACTORS
330
47
102
}
330
47
100
AcDbProxyObject
 90
      499
 91
      503
 93
      241
310
90C312F3222203D2031272D3022000000000000380FC000000000000284000
  0
ACAD_PROXY_OBJECT
  5
53
102
{ACAD_REACTORS
330
47
102
}
330
47
100
AcDbProxyObject
 90
      499
 91
      503
 93
      241
310
90C332F3422203D2031272D30220000000000003A0FC000000000000284000
  0
ACAD_PROXY_OBJECT
  5
54
102
{ACAD_REACTORS
330
47
102
}
330
47
100
AcDbProxyObject
 90
      499
 91
      503
 93
      161
310
90A3122203D2031272D30224000000000000284000
  0
ACAD_PROXY_OBJECT
  5
55
102
{ACAD_REACTORS
330
47
102
}
330
47
100
AcDbProxyObject
 90
      499
 91
      503
 93
      257
310
90E312D312F3222203D2031272D30220000000000003E0FC000000000000284000
  0
ACAD_PROXY_OBJECT
  5
56
102
{ACAD_REACTORS
330
47
102
}
330
47
100
AcDbProxyObject
 90
      499
 91
      503
 93
      225
310
90A3322203D2031272D302200000000000002100000000000000284000
  0
ACAD_PROXY_OBJECT
  5
57
102
{ACAD_REACTORS
330
47
102
}
330
47
100
AcDbProxyObject
 90
      499
 91
      503
 93
      225
310
90A3622203D2031272D302200000000000006100000000000000284000
  0
ACAD_PROXY_OBJECT
  5
58
102
{ACAD_REACTORS
330
47
102
}
330
47
100
AcDbProxyObject
 90
      499
 91
      503
 93
      249
310
90D31272D3022203D2031272D30220000000000000A100000000000000284000
  0
ACAD_PROXY_OBJECT
  5
2F
102
{ACAD_REACTORS
330
2A
102
}
330
2A
100
AcDbProxyObject
 90
      499
 91
      501
 93
      436
310
42CC9915DA5C99599C985B595049028333333333333E33F0000000000000F90107901411070040501600405405064090741402480A0340
1001
ACAD
1000
AcDbSavedByObjectVersion
1070
     0
  0
ACAD_PROXY_OBJECT
  5
32
102
{ACAD_REACTORS
330
2A
102
}
330
2A
100
AcDbProxyObject
 90
      499
 91
      501
 93
      388
310
4150985CDA58D07406404333333333333E33F0000000000000F90107A41107004050150841D405064090741402480A0350
1001
ACAD
1000
AcDbSavedByObjectVersion
1070
     0
  0
ACAD_PROXY_OBJECT
  5
36
102
{ACAD_REACTORS
330
2A
102
}
330
2A
100
AcDbProxyObject
 90
      499
 91
      501
 93
      428
310
42109C9A59DA1D195B90C409028333333333333E33F0000000000000F9010790141107004050150841D405064090741402480A029950
1001
ACAD
1000
AcDbSavedByObjectVersion
1070
     0
  0
ACAD_PROXY_OBJECT
  5
3A
102
{ACAD_REACTORS
330
2A
102
}
330
2A
100
AcDbProxyObject
 90
      499
 91
      501
 93
      452
310
42D0DBDB1BDC90DA185B99D95104090240C333333333333E33F0000000000000F90108901411070040501508421405064090741402480A0350
1001
ACAD
1000
AcDbSavedByObjectVersion
1070
     0
  0
ACAD_PROXY_OBJECT
  5
34
102
{ACAD_REACTORS
330
2A
102
}
330
2A
100
AcDbProxyObject
 90
      499
 91
      501
 93
      500
310
4290DBDB98D95C1D1D585B10940D028333333333333E33F0000000000000F90107902409070040501000000000018199010841D405064090740C02480A0340
1001
ACAD
1000
AcDbSavedByObjectVersion
1070
     0
  0
ACAD_PROXY_OBJECT
  5
35
102
{ACAD_REACTORS
330
2A
102
}
330
2A
100
AcDbProxyObject
 90
      499
 91
      501
 93
      412
310
40D11A5B50B409028333333333333E33F0000000000000F9010790141107004050150841D405064090741402480A02677FFFFFD0
1001
ACAD
1000
AcDbSavedByObjectVersion
1070
     0
  0
ACAD_PROXY_OBJECT
  5
3D
102
{ACAD_REACTORS
330
2A
102
}
330
2A
100
AcDbProxyObject
 90
      499
 91
      501
 93
      452
310
43115919D950DBDB1BDC93D999916409028333333333333E33F0000000000000F9010790141107004050150841D405064090741402480A0350
1001
ACAD
1000
AcDbSavedByObjectVersion
1070
     0
  0
ACAD_PROXY_OBJECT
  5
39
102
{ACAD_REACTORS
330
2A
102
}
330
2A
100
AcDbProxyObject
 90
      499
 91
      501
 93
      444
310
42D19858D95C185D1D195C9B90F409028333333333333E33F0000000000000F9010790141107004050150841D405064090741402480A0350
1001
ACAD
1000
AcDbSavedByObjectVersion
1070
     0
  0
ACAD_PROXY_OBJECT
  5
2B
102
{ACAD_REACTORS
330
2A
102
}
330
2A
100
AcDbProxyObject
 90
      499
 91
      501
 93
      380
310
41119B185D240901404333333333333E33F0000000000000F9010740A907004050150841D405064090741402480A1B50
1001
ACAD
1000
AcDbSavedByObjectVersion
1070
     0
  0
ACAD_PROXY_OBJECT
  5
2C
102
{ACAD_REACTORS
330
2A
102
}
330
2A
100
AcDbProxyObject
 90
      499
 91
      501
 93
      468
310
43519B185D15DA5D1A115919D95CD0140901404333333333333E33F0000000000000F90107409019070040501600405405064090741402480A1B50
1001
ACAD
1000
AcDbSavedByObjectVersion
1070
     0
  0
ACAD_PROXY_OBJECT
  5
2D
102
{ACAD_REACTORS
330
2A
102
}
330
2A
100
AcDbProxyObject
 90
      499
 91
      501
 93
      404
310
41D1DBDD5C985D5910240902404333333333333E33F0000000000000F9010740A9070040501641D405064090741402480A1B50
1001
ACAD
1000
AcDbSavedByObjectVersion
1070
     0
  0
ACAD_PROXY_OBJECT
  5
2E
102
{ACAD_REACTORS
330
2A
102
}
330
2A
100
AcDbProxyObject
 90
      499
 91
      501
 93
      492
310
4411DBDD5C985D5915DA5D1A115919D95CD0340902404333333333333E33F0000000000000F90107409019070040501600405405064090741402480A1B50
1001
ACAD
1000
AcDbSavedByObjectVersion
1070
     0
  0
ACAD_PROXY_OBJECT
  5
31
102
{ACAD_REACTORS
330
2A
102
}
330
2A
100
AcDbProxyObject
 90
      499
 91
      501
 93
      476
310
41921A5919195B90640502408333333333333E33F0000000000000F901079024090700405020000000000001110200405405064090740C02480A0340
1001
ACAD
1000
AcDbSavedByObjectVersion
1070
     0
  0
ACAD_PROXY_OBJECT
  5
3B
102
{ACAD_REACTORS
330
2A
102
}
330
2A
100
AcDbProxyObject
 90
      499
 91
      501
 93
      428
310
42529A5D1D195C93D999914409028333333333333E33F0000000000000F9010790141107004050150A41D405064090741402480A0350
1001
ACAD
1000
AcDbSavedByObjectVersion
1070
     0
  0
ACAD_PROXY_OBJECT
  5
38
102
{ACAD_REACTORS
330
2A
102
}
330
2A
100
AcDbProxyObject
 90
      499
 91
      501
 93
      444
310
42D31A5B995C185D1D195C9B90E409028333333333333E33F0000000000000F9010790141107004050750841D405064090741402483A0350
1001
ACAD
1000
AcDbSavedByObjectVersion
1070
     0
  0
ACAD_PROXY_OBJECT
  5
3C
102
{ACAD_REACTORS
330
2A
102
}
330
2A
100
AcDbProxyObject
 90
      499
 91
      501
 93
      444
310
42D3DD995C9A185B99D3D999915409028333333333333E33F0000000000000F9010790141107004050150941D405064090741402480A0350
1001
ACAD
1000
AcDbSavedByObjectVersion
1070
     0
  0
ACAD_PROXY_OBJECT
  5
33
102
{ACAD_REACTORS
330
2A
102
}
330
2A
100
AcDbProxyObject
 90
      499
 91
      501
 93
      428
310
425499585B1A5CDD1A58D08409038333333333333E33F0000000000000F9010740A907004050150800405405064090740C02480A1B40
1001
ACAD
1000
AcDbSavedByObjectVersion
1070
     0
  0
ACAD_PROXY_OBJECT
  5
42
102
{ACAD_REACTORS
330
2A
102
}
330
2A
100
AcDbProxyObject
 90
      499
 91
      501
 93
      420
310
4194DA1859195911B40902404333333333333E33F0000000000000F9010740A41107004050150800405405064090840C02480A0B40
1001
ACAD
1000
AcDbSavedByObjectVersion
1070
     0
  0
ACAD_PROXY_OBJECT
  5
41
102
{ACAD_REACTORS
330
2A
102
}
330
2A
100
AcDbProxyObject
 90
      499
 91
      501
 93
      516
310
4454DA18591959081DDA5D1A08195919D95CD1A40902404333333333333E33F0000000000000F901074090142907004050250800405405064090740C02480A0B40
1001
ACAD
1000
AcDbSavedByObjectVersion
1070
     0
  0
ACAD_PROXY_OBJECT
  5
3E
102
{ACAD_REACTORS
330
2A
102
}
330
2A
100
AcDbProxyObject
 90
      499
 91
      501
 93
      532
310
4394DA1859195CC81BD98811DC985E5174090240C333333333333E33F0000000000000F901079024090741D01000000000000111010841D405064090740C02480A0340
1001
ACAD
1000
AcDbSavedByObjectVersion
1070
     0
  0
ACAD_PROXY_OBJECT
  5
3F
102
{ACAD_REACTORS
330
2A
102
}
330
2A
100
AcDbProxyObject
 90
      499
 91
      501
 93
      476
310
41D4DAD95D18DA1E51840502408333333333333E33F0000000000000F901079024090741D01000000000000111010B41D405064090741802480A0340
1001
ACAD
1000
AcDbSavedByObjectVersion
1070
     0
  0
ACAD_PROXY_OBJECT
  5
37
102
{ACAD_REACTORS
330
2A
102
}
330
2A
100
AcDbProxyObject
 90
      499
 91
      501
 93
      412
310
41D51A1A58DAD95B90D409028333333333333E33F0000000000000F9010790141107004050150C41D405064090741402480A0350
1001
ACAD
1000
AcDbSavedByObjectVersion
1070
     0
  0
ACAD_PROXY_OBJECT
  5
30
102
{ACAD_REACTORS
330
2A
102
}
330
2A
100
AcDbProxyObject
 90
      499
 91
      501
 93
      420
310
4255DA5C99599C985B595059028333333333333E33F0000000000000F90107901411070040501600405405064090740C02480A0340
1001
ACAD
1000
AcDbSavedByObjectVersion
1070
     0
  0
ACAD_PROXY_OBJECT
  5
40
102
{ACAD_REACTORS
330
2A
102
}
330
2A
100
AcDbProxyObject
 90
      499
 91
      501
 93
      404
310
41560B54985E51940902404000000000000E03F0000000000000F9010740501907004050150841D405064090740C02480A1B40
1001
ACAD
1000
AcDbSavedByObjectVersion
1070
     0
  0
XRECORD
  5
7A5
102
{ACAD_REACTORS
330
79B
102
}
330
79B
100
AcDbXrecord
340
0
  0
XRECORD
  5
7A4
102
{ACAD_REACTORS
330
79B
102
}
330
79B
100
AcDbXrecord
 90
        0
  0
XRECORD
  5
7BB
102
{ACAD_REACTORS
330
79B
102
}
330
79B
100
AcDbXrecord
1000
DSTYLE
1002
{
1070
   171
 70
     2
1070
   143
 40
25.4
1070
   274
 70
     2
1070
    41
 40
0.18
1070
   141
 40
0.09
1070
   271
 70
     4
1070
    43
 40
0.38
1070
   278
 70
    46
1070
    44
 40
0.18
1070
    42
 40
0.0625
1070
   147
 40
0.09
1070
    77
 70
     0
1070
   272
 70
     4
1070
    73
 70
     1
1070
   172
 70
     0
1070
    74
 70
     1
1070
   283
 70
     1
1070
   340
340
11
1070
   140
 40
0.18
1070
   284
 70
     0
1070
    78
 70
     0
1002
}
  0
XRECORD
  5
7A6
102
{ACAD_REACTORS
330
79B
102
}
330
79B
100
AcDbXrecord
  1
{3b0c393e-5c65-4584-887c-ab8c71908d5b}
  0
XRECORD
  5
79E
102
{ACAD_REACTORS
330
79B
102
}
330
79B
100
AcDbXrecord
  1

  0
XRECORD
  5
7A3
102
{ACAD_REACTORS
330
79B
102
}
330
79B
100
AcDbXrecord
 90
        6
  0
XRECORD
  5
7A0
102
{ACAD_REACTORS
330
79B
102
}
330
79B
100
AcDbXrecord
340
1A
  0
XRECORD
  5
7A2
102
{ACAD_REACTORS
330
79B
102
}
330
79B
100
AcDbXrecord
 90
    10781
  0
XRECORD
  5
7A1
102
{ACAD_REACTORS
330
79B
102
}
330
79B
100
AcDbXrecord
340
19
  0
XRECORD
  5
7A8
102
{ACAD_REACTORS
330
79B
102
}
330
79B
100
AcDbXrecord
 40
0.0
  0
XRECORD
  5
7AB
102
{ACAD_REACTORS
330
79B
102
}
330
79B
100
AcDbXrecord
340
0
  0
XRECORD
  5
7B1
102
{ACAD_REACTORS
330
79B
102
}
330
79B
100
AcDbXrecord
 10
0.0
 20
0.0
 30
0.0
  0
XRECORD
  5
7AD
102
{ACAD_REACTORS
330
79B
102
}
330
79B
100
AcDbXrecord
 10
0.0
 20
0.0
 30
0.0
  0
XRECORD
  5
7B0
102
{ACAD_REACTORS
330
79B
102
}
330
79B
100
AcDbXrecord
 10
0.0
 20
0.0
 30
0.0
  0
XRECORD
  5
7AE
102
{ACAD_REACTORS
330
79B
102
}
330
79B
100
AcDbXrecord
 10
0.0
 20
0.0
 30
0.0
  0
XRECORD
  5
7AF
102
{ACAD_REACTORS
330
79B
102
}
330
79B
100
AcDbXrecord
 10
0.0
 20
0.0
 30
0.0
  0
XRECORD
  5
7AC
102
{ACAD_REACTORS
330
79B
102
}
330
79B
100
AcDbXrecord
 10
0.0
 20
0.0
 30
0.0
  0
XRECORD
  5
7A9
102
{ACAD_REACTORS
330
79B
102
}
330
79B
100
AcDbXrecord
340
0
  0
XRECORD
  5
7AA
102
{ACAD_REACTORS
330
79B
102
}
330
79B
100
AcDbXrecord
 70
     0
  0
XRECORD
  5
79F
102
{ACAD_REACTORS
330
79B
102
}
330
79B
100
AcDbXrecord
  1

  0
XRECORD
  5
79C
102
{ACAD_REACTORS
330
79B
102
}
330
79B
100
AcDbXrecord
 90
        1
  0
XRECORD
  5
79D
102
{ACAD_REACTORS
330
79B
102
}
330
79B
100
AcDbXrecord
 90
       70
  0
XRECORD
  5
7B4
102
{ACAD_REACTORS
330
79B
102
}
330
79B
100
AcDbXrecord
340
0
  0
XRECORD
  5
7BA
102
{ACAD_REACTORS
330
79B
102
}
330
79B
100
AcDbXrecord
 10
0.0
 20
0.0
 30
0.0
  0
XRECORD
  5
7B6
102
{ACAD_REACTORS
330
79B
102
}
330
79B
100
AcDbXrecord
 10
0.0
 20
0.0
 30
0.0
  0
XRECORD
  5
7B9
102
{ACAD_REACTORS
330
79B
102
}
330
79B
100
AcDbXrecord
 10
0.0
 20
0.0
 30
0.0
  0
XRECORD
  5
7B7
102
{ACAD_REACTORS
330
79B
102
}
330
79B
100
AcDbXrecord
 10
0.0
 20
0.0
 30
0.0
  0
XRECORD
  5
7B8
102
{ACAD_REACTORS
330
79B
102
}
330
79B
100
AcDbXrecord
 10
0.0
 20
0.0
 30
0.0
  0
XRECORD
  5
7B5
102
{ACAD_REACTORS
330
79B
102
}
330
79B
100
AcDbXrecord
 10
0.0
 20
0.0
 30
0.0
  0
XRECORD
  5
7B2
102
{ACAD_REACTORS
330
79B
102
}
330
79B
100
AcDbXrecord
340
0
  0
XRECORD
  5
7B3
102
{ACAD_REACTORS
330
79B
102
}
330
79B
100
AcDbXrecord
 70
     0
  0
XRECORD
  5
7A7
102
{ACAD_REACTORS
330
79B
102
}
330
79B
100
AcDbXrecord
  1
{FAEB1C32-E019-11D5-929B-00C0DF256EC4}
  0
DICTIONARYVAR
  5
7C6
102
{ACAD_REACTORS
330
7BC
102
}
330
7BC
100
DictionaryVariables
280
     0
  1
1:1
  0
DICTIONARYVAR
  5
7BE
102
{ACAD_REACTORS
330
7BC
102
}
330
7BC
100
DictionaryVariables
280
     0
  1
Standard
  0
DICTIONARYVAR
  5
7BD
102
{ACAD_REACTORS
330
7BC
102
}
330
7BC
100
DictionaryVariables
280
     0
  1
Standard
  0
DICTIONARYVAR
  5
7C1
102
{ACAD_REACTORS
330
7BC
102
}
330
7BC
100
DictionaryVariables
280
     0
  1
2
  0
DICTIONARYVAR
  5
7C2
102
{ACAD_REACTORS
330
7BC
102
}
330
7BC
100
DictionaryVariables
280
     0
  1
1
  0
DICTIONARYVAR
  5
7C7
102
{ACAD_REACTORS
330
7BC
102
}
330
7BC
100
DictionaryVariables
280
     0
  1
1
  0
DICTIONARY
  5
7CA
330
45
100
AcDbDictionary
280
     1
  3
ACAD_XREC_ROUNDTRIP
360
7CB
  0
DICTIONARY
  5
7C8
330
44
100
AcDbDictionary
280
     1
  3
ACAD_XREC_ROUNDTRIP
360
7C9
  0
DICTIONARY
  5
7CC
330
46
100
AcDbDictionary
280
     1
  3
ACAD_XREC_ROUNDTRIP
360
7CD
  0
XRECORD
  5
7CB
102
{ACAD_REACTORS
330
7CA
102
}
330
7CA
100
AcDbXrecord
102
MATERIAL
148
0.0
149
0.0
149
0.0
 93
        0
 94
      127
282
     0
 72
     1
 77
     1
171
     1
175
     1
179
     1
273
     0
  0
XRECORD
  5
7C9
102
{ACAD_REACTORS
330
7C8
102
}
330
7C8
100
AcDbXrecord
102
MATERIAL
148
0.0
149
0.0
149
0.0
 93
        0
 94
      127
282
     0
 72
     1
 77
     1
171
     1
175
     1
179
     1
273
     0
  0
XRECORD
  5
7CD
102
{ACAD_REACTORS
330
7CC
102
}
330
7CC
100
AcDbXrecord
102
MATERIAL
148
0.0
149
0.0
149
0.0
 93
        0
 94
      127
282
     0
 72
     1
 77
     1
171
     1
175
     1
179
     1
273
     0
  0
ENDSEC
  0
EOF
