  0
SECTION
  2
HEADER
  9
$ACADVER
  1
AC1014
  9
$ACADMAINTVER
 70
     9
  9
$DWGCODEPAGE
  3
ANSI_1252
  9
$INSBASE
 10
0.0
 20
0.0
 30
0.0
  9
$EXTMIN
 10
1.000000000000000E+20
 20
1.000000000000000E+20
 30
1.000000000000000E+20
  9
$EXTMAX
 10
-1.000000000000000E+20
 20
-1.000000000000000E+20
 30
-1.000000000000000E+20
  9
$LIMMIN
 10
0.0
 20
0.0
  9
$LIMMAX
 10
12.0
 20
9.0
  9
$ORTHOMODE
 70
     0
  9
$REGENMODE
 70
     1
  9
$FILLMODE
 70
     1
  9
$QTEXTMODE
 70
     0
  9
$MIRRTEXT
 70
     1
  9
$DRAGMODE
 70
     2
  9
$LTSCALE
 40
1.0
  9
$OSMODE
 70
    37
  9
$ATTMODE
 70
     1
  9
$TEXTSIZE
 40
0.2
  9
$TRACEWID
 40
0.05
  9
$TEXTSTYLE
  7
STANDARD
  9
$CLAYER
  8
0
  9
$CELTYPE
  6
BYLAYER
  9
$CECOLOR
 62
   256
  9
$CELTSCALE
 40
1.0
  9
$DELOBJ
 70
     1
  9
$DISPSILH
 70
     0
  9
$DIMSCALE
 40
1.0
  9
$DIMASZ
 40
0.18
  9
$DIMEXO
 40
0.0625
  9
$DIMDLI
 40
0.38
  9
$DIMRND
 40
0.0
  9
$DIMDLE
 40
0.0
  9
$DIMEXE
 40
0.18
  9
$DIMTP
 40
0.0
  9
$DIMTM
 40
0.0
  9
$DIMTXT
 40
0.18
  9
$DIMCEN
 40
0.09
  9
$DIMTSZ
 40
0.0
  9
$DIMTOL
 70
     0
  9
$DIMLIM
 70
     0
  9
$DIMTIH
 70
     1
  9
$DIMTOH
 70
     1
  9
$DIMSE1
 70
     0
  9
$DIMSE2
 70
     0
  9
$DIMTAD
 70
     0
  9
$DIMZIN
 70
     0
  9
$DIMBLK
  1

  9
$DIMASO
 70
     1
  9
$DIMSHO
 70
     1
  9
$DIMPOST
  1

  9
$DIMAPOST
  1

  9
$DIMALT
 70
     0
  9
$DIMALTD
 70
     2
  9
$DIMALTF
 40
25.4
  9
$DIMLFAC
 40
1.0
  9
$DIMTOFL
 70
     0
  9
$DIMTVP
 40
0.0
  9
$DIMTIX
 70
     0
  9
$DIMSOXD
 70
     0
  9
$DIMSAH
 70
     0
  9
$DIMBLK1
  1

  9
$DIMBLK2
  1

  9
$DIMSTYLE
  2
STANDARD
  9
$DIMCLRD
 70
     0
  9
$DIMCLRE
 70
     0
  9
$DIMCLRT
 70
     0
  9
$DIMTFAC
 40
1.0
  9
$DIMGAP
 40
0.09
  9
$DIMJUST
 70
     0
  9
$DIMSD1
 70
     0
  9
$DIMSD2
 70
     0
  9
$DIMTOLJ
 70
     1
  9
$DIMTZIN
 70
     0
  9
$DIMALTZ
 70
     0
  9
$DIMALTTZ
 70
     0
  9
$DIMFIT
 70
     3
  9
$DIMUPT
 70
     0
  9
$DIMUNIT
 70
     2
  9
$DIMDEC
 70
     4
  9
$DIMTDEC
 70
     4
  9
$DIMALTU
 70
     2
  9
$DIMALTTD
 70
     2
  9
$DIMTXSTY
  7
STANDARD
  9
$DIMAUNIT
 70
     0
  9
$LUNITS
 70
     2
  9
$LUPREC
 70
     4
  9
$SKETCHINC
 40
0.1
  9
$FILLETRAD
 40
0.0
  9
$AUNITS
 70
     0
  9
$AUPREC
 70
     0
  9
$MENU
  1
.
  9
$ELEVATION
 40
0.0
  9
$PELEVATION
 40
0.0
  9
$THICKNESS
 40
0.0
  9
$LIMCHECK
 70
     0
  9
$CHAMFERA
 40
0.0
  9
$CHAMFERB
 40
0.0
  9
$CHAMFERC
 40
0.0
  9
$CHAMFERD
 40
0.0
  9
$SKPOLY
 70
     0
  9
$TDCREATE
 40
2460501.511622199
  9
$TDUPDATE
 40
2460501.511651771
  9
$TDINDWG
 40
0.0000000116
  9
$TDUSRTIMER
 40
0.0000000116
  9
$USRTIMER
 70
     1
  9
$ANGBASE
 50
0.0
  9
$ANGDIR
 70
     0
  9
$PDMODE
 70
     0
  9
$PDSIZE
 40
0.0
  9
$PLINEWID
 40
0.0
  9
$COORDS
 70
     1
  9
$SPLFRAME
 70
     0
  9
$SPLINETYPE
 70
     6
  9
$SPLINESEGS
 70
     8
  9
$ATTDIA
 70
     0
  9
$ATTREQ
 70
     1
  9
$HANDLING
 70
     1
  9
$HANDSEED
  5
76F
  9
$SURFTAB1
 70
     6
  9
$SURFTAB2
 70
     6
  9
$SURFTYPE
 70
     6
  9
$SURFU
 70
     6
  9
$SURFV
 70
     6
  9
$UCSNAME
  2

  9
$UCSORG
 10
0.0
 20
0.0
 30
0.0
  9
$UCSXDIR
 10
1.0
 20
0.0
 30
0.0
  9
$UCSYDIR
 10
0.0
 20
1.0
 30
0.0
  9
$PUCSNAME
  2

  9
$PUCSORG
 10
0.0
 20
0.0
 30
0.0
  9
$PUCSXDIR
 10
1.0
 20
0.0
 30
0.0
  9
$PUCSYDIR
 10
0.0
 20
1.0
 30
0.0
  9
$USERI1
 70
     0
  9
$USERI2
 70
     0
  9
$USERI3
 70
     0
  9
$USERI4
 70
     0
  9
$USERI5
 70
     0
  9
$USERR1
 40
0.0
  9
$USERR2
 40
0.0
  9
$USERR3
 40
0.0
  9
$USERR4
 40
0.0
  9
$USERR5
 40
0.0
  9
$WORLDVIEW
 70
     1
  9
$SHADEDGE
 70
     3
  9
$SHADEDIF
 70
    70
  9
$TILEMODE
 70
     1
  9
$MAXACTVP
 70
    64
  9
$PINSBASE
 10
0.0
 20
0.0
 30
0.0
  9
$PLIMCHECK
 70
     0
  9
$PEXTMIN
 10
1.000000000000000E+20
 20
1.000000000000000E+20
 30
1.000000000000000E+20
  9
$PEXTMAX
 10
-1.000000000000000E+20
 20
-1.000000000000000E+20
 30
-1.000000000000000E+20
  9
$PLIMMIN
 10
0.0
 20
0.0
  9
$PLIMMAX
 10
12.0
 20
9.0
  9
$UNITMODE
 70
     0
  9
$VISRETAIN
 70
     1
  9
$PLINEGEN
 70
     0
  9
$PSLTSCALE
 70
     1
  9
$TREEDEPTH
 70
  3020
  9
$PICKSTYLE
 70
     1
  9
$CMLSTYLE
  2
STANDARD
  9
$CMLJUST
 70
     0
  9
$CMLSCALE
 40
1.0
  9
$PROXYGRAPHICS
 70
     1
  9
$MEASUREMENT
 70
     1
  0
ENDSEC
  0
SECTION
  2
CLASSES
  0
CLASS
  1
ACDBDICTIONARYWDFLT
  2
AcDbDictionaryWithDefault
  3
ObjectDBX Classes
 90
        0
280
     0
281
     0
  0
CLASS
  1
VISUALSTYLE
  2
AcDbVisualStyle
  3
ObjectDBX Classes
 90
     4095
280
     0
281
     0
  0
CLASS
  1
MATERIAL
  2
AcDbMaterial
  3
ObjectDBX Classes
 90
     1153
280
     0
281
     0
  0
CLASS
  1
SCALE
  2
AcDbScale
  3
ObjectDBX Classes
 90
     1153
280
     0
281
     0
  0
CLASS
  1
TABLESTYLE
  2
AcDbTableStyle
  3
ObjectDBX Classes
 90
     4095
280
     0
281
     0
  0
CLASS
  1
MLEADERSTYLE
  2
AcDbMLeaderStyle
  3
ACDB_MLEADERSTYLE_CLASS
 90
     4095
280
     0
281
     0
  0
CLASS
  1
SUN
  2
AcDbSun
  3
SCENEOE
 90
     1153
280
     0
281
     0
  0
CLASS
  1
DICTIONARYVAR
  2
AcDbDictionaryVar
  3
ObjectDBX Classes
 90
        0
280
     0
281
     0
  0
CLASS
  1
XRECORD
  2
AcDbXrecord
  3
ObjectDBX Classes
 90
        0
280
     0
281
     0
  0
CLASS
  1
LWPOLYLINE
  2
AcDbPolyline
  3
ObjectDBX Classes
 90
        0
280
     0
281
     1
  0
CLASS
  1
HATCH
  2
AcDbHatch
  3
ObjectDBX Classes
 90
        0
280
     0
281
     1
  0
CLASS
  1
ACDBPLACEHOLDER
  2
AcDbPlaceHolder
  3
ObjectDBX Classes
 90
        0
280
     0
281
     0
  0
CLASS
  1
LAYOUT
  2
AcDbLayout
  3
ObjectDBX Classes
 90
        0
280
     0
281
     0
  0
ENDSEC
  0
SECTION
  2
TABLES
  0
TABLE
  2
VPORT
  5
8
102
{ACAD_XDICTIONARY
360
764
102
}
330
0
100
AcDbSymbolTable
 70
     1
  0
VPORT
  5
29
330
8
100
AcDbSymbolTableRecord
100
AcDbViewportTableRecord
  2
*ACTIVE
 70
     0
 10
0.0
 20
0.0
 11
1.0
 21
1.0
 12
0.0
 22
0.0
 13
0.0
 23
0.0
 14
0.5
 24
0.5
 15
0.5
 25
0.5
 16
0.0
 26
0.0
 36
1.0
 17
0.0
 27
0.0
 37
-1000.0
 40
0.3006222647549407
 41
1.894193548387097
 42
50.0
 43
0.3667483788478899
 44
0.6933797138524831
 50
0.0
 51
0.0
 71
     0
 72
   100
 73
     1
 74
     3
 75
     0
 76
     0
 77
     0
 78
     0
  0
ENDTAB
  0
TABLE
  2
LTYPE
  5
5
330
0
100
AcDbSymbolTable
 70
     1
  0
LTYPE
  5
14
330
5
100
AcDbSymbolTableRecord
100
AcDbLinetypeTableRecord
  2
BYBLOCK
 70
     0
  3

 72
    65
 73
     0
 40
0.0
  0
LTYPE
  5
15
330
5
100
AcDbSymbolTableRecord
100
AcDbLinetypeTableRecord
  2
BYLAYER
 70
     0
  3

 72
    65
 73
     0
 40
0.0
  0
LTYPE
  5
16
330
5
100
AcDbSymbolTableRecord
100
AcDbLinetypeTableRecord
  2
CONTINUOUS
 70
     0
  3
Solid line
 72
    65
 73
     0
 40
0.0
  0
ENDTAB
  0
TABLE
  2
LAYER
  5
2
330
0
100
AcDbSymbolTable
 70
     3
  0
LAYER
  5
10
330
2
100
AcDbSymbolTableRecord
100
AcDbLayerTableRecord
  2
0
 70
     0
 62
     7
  6
CONTINUOUS
  0
LAYER
  5
5E
330
2
100
AcDbSymbolTableRecord
100
AcDbLayerTableRecord
  2
PROFILEEDGES
 70
     0
 62
     7
  6
CONTINUOUS
  0
LAYER
  5
5F
330
2
100
AcDbSymbolTableRecord
100
AcDbLayerTableRecord
  2
SECTIONCUTEDGES
 70
     0
 62
     7
  6
CONTINUOUS
  0
ENDTAB
  0
TABLE
  2
STYLE
  5
3
330
0
100
AcDbSymbolTable
 70
     1
  0
STYLE
  5
11
330
3
100
AcDbSymbolTableRecord
100
AcDbTextStyleTableRecord
  2
STANDARD
 70
     0
 40
0.0
 41
1.0
 50
0.0
 71
     0
 42
0.2
  3
txt
  4

  0
ENDTAB
  0
TABLE
  2
VIEW
  5
6
330
0
100
AcDbSymbolTable
 70
     0
  0
ENDTAB
  0
TABLE
  2
UCS
  5
7
330
0
100
AcDbSymbolTable
 70
     0
  0
ENDTAB
  0
TABLE
  2
APPID
  5
9
330
0
100
AcDbSymbolTable
 70
     2
  0
APPID
  5
12
330
9
100
AcDbSymbolTableRecord
100
AcDbRegAppTableRecord
  2
ACAD
 70
     0
  0
APPID
  5
76E
330
9
100
AcDbSymbolTableRecord
100
AcDbRegAppTableRecord
  2
ACAD_MLEADERVER
 70
     0
  0
ENDTAB
  0
TABLE
  2
DIMSTYLE
  5
A
330
0
100
AcDbSymbolTable
 70
     1
  0
DIMSTYLE
105
27
330
A
100
AcDbSymbolTableRecord
100
AcDbDimStyleTableRecord
  2
STANDARD
 70
     0
  3

  4

  5

  6

  7

 40
1.0
 41
0.18
 42
0.0625
 43
0.38
 44
0.18
 45
0.0
 46
0.0
 47
0.0
 48
0.0
140
0.18
141
0.09
142
0.0
143
25.4
144
1.0
145
0.0
146
1.0
147
0.09
 71
     0
 72
     0
 73
     1
 74
     1
 75
     0
 76
     0
 77
     0
 78
     0
170
     0
171
     2
172
     0
173
     0
174
     0
175
     0
176
     0
177
     0
178
     0
270
     2
271
     4
272
     4
273
     2
274
     2
340
11
275
     0
280
     0
281
     0
282
     0
283
     1
284
     0
285
     0
286
     0
287
     3
288
     0
  0
ENDTAB
  0
TABLE
  2
BLOCK_RECORD
  5
1
330
0
100
AcDbSymbolTable
 70
     0
  0
BLOCK_RECORD
  5
1F
330
1
100
AcDbSymbolTableRecord
100
AcDbBlockTableRecord
  2
*MODEL_SPACE
  0
BLOCK_RECORD
  5
1B
330
1
100
AcDbSymbolTableRecord
100
AcDbBlockTableRecord
  2
*PAPER_SPACE
  0
ENDTAB
  0
ENDSEC
  0
SECTION
  2
BLOCKS
  0
BLOCK
  5
20
330
1F
100
AcDbEntity
  8
0
100
AcDbBlockBegin
  2
*MODEL_SPACE
 70
     0
 10
0.0
 20
0.0
 30
0.0
  3
*MODEL_SPACE
  1

  0
ENDBLK
  5
21
330
1F
100
AcDbEntity
  8
0
100
AcDbBlockEnd
  0
BLOCK
  5
1C
330
1B
100
AcDbEntity
 67
     1
  8
0
100
AcDbBlockBegin
  2
*PAPER_SPACE
 70
     0
 10
0.0
 20
0.0
 30
0.0
  3
*PAPER_SPACE
  1

  0
ENDBLK
  5
1D
330
1B
100
AcDbEntity
 67
     1
  8
0
100
AcDbBlockEnd
  0
ENDSEC
  0
SECTION
  2
ENTITIES
  0
LINE
  5
60
330
1F
100
AcDbEntity
  8
0
100
AcDbLine
 10
-0.2011906208463762
 20
0.0709170252418038
 30
0.0
 11
-0.2011428884399343
 21
0.0708921523003882
 31
0.0
  0
LINE
  5
61
330
1F
100
AcDbEntity
  8
0
100
AcDbLine
 10
-0.0155606928311775
 20
0.1197895557112065
 30
0.0
 11
-0.015565752775559
 21
0.1199737576519683
 31
0.0
  0
LINE
  5
62
330
1F
100
AcDbEntity
  8
0
100
AcDbLine
 10
-0.015565752775559
 20
0.1199737576519683
 30
0.0
 11
-0.0155684191834057
 21
0.120058782476384
 31
0.0
  0
LINE
  5
63
330
1F
100
AcDbEntity
  8
0
100
AcDbLine
 10
-0.0155371167032487
 20
0.1192799908040375
 30
0.0
 11
-0.0155405165037815
 21
0.1193547565750297
 31
0.0
  0
LINE
  5
64
330
1F
100
AcDbEntity
  8
0
100
AcDbLine
 10
-0.0155405165037815
 20
0.1193547565750297
 30
0.0
 11
-0.0155493861588613
 21
0.1195166325090902
 31
0.0
  0
LINE
  5
65
330
1F
100
AcDbEntity
  8
0
100
AcDbLine
 10
-0.0155493861588613
 20
0.1195166325090902
 30
0.0
 11
-0.0155552522984117
 21
0.1196664102191019
 31
0.0
  0
LINE
  5
66
330
1F
100
AcDbEntity
  8
0
100
AcDbLine
 10
-0.0155552522984117
 20
0.1196664102191019
 30
0.0
 11
-0.0155606928311775
 21
0.1197895557112065
 31
0.0
  0
LINE
  5
67
330
1F
100
AcDbEntity
  8
0
100
AcDbLine
 10
-0.0155601024619472
 20
0.1213428988906343
 30
0.0
 11
-0.0155520595210345
 21
0.1215374334108525
 31
0.0
  0
LINE
  5
68
330
1F
100
AcDbEntity
  8
0
100
AcDbLine
 10
-0.0155248833283974
 20
0.122037982044279
 30
0.0
 11
-0.0155196675447723
 21
0.1221042121669466
 31
0.0
  0
LINE
  5
69
330
1F
100
AcDbEntity
  8
0
100
AcDbLine
 10
-0.0155120396558701
 20
0.1222231028788737
 30
0.0
 11
-0.0155022310660989
 21
0.122338670720238
 31
0.0
  0
LINE
  5
6A
330
1F
100
AcDbEntity
  8
0
100
AcDbLine
 10
-0.0154997008106663
 20
0.1223793184400738
 30
0.0
 11
-0.0154891331779092
 21
0.1225033336502411
 31
0.0
  0
LINE
  5
6B
330
1F
100
AcDbEntity
  8
0
100
AcDbLine
 10
-0.0151580260930865
 20
0.1228677195217472
 30
0.0
 11
-0.0153080085391204
 21
0.1230953022499886
 31
0.0
  0
LINE
  5
6C
330
1F
100
AcDbEntity
  8
0
100
AcDbLine
 10
-0.0153080085391204
 20
0.1230953022499886
 30
0.0
 11
-0.0154730906954523
 21
0.1233079221047303
 31
0.0
  0
LINE
  5
6D
330
1F
100
AcDbEntity
  8
0
100
AcDbLine
 10
-0.0150238763901893
 20
0.1226371547154919
 30
0.0
 11
-0.0151580260930865
 21
0.1228677195217472
 31
0.0
  0
LINE
  5
6E
330
1F
100
AcDbEntity
  8
0
100
AcDbLine
 10
-0.0149050369521159
 20
0.1224033742392277
 30
0.0
 11
-0.0150238763901893
 21
0.1226371547154919
 31
0.0
  0
LINE
  5
6F
330
1F
100
AcDbEntity
  8
0
100
AcDbLine
 10
-0.0147115965385478
 20
0.1219249740889138
 30
0.0
 11
-0.0148010620626177
 21
0.1221600096387631
 31
0.0
  0
LINE
  5
70
330
1F
100
AcDbEntity
  8
0
100
AcDbLine
 10
-0.0146363769320327
 20
0.121679666283897
 30
0.0
 11
-0.0147115965385478
 21
0.1219249740889138
 31
0.0
  0
LINE
  5
71
330
1F
100
AcDbEntity
  8
0
100
AcDbLine
 10
0.1645177343771004
 20
0.111007425088512
 30
0.0
 11
0.1645989105004594
 21
0.1110003614021561
 31
0.0
  0
LINE
  5
72
330
1F
100
AcDbEntity
  8
0
100
AcDbLine
 10
0.1644100419222872
 20
0.111017063318804
 30
0.0
 11
0.1645177343771004
 21
0.111007425088512
 31
0.0
  0
LINE
  5
73
330
1F
100
AcDbEntity
  8
0
100
AcDbLine
 10
0.164246708664627
 20
0.1110307262897785
 30
0.0
 11
0.1644100419222872
 21
0.111017063318804
 31
0.0
  0
LINE
  5
74
330
1F
100
AcDbEntity
  8
0
100
AcDbLine
 10
0.1639880864161679
 20
0.1110482203112088
 30
0.0
 11
0.1640618366578103
 21
0.1110430045275836
 31
0.0
  0
LINE
  5
75
330
1F
100
AcDbEntity
  8
0
100
AcDbLine
 10
0.1640618366578103
 20
0.1110430045275836
 30
0.0
 11
0.164246708664627
 21
0.1110307262897785
 31
0.0
  0
LINE
  5
76
330
1F
100
AcDbEntity
  8
0
100
AcDbLine
 10
0.1639161828029949
 20
0.1110523350780164
 30
0.0
 11
0.1639880864161679
 21
0.1110482203112088
 31
0.0
  0
LINE
  5
77
330
1F
100
AcDbEntity
  8
0
100
AcDbLine
 10
0.1636251520205567
 20
0.1110681870453147
 30
0.0
 11
0.1636854321812999
 21
0.111065656789882
 31
0.0
  0
LINE
  5
78
330
1F
100
AcDbEntity
  8
0
100
AcDbLine
 10
0.1648616141616862
 20
0.1114098627726138
 30
0.0
 11
0.1650795827596925
 21
0.1112598792673624
 31
0.0
  0
LINE
  5
79
330
1F
100
AcDbEntity
  8
0
100
AcDbLine
 10
0.0612622827967193
 20
0.070892152300388
 30
0.0
 11
0.0616067866422732
 21
0.0708670090379957
 31
0.0
  0
LINE
  5
7A
330
1F
100
AcDbEntity
  8
0
100
AcDbLine
 10
0.0622446974076361
 20
0.0708406833679752
 30
0.0
 11
0.0628798681928806
 21
0.0708406833679752
 31
0.0
  0
LINE
  5
7B
330
1F
100
AcDbEntity
  8
0
100
AcDbLine
 10
0.0638622828037974
 20
0.0712870329073158
 30
0.0
 11
0.0622446974076361
 21
0.0708406833679752
 31
0.0
  0
LINE
  5
7C
330
1F
100
AcDbEntity
  8
0
100
AcDbLine
 10
0.0628798681928806
 20
0.0708406833679752
 30
0.0
 11
0.0635177789582435
 21
0.0708670090379957
 31
0.0
  0
LINE
  5
7D
330
1F
100
AcDbEntity
  8
0
100
AcDbLine
 10
0.0635177789582435
 20
0.0708670090379957
 30
0.0
 11
0.0638622828037974
 21
0.070892152300388
 31
0.0
  0
LINE
  5
7E
330
1F
100
AcDbEntity
  8
0
100
AcDbLine
 10
0.0636532258300161
 20
0.0720366905319984
 30
0.0
 11
0.0638622828037974
 21
0.0719916883311282
 31
0.0
  0
LINE
  5
7F
330
1F
100
AcDbEntity
  8
0
100
AcDbLine
 10
0.0612622827967193
 20
0.0719916883311282
 30
0.0
 11
0.0615016146276863
 21
0.07203569809759
 31
0.0
  0
LINE
  5
80
330
1F
100
AcDbEntity
  8
0
100
AcDbLine
 10
0.0612622827967193
 20
0.0712870329073158
 30
0.0
 11
0.0622446974076361
 21
0.0708406833679752
 31
0.0
  0
LINE
  5
81
330
1F
100
AcDbEntity
  8
0
100
AcDbLine
 10
0.0616067866422732
 20
0.0708670090379957
 30
0.0
 11
0.0622446974076361
 21
0.0708406833679752
 31
0.0
  0
LINE
  5
82
330
1F
100
AcDbEntity
  8
0
100
AcDbLine
 10
0.0702068653400552
 20
0.07272706683889
 30
0.0
 11
0.0703390635902215
 21
0.0728076757407881
 31
0.0
  0
LINE
  5
83
330
1F
100
AcDbEntity
  8
0
100
AcDbLine
 10
0.0547855020102952
 20
0.0728076757407881
 30
0.0
 11
0.0549177002604615
 21
0.0727270668388901
 31
0.0
  0
LINE
  5
84
330
1F
100
AcDbEntity
  8
0
100
AcDbLine
 10
0.070562283180238
 20
0.0725601086832578
 30
0.0
 11
0.0704729292984616
 21
0.0727260500934784
 31
0.0
  0
LINE
  5
85
330
1F
100
AcDbEntity
  8
0
100
AcDbLine
 10
0.0702068653400552
 20
0.0728882846426862
 30
0.0
 11
0.069770033608706
 21
0.0730431882776879
 31
0.0
  0
LINE
  5
86
330
1F
100
AcDbEntity
  8
0
100
AcDbLine
 10
0.069770033608706
 20
0.0730431882776879
 30
0.0
 11
0.0691721929680121
 21
0.0731873007139146
 31
0.0
  0
LINE
  5
87
330
1F
100
AcDbEntity
  8
0
100
AcDbLine
 10
0.0691721929680121
 20
0.0731873007139146
 30
0.0
 11
0.0684266976523709
 21
0.0733174027346014
 31
0.0
  0
LINE
  5
88
330
1F
100
AcDbEntity
  8
0
100
AcDbLine
 10
0.0684266976523709
 20
0.0733174027346014
 30
0.0
 11
0.0675502011064005
 21
0.0734305880461345
 31
0.0
  0
LINE
  5
89
330
1F
100
AcDbEntity
  8
0
100
AcDbLine
 10
0.0675502011064005
 20
0.0734305880461345
 30
0.0
 11
0.0665622829902482
 21
0.0735243282475987
 31
0.0
  0
LINE
  5
8A
330
1F
100
AcDbEntity
  8
0
100
AcDbLine
 10
0.0665622829902482
 20
0.0735243282475987
 30
0.0
 11
0.0654850109923195
 21
0.0735965294077495
 31
0.0
  0
LINE
  5
8B
330
1F
100
AcDbEntity
  8
0
100
AcDbLine
 10
0.0654850109923195
 20
0.0735965294077495
 30
0.0
 11
0.064342450255112
 21
0.073645578661626
 31
0.0
  0
LINE
  5
8C
330
1F
100
AcDbEntity
  8
0
100
AcDbLine
 10
0.064342450255112
 20
0.073645578661626
 30
0.0
 11
0.0631601235573676
 21
0.0736703802435372
 31
0.0
  0
LINE
  5
8D
330
1F
100
AcDbEntity
  8
0
100
AcDbLine
 10
0.0631601235573676
 20
0.0736703802435372
 30
0.0
 11
0.0619644420431491
 21
0.0736703802435372
 31
0.0
  0
LINE
  5
8E
330
1F
100
AcDbEntity
  8
0
100
AcDbLine
 10
0.0619644420431491
 20
0.0736703802435372
 30
0.0
 11
0.0607821153454047
 21
0.073645578661626
 31
0.0
  0
LINE
  5
8F
330
1F
100
AcDbEntity
  8
0
100
AcDbLine
 10
0.0607821153454047
 20
0.073645578661626
 30
0.0
 11
0.0596395546081972
 21
0.0735965294077495
 31
0.0
  0
LINE
  5
90
330
1F
100
AcDbEntity
  8
0
100
AcDbLine
 10
0.0596395546081972
 20
0.0735965294077495
 30
0.0
 11
0.0585622826102686
 21
0.0735243282475988
 31
0.0
  0
LINE
  5
91
330
1F
100
AcDbEntity
  8
0
100
AcDbLine
 10
0.0585622826102686
 20
0.0735243282475988
 30
0.0
 11
0.0575743644941163
 21
0.0734305880461345
 31
0.0
  0
LINE
  5
92
330
1F
100
AcDbEntity
  8
0
100
AcDbLine
 10
0.0575743644941163
 20
0.0734305880461345
 30
0.0
 11
0.0566978679481458
 21
0.0733174027346014
 31
0.0
  0
LINE
  5
93
330
1F
100
AcDbEntity
  8
0
100
AcDbLine
 10
0.0566978679481458
 20
0.0733174027346014
 30
0.0
 11
0.0559523726325047
 21
0.0731873007139146
 31
0.0
  0
LINE
  5
94
330
1F
100
AcDbEntity
  8
0
100
AcDbLine
 10
0.0559523726325047
 20
0.0731873007139146
 30
0.0
 11
0.0553545319918108
 21
0.0730431882776879
 31
0.0
  0
LINE
  5
95
330
1F
100
AcDbEntity
  8
0
100
AcDbLine
 10
0.0553545319918108
 20
0.0730431882776879
 30
0.0
 11
0.0549177002604615
 21
0.0728882846426862
 31
0.0
  0
LINE
  5
96
330
1F
100
AcDbEntity
  8
0
100
AcDbLine
 10
0.0546516363020551
 20
0.0727260500934784
 30
0.0
 11
0.0545622824202788
 21
0.0725601086832578
 31
0.0
  0
LINE
  5
97
330
1F
100
AcDbEntity
  8
0
100
AcDbLine
 10
0.0701666154410255
 20
0.0719165308467205
 30
0.0
 11
0.0694661132502866
 21
0.0717784175137881
 31
0.0
  0
LINE
  5
98
330
1F
100
AcDbEntity
  8
0
100
AcDbLine
 10
0.0694661132502866
 20
0.0717784175137881
 30
0.0
 11
0.0686370056565416
 21
0.0716548655251952
 31
0.0
  0
LINE
  5
99
330
1F
100
AcDbEntity
  8
0
100
AcDbLine
 10
0.0564875599439752
 20
0.0716548655251952
 30
0.0
 11
0.0556584523502302
 21
0.0717784175137881
 31
0.0
  0
LINE
  5
9A
330
1F
100
AcDbEntity
  8
0
100
AcDbLine
 10
0.0556584523502302
 20
0.0717784175137881
 30
0.0
 11
0.0549579501594913
 21
0.0719165308467205
 31
0.0
  0
LINE
  5
9B
330
1F
100
AcDbEntity
  8
0
100
AcDbLine
 10
0.0707254630025041
 20
0.0720666328919386
 30
0.0
 11
0.0701666154410255
 21
0.0719165308467205
 31
0.0
  0
LINE
  5
9C
330
1F
100
AcDbEntity
  8
0
100
AcDbLine
 10
0.0711322470079672
 20
0.072225927431416
 30
0.0
 11
0.0707254630025041
 21
0.0720666328919386
 31
0.0
  0
LINE
  5
9D
330
1F
100
AcDbEntity
  8
0
100
AcDbLine
 10
0.0676947377133679
 20
0.0715481765851223
 30
0.0
 11
0.0672411991222016
 21
0.0715097922540234
 31
0.0
  0
LINE
  5
9E
330
1F
100
AcDbEntity
  8
0
100
AcDbLine
 10
0.0579050082211564
 20
0.0715079606484248
 30
0.0
 11
0.0574298278871488
 21
0.0715481765851223
 31
0.0
  0
LINE
  5
9F
330
1F
100
AcDbEntity
  8
0
100
AcDbLine
 10
0.0543991025980127
 20
0.0720666328919386
 30
0.0
 11
0.0539923185925495
 21
0.072225927431416
 31
0.0
  0
LINE
  5
A0
330
1F
100
AcDbEntity
  8
0
100
AcDbLine
 10
0.0549579501594913
 20
0.0719165308467205
 30
0.0
 11
0.0543991025980127
 21
0.0720666328919386
 31
0.0
  0
LINE
  5
A1
330
1F
100
AcDbEntity
  8
0
100
AcDbLine
 10
0.0744747888739717
 20
0.0733490713472309
 30
0.0
 11
0.0742135845567596
 21
0.073150701270488
 31
0.0
  0
LINE
  5
A2
330
1F
100
AcDbEntity
  8
0
100
AcDbLine
 10
0.0731877550925624
 20
0.0727742532938719
 30
0.0
 11
0.0724380888487708
 21
0.072601664883293
 31
0.0
  0
LINE
  5
A3
330
1F
100
AcDbEntity
  8
0
100
AcDbLine
 10
0.0715444121952664
 20
0.0724429108710067
 30
0.0
 11
0.0713944215918586
 21
0.0724220362126147
 31
0.0
  0
LINE
  5
A4
330
1F
100
AcDbEntity
  8
0
100
AcDbLine
 10
0.053751806904415
 20
0.0732578397726413
 30
0.0
 11
0.0537451781775367
 21
0.0733028519112472
 31
0.0
  0
LINE
  5
A5
330
1F
100
AcDbEntity
  8
0
100
AcDbLine
 10
0.0537301440086581
 20
0.0724220362126147
 30
0.0
 11
0.0535801534052503
 21
0.0724429108710067
 31
0.0
  0
LINE
  5
A6
330
1F
100
AcDbEntity
  8
0
100
AcDbLine
 10
0.0526864767517459
 20
0.072601664883293
 30
0.0
 11
0.0521026762645256
 21
0.0727360675963759
 31
0.0
  0
LINE
  5
A7
330
1F
100
AcDbEntity
  8
0
100
AcDbLine
 10
0.0521026762645256
 20
0.0727360675963759
 30
0.0
 11
0.0519368105079543
 21
0.0727742532938719
 31
0.0
  0
LINE
  5
A8
330
1F
100
AcDbEntity
  8
0
100
AcDbLine
 10
0.0509109810437572
 20
0.073150701270488
 30
0.0
 11
0.0506497767265451
 21
0.0733490713472309
 31
0.0
  0
LINE
  5
A9
330
1F
100
AcDbEntity
  8
0
100
AcDbLine
 10
0.0520622829418194
 20
0.0735503769133791
 30
0.0
 11
0.0520928033139121
 21
0.0734390384300854
 31
0.0
  0
LINE
  5
AA
330
1F
100
AcDbEntity
  8
0
100
AcDbLine
 10
0.0730317622866046
 20
0.0734390384300854
 30
0.0
 11
0.0730622826586973
 21
0.0735503769133791
 31
0.0
  0
LINE
  5
AB
330
1F
100
AcDbEntity
  8
0
100
AcDbLine
 10
0.0730622826586973
 20
0.0735503769133791
 30
0.0
 11
0.0730317622866046
 21
0.0736617153966728
 31
0.0
  0
LINE
  5
AC
330
1F
100
AcDbEntity
  8
0
100
AcDbLine
 10
0.0714926399733436
 20
0.072781784447139
 30
0.0
 11
0.0714926399733436
 21
0.0733928528470207
 31
0.0
  0
LINE
  5
AD
330
1F
100
AcDbEntity
  8
0
100
AcDbLine
 10
0.0714926399733436
 20
0.072781784447139
 30
0.0
 11
0.0720332978736174
 21
0.0729194776976719
 31
0.0
  0
LINE
  5
AE
330
1F
100
AcDbEntity
  8
0
100
AcDbLine
 10
0.0720332978736174
 20
0.0729194776976719
 30
0.0
 11
0.0724647563393724
 21
0.0730644451072178
 31
0.0
  0
LINE
  5
AF
330
1F
100
AcDbEntity
  8
0
100
AcDbLine
 10
0.0724647563393724
 20
0.0730644451072178
 30
0.0
 11
0.0727820421080601
 21
0.0732150151600027
 31
0.0
  0
LINE
  5
B0
330
1F
100
AcDbEntity
  8
0
100
AcDbLine
 10
0.0727820421080601
 20
0.0732150151600027
 30
0.0
 11
0.0729814960132849
 21
0.0733694518729638
 31
0.0
  0
LINE
  5
B1
330
1F
100
AcDbEntity
  8
0
100
AcDbLine
 10
0.0705310084368598
 20
0.0747145048090279
 30
0.0
 11
0.0705310084368598
 21
0.0746838343064784
 31
0.0
  0
LINE
  5
B2
330
1F
100
AcDbEntity
  8
0
100
AcDbLine
 10
0.0705310084368598
 20
0.0745019527881479
 30
0.0
 11
0.0699869041773986
 21
0.0745836845434338
 31
0.0
  0
LINE
  5
B3
330
1F
100
AcDbEntity
  8
0
100
AcDbLine
 10
0.0693996373075556
 20
0.0746594092240993
 30
0.0
 11
0.0693996373075556
 21
0.0747029048314847
 31
0.0
  0
LINE
  5
B4
330
1F
100
AcDbEntity
  8
0
100
AcDbLine
 10
0.0729814960132849
 20
0.0737313019537945
 30
0.0
 11
0.0727820421080601
 21
0.0738857386667555
 31
0.0
  0
LINE
  5
B5
330
1F
100
AcDbEntity
  8
0
100
AcDbLine
 10
0.0727820421080601
 20
0.0738857386667555
 30
0.0
 11
0.0724797143112433
 21
0.0740292102213333
 31
0.0
  0
LINE
  5
B6
330
1F
100
AcDbEntity
  8
0
100
AcDbLine
 10
0.0724797143112433
 20
0.0740292102213333
 30
0.0
 11
0.0720332978736174
 21
0.0741812761290864
 31
0.0
  0
LINE
  5
B7
330
1F
100
AcDbEntity
  8
0
100
AcDbLine
 10
0.0712466450850975
 20
0.074368209232437
 30
0.0
 11
0.070849017843188
 21
0.0744478009135181
 31
0.0
  0
LINE
  5
B8
330
1F
100
AcDbEntity
  8
0
100
AcDbLine
 10
0.0720332978736174
 20
0.0741812761290864
 30
0.0
 11
0.0714926399733436
 21
0.0743189693796192
 31
0.0
  0
LINE
  5
B9
330
1F
100
AcDbEntity
  8
0
100
AcDbLine
 10
0.0633622827800487
 20
0.0750074469087934
 30
0.0
 11
0.0625622828002584
 21
0.0750116945238236
 31
0.0
  0
LINE
  5
BA
330
1F
100
AcDbEntity
  8
0
100
AcDbLine
 10
0.0625622828002584
 20
0.0750116945238236
 30
0.0
 11
0.0617622828204681
 21
0.0750074469087934
 31
0.0
  0
LINE
  5
BB
330
1F
100
AcDbEntity
  8
0
100
AcDbLine
 10
0.069010540049107
 20
0.0747036675814345
 30
0.0
 11
0.0684386502462935
 21
0.0747590066003706
 31
0.0
  0
LINE
  5
BC
330
1F
100
AcDbEntity
  8
0
100
AcDbLine
 10
0.0684386502462935
 20
0.0747590066003706
 30
0.0
 11
0.0680848473194551
 21
0.0747932424734296
 31
0.0
  0
LINE
  5
BD
330
1F
100
AcDbEntity
  8
0
100
AcDbLine
 10
0.0680848473194551
 20
0.0749717782995385
 30
0.0
 11
0.0680848473194551
 21
0.075025372283314
 31
0.0
  0
LINE
  5
BE
330
1F
100
AcDbEntity
  8
0
100
AcDbLine
 10
0.067095480531038
 20
0.074868487513577
 30
0.0
 11
0.0660538467555803
 21
0.0749285349290707
 31
0.0
  0
LINE
  5
BF
330
1F
100
AcDbEntity
  8
0
100
AcDbLine
 10
0.0660538467555803
 20
0.0749285349290707
 30
0.0
 11
0.0660028419434589
 21
0.0749306166764999
 31
0.0
  0
LINE
  5
C0
330
1F
100
AcDbEntity
  8
0
100
AcDbLine
 10
0.0660028419434589
 20
0.0749306166764999
 30
0.0
 11
0.0660052844009179
 21
0.0750063902069383
 31
0.0
  0
LINE
  5
C1
330
1F
100
AcDbEntity
  8
0
100
AcDbLine
 10
0.0660028419434589
 20
0.0749306166764999
 30
0.0
 11
0.0649719563290041
 21
0.0749726925755067
 31
0.0
  0
LINE
  5
C2
330
1F
100
AcDbEntity
  8
0
100
AcDbLine
 10
0.0557249282929611
 20
0.0747155837309875
 30
0.0
 11
0.0557249282929611
 21
0.0746594092240993
 31
0.0
  0
LINE
  5
C3
330
1F
100
AcDbEntity
  8
0
100
AcDbLine
 10
0.0551376614231181
 20
0.0745836845434338
 30
0.0
 11
0.0545935571636569
 21
0.0745019527881479
 31
0.0
  0
LINE
  5
C4
330
1F
100
AcDbEntity
  8
0
100
AcDbLine
 10
0.0590707188449365
 20
0.0749285349290707
 30
0.0
 11
0.0580290850694787
 21
0.074868487513577
 31
0.0
  0
LINE
  5
C5
330
1F
100
AcDbEntity
  8
0
100
AcDbLine
 10
0.0566859153542232
 20
0.0747590066003706
 30
0.0
 11
0.0561140255514097
 21
0.0747036675814345
 31
0.0
  0
LINE
  5
C6
330
1F
100
AcDbEntity
  8
0
100
AcDbLine
 10
0.0570397182810616
 20
0.0747932424734296
 30
0.0
 11
0.0566859153542232
 21
0.0747590066003706
 31
0.0
  0
LINE
  5
C7
330
1F
100
AcDbEntity
  8
0
100
AcDbLine
 10
0.0520928033139121
 20
0.0736617153966728
 30
0.0
 11
0.0520622829418194
 21
0.0735503769133791
 31
0.0
  0
LINE
  5
C8
330
1F
100
AcDbEntity
  8
0
100
AcDbLine
 10
0.0542755477573287
 20
0.0744478009135181
 30
0.0
 11
0.0538779205154192
 21
0.074368209232437
 31
0.0
  0
LINE
  5
C9
330
1F
100
AcDbEntity
  8
0
100
AcDbLine
 10
0.0536319256271732
 20
0.0743189693796192
 30
0.0
 11
0.0530912677268994
 21
0.0741812761290864
 31
0.0
  0
LINE
  5
CA
330
1F
100
AcDbEntity
  8
0
100
AcDbLine
 10
0.0530912677268994
 20
0.0741812761290864
 30
0.0
 11
0.0526598092611444
 21
0.0740363087195405
 31
0.0
  0
LINE
  5
CB
330
1F
100
AcDbEntity
  8
0
100
AcDbLine
 10
0.0526598092611444
 20
0.0740363087195405
 30
0.0
 11
0.0523425234924566
 21
0.0738857386667555
 31
0.0
  0
LINE
  5
CC
330
1F
100
AcDbEntity
  8
0
100
AcDbLine
 10
0.0523425234924566
 20
0.0738857386667555
 30
0.0
 11
0.0521430695872318
 21
0.0737313019537945
 31
0.0
  0
LINE
  5
CD
330
1F
100
AcDbEntity
  8
0
100
AcDbLine
 10
0.0521430695872318
 20
0.0733694518729638
 30
0.0
 11
0.0523425234924566
 21
0.0732150151600027
 31
0.0
  0
LINE
  5
CE
330
1F
100
AcDbEntity
  8
0
100
AcDbLine
 10
0.0523425234924566
 20
0.0732150151600027
 30
0.0
 11
0.0526448512892735
 21
0.0730715436054249
 31
0.0
  0
LINE
  5
CF
330
1F
100
AcDbEntity
  8
0
100
AcDbLine
 10
0.0526448512892735
 20
0.0730715436054249
 30
0.0
 11
0.0530912677268994
 21
0.0729194776976719
 31
0.0
  0
LINE
  5
D0
330
1F
100
AcDbEntity
  8
0
100
AcDbLine
 10
0.0537275294025572
 20
0.0737313019537945
 30
0.0
 11
0.0537330819603903
 21
0.0736944270487934
 31
0.0
  0
LINE
  5
D1
330
1F
100
AcDbEntity
  8
0
100
AcDbLine
 10
0.0537451781775367
 20
0.0736140952680998
 30
0.0
 11
0.0537554183910529
 21
0.0735460893306659
 31
0.0
  0
LINE
  5
D2
330
1F
100
AcDbEntity
  8
0
100
AcDbLine
 10
0.0530912677268994
 20
0.0729194776976719
 30
0.0
 11
0.0536319256271732
 21
0.072781784447139
 31
0.0
  0
LINE
  5
D3
330
1F
100
AcDbEntity
  8
0
100
AcDbLine
 10
0.0506497767265451
 20
0.0737516824795273
 30
0.0
 11
0.0509109810437572
 21
0.0739500525562703
 31
0.0
  0
LINE
  5
D4
330
1F
100
AcDbEntity
  8
0
100
AcDbLine
 10
0.0520134172026276
 20
0.0754099433671392
 30
0.0
 11
0.0520093659811275
 21
0.0754573846923723
 31
0.0
  0
LINE
  5
D5
330
1F
100
AcDbEntity
  8
0
100
AcDbLine
 10
0.0521026762645256
 20
0.0743646862303824
 30
0.0
 11
0.0526864767517459
 21
0.0744990889434653
 31
0.0
  0
LINE
  5
D6
330
1F
100
AcDbEntity
  8
0
100
AcDbLine
 10
0.0546048112656486
 20
0.0748004477744437
 30
0.0
 11
0.0557455058652472
 21
0.0749248235315309
 31
0.0
  0
LINE
  5
D7
330
1F
100
AcDbEntity
  8
0
100
AcDbLine
 10
0.0611158426828247
 20
0.0752082774033542
 30
0.0
 11
0.0625622828002584
 21
0.0752204542194914
 31
0.0
  0
LINE
  5
D8
330
1F
100
AcDbEntity
  8
0
100
AcDbLine
 10
0.0625622828002584
 20
0.0752204542194914
 30
0.0
 11
0.064008722917692
 21
0.0752082774033542
 31
0.0
  0
LINE
  5
D9
330
1F
100
AcDbEntity
  8
0
100
AcDbLine
 10
0.0660028419434589
 20
0.0751472582637789
 30
0.0
 11
0.0668175412784826
 21
0.0751119263657985
 31
0.0
  0
LINE
  5
DA
330
1F
100
AcDbEntity
  8
0
100
AcDbLine
 10
0.0693790597352695
 20
0.0749248235315309
 30
0.0
 11
0.0705197543348682
 21
0.0748004477744437
 31
0.0
  0
LINE
  5
DB
330
1F
100
AcDbEntity
  8
0
100
AcDbLine
 10
0.0708124505581248
 20
0.0747934402810368
 30
0.0
 11
0.070807735383484
 21
0.0748254585099335
 31
0.0
  0
LINE
  5
DC
330
1F
100
AcDbEntity
  8
0
100
AcDbLine
 10
0.0724380888487708
 20
0.0744990889434653
 30
0.0
 11
0.0731877550925624
 21
0.0743265005328864
 31
0.0
  0
LINE
  5
DD
330
1F
100
AcDbEntity
  8
0
100
AcDbLine
 10
0.0742135845567596
 20
0.0739500525562703
 30
0.0
 11
0.0744747888739717
 21
0.0737516824795273
 31
0.0
  0
LINE
  5
DE
330
1F
100
AcDbEntity
  8
0
100
AcDbLine
 10
0.0520928033139121
 20
0.0736617153966728
 30
0.0
 11
0.0521026762645256
 21
0.0740292102213333
 31
0.0
  0
LINE
  5
DF
330
1F
100
AcDbEntity
  8
0
100
AcDbLine
 10
0.0526598092611444
 20
0.0740363087195405
 30
0.0
 11
0.0521026762645256
 21
0.0740292102213333
 31
0.0
  0
LINE
  5
E0
330
1F
100
AcDbEntity
  8
0
100
AcDbLine
 10
0.0521026762645256
 20
0.0743646862303824
 30
0.0
 11
0.0521026762645256
 21
0.0740292102213333
 31
0.0
  0
LINE
  5
E1
330
1F
100
AcDbEntity
  8
0
100
AcDbLine
 10
0.0519368105079543
 20
0.0743265005328864
 30
0.0
 11
0.0521026762645256
 21
0.0740292102213333
 31
0.0
  0
LINE
  5
E2
330
1F
100
AcDbEntity
  8
0
100
AcDbLine
 10
0.0535801534052503
 20
0.0746578429557515
 30
0.0
 11
0.0538779205154192
 21
0.074368209232437
 31
0.0
  0
LINE
  5
E3
330
1F
100
AcDbEntity
  8
0
100
AcDbLine
 10
0.0557249282929611
 20
0.0746594092240993
 30
0.0
 11
0.0564811645518553
 21
0.0745541614738443
 31
0.0
  0
LINE
  5
E4
330
1F
100
AcDbEntity
  8
0
100
AcDbLine
 10
0.0572557688202273
 20
0.0745447676225942
 30
0.0
 11
0.0561140255514097
 21
0.0747036675814345
 31
0.0
  0
LINE
  5
E5
330
1F
100
AcDbEntity
  8
0
100
AcDbLine
 10
0.0564811645518553
 20
0.0745541614738443
 30
0.0
 11
0.0553497934225511
 21
0.0743967050378928
 31
0.0
  0
LINE
  5
E6
330
1F
100
AcDbEntity
  8
0
100
AcDbLine
 10
0.0556584523502302
 20
0.0743320680828488
 30
0.0
 11
0.0564875599439752
 21
0.0744556200714417
 31
0.0
  0
LINE
  5
E7
330
1F
100
AcDbEntity
  8
0
100
AcDbLine
 10
0.0564875599439752
 20
0.0744556200714417
 30
0.0
 11
0.0572557688202273
 21
0.0745447676225942
 31
0.0
  0
LINE
  5
E8
330
1F
100
AcDbEntity
  8
0
100
AcDbLine
 10
0.0553497934225511
 20
0.0743967050378928
 30
0.0
 11
0.0545935571636569
 21
0.0745019527881479
 31
0.0
  0
LINE
  5
E9
330
1F
100
AcDbEntity
  8
0
100
AcDbLine
 10
0.0542755477573287
 20
0.0744478009135181
 30
0.0
 11
0.0554172910261464
 21
0.0742889009546778
 31
0.0
  0
LINE
  5
EA
330
1F
100
AcDbEntity
  8
0
100
AcDbLine
 10
0.0566859153542232
 20
0.0747590066003706
 30
0.0
 11
0.0546048112656486
 21
0.0748004477744437
 31
0.0
  0
LINE
  5
EB
330
1F
100
AcDbEntity
  8
0
100
AcDbLine
 10
0.0580290850694787
 20
0.074868487513577
 30
0.0
 11
0.0591217236570579
 21
0.075006072859575
 31
0.0
  0
LINE
  5
EC
330
1F
100
AcDbEntity
  8
0
100
AcDbLine
 10
0.0583070243220341
 20
0.0751119263657985
 30
0.0
 11
0.0591217236570579
 21
0.075006072859575
 31
0.0
  0
LINE
  5
ED
330
1F
100
AcDbEntity
  8
0
100
AcDbLine
 10
0.0660052844009179
 20
0.0750063902069383
 30
0.0
 11
0.0668175412784826
 21
0.0751119263657985
 31
0.0
  0
LINE
  5
EE
330
1F
100
AcDbEntity
  8
0
100
AcDbLine
 10
0.0684386502462935
 20
0.0747590066003706
 30
0.0
 11
0.0705197543348682
 21
0.0748004477744437
 31
0.0
  0
LINE
  5
EF
330
1F
100
AcDbEntity
  8
0
100
AcDbLine
 10
0.0678687967802894
 20
0.0745447676225942
 30
0.0
 11
0.0686370056565416
 21
0.0744556200714417
 31
0.0
  0
LINE
  5
F0
330
1F
100
AcDbEntity
  8
0
100
AcDbLine
 10
0.0697747721779656
 20
0.0743967050378928
 30
0.0
 11
0.0686434010486614
 21
0.0745541614738443
 31
0.0
  0
LINE
  5
F1
330
1F
100
AcDbEntity
  8
0
100
AcDbLine
 10
0.069010540049107
 20
0.0747036675814345
 30
0.0
 11
0.0678687967802894
 21
0.0745447676225942
 31
0.0
  0
LINE
  5
F2
330
1F
100
AcDbEntity
  8
0
100
AcDbLine
 10
0.0686434010486614
 20
0.0745541614738443
 30
0.0
 11
0.0693996373075556
 21
0.0746594092240993
 31
0.0
  0
LINE
  5
F3
330
1F
100
AcDbEntity
  8
0
100
AcDbLine
 10
0.0686370056565416
 20
0.0744556200714417
 30
0.0
 11
0.0694661132502866
 21
0.0743320680828488
 31
0.0
  0
LINE
  5
F4
330
1F
100
AcDbEntity
  8
0
100
AcDbLine
 10
0.0705310084368598
 20
0.0745019527881479
 30
0.0
 11
0.0697747721779656
 21
0.0743967050378928
 31
0.0
  0
LINE
  5
F5
330
1F
100
AcDbEntity
  8
0
100
AcDbLine
 10
0.0697072745743704
 20
0.0742889009546778
 30
0.0
 11
0.070849017843188
 21
0.0744478009135181
 31
0.0
  0
LINE
  5
F6
330
1F
100
AcDbEntity
  8
0
100
AcDbLine
 10
0.0712466450850975
 20
0.074368209232437
 30
0.0
 11
0.0715444121952664
 21
0.0746578429557515
 31
0.0
  0
LINE
  5
F7
330
1F
100
AcDbEntity
  8
0
100
AcDbLine
 10
0.07137938742298
 20
0.073719038457588
 30
0.0
 11
0.0714622825827014
 21
0.0735503769133791
 31
0.0
  0
LINE
  5
F8
330
1F
100
AcDbEntity
  8
0
100
AcDbLine
 10
0.0719622826646578
 20
0.0734390384300854
 30
0.0
 11
0.0719622826646578
 21
0.0736617153966728
 31
0.0
  0
LINE
  5
F9
330
1F
100
AcDbEntity
  8
0
100
AcDbLine
 10
0.0730317622866046
 20
0.0734390384300854
 30
0.0
 11
0.0719622826646578
 21
0.0734390384300854
 31
0.0
  0
LINE
  5
FA
330
1F
100
AcDbEntity
  8
0
100
AcDbLine
 10
0.0729814960132849
 20
0.0737313019537945
 30
0.0
 11
0.07137938742298
 21
0.073719038457588
 31
0.0
  0
LINE
  5
FB
330
1F
100
AcDbEntity
  8
0
100
AcDbLine
 10
0.0719622826646578
 20
0.0736617153966728
 30
0.0
 11
0.0730317622866046
 21
0.0736617153966728
 31
0.0
  0
LINE
  5
FC
330
1F
100
AcDbEntity
  8
0
100
AcDbLine
 10
0.0715444121952664
 20
0.0724429108710067
 30
0.0
 11
0.0714926399733436
 21
0.072781784447139
 31
0.0
  0
LINE
  5
FD
330
1F
100
AcDbEntity
  8
0
100
AcDbLine
 10
0.0521026762645256
 20
0.0730715436054249
 30
0.0
 11
0.0530912677268994
 21
0.0729194776976719
 31
0.0
  0
LINE
  5
FE
330
1F
100
AcDbEntity
  8
0
100
AcDbLine
 10
0.0536746899145904
 20
0.0725348651542512
 30
0.0
 11
0.0535801534052503
 21
0.0724429108710067
 31
0.0
  0
LINE
  5
FF
330
1F
100
AcDbEntity
  8
0
100
AcDbLine
 10
0.0521026762645256
 20
0.0730715436054249
 30
0.0
 11
0.0521026762645256
 21
0.0727360675963759
 31
0.0
  0
LINE
  5
100
330
1F
100
AcDbEntity
  8
0
100
AcDbLine
 10
0.0521026762645256
 20
0.0730715436054249
 30
0.0
 11
0.0519368105079543
 21
0.0727742532938719
 31
0.0
  0
LINE
  5
101
330
1F
100
AcDbEntity
  8
0
100
AcDbLine
 10
0.0531622829358589
 20
0.0734390384300854
 30
0.0
 11
0.0520928033139121
 21
0.0734390384300854
 31
0.0
  0
LINE
  5
102
330
1F
100
AcDbEntity
  8
0
100
AcDbLine
 10
0.0520928033139121
 20
0.0734390384300854
 30
0.0
 11
0.0521026762645256
 21
0.0730715436054249
 31
0.0
  0
LINE
  5
103
330
1F
100
AcDbEntity
  8
0
100
AcDbLine
 10
0.0531622829358589
 20
0.0736617153966728
 30
0.0
 11
0.0531622829358589
 21
0.0734390384300854
 31
0.0
  0
LINE
  5
104
330
1F
100
AcDbEntity
  8
0
100
AcDbLine
 10
0.0520928033139121
 20
0.0736617153966728
 30
0.0
 11
0.0531622829358589
 21
0.0736617153966728
 31
0.0
  0
LINE
  5
105
330
1F
100
AcDbEntity
  8
0
100
AcDbLine
 10
0.0617622828204681
 20
0.0748586041062569
 30
0.0
 11
0.0617622828204681
 21
0.0750074469087934
 31
0.0
  0
LINE
  5
106
330
1F
100
AcDbEntity
  8
0
100
AcDbLine
 10
0.0633622827800487
 20
0.0748586041062569
 30
0.0
 11
0.0617622828204681
 21
0.0748586041062569
 31
0.0
  0
LINE
  5
107
330
1F
100
AcDbEntity
  8
0
100
AcDbLine
 10
0.0619549253234204
 20
0.0747861299767963
 30
0.0
 11
0.0631696402770963
 21
0.0747861299767963
 31
0.0
  0
LINE
  5
108
330
1F
100
AcDbEntity
  8
0
100
AcDbLine
 10
0.0633622827800487
 20
0.0750074469087934
 30
0.0
 11
0.0633622827800487
 21
0.0748586041062569
 31
0.0
  0
LINE
  5
109
330
1F
100
AcDbEntity
  8
0
100
AcDbLine
 10
0.0638622828037974
 20
0.0747757326457755
 30
0.0
 11
0.0638622828037974
 21
0.0750004511953263
 31
0.0
  0
LINE
  5
10A
330
1F
100
AcDbEntity
  8
0
100
AcDbLine
 10
0.07137938742298
 20
0.073719038457588
 30
0.0
 11
0.0713668266754162
 21
0.0743441529446788
 31
0.0
  0
LINE
  5
10B
330
1F
100
AcDbEntity
  8
0
100
AcDbLine
 10
0.0678687967802894
 20
0.0749881781096399
 30
0.0
 11
0.0678687967802894
 21
0.0750262373734025
 31
0.0
  0
LINE
  5
10C
330
1F
100
AcDbEntity
  8
0
100
AcDbLine
 10
0.0536622830178153
 20
0.0725601086832578
 30
0.0
 11
0.0537451781775367
 21
0.0727287702274666
 31
0.0
  0
LINE
  5
10D
330
1F
100
AcDbEntity
  8
0
100
AcDbLine
 10
0.0537451781775367
 20
0.0727287702274666
 30
0.0
 11
0.0539923185925495
 21
0.0728942899350996
 31
0.0
  0
LINE
  5
10E
330
1F
100
AcDbEntity
  8
0
100
AcDbLine
 10
0.0554172910261464
 20
0.0742889009546778
 30
0.0
 11
0.0549579501594913
 21
0.0732036865197951
 31
0.0
  0
LINE
  5
10F
330
1F
100
AcDbEntity
  8
0
100
AcDbLine
 10
0.0549579501594913
 20
0.0732036865197951
 30
0.0
 11
0.0556584523502302
 21
0.0743320680828488
 31
0.0
  0
LINE
  5
110
330
1F
100
AcDbEntity
  8
0
100
AcDbLine
 10
0.0549579501594913
 20
0.0732036865197951
 30
0.0
 11
0.0556584523502302
 21
0.0733417998527274
 31
0.0
  0
LINE
  5
111
330
1F
100
AcDbEntity
  8
0
100
AcDbLine
 10
0.0556584523502302
 20
0.0733417998527274
 30
0.0
 11
0.0564875599439752
 21
0.0734653518413204
 31
0.0
  0
LINE
  5
112
330
1F
100
AcDbEntity
  8
0
100
AcDbLine
 10
0.0572557688202273
 20
0.0748096739240137
 30
0.0
 11
0.0572557688202273
 21
0.0745447676225942
 31
0.0
  0
LINE
  5
113
330
1F
100
AcDbEntity
  8
0
100
AcDbLine
 10
0.0612622827967193
 20
0.0747757326457755
 30
0.0
 11
0.0607515243092116
 21
0.0737728419829513
 31
0.0
  0
LINE
  5
114
330
1F
100
AcDbEntity
  8
0
100
AcDbLine
 10
0.0607515243092116
 20
0.0737728419829513
 30
0.0
 11
0.0619549253234204
 21
0.0747861299767963
 31
0.0
  0
LINE
  5
115
330
1F
100
AcDbEntity
  8
0
100
AcDbLine
 10
0.0607515243092116
 20
0.0737728419829513
 30
0.0
 11
0.0619549253234204
 21
0.073795861746675
 31
0.0
  0
LINE
  5
116
330
1F
100
AcDbEntity
  8
0
100
AcDbLine
 10
0.0619549253234204
 20
0.073795861746675
 30
0.0
 11
0.0631696402770963
 21
0.073795861746675
 31
0.0
  0
LINE
  5
117
330
1F
100
AcDbEntity
  8
0
100
AcDbLine
 10
0.0643730412913051
 20
0.0737728419829513
 30
0.0
 11
0.0638622828037974
 21
0.0747757326457755
 31
0.0
  0
LINE
  5
118
330
1F
100
AcDbEntity
  8
0
100
AcDbLine
 10
0.0638622828037974
 20
0.0747757326457755
 30
0.0
 11
0.0631696402770963
 21
0.073795861746675
 31
0.0
  0
LINE
  5
119
330
1F
100
AcDbEntity
  8
0
100
AcDbLine
 10
0.0631696402770963
 20
0.073795861746675
 30
0.0
 11
0.0643730412913051
 21
0.0737728419829513
 31
0.0
  0
LINE
  5
11A
330
1F
100
AcDbEntity
  8
0
100
AcDbLine
 10
0.0631696402770963
 20
0.0747861299767963
 30
0.0
 11
0.0631696402770963
 21
0.073795861746675
 31
0.0
  0
LINE
  5
11B
330
1F
100
AcDbEntity
  8
0
100
AcDbLine
 10
0.0678687967802894
 20
0.0745447676225942
 30
0.0
 11
0.0676947377133679
 21
0.0735720407813933
 31
0.0
  0
LINE
  5
11C
330
1F
100
AcDbEntity
  8
0
100
AcDbLine
 10
0.0676947377133679
 20
0.0735720407813933
 30
0.0
 11
0.0686370056565416
 21
0.0734653518413204
 31
0.0
  0
LINE
  5
11D
330
1F
100
AcDbEntity
  8
0
100
AcDbLine
 10
0.0686370056565416
 20
0.0734653518413204
 30
0.0
 11
0.0694661132502866
 21
0.0733417998527274
 31
0.0
  0
LINE
  5
11E
330
1F
100
AcDbEntity
  8
0
100
AcDbLine
 10
0.0697072745743704
 20
0.0742889009546778
 30
0.0
 11
0.0694661132502866
 21
0.0733417998527274
 31
0.0
  0
LINE
  5
11F
330
1F
100
AcDbEntity
  8
0
100
AcDbLine
 10
0.0694661132502866
 20
0.0733417998527274
 30
0.0
 11
0.0701666154410255
 21
0.0732036865197951
 31
0.0
  0
LINE
  5
120
330
1F
100
AcDbEntity
  8
0
100
AcDbLine
 10
0.0694661132502866
 20
0.0743320680828488
 30
0.0
 11
0.0694661132502866
 21
0.0733417998527274
 31
0.0
  0
LINE
  5
121
330
1F
100
AcDbEntity
  8
0
100
AcDbLine
 10
0.07137938742298
 20
0.073719038457588
 30
0.0
 11
0.0711322470079672
 21
0.0728942899350996
 31
0.0
  0
LINE
  5
122
330
1F
100
AcDbEntity
  8
0
100
AcDbLine
 10
0.0711322470079672
 20
0.0728942899350996
 30
0.0
 11
0.07137938742298
 21
0.0727287702274666
 31
0.0
  0
LINE
  5
123
330
1F
100
AcDbEntity
  8
0
100
AcDbLine
 10
0.07137938742298
 20
0.0727287702274666
 30
0.0
 11
0.0714622825827014
 21
0.0725601086832578
 31
0.0
  0
LINE
  5
124
330
1F
100
AcDbEntity
  8
0
100
AcDbLine
 10
0.0543991025980127
 20
0.0730535844745769
 30
0.0
 11
0.0549579501594913
 21
0.0732036865197951
 31
0.0
  0
LINE
  5
125
330
1F
100
AcDbEntity
  8
0
100
AcDbLine
 10
0.0539923185925495
 20
0.0728942899350996
 30
0.0
 11
0.0543991025980127
 21
0.0730535844745769
 31
0.0
  0
LINE
  5
126
330
1F
100
AcDbEntity
  8
0
100
AcDbLine
 10
0.0537577389251005
 20
0.0743441529446788
 30
0.0
 11
0.0537577389251005
 21
0.0737313019537945
 31
0.0
  0
LINE
  5
127
330
1F
100
AcDbEntity
  8
0
100
AcDbLine
 10
0.0595818542852562
 20
0.0737272313517272
 30
0.0
 11
0.0607515243092116
 21
0.0737728419829513
 31
0.0
  0
LINE
  5
128
330
1F
100
AcDbEntity
  8
0
100
AcDbLine
 10
0.0584677040088486
 20
0.0736598793500859
 30
0.0
 11
0.0595818542852562
 21
0.0737272313517272
 31
0.0
  0
LINE
  5
129
330
1F
100
AcDbEntity
  8
0
100
AcDbLine
 10
0.0574298278871488
 20
0.0748229117662698
 30
0.0
 11
0.0574298278871488
 21
0.0735720407813933
 31
0.0
  0
LINE
  5
12A
330
1F
100
AcDbEntity
  8
0
100
AcDbLine
 10
0.0574298278871488
 20
0.0735720407813933
 30
0.0
 11
0.0584677040088486
 21
0.0736598793500859
 31
0.0
  0
LINE
  5
12B
330
1F
100
AcDbEntity
  8
0
100
AcDbLine
 10
0.0572557688202273
 20
0.0745447676225942
 30
0.0
 11
0.0574298278871488
 21
0.0735720407813933
 31
0.0
  0
LINE
  5
12C
330
1F
100
AcDbEntity
  8
0
100
AcDbLine
 10
0.0564875599439752
 20
0.0734653518413204
 30
0.0
 11
0.0574298278871488
 21
0.0735720407813933
 31
0.0
  0
LINE
  5
12D
330
1F
100
AcDbEntity
  8
0
100
AcDbLine
 10
0.0676947377133679
 20
0.0748229117662698
 30
0.0
 11
0.0676947377133679
 21
0.0735720407813933
 31
0.0
  0
LINE
  5
12E
330
1F
100
AcDbEntity
  8
0
100
AcDbLine
 10
0.0666568615916681
 20
0.0736598793500859
 30
0.0
 11
0.0676947377133679
 21
0.0735720407813933
 31
0.0
  0
LINE
  5
12F
330
1F
100
AcDbEntity
  8
0
100
AcDbLine
 10
0.0655427113152605
 20
0.0737272313517272
 30
0.0
 11
0.0666568615916681
 21
0.0736598793500859
 31
0.0
  0
LINE
  5
130
330
1F
100
AcDbEntity
  8
0
100
AcDbLine
 10
0.0643730412913051
 20
0.0737728419829513
 30
0.0
 11
0.0655427113152605
 21
0.0737272313517272
 31
0.0
  0
LINE
  5
131
330
1F
100
AcDbEntity
  8
0
100
AcDbLine
 10
0.0641320330252674
 20
0.0749937033603335
 30
0.0
 11
0.0643730412913051
 21
0.0737728419829513
 31
0.0
  0
LINE
  5
132
330
1F
100
AcDbEntity
  8
0
100
AcDbLine
 10
0.0707254630025041
 20
0.0730535844745769
 30
0.0
 11
0.0711322470079672
 21
0.0728942899350996
 31
0.0
  0
LINE
  5
133
330
1F
100
AcDbEntity
  8
0
100
AcDbLine
 10
0.0701666154410255
 20
0.0732036865197951
 30
0.0
 11
0.0707254630025041
 21
0.0730535844745769
 31
0.0
  0
LINE
  5
134
330
1F
100
AcDbEntity
  8
0
100
AcDbLine
 10
0.0691721929680121
 20
0.071932916652601
 30
0.0
 11
0.0684266976523709
 21
0.0718028146319142
 31
0.0
  0
LINE
  5
135
330
1F
100
AcDbEntity
  8
0
100
AcDbLine
 10
0.069770033608706
 20
0.0720770290888277
 30
0.0
 11
0.0691721929680121
 21
0.071932916652601
 31
0.0
  0
LINE
  5
136
330
1F
100
AcDbEntity
  8
0
100
AcDbLine
 10
0.0702068653400552
 20
0.0722319327238294
 30
0.0
 11
0.069770033608706
 21
0.0720770290888277
 31
0.0
  0
LINE
  5
137
330
1F
100
AcDbEntity
  8
0
100
AcDbLine
 10
0.0704729292984616
 20
0.0723941672730372
 30
0.0
 11
0.0702068653400552
 21
0.0722319327238294
 31
0.0
  0
LINE
  5
138
330
1F
100
AcDbEntity
  8
0
100
AcDbLine
 10
0.070562283180238
 20
0.0725601086832578
 30
0.0
 11
0.0704729292984616
 21
0.0723941672730372
 31
0.0
  0
LINE
  5
139
330
1F
100
AcDbEntity
  8
0
100
AcDbLine
 10
0.0546516363020551
 20
0.0723941672730372
 30
0.0
 11
0.0545622824202788
 21
0.0725601086832578
 31
0.0
  0
LINE
  5
13A
330
1F
100
AcDbEntity
  8
0
100
AcDbLine
 10
0.0549177002604615
 20
0.0722319327238294
 30
0.0
 11
0.0546516363020551
 21
0.0723941672730372
 31
0.0
  0
LINE
  5
13B
330
1F
100
AcDbEntity
  8
0
100
AcDbLine
 10
0.0553545319918108
 20
0.0720770290888277
 30
0.0
 11
0.0549177002604615
 21
0.0722319327238294
 31
0.0
  0
LINE
  5
13C
330
1F
100
AcDbEntity
  8
0
100
AcDbLine
 10
0.0559523726325047
 20
0.071932916652601
 30
0.0
 11
0.0553545319918108
 21
0.0720770290888277
 31
0.0
  0
LINE
  5
13D
330
1F
100
AcDbEntity
  8
0
100
AcDbLine
 10
0.0566978679481458
 20
0.0718028146319142
 30
0.0
 11
0.0559523726325047
 21
0.071932916652601
 31
0.0
  0
LINE
  5
13E
330
1F
100
AcDbEntity
  8
0
100
AcDbLine
 10
0.057406834056466
 20
0.0717112631589442
 30
0.0
 11
0.0566978679481458
 21
0.0718028146319142
 31
0.0
  0
LINE
  5
13F
330
1F
100
AcDbEntity
  8
0
100
AcDbLine
 10
0.0684266976523709
 20
0.0718028146319142
 30
0.0
 11
0.0677386167251084
 21
0.0717139601413058
 31
0.0
  0
LINE
  5
140
330
1F
100
AcDbEntity
  8
0
100
AcDbLine
 10
0.0628798681928806
 20
0.0720202818745182
 30
0.0
 11
0.0634937936007372
 21
0.0720318004558436
 31
0.0
  0
LINE
  5
141
330
1F
100
AcDbEntity
  8
0
100
AcDbLine
 10
0.0622446974076361
 20
0.0720202818745182
 30
0.0
 11
0.0628798681928806
 21
0.0720202818745182
 31
0.0
  0
LINE
  5
142
330
1F
100
AcDbEntity
  8
0
100
AcDbLine
 10
0.0616307719997795
 20
0.0720318004558436
 30
0.0
 11
0.0622446974076361
 21
0.0720202818745182
 31
0.0
  0
LINE
  5
143
330
1F
100
AcDbEntity
  8
0
100
AcDbLine
 10
0.0612622827967193
 20
0.0701525194407353
 30
0.0
 11
0.0612622827967193
 21
0.0701930601927152
 31
0.0
  0
LINE
  5
144
330
1F
100
AcDbEntity
  8
0
100
AcDbLine
 10
0.0553497934225511
 20
0.0747270722807556
 30
0.0
 11
0.0553497934225511
 21
0.0746675079813291
 31
0.0
  0
LINE
  5
145
330
1F
100
AcDbEntity
  8
0
100
AcDbLine
 10
0.0553497934225511
 20
0.0746110377430452
 30
0.0
 11
0.0553497934225511
 21
0.0743967050378928
 31
0.0
  0
LINE
  5
146
330
1F
100
AcDbEntity
  8
0
100
AcDbLine
 10
0.0697747721779656
 20
0.0747021694520973
 30
0.0
 11
0.0697747721779656
 21
0.0746675079813291
 31
0.0
  0
LINE
  5
147
330
1F
100
AcDbEntity
  8
0
100
AcDbLine
 10
0.0697747721779656
 20
0.0746110377430452
 30
0.0
 11
0.0697747721779656
 21
0.0743967050378928
 31
0.0
  0
LINE
  5
148
330
1F
100
AcDbEntity
  8
0
100
AcDbLine
 10
0.0525622830237757
 20
0.1299683867487899
 30
0.0
 11
0.0525622830237757
 21
0.1349683866370311
 31
0.0
  0
LINE
  5
149
330
1F
100
AcDbEntity
  8
0
100
AcDbLine
 10
0.0725622825767408
 20
0.1349683866370311
 30
0.0
 11
0.0725622825767408
 21
0.1299683867487899
 31
0.0
  0
LINE
  5
14A
330
1F
100
AcDbEntity
  8
0
100
AcDbLine
 10
0.0591207441863613
 20
0.104068386645413
 30
0.0
 11
0.0590470940067591
 21
0.104068386645413
 31
0.0
  0
LINE
  5
14B
330
1F
100
AcDbEntity
  8
0
100
AcDbLine
 10
0.0405622829194675
 20
-0.1349316079426715
 30
0.0
 11
0.0405622829194675
 21
0.1050683866929105
 31
0.0
  0
LINE
  5
14C
330
1F
100
AcDbEntity
  8
0
100
AcDbLine
 10
0.084562282681049
 20
0.1050683866929105
 30
0.0
 11
0.0845622826810489
 21
-0.1349316079426715
 31
0.0
  0
LINE
  5
14D
330
1F
100
AcDbEntity
  8
0
100
AcDbLine
 10
0.0523622824321996
 20
0.134968385864406
 30
0.0
 11
0.0523622824321996
 21
0.1350089412372401
 31
0.0
  0
LINE
  5
14E
330
1F
100
AcDbEntity
  8
0
100
AcDbLine
 10
0.0523622824321996
 20
0.1350089412372401
 30
0.0
 11
0.0523622824321996
 21
0.1350394867550424
 31
0.0
  0
LINE
  5
14F
330
1F
100
AcDbEntity
  8
0
100
AcDbLine
 10
0.0406622827495943
 20
0.1350683875571778
 30
0.0
 11
0.0406122819032083
 21
0.1350549895506195
 31
0.0
  0
LINE
  5
150
330
1F
100
AcDbEntity
  8
0
100
AcDbLine
 10
0.040575680926026
 20
0.1350183867107919
 30
0.0
 11
0.0405622829194675
 21
0.134968385864406
 31
0.0
  0
LINE
  5
151
330
1F
100
AcDbEntity
  8
0
100
AcDbLine
 10
0.0523622824321996
 20
0.1350683875571778
 30
0.0
 11
0.0523622824321996
 21
0.1350089412372401
 31
0.0
  0
LINE
  5
152
330
1F
100
AcDbEntity
  8
0
100
AcDbLine
 10
0.0406122819032083
 20
0.1350549895506195
 30
0.0
 11
0.040575680926026
 21
0.1350183867107919
 31
0.0
  0
LINE
  5
153
330
1F
100
AcDbEntity
  8
0
100
AcDbLine
 10
0.0845546700503241
 20
0.135006655771642
 30
0.0
 11
0.084562282681049
 21
0.134968385864406
 31
0.0
  0
LINE
  5
154
330
1F
100
AcDbEntity
  8
0
100
AcDbLine
 10
0.0845329925860773
 20
0.1350390974622062
 30
0.0
 11
0.0845546700503241
 21
0.135006655771642
 31
0.0
  0
LINE
  5
155
330
1F
100
AcDbEntity
  8
0
100
AcDbLine
 10
0.0845005508955132
 20
0.135060774926453
 30
0.0
 11
0.0845329925860773
 21
0.1350390974622062
 31
0.0
  0
LINE
  5
156
330
1F
100
AcDbEntity
  8
0
100
AcDbLine
 10
0.0844622828509222
 20
0.1350683875571778
 30
0.0
 11
0.0845005508955132
 21
0.135060774926453
 31
0.0
  0
LINE
  5
157
330
1F
100
AcDbEntity
  8
0
100
AcDbLine
 10
0.0807780433889042
 20
0.134968385864406
 30
0.0
 11
0.080667927532972
 21
0.134968385864406
 31
0.0
  0
LINE
  5
158
330
1F
100
AcDbEntity
  8
0
100
AcDbLine
 10
0.0771481736074697
 20
0.134968385864406
 30
0.0
 11
0.0770751970331679
 21
0.134968385864406
 31
0.0
  0
LINE
  5
159
330
1F
100
AcDbEntity
  8
0
100
AcDbLine
 10
0.0523622824321996
 20
0.1299683869074872
 30
0.0
 11
0.0523383725877415
 21
0.1070683866929105
 31
0.0
  0
LINE
  5
15A
330
1F
100
AcDbEntity
  8
0
100
AcDbLine
 10
0.0405622829194675
 20
0.134968385864406
 30
0.0
 11
0.0405622829194675
 21
0.1070683866929105
 31
0.0
  0
LINE
  5
15B
330
1F
100
AcDbEntity
  8
0
100
AcDbLine
 10
0.0523622824321996
 20
0.1299683869074872
 30
0.0
 11
0.0523622824321996
 21
0.134968385864406
 31
0.0
  0
LINE
  5
15C
330
1F
100
AcDbEntity
  8
0
100
AcDbLine
 10
0.0839126442070614
 20
0.134968385864406
 30
0.0
 11
0.0838501990284334
 21
0.134968385864406
 31
0.0
  0
LINE
  5
15D
330
1F
100
AcDbEntity
  8
0
100
AcDbLine
 10
0.084562282681049
 20
0.1070683866929105
 30
0.0
 11
0.084562282681049
 21
0.134968385864406
 31
0.0
  0
LINE
  5
15E
330
1F
100
AcDbEntity
  8
0
100
AcDbLine
 10
0.0770751970331679
 20
0.134968385864406
 30
0.0
 11
0.0770701753418456
 21
0.135006655771642
 31
0.0
  0
LINE
  5
15F
330
1F
100
AcDbEntity
  8
0
100
AcDbLine
 10
0.0771481736074697
 20
0.134968385864406
 30
0.0
 11
0.0770701753418456
 21
0.135006655771642
 31
0.0
  0
LINE
  5
160
330
1F
100
AcDbEntity
  8
0
100
AcDbLine
 10
0.080667927532972
 20
0.134968385864406
 30
0.0
 11
0.0807717401977192
 21
0.135006655771642
 31
0.0
  0
LINE
  5
161
330
1F
100
AcDbEntity
  8
0
100
AcDbLine
 10
0.0807780433889042
 20
0.134968385864406
 30
0.0
 11
0.0807717401977192
 21
0.135006655771642
 31
0.0
  0
LINE
  5
162
330
1F
100
AcDbEntity
  8
0
100
AcDbLine
 10
0.0838501990284334
 20
0.134968385864406
 30
0.0
 11
0.0838428322668682
 21
0.135006655771642
 31
0.0
  0
LINE
  5
163
330
1F
100
AcDbEntity
  8
0
100
AcDbLine
 10
0.0839126442070614
 20
0.134968385864406
 30
0.0
 11
0.0838428322668682
 21
0.135006655771642
 31
0.0
  0
LINE
  5
164
330
1F
100
AcDbEntity
  8
0
100
AcDbLine
 10
0.0612622827967193
 20
0.0748757415823423
 30
0.0
 11
0.0612254664404888
 21
0.0748890311505421
 31
0.0
  0
LINE
  5
165
330
1F
100
AcDbEntity
  8
0
100
AcDbLine
 10
0.0835539874103428
 20
-0.139231613320128
 30
0.0
 11
0.0840173310026329
 21
-0.1391581980928936
 31
0.0
  0
LINE
  5
166
330
1F
100
AcDbEntity
  8
0
100
AcDbLine
 10
0.0840173310026329
 20
-0.1391581980928936
 30
0.0
 11
0.0844353179718648
 21
-0.1389451388454222
 31
0.0
  0
LINE
  5
167
330
1F
100
AcDbEntity
  8
0
100
AcDbLine
 10
0.0844353179718648
 20
-0.1389451388454222
 30
0.0
 11
0.0846487588686517
 21
-0.1387316131133744
 31
0.0
  0
LINE
  5
168
330
1F
100
AcDbEntity
  8
0
100
AcDbLine
 10
0.0415705781901737
 20
-0.139231613320128
 30
0.0
 11
0.0411072345978836
 21
-0.1391581980928936
 31
0.0
  0
LINE
  5
169
330
1F
100
AcDbEntity
  8
0
100
AcDbLine
 10
0.0411072345978836
 20
-0.1391581980928936
 30
0.0
 11
0.0406892476286516
 21
-0.1389451388454222
 31
0.0
  0
LINE
  5
16A
330
1F
100
AcDbEntity
  8
0
100
AcDbLine
 10
0.0385646064101012
 20
-0.1387316131133744
 30
0.0
 11
0.0385646064101012
 21
-0.13493161328213
 31
0.0
  0
LINE
  5
16B
330
1F
100
AcDbEntity
  8
0
100
AcDbLine
 10
0.0865599591904153
 20
-0.1387316131133744
 30
0.0
 11
0.0865599591904153
 21
-0.13493161328213
 31
0.0
  0
LINE
  5
16C
330
1F
100
AcDbEntity
  8
0
100
AcDbLine
 10
0.0450722460075374
 20
0.0865216428256033
 30
0.0
 11
0.0450622827257524
 21
0.0865583869147888
 31
0.0
  0
LINE
  5
16D
330
1F
100
AcDbEntity
  8
0
100
AcDbLine
 10
0.0725117402552645
 20
0.0732545821209998
 30
0.0
 11
0.0724780503507267
 21
0.0732470095646392
 31
0.0
  0
LINE
  5
16E
330
1F
100
AcDbEntity
  8
0
100
AcDbLine
 10
0.0450622827257525
 20
0.0715783864710322
 30
0.0
 11
0.0450622827257524
 21
0.074022437677144
 31
0.0
  0
LINE
  5
16F
330
1F
100
AcDbEntity
  8
0
100
AcDbLine
 10
0.0800622828747642
 20
0.0865583869147887
 30
0.0
 11
0.0800622828747642
 21
0.074022437677144
 31
0.0
  0
LINE
  5
170
330
1F
100
AcDbEntity
  8
0
100
AcDbLine
 10
0.0800622828747642
 20
0.074022437677144
 30
0.0
 11
0.0800522823329578
 21
0.0715683868605486
 31
0.0
  0
LINE
  5
171
330
1F
100
AcDbEntity
  8
0
100
AcDbLine
 10
0.0450622827257524
 20
0.0865583869147888
 30
0.0
 11
0.0452736445214164
 21
0.0865683865252724
 31
0.0
  0
LINE
  5
172
330
1F
100
AcDbEntity
  8
0
100
AcDbLine
 10
0.0798509210791003
 20
0.0865683865252724
 30
0.0
 11
0.0800622828747642
 21
0.0865583869147887
 31
0.0
  0
LINE
  5
173
330
1F
100
AcDbEntity
  8
0
100
AcDbLine
 10
0.0560622826661479
 20
0.075568386584877
 30
0.0
 11
0.0690622829343688
 21
0.075568386584877
 31
0.0
  0
LINE
  5
174
330
1F
100
AcDbEntity
  8
0
100
AcDbLine
 10
0.0450622827257524
 20
0.074022437677144
 30
0.0
 11
0.0452736445214164
 21
0.0743240371797075
 31
0.0
  0
LINE
  5
175
330
1F
100
AcDbEntity
  8
0
100
AcDbLine
 10
0.0452736445214164
 20
0.0743240371797075
 30
0.0
 11
0.0458996087755572
 21
0.0746140468384912
 31
0.0
  0
LINE
  5
176
330
1F
100
AcDbEntity
  8
0
100
AcDbLine
 10
0.0458996087755572
 20
0.0746140468384912
 30
0.0
 11
0.0469161175634276
 21
0.0748813210505834
 31
0.0
  0
LINE
  5
177
330
1F
100
AcDbEntity
  8
0
100
AcDbLine
 10
0.0469161175634276
 20
0.0748813210505834
 30
0.0
 11
0.0482841084222805
 21
0.0751155887249699
 31
0.0
  0
LINE
  5
178
330
1F
100
AcDbEntity
  8
0
100
AcDbLine
 10
0.0482841084222805
 20
0.0751155887249699
 30
0.0
 11
0.0499510100554239
 21
0.0753078472319832
 31
0.0
  0
LINE
  5
179
330
1F
100
AcDbEntity
  8
0
100
AcDbLine
 10
0.0499510100554239
 20
0.0753078472319832
 30
0.0
 11
0.0518527651648533
 21
0.0754507083896389
 31
0.0
  0
LINE
  5
17A
330
1F
100
AcDbEntity
  8
0
100
AcDbLine
 10
0.0539162891428482
 20
0.075538681818529
 30
0.0
 11
0.0560622826661479
 21
0.075568386584877
 31
0.0
  0
LINE
  5
17B
330
1F
100
AcDbEntity
  8
0
100
AcDbLine
 10
0.0798509210791003
 20
0.0743240371797075
 30
0.0
 11
0.0800622828747642
 21
0.074022437677144
 31
0.0
  0
LINE
  5
17C
330
1F
100
AcDbEntity
  8
0
100
AcDbLine
 10
0.0792249568249595
 20
0.0746140468384912
 30
0.0
 11
0.0798509210791003
 21
0.0743240371797075
 31
0.0
  0
LINE
  5
17D
330
1F
100
AcDbEntity
  8
0
100
AcDbLine
 10
0.0782084480370891
 20
0.0748813210505834
 30
0.0
 11
0.0792249568249595
 21
0.0746140468384912
 31
0.0
  0
LINE
  5
17E
330
1F
100
AcDbEntity
  8
0
100
AcDbLine
 10
0.0768404571782362
 20
0.0751155887249699
 30
0.0
 11
0.0782084480370891
 21
0.0748813210505834
 31
0.0
  0
LINE
  5
17F
330
1F
100
AcDbEntity
  8
0
100
AcDbLine
 10
0.0751735555450928
 20
0.0753078472319832
 30
0.0
 11
0.0768404571782362
 21
0.0751155887249699
 31
0.0
  0
LINE
  5
180
330
1F
100
AcDbEntity
  8
0
100
AcDbLine
 10
0.0732718004356634
 20
0.0754507083896389
 30
0.0
 11
0.0751735555450928
 21
0.0753078472319832
 31
0.0
  0
LINE
  5
181
330
1F
100
AcDbEntity
  8
0
100
AcDbLine
 10
0.0712082764576685
 20
0.075538681818529
 30
0.0
 11
0.0732718004356634
 21
0.0754507083896389
 31
0.0
  0
LINE
  5
182
330
1F
100
AcDbEntity
  8
0
100
AcDbLine
 10
0.0690622829343688
 20
0.075568386584877
 30
0.0
 11
0.0712082764576685
 21
0.075538681818529
 31
0.0
  0
LINE
  5
183
330
1F
100
AcDbEntity
  8
0
100
AcDbLine
 10
0.0800522823329578
 20
0.0715683868605486
 30
0.0
 11
0.0712011680892555
 21
0.0722720866046293
 31
0.0
  0
LINE
  5
184
330
1F
100
AcDbEntity
  8
0
100
AcDbLine
 10
0.0450622827257525
 20
0.0715783864710322
 30
0.0
 11
0.0539225476792468
 21
0.0722726557707309
 31
0.0
  0
LINE
  5
185
330
1F
100
AcDbEntity
  8
0
100
AcDbLine
 10
0.0526128253452522
 20
0.0732545821209998
 30
0.0
 11
0.05264651524979
 21
0.0732470095646391
 31
0.0
  0
LINE
  5
186
330
1F
100
AcDbEntity
  8
0
100
AcDbLine
 10
0.0536319256271732
 20
0.0730433154862166
 30
0.0
 11
0.0536622830178153
 21
0.0730386809571219
 31
0.0
  0
LINE
  5
187
330
1F
100
AcDbEntity
  8
0
100
AcDbLine
 10
0.0678463747236441
 20
0.0747511312480903
 30
0.0
 11
0.0678687967802894
 21
0.0748096739240137
 31
0.0
  0
LINE
  5
188
330
1F
100
AcDbEntity
  8
0
100
AcDbLine
 10
0.0589966589517243
 20
0.1030683863427332
 30
0.0
 11
0.0589623585675846
 21
0.1030683863427332
 31
0.0
  0
LINE
  5
189
330
1F
100
AcDbEntity
  8
0
100
AcDbLine
 10
0.0435631662475103
 20
0.1050683866929105
 30
0.0
 11
0.0438036910020991
 21
0.1070683866929105
 31
0.0
  0
LINE
  5
18A
330
1F
100
AcDbEntity
  8
0
100
AcDbLine
 10
0.0813208745984174
 20
0.1070683866929105
 30
0.0
 11
0.0815613993530062
 21
0.1050683866929105
 31
0.0
  0
LINE
  5
18B
330
1F
100
AcDbEntity
  8
0
100
AcDbLine
 10
0.0692607818603272
 20
0.1030683863427332
 30
0.0
 11
0.0692316413985494
 21
0.1030683863427332
 31
0.0
  0
LINE
  5
18C
330
1F
100
AcDbEntity
  8
0
100
AcDbLine
 10
0.0442223624795599
 20
0.1050683866929105
 30
0.0
 11
0.0444566380675445
 21
0.1070683866929105
 31
0.0
  0
LINE
  5
18D
330
1F
100
AcDbEntity
  8
0
100
AcDbLine
 10
0.0444566380675445
 20
0.1070683866929105
 30
0.0
 11
0.0441303557548078
 21
0.1050683866929105
 31
0.0
  0
LINE
  5
18E
330
1F
100
AcDbEntity
  8
0
100
AcDbLine
 10
0.0469238946317987
 20
0.1050683866929105
 30
0.0
 11
0.0471218734736903
 21
0.1070683866929105
 31
0.0
  0
LINE
  5
18F
330
1F
100
AcDbEntity
  8
0
100
AcDbLine
 10
0.0471218734736903
 20
0.1070683866929105
 30
0.0
 11
0.0467967142426301
 21
0.1050683866929105
 31
0.0
  0
LINE
  5
190
330
1F
100
AcDbEntity
  8
0
100
AcDbLine
 10
0.0514120357607981
 20
0.1050683866929105
 30
0.0
 11
0.0515531956447068
 21
0.1070683866929105
 31
0.0
  0
LINE
  5
191
330
1F
100
AcDbEntity
  8
0
100
AcDbLine
 10
0.0515531956447068
 20
0.1070683866929105
 30
0.0
 11
0.051365227590088
 21
0.1050683866929105
 31
0.0
  0
LINE
  5
192
330
1F
100
AcDbEntity
  8
0
100
AcDbLine
 10
0.0619389305006957
 20
0.1050683866929105
 30
0.0
 11
0.0619468220296427
 21
0.1070683866929105
 31
0.0
  0
LINE
  5
193
330
1F
100
AcDbEntity
  8
0
100
AcDbLine
 10
0.0619033359794751
 20
0.1070683866929105
 30
0.0
 11
0.0616412076516285
 21
0.1050683866929105
 31
0.0
  0
LINE
  5
194
330
1F
100
AcDbEntity
  8
0
100
AcDbLine
 10
0.0683007865774451
 20
0.1050683866929105
 30
0.0
 11
0.0682281381514163
 21
0.1070683866929105
 31
0.0
  0
LINE
  5
195
330
1F
100
AcDbEntity
  8
0
100
AcDbLine
 10
0.0682281381514163
 20
0.1070683866929105
 30
0.0
 11
0.0681855276723341
 21
0.1050683866929105
 31
0.0
  0
LINE
  5
196
330
1F
100
AcDbEntity
  8
0
100
AcDbLine
 10
0.0774593387899617
 20
0.1050683866929105
 30
0.0
 11
0.0772707451755076
 21
0.1070683866929105
 31
0.0
  0
LINE
  5
197
330
1F
100
AcDbEntity
  8
0
100
AcDbLine
 10
0.0772365498096326
 20
0.1070683866929105
 30
0.0
 11
0.0772252236722638
 21
0.1050683866929105
 31
0.0
  0
LINE
  5
198
330
1F
100
AcDbEntity
  8
0
100
AcDbLine
 10
0.0805371391052492
 20
0.1050683866929105
 30
0.0
 11
0.0803095807047297
 21
0.1070683866929105
 31
0.0
  0
LINE
  5
199
330
1F
100
AcDbEntity
  8
0
100
AcDbLine
 10
0.0803095807047297
 20
0.1070683866929105
 30
0.0
 11
0.0804719574066163
 21
0.1050683866929105
 31
0.0
  0
LINE
  5
19A
330
1F
100
AcDbEntity
  8
0
100
AcDbLine
 10
0.0807611578496214
 20
0.1070683866929105
 30
0.0
 11
0.0809945067838792
 21
0.1050683866929105
 31
0.0
  0
LINE
  5
19B
330
1F
100
AcDbEntity
  8
0
100
AcDbLine
 10
0.0785290580784021
 20
0.1050683866929105
 30
0.0
 11
0.078223226627819
 21
0.1070683866929105
 31
0.0
  0
LINE
  5
19C
330
1F
100
AcDbEntity
  8
0
100
AcDbLine
 10
0.078223226627819
 20
0.1070683866929105
 30
0.0
 11
0.0784057988403954
 21
0.1050683866929105
 31
0.0
  0
LINE
  5
19D
330
1F
100
AcDbEntity
  8
0
100
AcDbLine
 10
0.0740531321390312
 20
0.1050683866929105
 30
0.0
 11
0.0738688899247348
 21
0.1070683866929105
 31
0.0
  0
LINE
  5
19E
330
1F
100
AcDbEntity
  8
0
100
AcDbLine
 10
0.0738688899247348
 20
0.1070683866929105
 30
0.0
 11
0.0740070470629338
 21
0.1050683866929105
 31
0.0
  0
LINE
  5
19F
330
1F
100
AcDbEntity
  8
0
100
AcDbLine
 10
0.0638488559829396
 20
0.1050683866929105
 30
0.0
 11
0.0635825111850717
 21
0.1070683866929105
 31
0.0
  0
LINE
  5
1A0
330
1F
100
AcDbEntity
  8
0
100
AcDbLine
 10
0.0635390964342952
 20
0.1070683866929105
 30
0.0
 11
0.0635516212779499
 21
0.1050683866929105
 31
0.0
  0
LINE
  5
1A1
330
1F
100
AcDbEntity
  8
0
100
AcDbLine
 10
0.0572898774188363
 20
0.1050683866929105
 30
0.0
 11
0.0572591723578844
 21
0.1070683866929105
 31
0.0
  0
LINE
  5
1A2
330
1F
100
AcDbEntity
  8
0
100
AcDbLine
 10
0.0572591723578844
 20
0.1070683866929105
 30
0.0
 11
0.0571740384363852
 21
0.1050683866929105
 31
0.0
  0
LINE
  5
1A3
330
1F
100
AcDbEntity
  8
0
100
AcDbLine
 10
0.0481346547222994
 20
0.1050683866929105
 30
0.0
 11
0.0481159870370726
 21
0.1070683866929105
 31
0.0
  0
LINE
  5
1A4
330
1F
100
AcDbEntity
  8
0
100
AcDbLine
 10
0.0480810342522011
 20
0.1070683866929105
 30
0.0
 11
0.0478953540119647
 21
0.1050683866929105
 31
0.0
  0
LINE
  5
1A5
330
1F
100
AcDbEntity
  8
0
100
AcDbLine
 10
0.0447639093245874
 20
0.1050683866929105
 30
0.0
 11
0.0449454631117288
 21
0.1070683866929105
 31
0.0
  0
LINE
  5
1A6
330
1F
100
AcDbEntity
  8
0
100
AcDbLine
 10
0.0449454631117288
 20
0.1070683866929105
 30
0.0
 11
0.0447094610164738
 21
0.1050683866929105
 31
0.0
  0
LINE
  5
1A7
330
1F
100
AcDbEntity
  8
0
100
AcDbLine
 10
0.0692101594718971
 20
0.102735372919946
 30
0.0
 11
0.0692441520152844
 21
0.102735372919946
 31
0.0
  0
LINE
  5
1A8
330
1F
100
AcDbEntity
  8
0
100
AcDbLine
 10
0.0692421838798832
 20
0.1036013986062101
 30
0.0
 11
0.0692873991398151
 21
0.1036013986062101
 31
0.0
  0
LINE
  5
1A9
330
1F
100
AcDbEntity
  8
0
100
AcDbLine
 10
0.0692475937971706
 20
0.103668386776357
 30
0.0
 11
0.0692845537607619
 21
0.103668386776357
 31
0.0
  0
LINE
  5
1AA
330
1F
100
AcDbEntity
  8
0
100
AcDbLine
 10
-0.2011428884399343
 20
0.0708921523003882
 30
0.0
 11
-0.201096174385369
 21
0.0708670090379957
 31
0.0
  0
LINE
  5
1AB
330
1F
100
AcDbEntity
  8
0
100
AcDbLine
 10
-0.2010477874080829
 20
0.0708406833679752
 30
0.0
 11
-0.201096174385369
 21
0.0708670090379957
 31
0.0
  0
LINE
  5
1AC
330
1F
100
AcDbEntity
  8
0
100
AcDbLine
 10
-0.1983142465128923
 20
0.0716084473589877
 30
0.0
 11
-0.2010477874080829
 21
0.0708406833679752
 31
0.0
  0
LINE
  5
1AD
330
1F
100
AcDbEntity
  8
0
100
AcDbLine
 10
-0.2031151252865704
 20
0.0704023630674164
 30
0.0
 11
-0.2017819820921286
 21
0.0707334383757591
 31
0.0
  0
LINE
  5
1AE
330
1F
100
AcDbEntity
  8
0
100
AcDbLine
 10
-0.2037619495032197
 20
0.0702657582804359
 30
0.0
 11
-0.2031151252865704
 21
0.0704023630674164
 31
0.0
  0
LINE
  5
1AF
330
1F
100
AcDbEntity
  8
0
100
AcDbLine
 10
-0.2036591467323929
 20
0.0733694518729638
 30
0.0
 11
-0.2038855791681702
 21
0.072391447139049
 31
0.0
  0
LINE
  5
1B0
330
1F
100
AcDbEntity
  8
0
100
AcDbLine
 10
-0.1996916238782634
 20
0.0728118528720805
 30
0.0
 11
-0.200506374326291
 21
0.0719165308467205
 31
0.0
  0
LINE
  5
1B1
330
1F
100
AcDbEntity
  8
0
100
AcDbLine
 10
-0.1962276365777991
 20
0.0723250211600511
 30
0.0
 11
-0.1964566229744274
 21
0.0713473753835643
 31
0.0
  0
LINE
  5
1B2
330
1F
100
AcDbEntity
  8
0
100
AcDbLine
 10
-0.1964566229744274
 20
0.0713473753835643
 30
0.0
 11
-0.1961536557289189
 21
0.0723146238284305
 31
0.0
  0
LINE
  5
1B3
330
1F
100
AcDbEntity
  8
0
100
AcDbLine
 10
-0.1964566229744274
 20
0.0713473753835643
 30
0.0
 11
-0.1962928288526199
 21
0.0713243556198406
 31
0.0
  0
LINE
  5
1B4
330
1F
100
AcDbEntity
  8
0
100
AcDbLine
 10
-0.1962928288526199
 20
0.0713243556198406
 30
0.0
 11
-0.1961536557289189
 21
0.0723146238284305
 31
0.0
  0
LINE
  5
1B5
330
1F
100
AcDbEntity
  8
0
100
AcDbLine
 10
-0.203746406037725
 20
0.0733817153691703
 30
0.0
 11
-0.2038855791681702
 21
0.072391447139049
 31
0.0
  0
LINE
  5
1B6
330
1F
100
AcDbEntity
  8
0
100
AcDbLine
 10
-0.1977462245644587
 20
0.0725384448113259
 30
0.0
 11
-0.1978853976943533
 21
0.0715481765851223
 31
0.0
  0
LINE
  5
1B7
330
1F
100
AcDbEntity
  8
0
100
AcDbLine
 10
-0.197871038025455
 20
0.0725559862016227
 30
0.0
 11
-0.1978853976943533
 21
0.0715481765851223
 31
0.0
  0
LINE
  5
1B8
330
1F
100
AcDbEntity
  8
0
100
AcDbLine
 10
-0.2062338437156919
 20
0.0737313019537945
 30
0.0
 11
-0.2061465844103598
 21
0.073719038457588
 31
0.0
  0
LINE
  5
1B9
330
1F
100
AcDbEntity
  8
0
100
AcDbLine
 10
-0.2137393347259101
 20
0.0747861299767963
 30
0.0
 11
-0.2136653538751883
 21
0.0747757326457755
 31
0.0
  0
LINE
  5
1BA
330
1F
100
AcDbEntity
  8
0
100
AcDbLine
 10
-0.2137147137345478
 20
0.0737728419829513
 30
0.0
 11
-0.2136653538751883
 21
0.0747757326457755
 31
0.0
  0
LINE
  5
1BB
330
1F
100
AcDbEntity
  8
0
100
AcDbLine
 10
-0.2136653538751883
 20
0.0747757326457755
 30
0.0
 11
-0.2138785078563553
 21
0.073795861746675
 31
0.0
  0
LINE
  5
1BC
330
1F
100
AcDbEntity
  8
0
100
AcDbLine
 10
-0.2138785078563553
 20
0.073795861746675
 30
0.0
 11
-0.2137147137345478
 21
0.0737728419829513
 31
0.0
  0
LINE
  5
1BD
330
1F
100
AcDbEntity
  8
0
100
AcDbLine
 10
-0.2137393347259101
 20
0.0747861299767963
 30
0.0
 11
-0.2138785078563553
 21
0.073795861746675
 31
0.0
  0
LINE
  5
1BE
330
1F
100
AcDbEntity
  8
0
100
AcDbLine
 10
-0.212021952422666
 20
0.0745447676225942
 30
0.0
 11
-0.2122859390146218
 21
0.0735720407813933
 31
0.0
  0
LINE
  5
1BF
330
1F
100
AcDbEntity
  8
0
100
AcDbLine
 10
-0.2102013665698213
 20
0.0742889009546778
 30
0.0
 11
-0.2106476897620391
 21
0.0733417998527274
 31
0.0
  0
LINE
  5
1C0
330
1F
100
AcDbEntity
  8
0
100
AcDbLine
 10
-0.2105085166315939
 20
0.0743320680828488
 30
0.0
 11
-0.2106476897620391
 21
0.0733417998527274
 31
0.0
  0
LINE
  5
1C1
330
1F
100
AcDbEntity
  8
0
100
AcDbLine
 10
-0.2062338437156919
 20
0.0737313019537945
 30
0.0
 11
-0.2074634913993704
 21
0.0728942899350996
 31
0.0
  0
LINE
  5
1C2
330
1F
100
AcDbEntity
  8
0
100
AcDbLine
 10
-0.2074634913993704
 20
0.0728942899350996
 30
0.0
 11
-0.2061465844103598
 21
0.073719038457588
 31
0.0
  0
LINE
  5
1C3
330
1F
100
AcDbEntity
  8
0
100
AcDbLine
 10
-0.2121467658841766
 20
0.0745623090115146
 30
0.0
 11
-0.2122859390146218
 21
0.0735720407813933
 31
0.0
  0
LINE
  5
1C4
330
1F
100
AcDbEntity
  8
0
100
AcDbLine
 10
-0.2136100842267583
 20
0.0747679645377488
 30
0.0
 11
-0.2137147137345478
 21
0.0737728419829513
 31
0.0
  0
LINE
  5
1C5
330
1F
100
AcDbEntity
  8
0
100
AcDbLine
 10
-0.2075746312425826
 20
0.0710291057874784
 30
0.0
 11
-0.20699051728556
 21
0.0707195039136446
 31
0.0
  0
LINE
  5
1C6
330
1F
100
AcDbEntity
  8
0
100
AcDbLine
 10
-0.2093872976096469
 20
0.072032250473529
 30
0.0
 11
-0.2093354627558169
 21
0.0720435435893994
 31
0.0
  0
LINE
  5
1C7
330
1F
100
AcDbEntity
  8
0
100
AcDbLine
 10
-0.2118570901960828
 20
0.0735117700075278
 30
0.0
 11
-0.20944106649573
 21
0.0720202818745182
 31
0.0
  0
LINE
  5
1C8
330
1F
100
AcDbEntity
  8
0
100
AcDbLine
 10
-0.20944106649573
 20
0.0720202818745182
 30
0.0
 11
-0.2093872976096469
 21
0.072032250473529
 31
0.0
  0
LINE
  5
1C9
330
1F
100
AcDbEntity
  8
0
100
AcDbLine
 10
-0.1024730906479548
 20
0.1349683866370311
 30
0.0
 11
-0.1024730906479548
 21
0.1299683867487899
 31
0.0
  0
LINE
  5
1CA
330
1F
100
AcDbEntity
  8
0
100
AcDbLine
 10
-0.0657879180224965
 20
0.0715683866929105
 30
0.0
 11
-0.0658238130886854
 21
0.0715683866929105
 31
0.0
  0
LINE
  5
1CB
330
1F
100
AcDbEntity
  8
0
100
AcDbLine
 10
-0.0678587415915487
 20
0.0715683866929105
 30
0.0
 11
-0.0678228465253598
 21
0.0715683866929105
 31
0.0
  0
LINE
  5
1CC
330
1F
100
AcDbEntity
  8
0
100
AcDbLine
 10
-0.0657520229563076
 20
0.0715683866929105
 30
0.0
 11
-0.0657879180224965
 21
0.0715683866929105
 31
0.0
  0
LINE
  5
1CD
330
1F
100
AcDbEntity
  8
0
100
AcDbLine
 10
-0.0678228465253598
 20
0.0715683866929105
 30
0.0
 11
-0.0677869514591709
 21
0.0715683866929105
 31
0.0
  0
LINE
  5
1CE
330
1F
100
AcDbEntity
  8
0
100
AcDbLine
 10
-0.0154730907671641
 20
0.1050683866929105
 30
0.0
 11
-0.0154730907671641
 21
-0.1349316079426715
 31
0.0
  0
LINE
  5
1CF
330
1F
100
AcDbEntity
  8
0
100
AcDbLine
 10
-0.0594730905287455
 20
-0.1349316079426715
 30
0.0
 11
-0.0594730905287455
 21
0.071569004595594
 31
0.0
  0
LINE
  5
1D0
330
1F
100
AcDbEntity
  8
0
100
AcDbLine
 10
-0.0594730905287455
 20
0.0865583869147888
 30
0.0
 11
-0.0594730905287455
 21
0.1050683866929105
 31
0.0
  0
LINE
  5
1D1
330
1F
100
AcDbEntity
  8
0
100
AcDbLine
 10
-0.0155607226334999
 20
0.1201786974634817
 30
0.0
 11
-0.0155641890161227
 21
0.1205683870430878
 31
0.0
  0
LINE
  5
1D2
330
1F
100
AcDbEntity
  8
0
100
AcDbLine
 10
-0.0155684191834057
 20
0.120058782476384
 30
0.0
 11
-0.0155607226334999
 21
0.1201786974634817
 31
0.0
  0
LINE
  5
1D3
330
1F
100
AcDbEntity
  8
0
100
AcDbLine
 10
-0.0155185914628695
 20
0.1191541727822116
 30
0.0
 11
-0.0155371167032487
 21
0.1192799908040375
 31
0.0
  0
LINE
  5
1D4
330
1F
100
AcDbEntity
  8
0
100
AcDbLine
 10
-0.0154765403859804
 20
0.1186067050512722
 30
0.0
 11
-0.0154864086799811
 21
0.1187206272225669
 31
0.0
  0
LINE
  5
1D5
330
1F
100
AcDbEntity
  8
0
100
AcDbLine
 10
-0.0154730907671641
 20
0.1185683867152622
 30
0.0
 11
-0.0154765403859804
 21
0.1186067050512722
 31
0.0
  0
LINE
  5
1D6
330
1F
100
AcDbEntity
  8
0
100
AcDbLine
 10
-0.0580221729053962
 20
0.1075683867166592
 30
0.0
 11
-0.0580607057073498
 21
0.1075683867166592
 31
0.0
  0
LINE
  5
1D7
330
1F
100
AcDbEntity
  8
0
100
AcDbLine
 10
-0.0154730907671641
 20
0.1349683858644059
 30
0.0
 11
-0.0154864887737225
 21
0.1350183867107919
 31
0.0
  0
LINE
  5
1D8
330
1F
100
AcDbEntity
  8
0
100
AcDbLine
 10
-0.0154864887737225
 20
0.1350183867107919
 30
0.0
 11
-0.0155230897509049
 21
0.1350549895506194
 31
0.0
  0
LINE
  5
1D9
330
1F
100
AcDbEntity
  8
0
100
AcDbLine
 10
-0.0155230897509049
 20
0.1350549895506194
 30
0.0
 11
-0.0155730905972908
 21
0.1350683875571778
 31
0.0
  0
LINE
  5
1DA
330
1F
100
AcDbEntity
  8
0
100
AcDbLine
 10
-0.0594730905287455
 20
0.1299683867487899
 30
0.0
 11
-0.0594730905287455
 21
0.1070683866929105
 31
0.0
  0
LINE
  5
1DB
330
1F
100
AcDbEntity
  8
0
100
AcDbLine
 10
-0.0539373892389725
 20
0.1349683858644059
 30
0.0
 11
-0.0540071564756821
 21
0.1349683858644059
 31
0.0
  0
LINE
  5
1DC
330
1F
100
AcDbEntity
  8
0
100
AcDbLine
 10
-0.0498094639771174
 20
0.1349683858644059
 30
0.0
 11
-0.0499660919450711
 21
0.1349683858644059
 31
0.0
  0
LINE
  5
1DD
330
1F
100
AcDbEntity
  8
0
100
AcDbLine
 10
-0.0427357994050275
 20
0.1349683858644059
 30
0.0
 11
-0.0430250840291868
 21
0.1349683858644059
 31
0.0
  0
LINE
  5
1DE
330
1F
100
AcDbEntity
  8
0
100
AcDbLine
 10
-0.0154730907671641
 20
0.1225683864395908
 30
0.0
 11
-0.0154765441112707
 21
0.1225300392325809
 31
0.0
  0
LINE
  5
1DF
330
1F
100
AcDbEntity
  8
0
100
AcDbLine
 10
-0.0154730907671641
 20
0.1173271553780726
 30
0.0
 11
-0.0155132289074848
 21
0.1173084385882905
 31
0.0
  0
LINE
  5
1E0
330
1F
100
AcDbEntity
  8
0
100
AcDbLine
 10
-0.0156334961794804
 20
0.1172523571368149
 30
0.0
 11
-0.0155132289074848
 21
0.1173084385882905
 31
0.0
  0
LINE
  5
1E1
330
1F
100
AcDbEntity
  8
0
100
AcDbLine
 10
-0.0155607263587902
 20
0.120957922954469
 30
0.0
 11
-0.0155675264538249
 21
0.1210779082286437
 31
0.0
  0
LINE
  5
1E2
330
1F
100
AcDbEntity
  8
0
100
AcDbLine
 10
-0.0154891331779092
 20
0.1225033336502411
 30
0.0
 11
-0.0154765441112707
 21
0.1225300392325809
 31
0.0
  0
LINE
  5
1E3
330
1F
100
AcDbEntity
  8
0
100
AcDbLine
 10
-0.0155641890161227
 20
0.1205683870430878
 30
0.0
 11
-0.0155607263587902
 21
0.120957922954469
 31
0.0
  0
LINE
  5
1E4
330
1F
100
AcDbEntity
  8
0
100
AcDbLine
 10
-0.0570469542436789
 20
0.1350279048275045
 30
0.0
 11
-0.0570690079622458
 21
0.1349683858644059
 31
0.0
  0
LINE
  5
1E5
330
1F
100
AcDbEntity
  8
0
100
AcDbLine
 10
-0.0570225927077721
 20
0.1350493699502042
 30
0.0
 11
-0.0570469542436789
 21
0.1350279048275045
 31
0.0
  0
LINE
  5
1E6
330
1F
100
AcDbEntity
  8
0
100
AcDbLine
 10
-0.056989802702565
 20
0.1350639432858518
 30
0.0
 11
-0.0570225927077721
 21
0.1350493699502042
 31
0.0
  0
LINE
  5
1E7
330
1F
100
AcDbEntity
  8
0
100
AcDbLine
 10
-0.0569566736959408
 20
0.1350683875571778
 30
0.0
 11
-0.056989802702565
 21
0.1350639432858518
 31
0.0
  0
LINE
  5
1E8
330
1F
100
AcDbEntity
  8
0
100
AcDbLine
 10
-0.0540071564756821
 20
0.1349683858644059
 30
0.0
 11
-0.0540014362924288
 21
0.135006655771642
 31
0.0
  0
LINE
  5
1E9
330
1F
100
AcDbEntity
  8
0
100
AcDbLine
 10
-0.0539373892389725
 20
0.1349683858644059
 30
0.0
 11
-0.0540014362924288
 21
0.135006655771642
 31
0.0
  0
LINE
  5
1EA
330
1F
100
AcDbEntity
  8
0
100
AcDbLine
 10
-0.0499660919450711
 20
0.1349683858644059
 30
0.0
 11
-0.0498051947944353
 21
0.135006655771642
 31
0.0
  0
LINE
  5
1EB
330
1F
100
AcDbEntity
  8
0
100
AcDbLine
 10
-0.0498094639771174
 20
0.1349683858644059
 30
0.0
 11
-0.0498051947944353
 21
0.135006655771642
 31
0.0
  0
LINE
  5
1EC
330
1F
100
AcDbEntity
  8
0
100
AcDbLine
 10
-0.0430250840291868
 20
0.1349683858644059
 30
0.0
 11
-0.0430231631763767
 21
0.135006655771642
 31
0.0
  0
LINE
  5
1ED
330
1F
100
AcDbEntity
  8
0
100
AcDbLine
 10
-0.0427357994050275
 20
0.1349683858644059
 30
0.0
 11
-0.0430231631763767
 21
0.135006655771642
 31
0.0
  0
LINE
  5
1EE
330
1F
100
AcDbEntity
  8
0
100
AcDbLine
 10
-0.0155425190292351
 20
0.1225683864395908
 30
0.0
 11
-0.0154730907671641
 21
0.1225683864395908
 31
0.0
  0
LINE
  5
1EF
330
1F
100
AcDbEntity
  8
0
100
AcDbLine
 10
-0.056989802702565
 20
0.1350639432858518
 30
0.0
 11
-0.0570469542436789
 21
0.1350279048275045
 31
0.0
  0
LINE
  5
1F0
330
1F
100
AcDbEntity
  8
0
100
AcDbLine
 10
-0.0584647952580394
 20
-0.139231613320128
 30
0.0
 11
-0.0589281388503295
 21
-0.1391581980928936
 31
0.0
  0
LINE
  5
1F1
330
1F
100
AcDbEntity
  8
0
100
AcDbLine
 10
-0.0589281388503295
 20
-0.1391581980928936
 30
0.0
 11
-0.0593461258195614
 21
-0.1389451388454222
 31
0.0
  0
LINE
  5
1F2
330
1F
100
AcDbEntity
  8
0
100
AcDbLine
 10
-0.0593461258195614
 20
-0.1389451388454222
 30
0.0
 11
-0.0595595667163483
 21
-0.1387316131133744
 31
0.0
  0
LINE
  5
1F3
330
1F
100
AcDbEntity
  8
0
100
AcDbLine
 10
-0.0164813860378703
 20
-0.139231613320128
 30
0.0
 11
-0.0160180424455801
 21
-0.1391581980928936
 31
0.0
  0
LINE
  5
1F4
330
1F
100
AcDbEntity
  8
0
100
AcDbLine
 10
-0.0160180424455801
 20
-0.1391581980928936
 30
0.0
 11
-0.0156000554763482
 21
-0.1389451388454222
 31
0.0
  0
LINE
  5
1F5
330
1F
100
AcDbEntity
  8
0
100
AcDbLine
 10
-0.0156000554763482
 20
-0.1389451388454222
 30
0.0
 11
-0.0153866145795613
 21
-0.1387316131133744
 31
0.0
  0
LINE
  5
1F6
330
1F
100
AcDbEntity
  8
0
100
AcDbLine
 10
-0.0145280893969197
 20
0.1199619086756213
 30
0.0
 11
-0.0145752331675634
 21
0.119707002078074
 31
0.0
  0
LINE
  5
1F7
330
1F
100
AcDbEntity
  8
0
100
AcDbLine
 10
-0.0145752331675634
 20
0.119707002078074
 30
0.0
 11
-0.0146363769320327
 21
0.1194571071019238
 31
0.0
  0
LINE
  5
1F8
330
1F
100
AcDbEntity
  8
0
100
AcDbLine
 10
-0.0146363769320327
 20
0.1194571071019238
 30
0.0
 11
-0.0147115965385478
 21
0.1192117992969071
 31
0.0
  0
LINE
  5
1F9
330
1F
100
AcDbEntity
  8
0
100
AcDbLine
 10
-0.0147115965385478
 20
0.1192117992969071
 30
0.0
 11
-0.0148010620626177
 21
0.1189706840732908
 31
0.0
  0
LINE
  5
1FA
330
1F
100
AcDbEntity
  8
0
100
AcDbLine
 10
-0.0148010620626177
 20
0.1189706840732908
 30
0.0
 11
-0.0149050369521159
 21
0.1187333991465932
 31
0.0
  0
LINE
  5
1FB
330
1F
100
AcDbEntity
  8
0
100
AcDbLine
 10
-0.0149050369521159
 20
0.1187333991465932
 30
0.0
 11
-0.0150238763901893
 21
0.1184996186703285
 31
0.0
  0
LINE
  5
1FC
330
1F
100
AcDbEntity
  8
0
100
AcDbLine
 10
-0.0150238763901893
 20
0.1184996186703285
 30
0.0
 11
-0.0151580250833671
 21
0.1182690553314826
 31
0.0
  0
LINE
  5
1FD
330
1F
100
AcDbEntity
  8
0
100
AcDbLine
 10
-0.0151580250833671
 20
0.1182690553314826
 30
0.0
 11
-0.0153080085886199
 21
0.1180414710607221
 31
0.0
  0
LINE
  5
1FE
330
1F
100
AcDbEntity
  8
0
100
AcDbLine
 10
-0.0149050369521159
 20
0.1224033742392277
 30
0.0
 11
-0.0148010620626177
 21
0.1221600096387631
 31
0.0
  0
LINE
  5
1FF
330
1F
100
AcDbEntity
  8
0
100
AcDbLine
 10
-0.0146363769320327
 20
0.121679666283897
 30
0.0
 11
-0.0145752331675634
 21
0.1214297713077469
 31
0.0
  0
LINE
  5
200
330
1F
100
AcDbEntity
  8
0
100
AcDbLine
 10
-0.0145752331675634
 20
0.1214297713077469
 30
0.0
 11
-0.0145280893969197
 21
0.1211748647101997
 31
0.0
  0
LINE
  5
201
330
1F
100
AcDbEntity
  8
0
100
AcDbLine
 10
-0.0144949640173603
 20
0.1203236499341512
 30
0.0
 11
-0.0144949640173603
 21
0.1203698661329765
 31
0.0
  0
LINE
  5
202
330
1F
100
AcDbEntity
  8
0
100
AcDbLine
 10
-0.0145280893969197
 20
0.1203609589929767
 30
0.0
 11
-0.0144949640173603
 21
0.1204221142752869
 31
0.0
  0
LINE
  5
203
330
1F
100
AcDbEntity
  8
0
100
AcDbLine
 10
-0.0145280893969197
 20
0.120411418632146
 30
0.0
 11
-0.0144949640173603
 21
0.1204500100930529
 31
0.0
  0
LINE
  5
204
330
1F
100
AcDbEntity
  8
0
100
AcDbLine
 10
-0.0145280893969197
 20
0.120411418632146
 30
0.0
 11
-0.0144949640173603
 21
0.1204788068271666
 31
0.0
  0
LINE
  5
205
330
1F
100
AcDbEntity
  8
0
100
AcDbLine
 10
-0.0145280893969197
 20
0.1204630728889681
 30
0.0
 11
-0.0144949640173603
 21
0.1204788068271666
 31
0.0
  0
LINE
  5
206
330
1F
100
AcDbEntity
  8
0
100
AcDbLine
 10
-0.0145280893969197
 20
0.1204630728889681
 30
0.0
 11
-0.0144949640173603
 21
0.1205082853185088
 31
0.0
  0
LINE
  5
207
330
1F
100
AcDbEntity
  8
0
100
AcDbLine
 10
-0.0145280893969197
 20
0.120515528650729
 30
0.0
 11
-0.0144949640173603
 21
0.1205082853185088
 31
0.0
  0
LINE
  5
208
330
1F
100
AcDbEntity
  8
0
100
AcDbLine
 10
-0.0145280893969197
 20
0.120515528650729
 30
0.0
 11
-0.0144949640173603
 21
0.1205382212165643
 31
0.0
  0
LINE
  5
209
330
1F
100
AcDbEntity
  8
0
100
AcDbLine
 10
-0.0145280893969197
 20
0.1205683866929105
 30
0.0
 11
-0.0144949640173603
 21
0.1205382212165643
 31
0.0
  0
LINE
  5
20A
330
1F
100
AcDbEntity
  8
0
100
AcDbLine
 10
-0.0145280893969197
 20
0.1205683866929105
 30
0.0
 11
-0.0144949640173603
 21
0.1205683866929105
 31
0.0
  0
LINE
  5
20B
330
1F
100
AcDbEntity
  8
0
100
AcDbLine
 10
-0.0145280893969197
 20
0.1206212447350919
 30
0.0
 11
-0.0144949640173603
 21
0.1205683866929105
 31
0.0
  0
LINE
  5
20C
330
1F
100
AcDbEntity
  8
0
100
AcDbLine
 10
-0.0145280893969197
 20
0.1206212447350919
 30
0.0
 11
-0.0144949640173603
 21
0.1205985521692566
 31
0.0
  0
LINE
  5
20D
330
1F
100
AcDbEntity
  8
0
100
AcDbLine
 10
-0.0145280893969197
 20
0.120725354753675
 30
0.0
 11
-0.0144949640173603
 21
0.1206579665586543
 31
0.0
  0
LINE
  5
20E
330
1F
100
AcDbEntity
  8
0
100
AcDbLine
 10
-0.0155684191834057
 20
0.120058782476384
 30
0.0
 11
-0.0154730906954523
 21
0.1200683866691618
 31
0.0
  0
LINE
  5
20F
330
1F
100
AcDbEntity
  8
0
100
AcDbLine
 10
-0.0155432527172738
 20
0.1226683866180321
 30
0.0
 11
-0.0154730906954523
 21
0.1226683866180321
 31
0.0
  0
LINE
  5
210
330
1F
100
AcDbEntity
  8
0
100
AcDbLine
 10
-0.0154730906954523
 20
0.1210683867166592
 30
0.0
 11
-0.0155675264538249
 21
0.1210779082286437
 31
0.0
  0
LINE
  5
211
330
1F
100
AcDbEntity
  8
0
100
AcDbLine
 10
-0.0155111617947074
 20
0.1184735344512199
 30
0.0
 11
-0.0155794888464527
 21
0.1184735378493035
 31
0.0
  0
LINE
  5
212
330
1F
100
AcDbEntity
  8
0
100
AcDbLine
 10
-0.0145280893969197
 20
0.1207758143928442
 30
0.0
 11
-0.0144949640173603
 21
0.120714659110534
 31
0.0
  0
LINE
  5
213
330
1F
100
AcDbEntity
  8
0
100
AcDbLine
 10
-0.0145280893969197
 20
0.120725354753675
 30
0.0
 11
-0.0144949640173603
 21
0.120686763292768
 31
0.0
  0
LINE
  5
214
330
1F
100
AcDbEntity
  8
0
100
AcDbLine
 10
-0.0145280893969197
 20
0.1206737004968529
 30
0.0
 11
-0.0144949640173603
 21
0.1206579665586543
 31
0.0
  0
LINE
  5
215
330
1F
100
AcDbEntity
  8
0
100
AcDbLine
 10
-0.0145280893969197
 20
0.1206737004968529
 30
0.0
 11
-0.0144949640173603
 21
0.1206284880673122
 31
0.0
  0
LINE
  5
216
330
1F
100
AcDbEntity
  8
0
100
AcDbLine
 10
-0.0145280893969197
 20
0.1206212447350919
 30
0.0
 11
-0.0144949640173603
 21
0.1206284880673122
 31
0.0
  0
LINE
  5
217
330
1F
100
AcDbEntity
  8
0
100
AcDbLine
 10
-0.0145280893969197
 20
0.1205683866929105
 30
0.0
 11
-0.0144949640173603
 21
0.1205985521692566
 31
0.0
  0
LINE
  5
218
330
1F
100
AcDbEntity
  8
0
100
AcDbLine
 10
-0.0145280893969197
 20
0.120515528650729
 30
0.0
 11
-0.0144949640173603
 21
0.1205683866929105
 31
0.0
  0
LINE
  5
219
330
1F
100
AcDbEntity
  8
0
100
AcDbLine
 10
-0.0134965944566539
 20
-0.13493161328213
 30
0.0
 11
-0.0134965944566539
 21
-0.1387316131133744
 31
0.0
  0
LINE
  5
21A
330
1F
100
AcDbEntity
  8
0
100
AcDbLine
 10
-0.0614495868392557
 20
-0.1387316131133744
 30
0.0
 11
-0.0614495868392557
 21
-0.13493161328213
 31
0.0
  0
LINE
  5
21B
330
1F
100
AcDbEntity
  8
0
100
AcDbLine
 10
-0.0508184980979319
 20
0.0715683868605486
 30
0.0
 11
-0.0508053822739281
 21
0.0865583869147888
 31
0.0
  0
LINE
  5
21C
330
1F
100
AcDbEntity
  8
0
100
AcDbLine
 10
-0.2083053810818352
 20
0.0865583869147887
 30
0.0
 11
-0.2083053810818352
 21
0.074022437677144
 31
0.0
  0
LINE
  5
21D
330
1F
100
AcDbEntity
  8
0
100
AcDbLine
 10
-0.0594305987885149
 20
0.0865683865252724
 30
0.0
 11
-0.0594730905287455
 21
0.0865583869147888
 31
0.0
  0
LINE
  5
21E
330
1F
100
AcDbEntity
  8
0
100
AcDbLine
 10
-0.2193053884728112
 20
0.075568386584877
 30
0.0
 11
-0.2193053884728112
 21
0.0865683865252724
 31
0.0
  0
LINE
  5
21F
330
1F
100
AcDbEntity
  8
0
100
AcDbLine
 10
-0.0325084815757052
 20
0.1050683866929105
 30
0.0
 11
-0.0325820830489378
 21
0.1074104776125243
 31
0.0
  0
LINE
  5
220
330
1F
100
AcDbEntity
  8
0
100
AcDbLine
 10
-0.0266823154440447
 20
0.1050683866929105
 30
0.0
 11
-0.0268422912598253
 21
0.1074104776125243
 31
0.0
  0
LINE
  5
221
330
1F
100
AcDbEntity
  8
0
100
AcDbLine
 10
-0.0268422912598253
 20
0.1074104776125243
 30
0.0
 11
-0.0268844801217857
 21
0.1050683866929105
 31
0.0
  0
LINE
  5
222
330
1F
100
AcDbEntity
  8
0
100
AcDbLine
 10
-0.0220889426581363
 20
0.1050683866929105
 30
0.0
 11
-0.0223170164843145
 21
0.1074104776125243
 31
0.0
  0
LINE
  5
223
330
1F
100
AcDbEntity
  8
0
100
AcDbLine
 10
-0.0223170164843145
 20
0.1074104776125243
 30
0.0
 11
-0.0221259984448264
 21
0.1050683866929105
 31
0.0
  0
LINE
  5
224
330
1F
100
AcDbEntity
  8
0
100
AcDbLine
 10
-0.0184833194201049
 20
0.1050683866929105
 30
0.0
 11
-0.0187648467771177
 21
0.1074104776125243
 31
0.0
  0
LINE
  5
225
330
1F
100
AcDbEntity
  8
0
100
AcDbLine
 10
-0.0187648467771177
 20
0.1074104776125243
 30
0.0
 11
-0.0185155409418534
 21
0.1050683866929105
 31
0.0
  0
LINE
  5
226
330
1F
100
AcDbEntity
  8
0
100
AcDbLine
 10
-0.0204801217250343
 20
0.1149923381435137
 30
0.0
 11
-0.0202662664024712
 21
0.1143207330241641
 31
0.0
  0
LINE
  5
227
330
1F
100
AcDbEntity
  8
0
100
AcDbLine
 10
-0.0202662664024712
 20
0.1143207330241641
 30
0.0
 11
-0.0196573124886281
 21
0.1120418055433622
 31
0.0
  0
LINE
  5
228
330
1F
100
AcDbEntity
  8
0
100
AcDbLine
 10
-0.0196573124886281
 20
0.1120418055433622
 30
0.0
 11
-0.0191564684783917
 21
0.1097366769317379
 31
0.0
  0
LINE
  5
229
330
1F
100
AcDbEntity
  8
0
100
AcDbLine
 10
-0.0191564684783917
 20
0.1097366769317379
 30
0.0
 11
-0.0187648467771177
 21
0.1074104776125243
 31
0.0
  0
LINE
  5
22A
330
1F
100
AcDbEntity
  8
0
100
AcDbLine
 10
-0.0192241620387173
 20
0.1050683866929105
 30
0.0
 11
-0.0195232476557978
 21
0.1074104776125243
 31
0.0
  0
LINE
  5
22B
330
1F
100
AcDbEntity
  8
0
100
AcDbLine
 10
-0.0195232476557978
 20
0.1074104776125243
 30
0.0
 11
-0.0192531340153413
 21
0.1050683866929105
 31
0.0
  0
LINE
  5
22C
330
1F
100
AcDbEntity
  8
0
100
AcDbLine
 10
-0.0251282908185581
 20
0.1050683866929105
 30
0.0
 11
-0.0255740226954719
 21
0.1074104776125243
 31
0.0
  0
LINE
  5
22D
330
1F
100
AcDbEntity
  8
0
100
AcDbLine
 10
-0.0255740226954719
 20
0.1074104776125243
 30
0.0
 11
-0.0253949613998026
 21
0.1050683866929105
 31
0.0
  0
LINE
  5
22E
330
1F
100
AcDbEntity
  8
0
100
AcDbLine
 10
-0.0308054792979378
 20
0.1050683866929105
 30
0.0
 11
-0.0310674270676347
 21
0.1074104776125243
 31
0.0
  0
LINE
  5
22F
330
1F
100
AcDbEntity
  8
0
100
AcDbLine
 10
-0.0310674270676347
 20
0.1074104776125243
 30
0.0
 11
-0.030971032977158
 21
0.1050683866929105
 31
0.0
  0
LINE
  5
230
330
1F
100
AcDbEntity
  8
0
100
AcDbLine
 10
-0.056220184205455
 20
0.1070683866929105
 30
0.0
 11
-0.0563599227863364
 21
0.105796018135186
 31
0.0
  0
LINE
  5
231
330
1F
100
AcDbEntity
  8
0
100
AcDbLine
 10
-0.055585781541865
 20
0.1050683866929105
 30
0.0
 11
-0.055356479255386
 21
0.1070683866929105
 31
0.0
  0
LINE
  5
232
330
1F
100
AcDbEntity
  8
0
100
AcDbLine
 10
-0.055356479255386
 20
0.1070683866929105
 30
0.0
 11
-0.0556169813828486
 21
0.1050683866929105
 31
0.0
  0
LINE
  5
233
330
1F
100
AcDbEntity
  8
0
100
AcDbLine
 10
-0.0492662127560134
 20
0.1050683866929105
 30
0.0
 11
-0.0491169136753188
 21
0.1070683866929105
 31
0.0
  0
LINE
  5
234
330
1F
100
AcDbEntity
  8
0
100
AcDbLine
 10
-0.0491565307756938
 20
0.1070683866929105
 30
0.0
 11
-0.0495374472312064
 21
0.1050683866929105
 31
0.0
  0
LINE
  5
235
330
1F
100
AcDbEntity
  8
0
100
AcDbLine
 10
-0.0436297569872057
 20
0.1050683866929105
 30
0.0
 11
-0.0435518150195872
 21
0.1070683866929105
 31
0.0
  0
LINE
  5
236
330
1F
100
AcDbEntity
  8
0
100
AcDbLine
 10
-0.0435518150195872
 20
0.1070683866929105
 30
0.0
 11
-0.043796598306685
 21
0.1050683866929105
 31
0.0
  0
LINE
  5
237
330
1F
100
AcDbEntity
  8
0
100
AcDbLine
 10
-0.0420248401885373
 20
0.1070683866929105
 30
0.0
 11
-0.0420832034044344
 21
0.1050683866929105
 31
0.0
  0
LINE
  5
238
330
1F
100
AcDbEntity
  8
0
100
AcDbLine
 10
-0.0477557902952958
 20
0.1050683866929105
 30
0.0
 11
-0.0477977208489338
 21
0.1070683866929105
 31
0.0
  0
LINE
  5
239
330
1F
100
AcDbEntity
  8
0
100
AcDbLine
 10
-0.0478276021053622
 20
0.1070683866929105
 30
0.0
 11
-0.0479603692985224
 21
0.1050683866929105
 31
0.0
  0
LINE
  5
23A
330
1F
100
AcDbEntity
  8
0
100
AcDbLine
 10
-0.0526014635262436
 20
0.1050683866929105
 30
0.0
 11
-0.0524418683260424
 21
0.1070683866929105
 31
0.0
  0
LINE
  5
23B
330
1F
100
AcDbEntity
  8
0
100
AcDbLine
 10
-0.0524418683260424
 20
0.1070683866929105
 30
0.0
 11
-0.052639414836281
 21
0.1050683866929105
 31
0.0
  0
LINE
  5
23C
330
1F
100
AcDbEntity
  8
0
100
AcDbLine
 10
0.157562282912017
 20
0.0240947972080261
 30
0.0
 11
0.1675622826884996
 21
0.0240947972080261
 31
0.0
  0
LINE
  5
23D
330
1F
100
AcDbEntity
  8
0
100
AcDbLine
 10
0.1675622826884996
 20
0.0240947972080261
 30
0.0
 11
0.1685377345863294
 21
0.024190870807733
 31
0.0
  0
LINE
  5
23E
330
1F
100
AcDbEntity
  8
0
100
AcDbLine
 10
0.1725622825767409
 20
0.0290947970962674
 30
0.0
 11
0.1725622825767409
 21
0.069498880180018
 31
0.0
  0
LINE
  5
23F
330
1F
100
AcDbEntity
  8
0
100
AcDbLine
 10
0.1565868310141872
 20
0.024190870807733
 30
0.0
 11
0.157562282912017
 21
0.0240947972080261
 31
0.0
  0
LINE
  5
240
330
1F
100
AcDbEntity
  8
0
100
AcDbLine
 10
0.1525622830237757
 20
0.0290947970962674
 30
0.0
 11
0.1526583563979279
 21
0.028119345664099
 31
0.0
  0
LINE
  5
241
330
1F
100
AcDbEntity
  8
0
100
AcDbLine
 10
0.1526583563979279
 20
0.028119345664099
 30
0.0
 11
0.1529428847576987
 21
0.0271813799655587
 31
0.0
  0
LINE
  5
242
330
1F
100
AcDbEntity
  8
0
100
AcDbLine
 10
0.1529428847576987
 20
0.0271813799655587
 30
0.0
 11
0.1534049343760621
 21
0.0263169461424054
 31
0.0
  0
LINE
  5
243
330
1F
100
AcDbEntity
  8
0
100
AcDbLine
 10
0.1534049343760621
 20
0.0263169461424054
 30
0.0
 11
0.1540267486568104
 21
0.0255592633067221
 31
0.0
  0
LINE
  5
244
330
1F
100
AcDbEntity
  8
0
100
AcDbLine
 10
0.1540267486568104
 20
0.0255592633067221
 30
0.0
 11
0.1565868310141872
 21
0.024190870807733
 31
0.0
  0
LINE
  5
245
330
1F
100
AcDbEntity
  8
0
100
AcDbLine
 10
0.1540267486568104
 20
0.0255592633067221
 30
0.0
 11
0.1547844317253243
 21
0.0249374491423891
 31
0.0
  0
LINE
  5
246
330
1F
100
AcDbEntity
  8
0
100
AcDbLine
 10
0.1547844317253243
 20
0.0249374491423891
 30
0.0
 11
0.1556488657813083
 21
0.0244753995531295
 31
0.0
  0
LINE
  5
247
330
1F
100
AcDbEntity
  8
0
100
AcDbLine
 10
0.1556488657813083
 20
0.0244753995531295
 30
0.0
 11
0.1565868310141872
 21
0.024190870807733
 31
0.0
  0
LINE
  5
248
330
1F
100
AcDbEntity
  8
0
100
AcDbLine
 10
0.1526583563979279
 20
0.0900702471873314
 30
0.0
 11
0.1525622830237757
 21
0.0890947948238404
 31
0.0
  0
LINE
  5
249
330
1F
100
AcDbEntity
  8
0
100
AcDbLine
 10
0.1529428847576987
 20
0.0910082156798394
 30
0.0
 11
0.1526583563979279
 21
0.0900702471873314
 31
0.0
  0
LINE
  5
24A
330
1F
100
AcDbEntity
  8
0
100
AcDbLine
 10
0.1685377345863294
 20
0.024190870807733
 30
0.0
 11
0.1694756998192083
 21
0.0244753995531295
 31
0.0
  0
LINE
  5
24B
330
1F
100
AcDbEntity
  8
0
100
AcDbLine
 10
0.1694756998192083
 20
0.0244753995531295
 30
0.0
 11
0.1703401338751923
 21
0.0249374491423891
 31
0.0
  0
LINE
  5
24C
330
1F
100
AcDbEntity
  8
0
100
AcDbLine
 10
0.1703401338751923
 20
0.0249374491423891
 30
0.0
 11
0.1710978169437062
 21
0.0255592633067221
 31
0.0
  0
LINE
  5
24D
330
1F
100
AcDbEntity
  8
0
100
AcDbLine
 10
0.1710978169437062
 20
0.0255592633067221
 30
0.0
 11
0.1717196312244545
 21
0.0263169461424054
 31
0.0
  0
LINE
  5
24E
330
1F
100
AcDbEntity
  8
0
100
AcDbLine
 10
0.1717196312244545
 20
0.0263169461424054
 30
0.0
 11
0.1725622825767409
 21
0.0290947970962674
 31
0.0
  0
LINE
  5
24F
330
1F
100
AcDbEntity
  8
0
100
AcDbLine
 10
0.1717196312244545
 20
0.0263169461424054
 30
0.0
 11
0.1721816808428179
 21
0.0271813799655587
 31
0.0
  0
LINE
  5
250
330
1F
100
AcDbEntity
  8
0
100
AcDbLine
 10
0.1721816808428179
 20
0.0271813799655587
 30
0.0
 11
0.1724662092025887
 21
0.028119345664099
 31
0.0
  0
LINE
  5
251
330
1F
100
AcDbEntity
  8
0
100
AcDbLine
 10
0.1724662092025887
 20
0.028119345664099
 30
0.0
 11
0.1725622825767409
 21
0.0290947970962674
 31
0.0
  0
LINE
  5
252
330
1F
100
AcDbEntity
  8
0
100
AcDbLine
 10
0.1565868310141872
 20
0.093998722269252
 30
0.0
 11
0.1556488657813083
 21
0.0937141920468361
 31
0.0
  0
LINE
  5
253
330
1F
100
AcDbEntity
  8
0
100
AcDbLine
 10
0.1556488657813083
 20
0.0937141920468361
 30
0.0
 11
0.1547844317253243
 21
0.0932521442911179
 31
0.0
  0
LINE
  5
254
330
1F
100
AcDbEntity
  8
0
100
AcDbLine
 10
0.1547844317253243
 20
0.0932521442911179
 30
0.0
 11
0.1540267486568104
 21
0.0926303337356598
 31
0.0
  0
LINE
  5
255
330
1F
100
AcDbEntity
  8
0
100
AcDbLine
 10
0.1540267486568104
 20
0.0926303337356598
 30
0.0
 11
0.1565868310141872
 21
0.093998722269252
 31
0.0
  0
LINE
  5
256
330
1F
100
AcDbEntity
  8
0
100
AcDbLine
 10
0.1540267486568104
 20
0.0926303337356598
 30
0.0
 11
0.153404934376062
 21
0.0918726469418557
 31
0.0
  0
LINE
  5
257
330
1F
100
AcDbEntity
  8
0
100
AcDbLine
 10
0.153404934376062
 20
0.0918726469418557
 30
0.0
 11
0.1529428847576987
 21
0.0910082156798394
 31
0.0
  0
LINE
  5
258
330
1F
100
AcDbEntity
  8
0
100
AcDbLine
 10
0.1408227024494251
 20
0.0924037406042743
 30
0.0
 11
0.140833139463843
 21
0.0925363554275186
 31
0.0
  0
LINE
  5
259
330
1F
100
AcDbEntity
  8
0
100
AcDbLine
 10
0.140833139463843
 20
0.0925363554275186
 30
0.0
 11
0.1408597654552322
 21
0.0926472607550413
 31
0.0
  0
LINE
  5
25A
330
1F
100
AcDbEntity
  8
0
100
AcDbLine
 10
0.1416235016947293
 20
0.0958284537684518
 30
0.0
 11
0.1416390389646899
 21
0.0958931712089629
 31
0.0
  0
LINE
  5
25B
330
1F
100
AcDbEntity
  8
0
100
AcDbLine
 10
0.1416390389646899
 20
0.0958931712089629
 30
0.0
 11
0.1416797518320889
 21
0.0959914607735653
 31
0.0
  0
LINE
  5
25C
330
1F
100
AcDbEntity
  8
0
100
AcDbLine
 10
0.1429601386632334
 20
0.0990825882768781
 30
0.0
 11
0.1429949137171769
 21
0.0991393359671423
 31
0.0
  0
LINE
  5
25D
330
1F
100
AcDbEntity
  8
0
100
AcDbLine
 10
0.1495298622252964
 20
0.1068067844009121
 30
0.0
 11
0.149631007618786
 21
0.106893170683697
 31
0.0
  0
LINE
  5
25E
330
1F
100
AcDbEntity
  8
0
100
AcDbLine
 10
0.149631007618786
 20
0.106893170683697
 30
0.0
 11
0.1497282512180181
 21
0.1069527616801448
 31
0.0
  0
LINE
  5
25F
330
1F
100
AcDbEntity
  8
0
100
AcDbLine
 10
0.1590098192532431
 20
0.1107973145530523
 30
0.0
 11
0.1591207245807658
 21
0.1108239405444414
 31
0.0
  0
LINE
  5
260
330
1F
100
AcDbEntity
  8
0
100
AcDbLine
 10
0.1591207245807658
 20
0.1108239405444414
 30
0.0
 11
0.1592533394040102
 21
0.1108343775588593
 31
0.0
  0
LINE
  5
261
330
1F
100
AcDbEntity
  8
0
100
AcDbLine
 10
0.1617462140652245
 20
0.1110305710773863
 30
0.0
 11
0.1619048933349386
 21
0.1110430594085194
 31
0.0
  0
LINE
  5
262
330
1F
100
AcDbEntity
  8
0
100
AcDbLine
 10
0.1658712261965064
 20
0.1108343775588593
 30
0.0
 11
0.1660038410197507
 21
0.1108239405444414
 31
0.0
  0
LINE
  5
263
330
1F
100
AcDbEntity
  8
0
100
AcDbLine
 10
0.1660038410197507
 20
0.1108239405444414
 30
0.0
 11
0.1661147463472734
 21
0.1107973145530523
 31
0.0
  0
LINE
  5
264
330
1F
100
AcDbEntity
  8
0
100
AcDbLine
 10
0.169295939360684
 20
0.1100335783135551
 30
0.0
 11
0.169360656801195
 21
0.1100180410435946
 31
0.0
  0
LINE
  5
265
330
1F
100
AcDbEntity
  8
0
100
AcDbLine
 10
0.169360656801195
 20
0.1100180410435946
 30
0.0
 11
0.1694589463657972
 21
0.1099773281761957
 31
0.0
  0
LINE
  5
266
330
1F
100
AcDbEntity
  8
0
100
AcDbLine
 10
0.1724517837086157
 20
0.1087376544592766
 30
0.0
 11
0.1725500738691102
 21
0.108696941345051
 31
0.0
  0
LINE
  5
267
330
1F
100
AcDbEntity
  8
0
100
AcDbLine
 10
0.1725500738691102
 20
0.108696941345051
 30
0.0
 11
0.1726068215593744
 21
0.1086621662911075
 31
0.0
  0
LINE
  5
268
330
1F
100
AcDbEntity
  8
0
100
AcDbLine
 10
0.1753963143824985
 20
0.1069527616801448
 30
0.0
 11
0.1754935579817306
 21
0.106893170683697
 31
0.0
  0
LINE
  5
269
330
1F
100
AcDbEntity
  8
0
100
AcDbLine
 10
0.1754935579817306
 20
0.106893170683697
 30
0.0
 11
0.1755947033752202
 21
0.1068067844009121
 31
0.0
  0
LINE
  5
26A
330
1F
100
AcDbEntity
  8
0
100
AcDbLine
 10
0.1802742699931442
 20
0.1021272177829881
 30
0.0
 11
0.1803606562759291
 21
0.1020260723894985
 31
0.0
  0
LINE
  5
26B
330
1F
100
AcDbEntity
  8
0
100
AcDbLine
 10
0.1803606562759291
 20
0.1020260723894985
 30
0.0
 11
0.1804202472723769
 21
0.1019288287902664
 31
0.0
  0
LINE
  5
26C
330
1F
100
AcDbEntity
  8
0
100
AcDbLine
 10
0.1821197903053294
 20
0.0991554285884607
 30
0.0
 11
0.1821644269372832
 21
0.0990825882768781
 31
0.0
  0
LINE
  5
26D
330
1F
100
AcDbEntity
  8
0
100
AcDbLine
 10
0.1821644269372832
 20
0.0990825882768781
 30
0.0
 11
0.1822051400515087
 21
0.0989842981163836
 31
0.0
  0
LINE
  5
26E
330
1F
100
AcDbEntity
  8
0
100
AcDbLine
 10
0.1834448137684278
 20
0.0959914607735651
 30
0.0
 11
0.1834855266358267
 21
0.0958931712089629
 31
0.0
  0
LINE
  5
26F
330
1F
100
AcDbEntity
  8
0
100
AcDbLine
 10
0.1834855266358267
 20
0.0958931712089629
 30
0.0
 11
0.1835010639057872
 21
0.0958284537684519
 31
0.0
  0
LINE
  5
270
330
1F
100
AcDbEntity
  8
0
100
AcDbLine
 10
0.1842648001452844
 20
0.0926472607550413
 30
0.0
 11
0.1842914261366736
 21
0.0925363554275186
 31
0.0
  0
LINE
  5
271
330
1F
100
AcDbEntity
  8
0
100
AcDbLine
 10
0.1842914261366736
 20
0.0925363554275186
 30
0.0
 11
0.1843018631510915
 21
0.0924037406042743
 31
0.0
  0
LINE
  5
272
330
1F
100
AcDbEntity
  8
0
100
AcDbLine
 10
0.149631007618786
 20
0.0712964237323554
 30
0.0
 11
0.1497282512180181
 21
0.0712368327359075
 31
0.0
  0
LINE
  5
273
330
1F
100
AcDbEntity
  8
0
100
AcDbLine
 10
0.152487444245067
 20
0.0695459958770081
 30
0.0
 11
0.1525622830237757
 21
0.0695001345819572
 31
0.0
  0
LINE
  5
274
330
1F
100
AcDbEntity
  8
0
100
AcDbLine
 10
0.175470773160076
 20
0.0712824611658008
 30
0.0
 11
0.1754935579817306
 21
0.0712964237323554
 31
0.0
  0
LINE
  5
275
330
1F
100
AcDbEntity
  8
0
100
AcDbLine
 10
0.1779450589517957
 20
0.073390202289549
 30
0.0
 11
0.1781186322193156
 21
0.0735384477889688
 31
0.0
  0
LINE
  5
276
330
1F
100
AcDbEntity
  8
0
100
AcDbLine
 10
0.1802216406540134
 20
0.0760007555626364
 30
0.0
 11
0.1803606562759291
 21
0.0761635220265539
 31
0.0
  0
LINE
  5
277
330
1F
100
AcDbEntity
  8
0
100
AcDbLine
 10
0.1803606562759291
 20
0.0761635220265539
 30
0.0
 11
0.1804388799540522
 21
0.076291171377283
 31
0.0
  0
LINE
  5
278
330
1F
100
AcDbEntity
  8
0
100
AcDbLine
 10
0.183417450285866
 20
0.0821320723464197
 30
0.0
 11
0.1834855266358267
 21
0.0822964232070894
 31
0.0
  0
LINE
  5
279
330
1F
100
AcDbEntity
  8
0
100
AcDbLine
 10
0.1834855266358267
 20
0.0822964232070894
 30
0.0
 11
0.1835491175829119
 21
0.0825612987833966
 31
0.0
  0
LINE
  5
27A
330
1F
100
AcDbEntity
  8
0
100
AcDbLine
 10
0.183781403296435
 20
0.0835288392126178
 30
0.0
 11
0.1837886120883394
 21
0.0835588660167096
 31
0.0
  0
LINE
  5
27B
330
1F
100
AcDbEntity
  8
0
100
AcDbLine
 10
0.184277985811597
 20
0.0855972559592885
 30
0.0
 11
0.1842914261366736
 21
0.0856532389885337
 31
0.0
  0
LINE
  5
27C
330
1F
100
AcDbEntity
  8
0
100
AcDbLine
 10
0.1842914261366736
 20
0.0856532389885337
 30
0.0
 11
0.1842975090397519
 21
0.0857305295894896
 31
0.0
  0
LINE
  5
27D
330
1F
100
AcDbEntity
  8
0
100
AcDbLine
 10
0.1408227024494251
 20
0.085785853811778
 30
0.0
 11
0.140833139463843
 21
0.0856532389885337
 31
0.0
  0
LINE
  5
27E
330
1F
100
AcDbEntity
  8
0
100
AcDbLine
 10
0.140833139463843
 20
0.0856532389885337
 30
0.0
 11
0.1408597654552322
 21
0.085542333661011
 31
0.0
  0
LINE
  5
27F
330
1F
100
AcDbEntity
  8
0
100
AcDbLine
 10
0.1416235016947293
 20
0.0823611406476006
 30
0.0
 11
0.1416390389646899
 21
0.0822964232070894
 31
0.0
  0
LINE
  5
280
330
1F
100
AcDbEntity
  8
0
100
AcDbLine
 10
0.1416390389646899
 20
0.0822964232070894
 30
0.0
 11
0.1416797518320889
 21
0.082198133642487
 31
0.0
  0
LINE
  5
281
330
1F
100
AcDbEntity
  8
0
100
AcDbLine
 10
0.1429194255490078
 20
0.0792052962996688
 30
0.0
 11
0.1429601386632334
 21
0.0791070061391742
 31
0.0
  0
LINE
  5
282
330
1F
100
AcDbEntity
  8
0
100
AcDbLine
 10
0.1429601386632334
 20
0.0791070061391742
 30
0.0
 11
0.1430047752951872
 21
0.0790341658275916
 31
0.0
  0
LINE
  5
283
330
1F
100
AcDbEntity
  8
0
100
AcDbLine
 10
0.1447043183281397
 20
0.0762607656257859
 30
0.0
 11
0.1447639093245875
 21
0.0761635220265539
 31
0.0
  0
LINE
  5
284
330
1F
100
AcDbEntity
  8
0
100
AcDbLine
 10
0.1447639093245875
 20
0.0761635220265539
 30
0.0
 11
0.1448502956073724
 21
0.0760623766330642
 31
0.0
  0
LINE
  5
285
330
1F
100
AcDbEntity
  8
0
100
AcDbLine
 10
0.1495298622252963
 20
0.0713828100151403
 30
0.0
 11
0.149631007618786
 21
0.0712964237323554
 31
0.0
  0
LINE
  5
286
330
1F
100
AcDbEntity
  8
0
100
AcDbLine
 10
0.1617969159130502
 20
0.1110814791759999
 30
0.0
 11
0.161746211949796
 21
0.1110793140817335
 31
0.0
  0
LINE
  5
287
330
1F
100
AcDbEntity
  8
0
100
AcDbLine
 10
0.1633783536264426
 20
0.1110787546780718
 30
0.0
 11
0.1633276496874664
 21
0.1110814791759999
 31
0.0
  0
LINE
  5
288
330
1F
100
AcDbEntity
  8
0
100
AcDbLine
 10
0.1523622824321996
 20
0.0697151683858187
 30
0.0
 11
0.1512325844239007
 21
0.0703531876793654
 31
0.0
  0
LINE
  5
289
330
1F
100
AcDbEntity
  8
0
100
AcDbLine
 10
0.1512325844239007
 20
0.0703531876793654
 30
0.0
 11
0.1501216646726738
 21
0.0710714497259409
 31
0.0
  0
LINE
  5
28A
330
1F
100
AcDbEntity
  8
0
100
AcDbLine
 10
0.1501216646726738
 20
0.0710714497259409
 30
0.0
 11
0.1490561394463788
 21
0.0718554799100907
 31
0.0
  0
LINE
  5
28B
330
1F
100
AcDbEntity
  8
0
100
AcDbLine
 10
0.1490561394463788
 20
0.0718554799100907
 30
0.0
 11
0.1480398970167648
 21
0.07270241162093
 31
0.0
  0
LINE
  5
28C
330
1F
100
AcDbEntity
  8
0
100
AcDbLine
 10
0.1480398970167648
 20
0.07270241162093
 30
0.0
 11
0.1470766440476786
 21
0.0736091584554465
 31
0.0
  0
LINE
  5
28D
330
1F
100
AcDbEntity
  8
0
100
AcDbLine
 10
0.1470766440476786
 20
0.0736091584554465
 30
0.0
 11
0.1461698972131621
 21
0.0745724114245327
 31
0.0
  0
LINE
  5
28E
330
1F
100
AcDbEntity
  8
0
100
AcDbLine
 10
0.1461698972131621
 20
0.0745724114245327
 30
0.0
 11
0.1453229655023228
 21
0.0755886538541467
 31
0.0
  0
LINE
  5
28F
330
1F
100
AcDbEntity
  8
0
100
AcDbLine
 10
0.1453229655023228
 20
0.0755886538541467
 30
0.0
 11
0.1445389353181731
 21
0.0766541790804417
 31
0.0
  0
LINE
  5
290
330
1F
100
AcDbEntity
  8
0
100
AcDbLine
 10
0.1445389353181731
 20
0.0766541790804417
 30
0.0
 11
0.1438206732715975
 21
0.0777650988316686
 31
0.0
  0
LINE
  5
291
330
1F
100
AcDbEntity
  8
0
100
AcDbLine
 10
0.1438206732715975
 20
0.0777650988316686
 30
0.0
 11
0.1431707963790308
 21
0.0789173599919827
 31
0.0
  0
LINE
  5
292
330
1F
100
AcDbEntity
  8
0
100
AcDbLine
 10
0.1431707963790308
 20
0.0789173599919827
 30
0.0
 11
0.142591675787748
 21
0.080106756708637
 31
0.0
  0
LINE
  5
293
330
1F
100
AcDbEntity
  8
0
100
AcDbLine
 10
0.142591675787748
 20
0.080106756708637
 30
0.0
 11
0.1420854274626385
 21
0.0813289499497564
 31
0.0
  0
LINE
  5
294
330
1F
100
AcDbEntity
  8
0
100
AcDbLine
 10
0.1420854274626385
 20
0.0813289499497564
 30
0.0
 11
0.1416538954224001
 21
0.0825794805428536
 31
0.0
  0
LINE
  5
295
330
1F
100
AcDbEntity
  8
0
100
AcDbLine
 10
0.1416538954224001
 20
0.0825794805428536
 30
0.0
 11
0.1412986573274742
 21
0.0838537840759904
 31
0.0
  0
LINE
  5
296
330
1F
100
AcDbEntity
  8
0
100
AcDbLine
 10
0.1412986573274742
 20
0.0838537840759904
 30
0.0
 11
0.1410210077162396
 21
0.0851472118525357
 31
0.0
  0
LINE
  5
297
330
1F
100
AcDbEntity
  8
0
100
AcDbLine
 10
0.1410210077162396
 20
0.0851472118525357
 30
0.0
 11
0.1408219580050122
 21
0.0864550439296813
 31
0.0
  0
LINE
  5
298
330
1F
100
AcDbEntity
  8
0
100
AcDbLine
 10
0.1408219580050122
 20
0.0864550439296813
 30
0.0
 11
0.1407022383506905
 21
0.0877725080941395
 31
0.0
  0
LINE
  5
299
330
1F
100
AcDbEntity
  8
0
100
AcDbLine
 10
0.1407022383506905
 20
0.0877725080941395
 30
0.0
 11
0.1406622827495943
 21
0.0890947972080262
 31
0.0
  0
LINE
  5
29A
330
1F
100
AcDbEntity
  8
0
100
AcDbLine
 10
0.1523383725877415
 20
0.0696147643616946
 30
0.0
 11
0.1523622824321996
 21
0.0696022343477757
 31
0.0
  0
LINE
  5
29B
330
1F
100
AcDbEntity
  8
0
100
AcDbLine
 10
0.1500648586522352
 20
0.0709891524753125
 30
0.0
 11
0.151180851317526
 21
0.070267608447984
 31
0.0
  0
LINE
  5
29C
330
1F
100
AcDbEntity
  8
0
100
AcDbLine
 10
0.1479735840554844
 20
0.0726275612256081
 30
0.0
 11
0.1489944672654878
 21
0.0717767608007939
 31
0.0
  0
LINE
  5
29D
330
1F
100
AcDbEntity
  8
0
100
AcDbLine
 10
0.1470059333812009
 20
0.0735384477889688
 30
0.0
 11
0.1479735840554844
 21
0.0726275612256081
 31
0.0
  0
LINE
  5
29E
330
1F
100
AcDbEntity
  8
0
100
AcDbLine
 10
0.145244246393026
 20
0.0755269816732557
 30
0.0
 11
0.1460950468178402
 21
0.0745060984632523
 31
0.0
  0
LINE
  5
29F
330
1F
100
AcDbEntity
  8
0
100
AcDbLine
 10
0.1437350940402161
 20
0.0777133657252939
 30
0.0
 11
0.1444566380675446
 21
0.076597373060003
 31
0.0
  0
LINE
  5
2A0
330
1F
100
AcDbEntity
  8
0
100
AcDbLine
 10
0.1430822499539267
 20
0.0788708869955094
 30
0.0
 11
0.1437350940402161
 21
0.0777133657252939
 31
0.0
  0
LINE
  5
2A1
330
1F
100
AcDbEntity
  8
0
100
AcDbLine
 10
0.1419919245387923
 20
0.0812934898427279
 30
0.0
 11
0.1425004862691771
 21
0.0800657151854188
 31
0.0
  0
LINE
  5
2A2
330
1F
100
AcDbEntity
  8
0
100
AcDbLine
 10
0.1412015632237803
 20
0.0838298528111131
 30
0.0
 11
0.1415584236826312
 21
0.0825497299088688
 31
0.0
  0
LINE
  5
2A3
330
1F
100
AcDbEntity
  8
0
100
AcDbLine
 10
0.140922645151199
 20
0.0851291865697653
 30
0.0
 11
0.1412015632237803
 21
0.0838298528111131
 31
0.0
  0
LINE
  5
2A4
330
1F
100
AcDbEntity
  8
0
100
AcDbLine
 10
0.1406024210597883
 20
0.087766470213473
 30
0.0
 11
0.1407226883317839
 21
0.0864429902872593
 31
0.0
  0
LINE
  5
2A5
330
1F
100
AcDbEntity
  8
0
100
AcDbLine
 10
0.1405622829194676
 20
0.0890947972080262
 30
0.0
 11
0.1406024210597883
 21
0.087766470213473
 31
0.0
  0
LINE
  5
2A6
330
1F
100
AcDbEntity
  8
0
100
AcDbLine
 10
0.184562282681049
 20
0.0890947972080262
 30
0.0
 11
0.1845221445407282
 21
0.0904231242025794
 31
0.0
  0
LINE
  5
2A7
330
1F
100
AcDbEntity
  8
0
100
AcDbLine
 10
0.1844223272498261
 20
0.0904170863219128
 30
0.0
 11
0.1844622828509222
 21
0.0890947972080262
 31
0.0
  0
LINE
  5
2A8
330
1F
100
AcDbEntity
  8
0
100
AcDbLine
 10
0.1845221445407282
 20
0.0904231242025794
 30
0.0
 11
0.1844018772687327
 21
0.091746604128793
 31
0.0
  0
LINE
  5
2A9
330
1F
100
AcDbEntity
  8
0
100
AcDbLine
 10
0.1842019204493176
 20
0.093060407846287
 30
0.0
 11
0.1839230023767363
 21
0.0943597416049392
 31
0.0
  0
LINE
  5
2AA
330
1F
100
AcDbEntity
  8
0
100
AcDbLine
 10
0.1839230023767363
 20
0.0943597416049392
 30
0.0
 11
0.1835661419178855
 21
0.0956398645071836
 31
0.0
  0
LINE
  5
2AB
330
1F
100
AcDbEntity
  8
0
100
AcDbLine
 10
0.1831326410617243
 20
0.0968961045733244
 30
0.0
 11
0.1826240793313395
 21
0.0981238792306335
 31
0.0
  0
LINE
  5
2AC
330
1F
100
AcDbEntity
  8
0
100
AcDbLine
 10
0.1820423156465899
 20
0.099318707420543
 30
0.0
 11
0.1813894715603005
 21
0.1004762286907585
 31
0.0
  0
LINE
  5
2AD
330
1F
100
AcDbEntity
  8
0
100
AcDbLine
 10
0.1813894715603005
 20
0.1004762286907585
 30
0.0
 11
0.180667927532972
 21
0.1015922213560493
 31
0.0
  0
LINE
  5
2AE
330
1F
100
AcDbEntity
  8
0
100
AcDbLine
 10
0.1798803192074906
 20
0.1026626127427966
 30
0.0
 11
0.1790295187826763
 21
0.1036834959528
 31
0.0
  0
LINE
  5
2AF
330
1F
100
AcDbEntity
  8
0
100
AcDbLine
 10
0.1790295187826763
 20
0.1036834959528
 30
0.0
 11
0.1781186322193156
 21
0.1046511466270835
 31
0.0
  0
LINE
  5
2B0
330
1F
100
AcDbEntity
  8
0
100
AcDbLine
 10
0.1781186322193156
 20
0.1046511466270835
 30
0.0
 11
0.1771509815450322
 21
0.1055620331904442
 31
0.0
  0
LINE
  5
2B1
330
1F
100
AcDbEntity
  8
0
100
AcDbLine
 10
0.1771509815450322
 20
0.1055620331904442
 30
0.0
 11
0.1761300983350288
 21
0.1064128336152585
 31
0.0
  0
LINE
  5
2B2
330
1F
100
AcDbEntity
  8
0
100
AcDbLine
 10
0.1750597069482814
 20
0.1072004419407399
 30
0.0
 11
0.1739437142829906
 21
0.1079219859680684
 31
0.0
  0
LINE
  5
2B3
330
1F
100
AcDbEntity
  8
0
100
AcDbLine
 10
0.1739437142829906
 20
0.1079219859680684
 30
0.0
 11
0.1727861930127751
 21
0.1085748300543578
 31
0.0
  0
LINE
  5
2B4
330
1F
100
AcDbEntity
  8
0
100
AcDbLine
 10
0.1715913648228656
 20
0.1091565937391074
 30
0.0
 11
0.1703635901655565
 21
0.1096651554694922
 31
0.0
  0
LINE
  5
2B5
330
1F
100
AcDbEntity
  8
0
100
AcDbLine
 10
0.1691073500994157
 20
0.1100986563256533
 30
0.0
 11
0.1678272271971714
 21
0.1104555167845042
 31
0.0
  0
LINE
  5
2B6
330
1F
100
AcDbEntity
  8
0
100
AcDbLine
 10
0.1678272271971714
 20
0.1104555167845042
 30
0.0
 11
0.1665278934385191
 21
0.1107344348570855
 31
0.0
  0
LINE
  5
2B7
330
1F
100
AcDbEntity
  8
0
100
AcDbLine
 10
0.1585966721619974
 20
0.1107344348570855
 30
0.0
 11
0.1572973384033452
 21
0.1104555167845042
 31
0.0
  0
LINE
  5
2B8
330
1F
100
AcDbEntity
  8
0
100
AcDbLine
 10
0.1572973384033452
 20
0.1104555167845042
 30
0.0
 11
0.1560172155011009
 21
0.1100986563256533
 31
0.0
  0
LINE
  5
2B9
330
1F
100
AcDbEntity
  8
0
100
AcDbLine
 10
0.15476097543496
 20
0.1096651554694922
 30
0.0
 11
0.153533200777651
 21
0.1091565937391074
 31
0.0
  0
LINE
  5
2BA
330
1F
100
AcDbEntity
  8
0
100
AcDbLine
 10
0.1523383725877415
 20
0.1085748300543578
 30
0.0
 11
0.151180851317526
 21
0.1079219859680684
 31
0.0
  0
LINE
  5
2BB
330
1F
100
AcDbEntity
  8
0
100
AcDbLine
 10
0.151180851317526
 20
0.1079219859680684
 30
0.0
 11
0.1500648586522352
 21
0.1072004419407399
 31
0.0
  0
LINE
  5
2BC
330
1F
100
AcDbEntity
  8
0
100
AcDbLine
 10
0.1489944672654878
 20
0.1064128336152585
 30
0.0
 11
0.1479735840554844
 21
0.1055620331904442
 31
0.0
  0
LINE
  5
2BD
330
1F
100
AcDbEntity
  8
0
100
AcDbLine
 10
0.1479735840554844
 20
0.1055620331904442
 30
0.0
 11
0.1470059333812009
 21
0.1046511466270835
 31
0.0
  0
LINE
  5
2BE
330
1F
100
AcDbEntity
  8
0
100
AcDbLine
 10
0.1460950468178402
 20
0.1036834959528
 30
0.0
 11
0.145244246393026
 21
0.1026626127427966
 31
0.0
  0
LINE
  5
2BF
330
1F
100
AcDbEntity
  8
0
100
AcDbLine
 10
0.1444566380675446
 20
0.1015922213560493
 30
0.0
 11
0.1437350940402161
 21
0.1004762286907585
 31
0.0
  0
LINE
  5
2C0
330
1F
100
AcDbEntity
  8
0
100
AcDbLine
 10
0.1437350940402161
 20
0.1004762286907585
 30
0.0
 11
0.1430822499539267
 21
0.099318707420543
 31
0.0
  0
LINE
  5
2C1
330
1F
100
AcDbEntity
  8
0
100
AcDbLine
 10
0.1425004862691771
 20
0.0981238792306335
 30
0.0
 11
0.1419919245387923
 21
0.0968961045733244
 31
0.0
  0
LINE
  5
2C2
330
1F
100
AcDbEntity
  8
0
100
AcDbLine
 10
0.1415584236826312
 20
0.0956398645071836
 30
0.0
 11
0.1412015632237803
 21
0.0943597416049392
 31
0.0
  0
LINE
  5
2C3
330
1F
100
AcDbEntity
  8
0
100
AcDbLine
 10
0.1412015632237803
 20
0.0943597416049392
 30
0.0
 11
0.140922645151199
 21
0.093060407846287
 31
0.0
  0
LINE
  5
2C4
330
1F
100
AcDbEntity
  8
0
100
AcDbLine
 10
0.1407226883317839
 20
0.091746604128793
 30
0.0
 11
0.1406024210597883
 21
0.0904231242025794
 31
0.0
  0
LINE
  5
2C5
330
1F
100
AcDbEntity
  8
0
100
AcDbLine
 10
0.1406024210597883
 20
0.0904231242025794
 30
0.0
 11
0.1405622829194676
 21
0.0890947972080262
 31
0.0
  0
LINE
  5
2C6
330
1F
100
AcDbEntity
  8
0
100
AcDbLine
 10
0.1843026075955044
 20
0.091734550486371
 30
0.0
 11
0.1844223272498261
 21
0.0904170863219128
 31
0.0
  0
LINE
  5
2C7
330
1F
100
AcDbEntity
  8
0
100
AcDbLine
 10
0.184103557884277
 20
0.0930423825635166
 30
0.0
 11
0.1843026075955044
 21
0.091734550486371
 31
0.0
  0
LINE
  5
2C8
330
1F
100
AcDbEntity
  8
0
100
AcDbLine
 10
0.1838259082730423
 20
0.0943358103400619
 30
0.0
 11
0.184103557884277
 21
0.0930423825635166
 31
0.0
  0
LINE
  5
2C9
330
1F
100
AcDbEntity
  8
0
100
AcDbLine
 10
0.1834706701781164
 20
0.0956101138731987
 30
0.0
 11
0.1838259082730423
 21
0.0943358103400619
 31
0.0
  0
LINE
  5
2CA
330
1F
100
AcDbEntity
  8
0
100
AcDbLine
 10
0.1830391381378781
 20
0.096860644466296
 30
0.0
 11
0.1834706701781164
 21
0.0956101138731987
 31
0.0
  0
LINE
  5
2CB
330
1F
100
AcDbEntity
  8
0
100
AcDbLine
 10
0.1825328898127686
 20
0.0980828377074153
 30
0.0
 11
0.1830391381378781
 21
0.096860644466296
 31
0.0
  0
LINE
  5
2CC
330
1F
100
AcDbEntity
  8
0
100
AcDbLine
 10
0.1819537692214857
 20
0.0992722344240696
 30
0.0
 11
0.1825328898127686
 21
0.0980828377074153
 31
0.0
  0
LINE
  5
2CD
330
1F
100
AcDbEntity
  8
0
100
AcDbLine
 10
0.1813038923289191
 20
0.1004244955843837
 30
0.0
 11
0.1819537692214857
 21
0.0992722344240696
 31
0.0
  0
LINE
  5
2CE
330
1F
100
AcDbEntity
  8
0
100
AcDbLine
 10
0.1805856302823435
 20
0.1015354153356106
 30
0.0
 11
0.1813038923289191
 21
0.1004244955843837
 31
0.0
  0
LINE
  5
2CF
330
1F
100
AcDbEntity
  8
0
100
AcDbLine
 10
0.1798016000981938
 20
0.1026009405619056
 30
0.0
 11
0.1805856302823435
 21
0.1015354153356106
 31
0.0
  0
LINE
  5
2D0
330
1F
100
AcDbEntity
  8
0
100
AcDbLine
 10
0.1789546683873545
 20
0.1036171829915197
 30
0.0
 11
0.1798016000981938
 21
0.1026009405619056
 31
0.0
  0
LINE
  5
2D1
330
1F
100
AcDbEntity
  8
0
100
AcDbLine
 10
0.178047921552838
 20
0.1045804359606059
 30
0.0
 11
0.1789546683873545
 21
0.1036171829915197
 31
0.0
  0
LINE
  5
2D2
330
1F
100
AcDbEntity
  8
0
100
AcDbLine
 10
0.1770846685837518
 20
0.1054871827951224
 30
0.0
 11
0.178047921552838
 21
0.1045804359606059
 31
0.0
  0
LINE
  5
2D3
330
1F
100
AcDbEntity
  8
0
100
AcDbLine
 10
0.1760684261541377
 20
0.1063341145059616
 30
0.0
 11
0.1770846685837518
 21
0.1054871827951224
 31
0.0
  0
LINE
  5
2D4
330
1F
100
AcDbEntity
  8
0
100
AcDbLine
 10
0.1750029009278427
 20
0.1071181446901114
 30
0.0
 11
0.1760684261541377
 21
0.1063341145059616
 31
0.0
  0
LINE
  5
2D5
330
1F
100
AcDbEntity
  8
0
100
AcDbLine
 10
0.1738919811766158
 20
0.107836406736687
 30
0.0
 11
0.1750029009278427
 21
0.1071181446901114
 31
0.0
  0
LINE
  5
2D6
330
1F
100
AcDbEntity
  8
0
100
AcDbLine
 10
0.1727397200163018
 20
0.1084862836292536
 30
0.0
 11
0.1738919811766158
 21
0.107836406736687
 31
0.0
  0
LINE
  5
2D7
330
1F
100
AcDbEntity
  8
0
100
AcDbLine
 10
0.1715503232996475
 20
0.1090654042205365
 30
0.0
 11
0.1727397200163018
 21
0.1084862836292536
 31
0.0
  0
LINE
  5
2D8
330
1F
100
AcDbEntity
  8
0
100
AcDbLine
 10
0.1703281300585281
 20
0.109571652545646
 30
0.0
 11
0.1715503232996475
 21
0.1090654042205365
 31
0.0
  0
LINE
  5
2D9
330
1F
100
AcDbEntity
  8
0
100
AcDbLine
 10
0.1690775994654309
 20
0.1100031845858843
 30
0.0
 11
0.1703281300585281
 21
0.109571652545646
 31
0.0
  0
LINE
  5
2DA
330
1F
100
AcDbEntity
  8
0
100
AcDbLine
 10
0.167803295932294
 20
0.1103584226808102
 30
0.0
 11
0.1690775994654309
 21
0.1100031845858843
 31
0.0
  0
LINE
  5
2DB
330
1F
100
AcDbEntity
  8
0
100
AcDbLine
 10
0.1665098681557487
 20
0.1106360722920449
 30
0.0
 11
0.167803295932294
 21
0.1103584226808102
 31
0.0
  0
LINE
  5
2DC
330
1F
100
AcDbEntity
  8
0
100
AcDbLine
 10
0.1652020360786031
 20
0.1108351220032723
 30
0.0
 11
0.1665098681557487
 21
0.1106360722920449
 31
0.0
  0
LINE
  5
2DD
330
1F
100
AcDbEntity
  8
0
100
AcDbLine
 10
0.1638845719141449
 20
0.110954841657594
 30
0.0
 11
0.1652020360786031
 21
0.1108351220032723
 31
0.0
  0
LINE
  5
2DE
330
1F
100
AcDbEntity
  8
0
100
AcDbLine
 10
0.1625622828002583
 20
0.1109947972586901
 30
0.0
 11
0.1638845719141449
 21
0.110954841657594
 31
0.0
  0
LINE
  5
2DF
330
1F
100
AcDbEntity
  8
0
100
AcDbLine
 10
0.1612399936863716
 20
0.110954841657594
 30
0.0
 11
0.1625622828002583
 21
0.1109947972586901
 31
0.0
  0
LINE
  5
2E0
330
1F
100
AcDbEntity
  8
0
100
AcDbLine
 10
0.1599225295219134
 20
0.1108351220032723
 30
0.0
 11
0.1612399936863716
 21
0.110954841657594
 31
0.0
  0
LINE
  5
2E1
330
1F
100
AcDbEntity
  8
0
100
AcDbLine
 10
0.1586146974447678
 20
0.1106360722920449
 30
0.0
 11
0.1599225295219134
 21
0.1108351220032723
 31
0.0
  0
LINE
  5
2E2
330
1F
100
AcDbEntity
  8
0
100
AcDbLine
 10
0.1573212696682225
 20
0.1103584226808102
 30
0.0
 11
0.1586146974447678
 21
0.1106360722920449
 31
0.0
  0
LINE
  5
2E3
330
1F
100
AcDbEntity
  8
0
100
AcDbLine
 10
0.1560469661350857
 20
0.1100031845858843
 30
0.0
 11
0.1573212696682225
 21
0.1103584226808102
 31
0.0
  0
LINE
  5
2E4
330
1F
100
AcDbEntity
  8
0
100
AcDbLine
 10
0.1547964355419885
 20
0.109571652545646
 30
0.0
 11
0.1560469661350857
 21
0.1100031845858843
 31
0.0
  0
LINE
  5
2E5
330
1F
100
AcDbEntity
  8
0
100
AcDbLine
 10
0.1535742423008691
 20
0.1090654042205365
 30
0.0
 11
0.1547964355419885
 21
0.109571652545646
 31
0.0
  0
LINE
  5
2E6
330
1F
100
AcDbEntity
  8
0
100
AcDbLine
 10
0.1523848455842148
 20
0.1084862836292536
 30
0.0
 11
0.1535742423008691
 21
0.1090654042205365
 31
0.0
  0
LINE
  5
2E7
330
1F
100
AcDbEntity
  8
0
100
AcDbLine
 10
0.1512325844239007
 20
0.107836406736687
 30
0.0
 11
0.1523848455842148
 21
0.1084862836292536
 31
0.0
  0
LINE
  5
2E8
330
1F
100
AcDbEntity
  8
0
100
AcDbLine
 10
0.1501216646726738
 20
0.1071181446901114
 30
0.0
 11
0.1512325844239007
 21
0.107836406736687
 31
0.0
  0
LINE
  5
2E9
330
1F
100
AcDbEntity
  8
0
100
AcDbLine
 10
0.1490561394463788
 20
0.1063341145059616
 30
0.0
 11
0.1501216646726738
 21
0.1071181446901114
 31
0.0
  0
LINE
  5
2EA
330
1F
100
AcDbEntity
  8
0
100
AcDbLine
 10
0.1480398970167648
 20
0.1054871827951224
 30
0.0
 11
0.1490561394463788
 21
0.1063341145059616
 31
0.0
  0
LINE
  5
2EB
330
1F
100
AcDbEntity
  8
0
100
AcDbLine
 10
0.1470766440476786
 20
0.1045804359606059
 30
0.0
 11
0.1480398970167648
 21
0.1054871827951224
 31
0.0
  0
LINE
  5
2EC
330
1F
100
AcDbEntity
  8
0
100
AcDbLine
 10
0.1461698972131621
 20
0.1036171829915197
 30
0.0
 11
0.1470766440476786
 21
0.1045804359606059
 31
0.0
  0
LINE
  5
2ED
330
1F
100
AcDbEntity
  8
0
100
AcDbLine
 10
0.1453229655023228
 20
0.1026009405619056
 30
0.0
 11
0.1461698972131621
 21
0.1036171829915197
 31
0.0
  0
LINE
  5
2EE
330
1F
100
AcDbEntity
  8
0
100
AcDbLine
 10
0.1445389353181731
 20
0.1015354153356106
 30
0.0
 11
0.1453229655023228
 21
0.1026009405619056
 31
0.0
  0
LINE
  5
2EF
330
1F
100
AcDbEntity
  8
0
100
AcDbLine
 10
0.1438206732715975
 20
0.1004244955843837
 30
0.0
 11
0.1445389353181731
 21
0.1015354153356106
 31
0.0
  0
LINE
  5
2F0
330
1F
100
AcDbEntity
  8
0
100
AcDbLine
 10
0.1431707963790308
 20
0.0992722344240696
 30
0.0
 11
0.1438206732715975
 21
0.1004244955843837
 31
0.0
  0
LINE
  5
2F1
330
1F
100
AcDbEntity
  8
0
100
AcDbLine
 10
0.142591675787748
 20
0.0980828377074153
 30
0.0
 11
0.1431707963790308
 21
0.0992722344240696
 31
0.0
  0
LINE
  5
2F2
330
1F
100
AcDbEntity
  8
0
100
AcDbLine
 10
0.1420854274626385
 20
0.096860644466296
 30
0.0
 11
0.142591675787748
 21
0.0980828377074153
 31
0.0
  0
LINE
  5
2F3
330
1F
100
AcDbEntity
  8
0
100
AcDbLine
 10
0.1416538954224001
 20
0.0956101138731987
 30
0.0
 11
0.1420854274626385
 21
0.096860644466296
 31
0.0
  0
LINE
  5
2F4
330
1F
100
AcDbEntity
  8
0
100
AcDbLine
 10
0.1412986573274742
 20
0.0943358103400619
 30
0.0
 11
0.1416538954224001
 21
0.0956101138731987
 31
0.0
  0
LINE
  5
2F5
330
1F
100
AcDbEntity
  8
0
100
AcDbLine
 10
0.1410210077162396
 20
0.0930423825635166
 30
0.0
 11
0.1412986573274742
 21
0.0943358103400619
 31
0.0
  0
LINE
  5
2F6
330
1F
100
AcDbEntity
  8
0
100
AcDbLine
 10
0.1408219580050122
 20
0.091734550486371
 30
0.0
 11
0.1410210077162396
 21
0.0930423825635166
 31
0.0
  0
LINE
  5
2F7
330
1F
100
AcDbEntity
  8
0
100
AcDbLine
 10
0.1407022383506905
 20
0.0904170863219128
 30
0.0
 11
0.1408219580050122
 21
0.091734550486371
 31
0.0
  0
LINE
  5
2F8
330
1F
100
AcDbEntity
  8
0
100
AcDbLine
 10
0.1406622827495943
 20
0.0890947972080262
 30
0.0
 11
0.1407022383506905
 21
0.0904170863219128
 31
0.0
  0
LINE
  5
2F9
330
1F
100
AcDbEntity
  8
0
100
AcDbLine
 10
0.1804967356739202
 20
0.0763788627609456
 30
0.0
 11
0.1806619352455466
 21
0.0766017630257937
 31
0.0
  0
LINE
  5
2FA
330
1F
100
AcDbEntity
  8
0
100
AcDbLine
 10
0.1806619352455466
 20
0.0766017630257937
 30
0.0
 11
0.180750728348688
 21
0.0767343422367126
 31
0.0
  0
LINE
  5
2FB
330
1F
100
AcDbEntity
  8
0
100
AcDbLine
 10
0.1817600429610369
 20
0.0783539359113724
 30
0.0
 11
0.1807717401977192
 21
0.076758423856246
 31
0.0
  0
LINE
  5
2FC
330
1F
100
AcDbEntity
  8
0
100
AcDbLine
 10
0.1839126439448006
 20
0.0838320872359996
 30
0.0
 11
0.1839839284495786
 21
0.0841623158549677
 31
0.0
  0
LINE
  5
2FD
330
1F
100
AcDbEntity
  8
0
100
AcDbLine
 10
0.184562282681049
 20
0.0890947972080262
 30
0.0
 11
0.1844751947070967
 21
0.087226157717459
 31
0.0
  0
LINE
  5
2FE
330
1F
100
AcDbEntity
  8
0
100
AcDbLine
 10
0.1614596532842666
 20
0.1110418818153515
 30
0.0
 11
0.1612356688766132
 21
0.1110263405900503
 31
0.0
  0
LINE
  5
2FF
330
1F
100
AcDbEntity
  8
0
100
AcDbLine
 10
0.1599104758794914
 20
0.1109343916765006
 30
0.0
 11
0.1605256726252264
 21
0.110999806059517
 31
0.0
  0
LINE
  5
300
330
1F
100
AcDbEntity
  8
0
100
AcDbLine
 10
0.1645989105004594
 20
0.1110003614021561
 30
0.0
 11
0.1652140897210251
 21
0.1109343916765006
 31
0.0
  0
LINE
  5
301
330
1F
100
AcDbEntity
  8
0
100
AcDbLine
 10
0.1523622824321996
 20
0.0697151683858187
 30
0.0
 11
0.1523622824321996
 21
0.0890947972080262
 31
0.0
  0
LINE
  5
302
330
1F
100
AcDbEntity
  8
0
100
AcDbLine
 10
0.1542448336701404
 20
0.0930039547971041
 30
0.0
 11
0.1551928641717445
 21
0.0935996417543442
 31
0.0
  0
LINE
  5
303
330
1F
100
AcDbEntity
  8
0
100
AcDbLine
 10
0.1524876431073557
 20
0.0902074018382059
 30
0.0
 11
0.1528574387054454
 21
0.0912642158223839
 31
0.0
  0
LINE
  5
304
330
1F
100
AcDbEntity
  8
0
100
AcDbLine
 10
0.1528574387054454
 20
0.0912642158223839
 30
0.0
 11
0.1534531256626855
 21
0.092212246323988
 31
0.0
  0
LINE
  5
305
330
1F
100
AcDbEntity
  8
0
100
AcDbLine
 10
0.1534531256626855
 20
0.092212246323988
 30
0.0
 11
0.1542448336701404
 21
0.0930039547971041
 31
0.0
  0
LINE
  5
306
330
1F
100
AcDbEntity
  8
0
100
AcDbLine
 10
0.1523622824321996
 20
0.0890947972080262
 30
0.0
 11
0.1524876431073557
 21
0.0902074018382059
 31
0.0
  0
LINE
  5
307
330
1F
100
AcDbEntity
  8
0
100
AcDbLine
 10
0.1725622825767409
 20
0.0696112141600401
 30
0.0
 11
0.1740148989926587
 21
0.070428047387913
 31
0.0
  0
LINE
  5
308
330
1F
100
AcDbEntity
  8
0
100
AcDbLine
 10
0.183753436475576
 20
0.0835680403402598
 30
0.0
 11
0.1841462888266455
 21
0.08538795012334
 31
0.0
  0
LINE
  5
309
330
1F
100
AcDbEntity
  8
0
100
AcDbLine
 10
0.1841462888266455
 20
0.08538795012334
 30
0.0
 11
0.1843831409211766
 21
0.0872346514957548
 31
0.0
  0
LINE
  5
30A
330
1F
100
AcDbEntity
  8
0
100
AcDbLine
 10
0.1843831409211766
 20
0.0872346514957548
 30
0.0
 11
0.1844622828509222
 21
0.0890947972080262
 31
0.0
  0
LINE
  5
30B
330
1F
100
AcDbEntity
  8
0
100
AcDbLine
 10
0.1740148989926587
 20
0.070428047387913
 30
0.0
 11
0.1755590308900486
 21
0.0714682676485331
 31
0.0
  0
LINE
  5
30C
330
1F
100
AcDbEntity
  8
0
100
AcDbLine
 10
0.1755590308900486
 20
0.0714682676485331
 30
0.0
 11
0.1770092286612402
 21
0.07263588538678
 31
0.0
  0
LINE
  5
30D
330
1F
100
AcDbEntity
  8
0
100
AcDbLine
 10
0.1770092286612402
 20
0.07263588538678
 30
0.0
 11
0.1783550102706563
 21
0.0739224618888051
 31
0.0
  0
LINE
  5
30E
330
1F
100
AcDbEntity
  8
0
100
AcDbLine
 10
0.1783550102706563
 20
0.0739224618888051
 30
0.0
 11
0.1795866489853274
 21
0.0753186969673784
 31
0.0
  0
LINE
  5
30F
330
1F
100
AcDbEntity
  8
0
100
AcDbLine
 10
0.1795866489853274
 20
0.0753186969673784
 30
0.0
 11
0.1806952432240855
 21
0.0768144988110812
 31
0.0
  0
LINE
  5
310
330
1F
100
AcDbEntity
  8
0
100
AcDbLine
 10
0.1806952432240855
 20
0.0768144988110812
 30
0.0
 11
0.1816727817501436
 21
0.07839905755879
 31
0.0
  0
LINE
  5
311
330
1F
100
AcDbEntity
  8
0
100
AcDbLine
 10
0.1816727817501436
 20
0.07839905755879
 30
0.0
 11
0.1825121958251606
 21
0.0800609198054821
 31
0.0
  0
LINE
  5
312
330
1F
100
AcDbEntity
  8
0
100
AcDbLine
 10
0.1825121958251606
 20
0.0800609198054821
 30
0.0
 11
0.1832074225391757
 21
0.0817880752152355
 31
0.0
  0
LINE
  5
313
330
1F
100
AcDbEntity
  8
0
100
AcDbLine
 10
0.1609849476232688
 20
0.1110947971605287
 30
0.0
 11
0.1611872828077089
 21
0.1110947971605287
 31
0.0
  0
LINE
  5
314
330
1F
100
AcDbEntity
  8
0
100
AcDbLine
 10
0.1614000825654279
 20
0.1110947971605287
 30
0.0
 11
0.1616217273846764
 21
0.1110947971605287
 31
0.0
  0
LINE
  5
315
330
1F
100
AcDbEntity
  8
0
100
AcDbLine
 10
0.16003536716807
 20
0.1112598792673611
 30
0.0
 11
0.1602629514388304
 21
0.1114098627726138
 31
0.0
  0
LINE
  5
316
330
1F
100
AcDbEntity
  8
0
100
AcDbLine
 10
0.1602629514388304
 20
0.1114098627726138
 30
0.0
 11
0.1604935147776763
 21
0.1115440114657917
 31
0.0
  0
LINE
  5
317
330
1F
100
AcDbEntity
  8
0
100
AcDbLine
 10
0.1604935147776763
 20
0.1115440114657917
 30
0.0
 11
0.160727295253941
 21
0.111662850903865
 31
0.0
  0
LINE
  5
318
330
1F
100
AcDbEntity
  8
0
100
AcDbLine
 10
0.160727295253941
 20
0.111662850903865
 30
0.0
 11
0.1609645801806386
 21
0.1117668257933632
 31
0.0
  0
LINE
  5
319
330
1F
100
AcDbEntity
  8
0
100
AcDbLine
 10
0.1609645801806386
 20
0.1117668257933632
 30
0.0
 11
0.161205695404255
 21
0.1118562913174332
 31
0.0
  0
LINE
  5
31A
330
1F
100
AcDbEntity
  8
0
100
AcDbLine
 10
0.161205695404255
 20
0.1118562913174332
 30
0.0
 11
0.1614510032092716
 21
0.1119315109239482
 31
0.0
  0
LINE
  5
31B
330
1F
100
AcDbEntity
  8
0
100
AcDbLine
 10
0.1614510032092716
 20
0.1119315109239482
 30
0.0
 11
0.1617008981854219
 21
0.1119926546884175
 31
0.0
  0
LINE
  5
31C
330
1F
100
AcDbEntity
  8
0
100
AcDbLine
 10
0.1617008981854219
 20
0.1119926546884175
 30
0.0
 11
0.1619558047829691
 21
0.1120397984590613
 31
0.0
  0
LINE
  5
31D
330
1F
100
AcDbEntity
  8
0
100
AcDbLine
 10
0.1625622828002583
 20
0.1120397984590613
 30
0.0
 11
0.1625622828002583
 21
0.1120729238386206
 31
0.0
  0
LINE
  5
31E
330
1F
100
AcDbEntity
  8
0
100
AcDbLine
 10
0.1625622828002583
 20
0.1120729238386206
 30
0.0
 11
0.1625094247580768
 21
0.1120397984590613
 31
0.0
  0
LINE
  5
31F
330
1F
100
AcDbEntity
  8
0
100
AcDbLine
 10
0.1625094247580768
 20
0.1120397984590613
 30
0.0
 11
0.1625321173239121
 21
0.1120729238386206
 31
0.0
  0
LINE
  5
320
330
1F
100
AcDbEntity
  8
0
100
AcDbLine
 10
0.1624053147394938
 20
0.1120397984590613
 30
0.0
 11
0.1624727029345144
 21
0.1120729238386206
 31
0.0
  0
LINE
  5
321
330
1F
100
AcDbEntity
  8
0
100
AcDbLine
 10
0.1624298845136547
 20
0.1120608881787983
 30
0.0
 11
0.1624727029345144
 21
0.1120729238386206
 31
0.0
  0
LINE
  5
322
330
1F
100
AcDbEntity
  8
0
100
AcDbLine
 10
0.1624053147394938
 20
0.1120397984590613
 30
0.0
 11
0.1624298845136547
 21
0.1120608881787983
 31
0.0
  0
LINE
  5
323
330
1F
100
AcDbEntity
  8
0
100
AcDbLine
 10
0.1623257141979002
 20
0.112060888176688
 30
0.0
 11
0.1623892277863837
 21
0.1120729238386206
 31
0.0
  0
LINE
  5
324
330
1F
100
AcDbEntity
  8
0
100
AcDbLine
 10
0.1624569689963159
 20
0.1120397984590613
 30
0.0
 11
0.1624727029345144
 21
0.1120729238386206
 31
0.0
  0
LINE
  5
325
330
1F
100
AcDbEntity
  8
0
100
AcDbLine
 10
0.1624569689963159
 20
0.1120397984590613
 30
0.0
 11
0.1625021814258566
 21
0.1120729238386206
 31
0.0
  0
LINE
  5
326
330
1F
100
AcDbEntity
  8
0
100
AcDbLine
 10
0.1625094247580768
 20
0.1120397984590613
 30
0.0
 11
0.1625021814258566
 21
0.1120729238386206
 31
0.0
  0
LINE
  5
327
330
1F
100
AcDbEntity
  8
0
100
AcDbLine
 10
0.1605226749531488
 20
0.1110947971605287
 30
0.0
 11
0.1605256726252264
 21
0.110999806059517
 31
0.0
  0
LINE
  5
328
330
1F
100
AcDbEntity
  8
0
100
AcDbLine
 10
0.1645989105004594
 20
0.1110003614021561
 30
0.0
 11
0.1646018906473677
 21
0.1110947971605287
 31
0.0
  0
LINE
  5
329
330
1F
100
AcDbEntity
  8
0
100
AcDbLine
 10
0.1653018182120781
 20
0.1110947971605287
 30
0.0
 11
0.1650795827596925
 21
0.1112598792673624
 31
0.0
  0
LINE
  5
32A
330
1F
100
AcDbEntity
  8
0
100
AcDbLine
 10
0.1648616141616862
 20
0.1114098627726138
 30
0.0
 11
0.1646310508228402
 21
0.1115440114657917
 31
0.0
  0
LINE
  5
32B
330
1F
100
AcDbEntity
  8
0
100
AcDbLine
 10
0.1646310508228402
 20
0.1115440114657917
 30
0.0
 11
0.1643972703465756
 21
0.111662850903865
 31
0.0
  0
LINE
  5
32C
330
1F
100
AcDbEntity
  8
0
100
AcDbLine
 10
0.1643972703465756
 20
0.111662850903865
 30
0.0
 11
0.1641599854198779
 21
0.1117668257933632
 31
0.0
  0
LINE
  5
32D
330
1F
100
AcDbEntity
  8
0
100
AcDbLine
 10
0.1641599854198779
 20
0.1117668257933632
 30
0.0
 11
0.1639188701962616
 21
0.1118562913174332
 31
0.0
  0
LINE
  5
32E
330
1F
100
AcDbEntity
  8
0
100
AcDbLine
 10
0.1639188701962616
 20
0.1118562913174332
 30
0.0
 11
0.1636735623912449
 21
0.1119315109239482
 31
0.0
  0
LINE
  5
32F
330
1F
100
AcDbEntity
  8
0
100
AcDbLine
 10
0.1636735623912449
 20
0.1119315109239482
 30
0.0
 11
0.1634236674150947
 21
0.1119926546884175
 31
0.0
  0
LINE
  5
330
330
1F
100
AcDbEntity
  8
0
100
AcDbLine
 10
0.1634236674150947
 20
0.1119926546884175
 30
0.0
 11
0.1631687608175475
 21
0.1120397984590613
 31
0.0
  0
LINE
  5
331
330
1F
100
AcDbEntity
  8
0
100
AcDbLine
 10
0.1625622828002583
 20
0.1120729238386206
 30
0.0
 11
0.1626151408424398
 21
0.1120397984590613
 31
0.0
  0
LINE
  5
332
330
1F
100
AcDbEntity
  8
0
100
AcDbLine
 10
0.1625924482766044
 20
0.1120729238386206
 30
0.0
 11
0.1625622828002583
 21
0.1120397984590613
 31
0.0
  0
LINE
  5
333
330
1F
100
AcDbEntity
  8
0
100
AcDbLine
 10
0.1626675966042007
 20
0.1120397984590613
 30
0.0
 11
0.16262238417466
 21
0.1120729238386206
 31
0.0
  0
LINE
  5
334
330
1F
100
AcDbEntity
  8
0
100
AcDbLine
 10
0.1627192508610228
 20
0.1120397984590613
 30
0.0
 11
0.1626518626660022
 21
0.1120729238386206
 31
0.0
  0
LINE
  5
335
330
1F
100
AcDbEntity
  8
0
100
AcDbLine
 10
0.1628759650199703
 20
0.1120729238386206
 30
0.0
 11
0.1628070195590175
 21
0.1120729238386206
 31
0.0
  0
LINE
  5
336
330
1F
100
AcDbEntity
  8
0
100
AcDbLine
 10
0.1627608033601922
 20
0.1120729238386206
 30
0.0
 11
0.1627353378141328
 21
0.1120729238386206
 31
0.0
  0
LINE
  5
337
330
1F
100
AcDbEntity
  8
0
100
AcDbLine
 10
0.1627192508610228
 20
0.1120397984590613
 30
0.0
 11
0.1626806594001159
 21
0.1120729238386206
 31
0.0
  0
LINE
  5
338
330
1F
100
AcDbEntity
  8
0
100
AcDbLine
 10
0.1615003786604635
 20
0.1130712933993271
 30
0.0
 11
0.1587240576878028
 21
0.1127858935513426
 31
0.0
  0
LINE
  5
339
330
1F
100
AcDbEntity
  8
0
100
AcDbLine
 10
0.1587240576878028
 20
0.1127858935513426
 30
0.0
 11
0.1559996421291683
 21
0.1121801122794663
 31
0.0
  0
LINE
  5
33A
330
1F
100
AcDbEntity
  8
0
100
AcDbLine
 10
0.1559996421291683
 20
0.1121801122794663
 30
0.0
 11
0.1533639747329744
 21
0.1112621405354577
 31
0.0
  0
LINE
  5
33B
330
1F
100
AcDbEntity
  8
0
100
AcDbLine
 10
0.1533639747329744
 20
0.1112621405354577
 30
0.0
 11
0.1508526986803105
 21
0.1100443951041338
 31
0.0
  0
LINE
  5
33C
330
1F
100
AcDbEntity
  8
0
100
AcDbLine
 10
0.1508526986803105
 20
0.1100443951041338
 30
0.0
 11
0.1484997746466393
 21
0.1085433405987597
 31
0.0
  0
LINE
  5
33D
330
1F
100
AcDbEntity
  8
0
100
AcDbLine
 10
0.1484997746466393
 20
0.1085433405987597
 30
0.0
 11
0.1463370221420173
 21
0.1067792789712403
 31
0.0
  0
LINE
  5
33E
330
1F
100
AcDbEntity
  8
0
100
AcDbLine
 10
0.1463370221420173
 20
0.1067792789712403
 30
0.0
 11
0.1443936888037763
 21
0.1047760656814659
 31
0.0
  0
LINE
  5
33F
330
1F
100
AcDbEntity
  8
0
100
AcDbLine
 10
0.1443936888037763
 20
0.1047760656814659
 30
0.0
 11
0.1426960534366605
 21
0.1025607900718895
 31
0.0
  0
LINE
  5
340
330
1F
100
AcDbEntity
  8
0
100
AcDbLine
 10
0.1426960534366605
 20
0.1025607900718895
 30
0.0
 11
0.1412670767858565
 21
0.1001634093799164
 31
0.0
  0
LINE
  5
341
330
1F
100
AcDbEntity
  8
0
100
AcDbLine
 10
0.1412670767858565
 20
0.1001634093799164
 30
0.0
 11
0.1401260800922252
 21
0.0976163448268573
 31
0.0
  0
LINE
  5
342
330
1F
100
AcDbEntity
  8
0
100
AcDbLine
 10
0.1401260800922252
 20
0.0976163448268573
 30
0.0
 11
0.1392884933394136
 21
0.0949540407073627
 31
0.0
  0
LINE
  5
343
330
1F
100
AcDbEntity
  8
0
100
AcDbLine
 10
0.1392884933394136
 20
0.0949540407073627
 30
0.0
 11
0.1387656464614325
 21
0.0922125006773082
 31
0.0
  0
LINE
  5
344
330
1F
100
AcDbEntity
  8
0
100
AcDbLine
 10
0.1387656464614325
 20
0.0922125006773082
 30
0.0
 11
0.1385646064101012
 21
0.0894287989214246
 31
0.0
  0
LINE
  5
345
330
1F
100
AcDbEntity
  8
0
100
AcDbLine
 10
0.1385646064101012
 20
0.0894287989214246
 30
0.0
 11
0.138688094881659
 21
0.0866405803270918
 31
0.0
  0
LINE
  5
346
330
1F
100
AcDbEntity
  8
0
100
AcDbLine
 10
0.138688094881659
 20
0.0866405803270918
 30
0.0
 11
0.1391344418986142
 21
0.0838855509427832
 31
0.0
  0
LINE
  5
347
330
1F
100
AcDbEntity
  8
0
100
AcDbLine
 10
0.1391344418986142
 20
0.0838855509427832
 30
0.0
 11
0.1398976084119501
 21
0.081200967647907
 31
0.0
  0
LINE
  5
348
330
1F
100
AcDbEntity
  8
0
100
AcDbLine
 10
0.1398976084119501
 20
0.081200967647907
 30
0.0
 11
0.1409672775837283
 21
0.0786231347099316
 31
0.0
  0
LINE
  5
349
330
1F
100
AcDbEntity
  8
0
100
AcDbLine
 10
0.1409672775837283
 20
0.0786231347099316
 30
0.0
 11
0.1423289809256513
 21
0.0761869131886155
 31
0.0
  0
LINE
  5
34A
330
1F
100
AcDbEntity
  8
0
100
AcDbLine
 10
0.1423289809256513
 20
0.0761869131886155
 30
0.0
 11
0.1439643038090649
 21
0.0739252484217299
 31
0.0
  0
LINE
  5
34B
330
1F
100
AcDbEntity
  8
0
100
AcDbLine
 10
0.1439643038090649
 20
0.0739252484217299
 30
0.0
 11
0.1450624748113658
 21
0.0727283139358664
 31
0.0
  0
LINE
  5
34C
330
1F
100
AcDbEntity
  8
0
100
AcDbLine
 10
0.1807308767967402
 20
0.0734135287345864
 30
0.0
 11
0.180062090524604
 21
0.0727241351436883
 31
0.0
  0
LINE
  5
34D
330
1F
100
AcDbEntity
  8
0
100
AcDbLine
 10
0.182428512163856
 20
0.0756288043441628
 30
0.0
 11
0.1807308767967402
 21
0.0734135287345864
 31
0.0
  0
LINE
  5
34E
330
1F
100
AcDbEntity
  8
0
100
AcDbLine
 10
0.18385748881466
 20
0.0780261850361359
 30
0.0
 11
0.182428512163856
 21
0.0756288043441628
 31
0.0
  0
LINE
  5
34F
330
1F
100
AcDbEntity
  8
0
100
AcDbLine
 10
0.1849984855082913
 20
0.080573249589195
 30
0.0
 11
0.18385748881466
 21
0.0780261850361359
 31
0.0
  0
LINE
  5
350
330
1F
100
AcDbEntity
  8
0
100
AcDbLine
 10
0.1858360722611029
 20
0.0832355537086896
 30
0.0
 11
0.1849984855082913
 21
0.080573249589195
 31
0.0
  0
LINE
  5
351
330
1F
100
AcDbEntity
  8
0
100
AcDbLine
 10
0.186358919139084
 20
0.0859770937387441
 30
0.0
 11
0.1858360722611029
 21
0.0832355537086896
 31
0.0
  0
LINE
  5
352
330
1F
100
AcDbEntity
  8
0
100
AcDbLine
 10
0.1865599591904153
 20
0.0887607954946277
 30
0.0
 11
0.186358919139084
 21
0.0859770937387441
 31
0.0
  0
LINE
  5
353
330
1F
100
AcDbEntity
  8
0
100
AcDbLine
 10
0.1864364707188575
 20
0.0915490140889605
 30
0.0
 11
0.1865599591904153
 21
0.0887607954946277
 31
0.0
  0
LINE
  5
354
330
1F
100
AcDbEntity
  8
0
100
AcDbLine
 10
0.1859901237019023
 20
0.0943040434732691
 30
0.0
 11
0.1864364707188575
 21
0.0915490140889605
 31
0.0
  0
LINE
  5
355
330
1F
100
AcDbEntity
  8
0
100
AcDbLine
 10
0.1852269571885664
 20
0.0969886267681453
 30
0.0
 11
0.1859901237019023
 21
0.0943040434732691
 31
0.0
  0
LINE
  5
356
330
1F
100
AcDbEntity
  8
0
100
AcDbLine
 10
0.1841572880167882
 20
0.0995664597061207
 30
0.0
 11
0.1852269571885664
 21
0.0969886267681453
 31
0.0
  0
LINE
  5
357
330
1F
100
AcDbEntity
  8
0
100
AcDbLine
 10
0.1827955846748653
 20
0.1020026812274368
 30
0.0
 11
0.1841572880167882
 21
0.0995664597061207
 31
0.0
  0
LINE
  5
358
330
1F
100
AcDbEntity
  8
0
100
AcDbLine
 10
0.1811602617914516
 20
0.1042643459943224
 30
0.0
 11
0.1827955846748653
 21
0.1020026812274368
 31
0.0
  0
LINE
  5
359
330
1F
100
AcDbEntity
  8
0
100
AcDbLine
 10
0.179273431166015
 20
0.1063208678291156
 30
0.0
 11
0.1811602617914516
 21
0.1042643459943224
 31
0.0
  0
LINE
  5
35A
330
1F
100
AcDbEntity
  8
0
100
AcDbLine
 10
0.1771606120228144
 20
0.1081444366421777
 30
0.0
 11
0.179273431166015
 21
0.1063208678291156
 31
0.0
  0
LINE
  5
35B
330
1F
100
AcDbEntity
  8
0
100
AcDbLine
 10
0.1748503751168258
 20
0.1097103923440235
 30
0.0
 11
0.1771606120228144
 21
0.1081444366421777
 31
0.0
  0
LINE
  5
35C
330
1F
100
AcDbEntity
  8
0
100
AcDbLine
 10
0.1723739625188804
 20
0.1109975585264058
 30
0.0
 11
0.1748503751168258
 21
0.1097103923440235
 31
0.0
  0
LINE
  5
35D
330
1F
100
AcDbEntity
  8
0
100
AcDbLine
 10
0.1697648639534682
 20
0.1119885257428958
 30
0.0
 11
0.1723739625188804
 21
0.1109975585264058
 31
0.0
  0
LINE
  5
35E
330
1F
100
AcDbEntity
  8
0
100
AcDbLine
 10
0.1670583626856719
 20
0.1126698961513919
 30
0.0
 11
0.1697648639534682
 21
0.1119885257428958
 31
0.0
  0
LINE
  5
35F
330
1F
100
AcDbEntity
  8
0
100
AcDbLine
 10
0.1642910600488062
 20
0.113032452631795
 30
0.0
 11
0.1670583626856719
 21
0.1126698961513919
 31
0.0
  0
LINE
  5
360
330
1F
100
AcDbEntity
  8
0
100
AcDbLine
 10
0.1615003786604635
 20
0.1130712933993271
 30
0.0
 11
0.1642910600488062
 21
0.113032452631795
 31
0.0
  0
LINE
  5
361
330
1F
100
AcDbEntity
  8
0
100
AcDbLine
 10
0.1469598738919508
 20
0.0735846442957255
 30
0.0
 11
0.1469278607927206
 21
0.0736213856606257
 31
0.0
  0
LINE
  5
362
330
1F
100
AcDbEntity
  8
0
100
AcDbLine
 10
0.1451179839669445
 20
0.0756985773877434
 30
0.0
 11
0.1450622827257525
 21
0.0757625055820528
 31
0.0
  0
LINE
  5
363
330
1F
100
AcDbEntity
  8
0
100
AcDbLine
 10
0.149126444056214
 20
0.0716741703771833
 30
0.0
 11
0.1490889045484365
 21
0.0717072725825522
 31
0.0
  0
LINE
  5
364
330
1F
100
AcDbEntity
  8
0
100
AcDbLine
 10
0.1450622827257526
 20
-0.0643471675603804
 30
0.0
 11
0.1450622827257526
 21
-0.0817374932258543
 31
0.0
  0
LINE
  5
365
330
1F
100
AcDbEntity
  8
0
100
AcDbLine
 10
0.1800622828747641
 20
0.0757625055820528
 30
0.0
 11
0.1799289866651019
 21
0.0756095218098849
 31
0.0
  0
LINE
  5
366
330
1F
100
AcDbEntity
  8
0
100
AcDbLine
 10
0.1450722832675588
 20
-0.0822064327686247
 30
0.0
 11
0.1452736445214164
 21
-0.0838834839551863
 31
0.0
  0
LINE
  5
367
330
1F
100
AcDbEntity
  8
0
100
AcDbLine
 10
0.1798509210791004
 20
-0.0838834839551863
 30
0.0
 11
0.180052282332958
 21
-0.0822064327686247
 31
0.0
  0
LINE
  5
368
330
1F
100
AcDbEntity
  8
0
100
AcDbLine
 10
0.1560622826661479
 20
-0.0927375006168303
 30
0.0
 11
0.1690622829343688
 21
-0.0927375006168303
 31
0.0
  0
LINE
  5
369
330
1F
100
AcDbEntity
  8
0
100
AcDbLine
 10
0.1732718004356635
 20
-0.0919001745670256
 30
0.0
 11
0.1768404571782363
 21
-0.0895156758516249
 31
0.0
  0
LINE
  5
36A
330
1F
100
AcDbEntity
  8
0
100
AcDbLine
 10
0.1768404571782363
 20
-0.0895156758516249
 30
0.0
 11
0.1782084480370891
 21
-0.0878487723558363
 31
0.0
  0
LINE
  5
36B
330
1F
100
AcDbEntity
  8
0
100
AcDbLine
 10
0.1732718004356635
 20
-0.0919001745670256
 30
0.0
 11
0.1751735555450928
 21
-0.0908836620538648
 31
0.0
  0
LINE
  5
36C
330
1F
100
AcDbEntity
  8
0
100
AcDbLine
 10
0.1751735555450928
 20
-0.0908836620538648
 30
0.0
 11
0.1768404571782363
 21
-0.0895156758516249
 31
0.0
  0
LINE
  5
36D
330
1F
100
AcDbEntity
  8
0
100
AcDbLine
 10
0.1690622829343688
 20
-0.0927375006168303
 30
0.0
 11
0.1712082764576686
 21
-0.0925261276452955
 31
0.0
  0
LINE
  5
36E
330
1F
100
AcDbEntity
  8
0
100
AcDbLine
 10
0.1712082764576686
 20
-0.0925261276452955
 30
0.0
 11
0.1732718004356635
 21
-0.0919001745670256
 31
0.0
  0
LINE
  5
36F
330
1F
100
AcDbEntity
  8
0
100
AcDbLine
 10
0.1792249568249595
 20
-0.0859470116584715
 30
0.0
 11
0.1798509210791004
 21
-0.0838834839551863
 31
0.0
  0
LINE
  5
370
330
1F
100
AcDbEntity
  8
0
100
AcDbLine
 10
0.1782084480370891
 20
-0.0878487723558363
 30
0.0
 11
0.1792249568249595
 21
-0.0859470116584715
 31
0.0
  0
LINE
  5
371
330
1F
100
AcDbEntity
  8
0
100
AcDbLine
 10
0.1452736445214164
 20
-0.0838834839551863
 30
0.0
 11
0.1458996087755573
 21
-0.0859470116584715
 31
0.0
  0
LINE
  5
372
330
1F
100
AcDbEntity
  8
0
100
AcDbLine
 10
0.1518527651648533
 20
-0.0919001745670256
 30
0.0
 11
0.1539162891428483
 21
-0.0925261276452955
 31
0.0
  0
LINE
  5
373
330
1F
100
AcDbEntity
  8
0
100
AcDbLine
 10
0.1539162891428483
 20
-0.0925261276452955
 30
0.0
 11
0.1560622826661479
 21
-0.0927375006168303
 31
0.0
  0
LINE
  5
374
330
1F
100
AcDbEntity
  8
0
100
AcDbLine
 10
0.1458996087755573
 20
-0.0859470116584715
 30
0.0
 11
0.1469161175634277
 21
-0.0878487723558363
 31
0.0
  0
LINE
  5
375
330
1F
100
AcDbEntity
  8
0
100
AcDbLine
 10
0.1469161175634277
 20
-0.0878487723558363
 30
0.0
 11
0.1482841084222805
 21
-0.0895156758516249
 31
0.0
  0
LINE
  5
376
330
1F
100
AcDbEntity
  8
0
100
AcDbLine
 10
0.1482841084222805
 20
-0.0895156758516249
 30
0.0
 11
0.1518527651648533
 21
-0.0919001745670256
 31
0.0
  0
LINE
  5
377
330
1F
100
AcDbEntity
  8
0
100
AcDbLine
 10
0.1482841084222805
 20
-0.0895156758516249
 30
0.0
 11
0.149951010055424
 21
-0.0908836620538649
 31
0.0
  0
LINE
  5
378
330
1F
100
AcDbEntity
  8
0
100
AcDbLine
 10
0.149951010055424
 20
-0.0908836620538649
 30
0.0
 11
0.1518527651648533
 21
-0.0919001745670256
 31
0.0
  0
LINE
  5
379
330
1F
100
AcDbEntity
  8
0
100
AcDbLine
 10
0.1450686231698406
 20
-0.0820542025058684
 30
0.0
 11
0.1450722832675588
 21
-0.0822064327686247
 31
0.0
  0
LINE
  5
37A
330
1F
100
AcDbEntity
  8
0
100
AcDbLine
 10
0.1450859648130715
 20
-0.0819779413147727
 30
0.0
 11
0.1450903047579339
 21
-0.0820220054816728
 31
0.0
  0
LINE
  5
37B
330
1F
100
AcDbEntity
  8
0
100
AcDbLine
 10
0.1540698882918032
 20
0.0931577313500365
 30
0.0
 11
0.154115721926728
 21
0.0932124676496264
 31
0.0
  0
LINE
  5
37C
330
1F
100
AcDbEntity
  8
0
100
AcDbLine
 10
-0.0564473149735379
 20
0.1050683866929105
 30
0.0
 11
-0.0563599227863364
 21
0.105796018135186
 31
0.0
  0
LINE
  5
37D
330
1F
100
AcDbEntity
  8
0
100
AcDbLine
 10
0.1740632132138621
 20
0.070342810883239
 30
0.0
 11
0.174737522647542
 21
0.0707943851301843
 31
0.0
  0
LINE
  5
37E
330
1F
100
AcDbEntity
  8
0
100
AcDbLine
 10
0.17707519676416
 20
0.0725664515635521
 30
0.0
 11
0.1771184048488112
 21
0.0726020390181337
 31
0.0
  0
LINE
  5
37F
330
1F
100
AcDbEntity
  8
0
100
AcDbLine
 10
0.1784216333623539
 20
0.0738531814261036
 30
0.0
 11
0.1788051638772435
 21
0.0742817435578194
 31
0.0
  0
LINE
  5
380
330
1F
100
AcDbEntity
  8
0
100
AcDbLine
 10
0.1792395278081375
 20
0.074774155222566
 30
0.0
 11
0.1796584688569914
 21
0.0752557917153985
 31
0.0
  0
LINE
  5
381
330
1F
100
AcDbEntity
  8
0
100
AcDbLine
 10
0.180750728348688
 20
0.0767343422367126
 30
0.0
 11
0.1807717401977192
 21
0.076758423856246
 31
0.0
  0
LINE
  5
382
330
1F
100
AcDbEntity
  8
0
100
AcDbLine
 10
0.1817600429610369
 20
0.0783539359113724
 30
0.0
 11
0.1819250783397547
 21
0.0786769529471791
 31
0.0
  0
LINE
  5
383
330
1F
100
AcDbEntity
  8
0
100
AcDbLine
 10
0.1838501990402052
 20
0.0835447246796043
 30
0.0
 11
0.1838651998295754
 21
0.0836367952789549
 31
0.0
  0
LINE
  5
384
330
1F
100
AcDbEntity
  8
0
100
AcDbLine
 10
0.1831895431858204
 20
0.0814760954911047
 30
0.0
 11
0.1832945179637085
 21
0.0817547110496612
 31
0.0
  0
LINE
  5
385
330
1F
100
AcDbEntity
  8
0
100
AcDbLine
 10
0.1839839284495786
 20
0.0841623158549677
 30
0.0
 11
0.1842373423721205
 21
0.0853710236969168
 31
0.0
  0
LINE
  5
386
330
1F
100
AcDbEntity
  8
0
100
AcDbLine
 10
0.1844193224971228
 20
0.0867313931329695
 30
0.0
 11
0.1844751947070967
 21
0.087226157717459
 31
0.0
  0
LINE
  5
387
330
1F
100
AcDbEntity
  8
0
100
AcDbLine
 10
0.1636854321812999
 20
0.111065656789882
 30
0.0
 11
0.1637244830350887
 21
0.1110947971605287
 31
0.0
  0
LINE
  5
388
330
1F
100
AcDbEntity
  8
0
100
AcDbLine
 10
0.1637244830350887
 20
0.1110947971605287
 30
0.0
 11
0.1638437299999135
 21
0.1110564911843857
 31
0.0
  0
LINE
  5
389
330
1F
100
AcDbEntity
  8
0
100
AcDbLine
 10
0.1633783536264426
 20
0.1110787546780718
 30
0.0
 11
0.1635028382158402
 21
0.1110947971605287
 31
0.0
  0
LINE
  5
38A
330
1F
100
AcDbEntity
  8
0
100
AcDbLine
 10
0.1635028382158402
 20
0.1110947971605287
 30
0.0
 11
0.1636251520205567
 21
0.1110681870453147
 31
0.0
  0
LINE
  5
38B
330
1F
100
AcDbEntity
  8
0
100
AcDbLine
 10
0.0615016146276863
 20
0.07203569809759
 30
0.0
 11
0.0616307719997795
 21
0.0720318004558436
 31
0.0
  0
LINE
  5
38C
330
1F
100
AcDbEntity
  8
0
100
AcDbLine
 10
0.0634937936007372
 20
0.0720318004558436
 30
0.0
 11
0.0636532258300161
 21
0.0720366905319984
 31
0.0
  0
LINE
  5
38D
330
1F
100
AcDbEntity
  8
0
100
AcDbLine
 10
0.0672411991222016
 20
0.0715097922540234
 30
0.0
 11
0.0638622828037974
 21
0.0701228968124449
 31
0.0
  0
LINE
  5
38E
330
1F
100
AcDbEntity
  8
0
100
AcDbLine
 10
0.057406834056466
 20
0.0717112631589442
 30
0.0
 11
0.0549177002604615
 21
0.0727270668388901
 31
0.0
  0
LINE
  5
38F
330
1F
100
AcDbEntity
  8
0
100
AcDbLine
 10
0.0704729292984616
 20
0.0727260500934784
 30
0.0
 11
0.0703390635902215
 21
0.0728076757407881
 31
0.0
  0
LINE
  5
390
330
1F
100
AcDbEntity
  8
0
100
AcDbLine
 10
0.0703390635902215
 20
0.0728076757407881
 30
0.0
 11
0.0702068653400552
 21
0.0728882846426862
 31
0.0
  0
LINE
  5
391
330
1F
100
AcDbEntity
  8
0
100
AcDbLine
 10
0.0549177002604615
 20
0.0728882846426862
 30
0.0
 11
0.0547855020102952
 21
0.0728076757407881
 31
0.0
  0
LINE
  5
392
330
1F
100
AcDbEntity
  8
0
100
AcDbLine
 10
0.0547855020102952
 20
0.0728076757407881
 30
0.0
 11
0.0546516363020551
 21
0.0727260500934784
 31
0.0
  0
LINE
  5
393
330
1F
100
AcDbEntity
  8
0
100
AcDbLine
 10
0.07137938742298
 20
0.072391447139049
 30
0.0
 11
0.0712011680892555
 21
0.0722720866046293
 31
0.0
  0
LINE
  5
394
330
1F
100
AcDbEntity
  8
0
100
AcDbLine
 10
0.0712011680892555
 20
0.0722720866046293
 30
0.0
 11
0.0711322470079672
 21
0.072225927431416
 31
0.0
  0
LINE
  5
395
330
1F
100
AcDbEntity
  8
0
100
AcDbLine
 10
0.0539923185925495
 20
0.072225927431416
 30
0.0
 11
0.0539225476792468
 21
0.0722726557707309
 31
0.0
  0
LINE
  5
396
330
1F
100
AcDbEntity
  8
0
100
AcDbLine
 10
0.0539225476792468
 20
0.0722726557707309
 30
0.0
 11
0.0537451781775367
 21
0.072391447139049
 31
0.0
  0
LINE
  5
397
330
1F
100
AcDbEntity
  8
0
100
AcDbLine
 10
0.0537451781775367
 20
0.072391447139049
 30
0.0
 11
0.0537301440086581
 21
0.0724220362126147
 31
0.0
  0
LINE
  5
398
330
1F
100
AcDbEntity
  8
0
100
AcDbLine
 10
0.0536622830178153
 20
0.0725601086832578
 30
0.0
 11
0.0536622830178153
 21
0.0727088568851455
 31
0.0
  0
LINE
  5
399
330
1F
100
AcDbEntity
  8
0
100
AcDbLine
 10
0.0714926399733436
 20
0.072781784447139
 30
0.0
 11
0.0714622825827014
 21
0.0725601086832578
 31
0.0
  0
LINE
  5
39A
330
1F
100
AcDbEntity
  8
0
100
AcDbLine
 10
0.0714622825827014
 20
0.0725601086832578
 30
0.0
 11
0.0713944215918586
 21
0.0724220362126147
 31
0.0
  0
LINE
  5
39B
330
1F
100
AcDbEntity
  8
0
100
AcDbLine
 10
0.0713944215918586
 20
0.0724220362126147
 30
0.0
 11
0.07137938742298
 21
0.072391447139049
 31
0.0
  0
LINE
  5
39C
330
1F
100
AcDbEntity
  8
0
100
AcDbLine
 10
0.0678732317229992
 20
0.0715683866929105
 30
0.0
 11
0.0676947377133679
 21
0.0715481765851223
 31
0.0
  0
LINE
  5
39D
330
1F
100
AcDbEntity
  8
0
100
AcDbLine
 10
0.0745110927592527
 20
0.0733962815705528
 30
0.0
 11
0.0744747888739717
 21
0.0733490713472309
 31
0.0
  0
LINE
  5
39E
330
1F
100
AcDbEntity
  8
0
100
AcDbLine
 10
0.0741041904758226
 20
0.0730933386351755
 30
0.0
 11
0.0740363482828748
 21
0.0730715436054249
 31
0.0
  0
LINE
  5
39F
330
1F
100
AcDbEntity
  8
0
100
AcDbLine
 10
0.0740363482828748
 20
0.0730715436054249
 30
0.0
 11
0.0740068534123934
 21
0.0730583705191206
 31
0.0
  0
LINE
  5
3A0
330
1F
100
AcDbEntity
  8
0
100
AcDbLine
 10
0.0740068534123934
 20
0.0730583705191206
 30
0.0
 11
0.0737824781309378
 21
0.0729581593671832
 31
0.0
  0
LINE
  5
3A1
330
1F
100
AcDbEntity
  8
0
100
AcDbLine
 10
0.0513420874695789
 20
0.0729581593671832
 30
0.0
 11
0.0511177121881233
 21
0.0730583705191206
 31
0.0
  0
LINE
  5
3A2
330
1F
100
AcDbEntity
  8
0
100
AcDbLine
 10
0.0511177121881233
 20
0.0730583705191206
 30
0.0
 11
0.0510882173176419
 21
0.0730715436054249
 31
0.0
  0
LINE
  5
3A3
330
1F
100
AcDbEntity
  8
0
100
AcDbLine
 10
0.0510882173176419
 20
0.0730715436054249
 30
0.0
 11
0.0510203751246941
 21
0.0730933386351755
 31
0.0
  0
LINE
  5
3A4
330
1F
100
AcDbEntity
  8
0
100
AcDbLine
 10
0.0506497767265451
 20
0.0733490713472309
 30
0.0
 11
0.050613472841264
 21
0.0733962815705528
 31
0.0
  0
LINE
  5
3A5
330
1F
100
AcDbEntity
  8
0
100
AcDbLine
 10
0.0724647563393724
 20
0.0730644451072178
 30
0.0
 11
0.0724780503507267
 21
0.0732470095646392
 31
0.0
  0
LINE
  5
3A6
330
1F
100
AcDbEntity
  8
0
100
AcDbLine
 10
0.0724780503507267
 20
0.0732470095646392
 30
0.0
 11
0.0724647563393724
 21
0.0733694518729638
 31
0.0
  0
LINE
  5
3A7
330
1F
100
AcDbEntity
  8
0
100
AcDbLine
 10
0.0699869041773986
 20
0.0745836845434338
 30
0.0
 11
0.0697747721779656
 21
0.0746110377430452
 31
0.0
  0
LINE
  5
3A8
330
1F
100
AcDbEntity
  8
0
100
AcDbLine
 10
0.0697747721779656
 20
0.0746110377430452
 30
0.0
 11
0.0693996373075556
 21
0.0746594092240993
 31
0.0
  0
LINE
  5
3A9
330
1F
100
AcDbEntity
  8
0
100
AcDbLine
 10
0.0714926399733436
 20
0.0743189693796192
 30
0.0
 11
0.0713668266754162
 21
0.0743441529446788
 31
0.0
  0
LINE
  5
3AA
330
1F
100
AcDbEntity
  8
0
100
AcDbLine
 10
0.0713668266754162
 20
0.0743441529446788
 30
0.0
 11
0.0712466450850975
 21
0.074368209232437
 31
0.0
  0
LINE
  5
3AB
330
1F
100
AcDbEntity
  8
0
100
AcDbLine
 10
0.0680848473194551
 20
0.0747932424734296
 30
0.0
 11
0.0678687967802894
 21
0.0748096739240137
 31
0.0
  0
LINE
  5
3AC
330
1F
100
AcDbEntity
  8
0
100
AcDbLine
 10
0.0649719563290041
 20
0.0749726925755067
 30
0.0
 11
0.0641320330252674
 21
0.0749937033603335
 31
0.0
  0
LINE
  5
3AD
330
1F
100
AcDbEntity
  8
0
100
AcDbLine
 10
0.0641320330252674
 20
0.0749937033603335
 30
0.0
 11
0.0638622828037974
 21
0.0750004511953263
 31
0.0
  0
LINE
  5
3AE
330
1F
100
AcDbEntity
  8
0
100
AcDbLine
 10
0.0557249282929611
 20
0.0746594092240993
 30
0.0
 11
0.0553497934225511
 21
0.0746110377430452
 31
0.0
  0
LINE
  5
3AF
330
1F
100
AcDbEntity
  8
0
100
AcDbLine
 10
0.0553497934225511
 20
0.0746110377430452
 30
0.0
 11
0.0551376614231181
 21
0.0745836845434338
 31
0.0
  0
LINE
  5
3B0
330
1F
100
AcDbEntity
  8
0
100
AcDbLine
 10
0.0612622827967193
 20
0.0750004511953263
 30
0.0
 11
0.0611898492778164
 21
0.0749986392619354
 31
0.0
  0
LINE
  5
3B1
330
1F
100
AcDbEntity
  8
0
100
AcDbLine
 10
0.0611898492778164
 20
0.0749986392619354
 30
0.0
 11
0.0601526092715126
 21
0.0749726925755067
 31
0.0
  0
LINE
  5
3B2
330
1F
100
AcDbEntity
  8
0
100
AcDbLine
 10
0.0572557688202273
 20
0.0748096739240137
 30
0.0
 11
0.0570397182810616
 21
0.0747932424734296
 31
0.0
  0
LINE
  5
3B3
330
1F
100
AcDbEntity
  8
0
100
AcDbLine
 10
0.0538779205154192
 20
0.074368209232437
 30
0.0
 11
0.0537577389251005
 21
0.0743441529446788
 31
0.0
  0
LINE
  5
3B4
330
1F
100
AcDbEntity
  8
0
100
AcDbLine
 10
0.0537577389251005
 20
0.0743441529446788
 30
0.0
 11
0.0536319256271732
 21
0.0743189693796192
 31
0.0
  0
LINE
  5
3B5
330
1F
100
AcDbEntity
  8
0
100
AcDbLine
 10
0.0526448512892735
 20
0.0730715436054249
 30
0.0
 11
0.0526128253452522
 21
0.0732545821209998
 31
0.0
  0
LINE
  5
3B6
330
1F
100
AcDbEntity
  8
0
100
AcDbLine
 10
0.0526128253452522
 20
0.0732545821209998
 30
0.0
 11
0.0526476763819408
 21
0.0733694518729638
 31
0.0
  0
LINE
  5
3B7
330
1F
100
AcDbEntity
  8
0
100
AcDbLine
 10
0.0536319256271732
 20
0.0733928528470207
 30
0.0
 11
0.0536319256271732
 21
0.0730433154862166
 31
0.0
  0
LINE
  5
3B8
330
1F
100
AcDbEntity
  8
0
100
AcDbLine
 10
0.0536319256271732
 20
0.0730433154862166
 30
0.0
 11
0.0536319256271732
 21
0.072781784447139
 31
0.0
  0
LINE
  5
3B9
330
1F
100
AcDbEntity
  8
0
100
AcDbLine
 10
0.050613472841264
 20
0.0737044720429769
 30
0.0
 11
0.0506497767265451
 21
0.0737516824795273
 31
0.0
  0
LINE
  5
3BA
330
1F
100
AcDbEntity
  8
0
100
AcDbLine
 10
0.0513420874695789
 20
0.0741425944595751
 30
0.0
 11
0.0513806560768394
 21
0.0741368448716462
 31
0.0
  0
LINE
  5
3BB
330
1F
100
AcDbEntity
  8
0
100
AcDbLine
 10
0.0526864767517459
 20
0.0744990889434653
 30
0.0
 11
0.0527151880343018
 21
0.0744959350183882
 31
0.0
  0
LINE
  5
3BC
330
1F
100
AcDbEntity
  8
0
100
AcDbLine
 10
0.0538779205154192
 20
0.0746992841298246
 30
0.0
 11
0.0539141155139228
 21
0.0746985027188471
 31
0.0
  0
LINE
  5
3BD
330
1F
100
AcDbEntity
  8
0
100
AcDbLine
 10
0.0539141155139228
 20
0.0746985027188471
 30
0.0
 11
0.0543070441554796
 21
0.0747590066003706
 31
0.0
  0
LINE
  5
3BE
330
1F
100
AcDbEntity
  8
0
100
AcDbLine
 10
0.0557455058652472
 20
0.0749248235315309
 30
0.0
 11
0.0557794800526359
 21
0.0749213694157535
 31
0.0
  0
LINE
  5
3BF
330
1F
100
AcDbEntity
  8
0
100
AcDbLine
 10
0.0569856047141862
 20
0.0750291569123669
 30
0.0
 11
0.0570796633153317
 21
0.0750281404644198
 31
0.0
  0
LINE
  5
3C0
330
1F
100
AcDbEntity
  8
0
100
AcDbLine
 10
0.0654340706742865
 20
0.0751719247868007
 30
0.0
 11
0.0654592946609618
 21
0.07516461501492
 31
0.0
  0
LINE
  5
3C1
330
1F
100
AcDbEntity
  8
0
100
AcDbLine
 10
0.0654592946609618
 20
0.07516461501492
 30
0.0
 11
0.0660028419434589
 21
0.0751472582637789
 31
0.0
  0
LINE
  5
3C2
330
1F
100
AcDbEntity
  8
0
100
AcDbLine
 10
0.0708175214450371
 20
0.0747590066003706
 30
0.0
 11
0.0711986443697647
 21
0.0747003050438477
 31
0.0
  0
LINE
  5
3C3
330
1F
100
AcDbEntity
  8
0
100
AcDbLine
 10
0.0711986443697647
 20
0.0747003050438477
 30
0.0
 11
0.0712466450850975
 21
0.0746992841298246
 31
0.0
  0
LINE
  5
3C4
330
1F
100
AcDbEntity
  8
0
100
AcDbLine
 10
0.0715444121952664
 20
0.0746578429557515
 30
0.0
 11
0.0719577974430525
 21
0.0745844086029029
 31
0.0
  0
LINE
  5
3C5
330
1F
100
AcDbEntity
  8
0
100
AcDbLine
 10
0.0737824781309378
 20
0.0741425944595751
 30
0.0
 11
0.074006856501232
 21
0.0740423819280915
 31
0.0
  0
LINE
  5
3C6
330
1F
100
AcDbEntity
  8
0
100
AcDbLine
 10
0.074006856501232
 20
0.0740423819280915
 30
0.0
 11
0.0740363482828748
 21
0.0740292102213333
 31
0.0
  0
LINE
  5
3C7
330
1F
100
AcDbEntity
  8
0
100
AcDbLine
 10
0.0740363482828748
 20
0.0740292102213333
 30
0.0
 11
0.0741041904758226
 21
0.0740074149783542
 31
0.0
  0
LINE
  5
3C8
330
1F
100
AcDbEntity
  8
0
100
AcDbLine
 10
0.0744747888739717
 20
0.0737516824795273
 30
0.0
 11
0.0745110927592527
 21
0.0737044720429769
 31
0.0
  0
LINE
  5
3C9
330
1F
100
AcDbEntity
  8
0
100
AcDbLine
 10
0.0567112291674626
 20
0.075006072859575
 30
0.0
 11
0.0567612263351925
 21
0.075006072859575
 31
0.0
  0
LINE
  5
3CA
330
1F
100
AcDbEntity
  8
0
100
AcDbLine
 10
0.0591217236570579
 20
0.075006072859575
 30
0.0
 11
0.0570796633153317
 21
0.0750281404644198
 31
0.0
  0
LINE
  5
3CB
330
1F
100
AcDbEntity
  8
0
100
AcDbLine
 10
0.0521026762645256
 20
0.0740292102213333
 30
0.0
 11
0.0513806560768394
 21
0.0741368448716462
 31
0.0
  0
LINE
  5
3CC
330
1F
100
AcDbEntity
  8
0
100
AcDbLine
 10
0.0509109810437572
 20
0.0739500525562703
 30
0.0
 11
0.0509464965995865
 21
0.0739524116565032
 31
0.0
  0
LINE
  5
3CD
330
1F
100
AcDbEntity
  8
0
100
AcDbLine
 10
0.0509464965995865
 20
0.0739524116565032
 30
0.0
 11
0.0521026762645256
 21
0.0740292102213333
 31
0.0
  0
LINE
  5
3CE
330
1F
100
AcDbEntity
  8
0
100
AcDbLine
 10
0.0536319256271732
 20
0.0743189693796192
 30
0.0
 11
0.0527151880343018
 21
0.0744959350183882
 31
0.0
  0
LINE
  5
3CF
330
1F
100
AcDbEntity
  8
0
100
AcDbLine
 10
0.0539141155139228
 20
0.0746985027188471
 30
0.0
 11
0.0545935571636569
 21
0.0745019527881479
 31
0.0
  0
LINE
  5
3D0
330
1F
100
AcDbEntity
  8
0
100
AcDbLine
 10
0.0566859153542232
 20
0.0747590066003706
 30
0.0
 11
0.0557794800526359
 21
0.0749213694157535
 31
0.0
  0
LINE
  5
3D1
330
1F
100
AcDbEntity
  8
0
100
AcDbLine
 10
0.0570397182810616
 20
0.0747932424734296
 30
0.0
 11
0.0557794800526359
 21
0.0749213694157535
 31
0.0
  0
LINE
  5
3D2
330
1F
100
AcDbEntity
  8
0
100
AcDbLine
 10
0.0654592946609618
 20
0.07516461501492
 30
0.0
 11
0.0660052844009179
 21
0.0750063902069383
 31
0.0
  0
LINE
  5
3D3
330
1F
100
AcDbEntity
  8
0
100
AcDbLine
 10
0.0633622827800487
 20
0.0750074469087934
 30
0.0
 11
0.0638622828037974
 21
0.0750004511953263
 31
0.0
  0
LINE
  5
3D4
330
1F
100
AcDbEntity
  8
0
100
AcDbLine
 10
0.0678687967802894
 20
0.0749881781096399
 30
0.0
 11
0.0660052844009179
 21
0.0750063902069383
 31
0.0
  0
LINE
  5
3D5
330
1F
100
AcDbEntity
  8
0
100
AcDbLine
 10
0.0680848473194551
 20
0.0747932424734296
 30
0.0
 11
0.0693450855478808
 21
0.0749213694157535
 31
0.0
  0
LINE
  5
3D6
330
1F
100
AcDbEntity
  8
0
100
AcDbLine
 10
0.0693450855478808
 20
0.0749213694157535
 30
0.0
 11
0.0693790597352695
 21
0.0749248235315309
 31
0.0
  0
LINE
  5
3D7
330
1F
100
AcDbEntity
  8
0
100
AcDbLine
 10
0.0684386502462935
 20
0.0747590066003706
 30
0.0
 11
0.0693450855478808
 21
0.0749213694157535
 31
0.0
  0
LINE
  5
3D8
330
1F
100
AcDbEntity
  8
0
100
AcDbLine
 10
0.0693996373075556
 20
0.0746594092240993
 30
0.0
 11
0.0697747721779656
 21
0.0747021694520973
 31
0.0
  0
LINE
  5
3D9
330
1F
100
AcDbEntity
  8
0
100
AcDbLine
 10
0.0705310084368598
 20
0.0745019527881479
 30
0.0
 11
0.0711986443697647
 21
0.0747003050438477
 31
0.0
  0
LINE
  5
3DA
330
1F
100
AcDbEntity
  8
0
100
AcDbLine
 10
0.0714926399733436
 20
0.0743189693796192
 30
0.0
 11
0.072409377566215
 21
0.0744959350183882
 31
0.0
  0
LINE
  5
3DB
330
1F
100
AcDbEntity
  8
0
100
AcDbLine
 10
0.072409377566215
 20
0.0744959350183882
 30
0.0
 11
0.0724380888487708
 21
0.0744990889434653
 31
0.0
  0
LINE
  5
3DC
330
1F
100
AcDbEntity
  8
0
100
AcDbLine
 10
0.0724797143112433
 20
0.0740292102213333
 30
0.0
 11
0.074006856501232
 21
0.0740423819280915
 31
0.0
  0
LINE
  5
3DD
330
1F
100
AcDbEntity
  8
0
100
AcDbLine
 10
0.0729814960132849
 20
0.0737313019537945
 30
0.0
 11
0.0745110927592527
 21
0.0735562357544164
 31
0.0
  0
LINE
  5
3DE
330
1F
100
AcDbEntity
  8
0
100
AcDbLine
 10
0.0745110927592527
 20
0.0735562357544164
 30
0.0
 11
0.0745622829045665
 21
0.0735503769133791
 31
0.0
  0
LINE
  5
3DF
330
1F
100
AcDbEntity
  8
0
100
AcDbLine
 10
0.0745110927592527
 20
0.0735562357544164
 30
0.0
 11
0.0729814960132849
 21
0.0733694518729638
 31
0.0
  0
LINE
  5
3E0
330
1F
100
AcDbEntity
  8
0
100
AcDbLine
 10
0.0745110927592527
 20
0.0735562357544164
 30
0.0
 11
0.0730317622866046
 21
0.0734390384300854
 31
0.0
  0
LINE
  5
3E1
330
1F
100
AcDbEntity
  8
0
100
AcDbLine
 10
0.0714622825827014
 20
0.0733694518729638
 30
0.0
 11
0.0714926399733436
 21
0.0733928528470207
 31
0.0
  0
LINE
  5
3E2
330
1F
100
AcDbEntity
  8
0
100
AcDbLine
 10
0.0730317622866046
 20
0.0736617153966728
 30
0.0
 11
0.0745110927592527
 21
0.0735562357544164
 31
0.0
  0
LINE
  5
3E3
330
1F
100
AcDbEntity
  8
0
100
AcDbLine
 10
0.0737824781309378
 20
0.0729581593671832
 30
0.0
 11
0.0737379121778607
 21
0.0729617539994747
 31
0.0
  0
LINE
  5
3E4
330
1F
100
AcDbEntity
  8
0
100
AcDbLine
 10
0.0737379121778607
 20
0.0729617539994747
 30
0.0
 11
0.0724647563393724
 21
0.0730644451072178
 31
0.0
  0
LINE
  5
3E5
330
1F
100
AcDbEntity
  8
0
100
AcDbLine
 10
0.0740068534123934
 20
0.0730583705191206
 30
0.0
 11
0.0727820421080601
 21
0.0732150151600027
 31
0.0
  0
LINE
  5
3E6
330
1F
100
AcDbEntity
  8
0
100
AcDbLine
 10
0.0536622830178153
 20
0.0727088568851455
 30
0.0
 11
0.0527151870737095
 21
0.0726048187028493
 31
0.0
  0
LINE
  5
3E7
330
1F
100
AcDbEntity
  8
0
100
AcDbLine
 10
0.0527151870737095
 20
0.0726048187028493
 30
0.0
 11
0.0526864767517459
 21
0.072601664883293
 31
0.0
  0
LINE
  5
3E8
330
1F
100
AcDbEntity
  8
0
100
AcDbLine
 10
0.0536319256271732
 20
0.072781784447139
 30
0.0
 11
0.0527151870737095
 21
0.0726048187028493
 31
0.0
  0
LINE
  5
3E9
330
1F
100
AcDbEntity
  8
0
100
AcDbLine
 10
0.0513420874695789
 20
0.0729581593671832
 30
0.0
 11
0.0513806552447816
 21
0.0729639088310737
 31
0.0
  0
LINE
  5
3EA
330
1F
100
AcDbEntity
  8
0
100
AcDbLine
 10
0.0513806552447816
 20
0.0729639088310737
 30
0.0
 11
0.0521026762645256
 21
0.0730715436054249
 31
0.0
  0
LINE
  5
3EB
330
1F
100
AcDbEntity
  8
0
100
AcDbLine
 10
0.0521430695872318
 20
0.0733694518729638
 30
0.0
 11
0.0526476763819408
 21
0.0733694518729638
 31
0.0
  0
LINE
  5
3EC
330
1F
100
AcDbEntity
  8
0
100
AcDbLine
 10
0.0537577389251005
 20
0.0737313019537945
 30
0.0
 11
0.0537275294025572
 21
0.0737313019537945
 31
0.0
  0
LINE
  5
3ED
330
1F
100
AcDbEntity
  8
0
100
AcDbLine
 10
0.0537275294025572
 20
0.0737313019537945
 30
0.0
 11
0.0521430695872318
 21
0.0737313019537945
 31
0.0
  0
LINE
  5
3EE
330
1F
100
AcDbEntity
  8
0
100
AcDbLine
 10
0.0612622827967193
 20
0.0750004511953263
 30
0.0
 11
0.0617622828204681
 21
0.0750074469087934
 31
0.0
  0
LINE
  5
3EF
330
1F
100
AcDbEntity
  8
0
100
AcDbLine
 10
0.0612622827967193
 20
0.0750004511953263
 30
0.0
 11
0.0612254664404888
 21
0.0748890311505421
 31
0.0
  0
LINE
  5
3F0
330
1F
100
AcDbEntity
  8
0
100
AcDbLine
 10
0.0612254664404888
 20
0.0748890311505421
 30
0.0
 11
0.0612622827967193
 21
0.0747757326457755
 31
0.0
  0
LINE
  5
3F1
330
1F
100
AcDbEntity
  8
0
100
AcDbLine
 10
0.0678687967802894
 20
0.0745447676225942
 30
0.0
 11
0.0678463747236441
 21
0.0747511312480903
 31
0.0
  0
LINE
  5
3F2
330
1F
100
AcDbEntity
  8
0
100
AcDbLine
 10
0.0611898492778164
 20
0.0749986392619354
 30
0.0
 11
0.0612254664404888
 21
0.0748890311505421
 31
0.0
  0
LINE
  5
3F3
330
1F
100
AcDbEntity
  8
0
100
AcDbLine
 10
0.0636532258300161
 20
0.0720366905319984
 30
0.0
 11
0.0638622828037974
 21
0.0720435435893994
 31
0.0
  0
LINE
  5
3F4
330
1F
100
AcDbEntity
  8
0
100
AcDbLine
 10
0.0638622828037974
 20
0.0720435435893994
 30
0.0
 11
0.0638622828037974
 21
0.0719916883311282
 31
0.0
  0
LINE
  5
3F5
330
1F
100
AcDbEntity
  8
0
100
AcDbLine
 10
0.0612622827967193
 20
0.0720435435893994
 30
0.0
 11
0.0615016146276863
 21
0.07203569809759
 31
0.0
  0
LINE
  5
3F6
330
1F
100
AcDbEntity
  8
0
100
AcDbLine
 10
0.0612622827967193
 20
0.0719916883311282
 30
0.0
 11
0.0612622827967193
 21
0.0720435435893994
 31
0.0
  0
LINE
  5
3F7
330
1F
100
AcDbEntity
  8
0
100
AcDbLine
 10
0.0438036910020991
 20
0.1070683866929105
 30
0.0
 11
0.0444566380675445
 21
0.1070683866929105
 31
0.0
  0
LINE
  5
3F8
330
1F
100
AcDbEntity
  8
0
100
AcDbLine
 10
0.0444566380675445
 20
0.1070683866929105
 30
0.0
 11
0.0449454631117288
 21
0.1070683866929105
 31
0.0
  0
LINE
  5
3F9
330
1F
100
AcDbEntity
  8
0
100
AcDbLine
 10
0.0515531956447068
 20
0.1070683866929105
 30
0.0
 11
0.0523383725877415
 21
0.1070683866929105
 31
0.0
  0
LINE
  5
3FA
330
1F
100
AcDbEntity
  8
0
100
AcDbLine
 10
0.0406892476286516
 20
-0.1389451388454222
 30
0.0
 11
0.0405161668585433
 21
-0.1387316131133744
 31
0.0
  0
LINE
  5
3FB
330
1F
100
AcDbEntity
  8
0
100
AcDbLine
 10
0.0450622827257524
 20
0.074022437677144
 30
0.0
 11
0.0450722460075374
 21
0.0865216428256033
 31
0.0
  0
LINE
  5
3FC
330
1F
100
AcDbEntity
  8
0
100
AcDbLine
 10
0.0745110927592527
 20
0.0733962815705528
 30
0.0
 11
0.0745110927592527
 21
0.0734325990362653
 31
0.0
  0
LINE
  5
3FD
330
1F
100
AcDbEntity
  8
0
100
AcDbLine
 10
0.0670081338964192
 20
0.0750999882602028
 30
0.0
 11
0.0668971828627896
 21
0.0751076771396985
 31
0.0
  0
LINE
  5
3FE
330
1F
100
AcDbEntity
  8
0
100
AcDbLine
 10
0.0518527651648533
 20
0.0754507083896389
 30
0.0
 11
0.0520093659811275
 21
0.0754573846923723
 31
0.0
  0
LINE
  5
3FF
330
1F
100
AcDbEntity
  8
0
100
AcDbLine
 10
0.0520093659811275
 20
0.0754573846923723
 30
0.0
 11
0.0539162891428482
 21
0.075538681818529
 31
0.0
  0
LINE
  5
400
330
1F
100
AcDbEntity
  8
0
100
AcDbLine
 10
0.0721384898270976
 20
0.0725439304936519
 30
0.0
 11
0.0722342489663752
 21
0.0725654544719911
 31
0.0
  0
LINE
  5
401
330
1F
100
AcDbEntity
  8
0
100
AcDbLine
 10
0.0722342489663752
 20
0.0725654544719911
 30
0.0
 11
0.0800522823329578
 21
0.0715683868605486
 31
0.0
  0
LINE
  5
402
330
1F
100
AcDbEntity
  8
0
100
AcDbLine
 10
0.0562450966309321
 20
0.0749703051972976
 30
0.0
 11
0.0564776484314158
 21
0.0749864209801968
 31
0.0
  0
LINE
  5
403
330
1F
100
AcDbEntity
  8
0
100
AcDbLine
 10
0.0544779353286635
 20
0.0747845785211613
 30
0.0
 11
0.0546048112656486
 21
0.0748004477744437
 31
0.0
  0
LINE
  5
404
330
1F
100
AcDbEntity
  8
0
100
AcDbLine
 10
0.050613472841264
 20
0.0733962815705528
 30
0.0
 11
0.050613472841264
 21
0.0734325990362653
 31
0.0
  0
LINE
  5
405
330
1F
100
AcDbEntity
  8
0
100
AcDbLine
 10
0.0510203751246941
 20
0.0740074149783542
 30
0.0
 11
0.0513420874695789
 21
0.0741425944595751
 31
0.0
  0
LINE
  5
406
330
1F
100
AcDbEntity
  8
0
100
AcDbLine
 10
-0.2017819820921286
 20
0.0707334383757591
 30
0.0
 11
-0.2011906208463762
 21
0.0709170252418038
 31
0.0
  0
LINE
  5
407
330
1F
100
AcDbEntity
  8
0
100
AcDbLine
 10
-0.200506374326291
 20
0.0719165308467205
 30
0.0
 11
-0.1994240889909841
 21
0.0727742532938719
 31
0.0
  0
LINE
  5
408
330
1F
100
AcDbEntity
  8
0
100
AcDbLine
 10
-0.1996916238782634
 20
0.0728118528720805
 30
0.0
 11
-0.1994240889909841
 21
0.0727742532938719
 31
0.0
  0
LINE
  5
409
330
1F
100
AcDbEntity
  8
0
100
AcDbLine
 10
-0.0594730905287455
 20
0.1299683867487899
 30
0.0
 11
-0.0570690079622458
 21
0.1299683869074872
 31
0.0
  0
LINE
  5
40A
330
1F
100
AcDbEntity
  8
0
100
AcDbLine
 10
-0.0658597081548744
 20
0.0715683866929105
 30
0.0
 11
-0.0658238130886854
 21
0.0715683866929105
 31
0.0
  0
LINE
  5
40B
330
1F
100
AcDbEntity
  8
0
100
AcDbLine
 10
-0.0658597081548744
 20
0.0715683866929105
 30
0.0
 11
-0.0657879180224965
 21
0.0715683866929105
 31
0.0
  0
LINE
  5
40C
330
1F
100
AcDbEntity
  8
0
100
AcDbLine
 10
-0.0678587415915487
 20
0.0715683866929105
 30
0.0
 11
-0.0677869514591709
 21
0.0715683866929105
 31
0.0
  0
LINE
  5
40D
330
1F
100
AcDbEntity
  8
0
100
AcDbLine
 10
-0.0657520229563076
 20
0.0715683866929105
 30
0.0
 11
-0.0658238130886854
 21
0.0715683866929105
 31
0.0
  0
LINE
  5
40E
330
1F
100
AcDbEntity
  8
0
100
AcDbLine
 10
-0.0184833194201049
 20
0.1050683866929105
 30
0.0
 11
-0.0185155409418534
 21
0.1050683866929105
 31
0.0
  0
LINE
  5
40F
330
1F
100
AcDbEntity
  8
0
100
AcDbLine
 10
-0.0154730906954523
 20
0.1190611061820602
 30
0.0
 11
-0.0155185914628695
 21
0.1191541727822116
 31
0.0
  0
LINE
  5
410
330
1F
100
AcDbEntity
  8
0
100
AcDbLine
 10
-0.0154730906954523
 20
0.1188717587565845
 30
0.0
 11
-0.015501198082466
 21
0.1189058328237227
 31
0.0
  0
LINE
  5
411
330
1F
100
AcDbEntity
  8
0
100
AcDbLine
 10
-0.0155111617947074
 20
0.1184735344512199
 30
0.0
 11
-0.0156334961794804
 21
0.1172523571368149
 31
0.0
  0
LINE
  5
412
330
1F
100
AcDbEntity
  8
0
100
AcDbLine
 10
-0.0154730906954523
 20
0.1233079221047303
 30
0.0
 11
-0.0154864086799811
 21
0.123754771738161
 31
0.0
  0
LINE
  5
413
330
1F
100
AcDbEntity
  8
0
100
AcDbLine
 10
-0.0154864086799811
 20
0.123754771738161
 30
0.0
 11
-0.0154730907671641
 21
0.1349683858644059
 31
0.0
  0
LINE
  5
414
330
1F
100
AcDbEntity
  8
0
100
AcDbLine
 10
-0.0145280893969197
 20
0.1209582232468603
 30
0.0
 11
-0.0144949640173603
 21
0.1209144967206596
 31
0.0
  0
LINE
  5
415
330
1F
100
AcDbEntity
  8
0
100
AcDbLine
 10
-0.0145280893969197
 20
0.1201785501389606
 30
0.0
 11
-0.0145280893969197
 21
0.1202205251966445
 31
0.0
  0
LINE
  5
416
330
1F
100
AcDbEntity
  8
0
100
AcDbLine
 10
-0.0145280893969197
 20
0.1202205251966445
 30
0.0
 11
-0.0145280893969197
 21
0.1202651476842659
 31
0.0
  0
LINE
  5
417
330
1F
100
AcDbEntity
  8
0
100
AcDbLine
 10
-0.0145280893969197
 20
0.1202651476842659
 30
0.0
 11
-0.0144949640173603
 21
0.1203236499341512
 31
0.0
  0
LINE
  5
418
330
1F
100
AcDbEntity
  8
0
100
AcDbLine
 10
-0.0145280893969197
 20
0.120312078018331
 30
0.0
 11
-0.0144949640173603
 21
0.1203698661329765
 31
0.0
  0
LINE
  5
419
330
1F
100
AcDbEntity
  8
0
100
AcDbLine
 10
-0.0145280893969197
 20
0.120312078018331
 30
0.0
 11
-0.0145280893969197
 21
0.1203609589929767
 31
0.0
  0
LINE
  5
41A
330
1F
100
AcDbEntity
  8
0
100
AcDbLine
 10
-0.0145280893969197
 20
0.1203609589929767
 30
0.0
 11
-0.0144949640173603
 21
0.1203953316790359
 31
0.0
  0
LINE
  5
41B
330
1F
100
AcDbEntity
  8
0
100
AcDbLine
 10
-0.0145280893969197
 20
0.1203609589929767
 30
0.0
 11
-0.0145280893969197
 21
0.120411418632146
 31
0.0
  0
LINE
  5
41C
330
1F
100
AcDbEntity
  8
0
100
AcDbLine
 10
-0.0145280893969197
 20
0.120725354753675
 30
0.0
 11
-0.0145280893969197
 21
0.1206737004968529
 31
0.0
  0
LINE
  5
41D
330
1F
100
AcDbEntity
  8
0
100
AcDbLine
 10
-0.0145280893969197
 20
0.1207758143928442
 30
0.0
 11
-0.0145280893969197
 21
0.120725354753675
 31
0.0
  0
LINE
  5
41E
330
1F
100
AcDbEntity
  8
0
100
AcDbLine
 10
-0.0145280893969197
 20
0.12082469536749
 30
0.0
 11
-0.0145280893969197
 21
0.1207758143928442
 31
0.0
  0
LINE
  5
41F
330
1F
100
AcDbEntity
  8
0
100
AcDbLine
 10
-0.0145280893969197
 20
0.1207758143928442
 30
0.0
 11
-0.0144949640173603
 21
0.120741441706785
 31
0.0
  0
LINE
  5
420
330
1F
100
AcDbEntity
  8
0
100
AcDbLine
 10
-0.0145280893969197
 20
0.12082469536749
 30
0.0
 11
-0.0144949640173603
 21
0.1207669072528444
 31
0.0
  0
LINE
  5
421
330
1F
100
AcDbEntity
  8
0
100
AcDbLine
 10
-0.0145280893969197
 20
0.120871625701555
 30
0.0
 11
-0.0145280893969197
 21
0.12082469536749
 31
0.0
  0
LINE
  5
422
330
1F
100
AcDbEntity
  8
0
100
AcDbLine
 10
-0.0144949640173603
 20
0.1209144967206596
 30
0.0
 11
-0.0145280893969197
 21
0.120871625701555
 31
0.0
  0
LINE
  5
423
330
1F
100
AcDbEntity
  8
0
100
AcDbLine
 10
-0.0145280893969197
 20
0.120871625701555
 30
0.0
 11
-0.0144949640173603
 21
0.1208131234516697
 31
0.0
  0
LINE
  5
424
330
1F
100
AcDbEntity
  8
0
100
AcDbLine
 10
-0.0144949640173603
 20
0.1209144967206596
 30
0.0
 11
-0.0144949640173603
 21
0.1208519034326384
 31
0.0
  0
LINE
  5
425
330
1F
100
AcDbEntity
  8
0
100
AcDbLine
 10
-0.0144949640173603
 20
0.1209144967206596
 30
0.0
 11
-0.0144949640173603
 21
0.1208820689126225
 31
0.0
  0
LINE
  5
426
330
1F
100
AcDbEntity
  8
0
100
AcDbLine
 10
-0.0154730907671641
 20
0.1225683864395908
 30
0.0
 11
-0.0154891331779092
 21
0.1225033336502411
 31
0.0
  0
LINE
  5
427
330
1F
100
AcDbEntity
  8
0
100
AcDbLine
 10
-0.0154730906954523
 20
0.1188717587565845
 30
0.0
 11
-0.0154730906954523
 21
0.1188007207302219
 31
0.0
  0
LINE
  5
428
330
1F
100
AcDbEntity
  8
0
100
AcDbLine
 10
-0.0154730906954523
 20
0.1188007207302219
 30
0.0
 11
-0.0154864086799811
 21
0.1187206272225669
 31
0.0
  0
LINE
  5
429
330
1F
100
AcDbEntity
  8
0
100
AcDbLine
 10
-0.0154730907671641
 20
0.1185683867152622
 30
0.0
 11
-0.0154730906954523
 21
0.1185145489353528
 31
0.0
  0
LINE
  5
42A
330
1F
100
AcDbEntity
  8
0
100
AcDbLine
 10
-0.0154997008106663
 20
0.1223793184400738
 30
0.0
 11
-0.0154730906954523
 21
0.1223360526555991
 31
0.0
  0
LINE
  5
42B
330
1F
100
AcDbEntity
  8
0
100
AcDbLine
 10
-0.0154730906954523
 20
0.1223360526555991
 30
0.0
 11
-0.0155120396558701
 21
0.1222231028788737
 31
0.0
  0
LINE
  5
42C
330
1F
100
AcDbEntity
  8
0
100
AcDbLine
 10
-0.0155120396558701
 20
0.1222231028788737
 30
0.0
 11
-0.0154730906954523
 21
0.1221457218698999
 31
0.0
  0
LINE
  5
42D
330
1F
100
AcDbEntity
  8
0
100
AcDbLine
 10
-0.0154730906954523
 20
0.1190611061820602
 30
0.0
 11
-0.0154730906954523
 21
0.118991051515921
 31
0.0
  0
LINE
  5
42E
330
1F
100
AcDbEntity
  8
0
100
AcDbLine
 10
-0.0154730906954523
 20
0.118991051515921
 30
0.0
 11
-0.015501198082466
 21
0.1189058328237227
 31
0.0
  0
LINE
  5
42F
330
1F
100
AcDbEntity
  8
0
100
AcDbLine
 10
-0.0145280893969197
 20
0.1204630728889681
 30
0.0
 11
-0.0145280893969197
 21
0.120515528650729
 31
0.0
  0
LINE
  5
430
330
1F
100
AcDbEntity
  8
0
100
AcDbLine
 10
-0.0145280893969197
 20
0.120411418632146
 30
0.0
 11
-0.0145280893969197
 21
0.1204630728889681
 31
0.0
  0
LINE
  5
431
330
1F
100
AcDbEntity
  8
0
100
AcDbLine
 10
-0.0145280893969197
 20
0.1202651476842659
 30
0.0
 11
-0.0145280893969197
 21
0.120312078018331
 31
0.0
  0
LINE
  5
432
330
1F
100
AcDbEntity
  8
0
100
AcDbLine
 10
-0.0564191294152412
 20
0.1050683866929105
 30
0.0
 11
-0.0563599227863364
 21
0.105796018135186
 31
0.0
  0
LINE
  5
433
330
1F
100
AcDbEntity
  8
0
100
AcDbLine
 10
0.1525622830237757
 20
0.0290947970962674
 30
0.0
 11
0.1525622830237757
 21
0.0695001345819572
 31
0.0
  0
LINE
  5
434
330
1F
100
AcDbEntity
  8
0
100
AcDbLine
 10
0.1525622830237757
 20
0.0695001345819572
 30
0.0
 11
0.1525622830237757
 21
0.0890947948238404
 31
0.0
  0
LINE
  5
435
330
1F
100
AcDbEntity
  8
0
100
AcDbLine
 10
0.1573622827861022
 20
0.0940947970962675
 30
0.0
 11
0.1565868310141872
 21
0.093998722269252
 31
0.0
  0
LINE
  5
436
330
1F
100
AcDbEntity
  8
0
100
AcDbLine
 10
0.1781186322193156
 20
0.0735384477889688
 30
0.0
 11
0.1781379414752339
 21
0.073561056034455
 31
0.0
  0
LINE
  5
437
330
1F
100
AcDbEntity
  8
0
100
AcDbLine
 10
0.1781379414752339
 20
0.073561056034455
 30
0.0
 11
0.1781646917085659
 21
0.0735846442957256
 31
0.0
  0
LINE
  5
438
330
1F
100
AcDbEntity
  8
0
100
AcDbLine
 10
0.1781646917085659
 20
0.0735846442957256
 30
0.0
 11
0.1782063359674206
 21
0.0736411357369463
 31
0.0
  0
LINE
  5
439
330
1F
100
AcDbEntity
  8
0
100
AcDbLine
 10
0.1623226045055111
 20
0.1110947971605287
 30
0.0
 11
0.1621726621094189
 21
0.1110913474700005
 31
0.0
  0
LINE
  5
43A
330
1F
100
AcDbEntity
  8
0
100
AcDbLine
 10
0.1630001757445775
 20
0.1110947971605287
 30
0.0
 11
0.1629536168627005
 21
0.111091315805033
 31
0.0
  0
LINE
  5
43B
330
1F
100
AcDbEntity
  8
0
100
AcDbLine
 10
0.1497282512180181
 20
0.0712368327359075
 30
0.0
 11
0.1500648586522352
 21
0.0709891524753125
 31
0.0
  0
LINE
  5
43C
330
1F
100
AcDbEntity
  8
0
100
AcDbLine
 10
0.1469598738919508
 20
0.0735846442957255
 30
0.0
 11
0.1470059333812009
 21
0.0735384477889688
 31
0.0
  0
LINE
  5
43D
330
1F
100
AcDbEntity
  8
0
100
AcDbLine
 10
0.1444566380675446
 20
0.076597373060003
 30
0.0
 11
0.1447043183281397
 21
0.0762607656257859
 31
0.0
  0
LINE
  5
43E
330
1F
100
AcDbEntity
  8
0
100
AcDbLine
 10
0.1425004862691771
 20
0.0800657151854188
 30
0.0
 11
0.1429194255490078
 21
0.0792052962996688
 31
0.0
  0
LINE
  5
43F
330
1F
100
AcDbEntity
  8
0
100
AcDbLine
 10
0.1415584236826312
 20
0.0825497299088688
 30
0.0
 11
0.1416235016947293
 21
0.0823611406476006
 31
0.0
  0
LINE
  5
440
330
1F
100
AcDbEntity
  8
0
100
AcDbLine
 10
0.1407226883317839
 20
0.0864429902872593
 30
0.0
 11
0.1408227024494251
 21
0.085785853811778
 31
0.0
  0
LINE
  5
441
330
1F
100
AcDbEntity
  8
0
100
AcDbLine
 10
0.1842648001452844
 20
0.0926472607550413
 30
0.0
 11
0.1842019204493176
 21
0.093060407846287
 31
0.0
  0
LINE
  5
442
330
1F
100
AcDbEntity
  8
0
100
AcDbLine
 10
0.1834448137684278
 20
0.0959914607735651
 30
0.0
 11
0.1831326410617243
 21
0.0968961045733244
 31
0.0
  0
LINE
  5
443
330
1F
100
AcDbEntity
  8
0
100
AcDbLine
 10
0.1821197903053294
 20
0.0991554285884607
 30
0.0
 11
0.1820423156465899
 21
0.099318707420543
 31
0.0
  0
LINE
  5
444
330
1F
100
AcDbEntity
  8
0
100
AcDbLine
 10
0.1802742699931442
 20
0.1021272177829881
 30
0.0
 11
0.1798803192074906
 21
0.1026626127427966
 31
0.0
  0
LINE
  5
445
330
1F
100
AcDbEntity
  8
0
100
AcDbLine
 10
0.1753963143824985
 20
0.1069527616801448
 30
0.0
 11
0.1750597069482814
 21
0.1072004419407399
 31
0.0
  0
LINE
  5
446
330
1F
100
AcDbEntity
  8
0
100
AcDbLine
 10
0.1724517837086157
 20
0.1087376544592766
 30
0.0
 11
0.1715913648228656
 21
0.1091565937391074
 31
0.0
  0
LINE
  5
447
330
1F
100
AcDbEntity
  8
0
100
AcDbLine
 10
0.169295939360684
 20
0.1100335783135551
 30
0.0
 11
0.1691073500994157
 21
0.1100986563256533
 31
0.0
  0
LINE
  5
448
330
1F
100
AcDbEntity
  8
0
100
AcDbLine
 10
0.1658712261965064
 20
0.1108343775588593
 30
0.0
 11
0.1652140897210251
 21
0.1109343916765006
 31
0.0
  0
LINE
  5
449
330
1F
100
AcDbEntity
  8
0
100
AcDbLine
 10
0.1590098192532431
 20
0.1107973145530523
 30
0.0
 11
0.1585966721619974
 21
0.1107344348570855
 31
0.0
  0
LINE
  5
44A
330
1F
100
AcDbEntity
  8
0
100
AcDbLine
 10
0.155539100238888
 20
0.109924922296471
 30
0.0
 11
0.15476097543496
 21
0.1096651554694922
 31
0.0
  0
LINE
  5
44B
330
1F
100
AcDbEntity
  8
0
100
AcDbLine
 10
0.1523994355290494
 20
0.108589666690316
 30
0.0
 11
0.1523383725877415
 21
0.1085748300543578
 31
0.0
  0
LINE
  5
44C
330
1F
100
AcDbEntity
  8
0
100
AcDbLine
 10
0.1495298622252964
 20
0.1068067844009121
 30
0.0
 11
0.1489944672654878
 21
0.1064128336152585
 31
0.0
  0
LINE
  5
44D
330
1F
100
AcDbEntity
  8
0
100
AcDbLine
 10
0.1465776589424256
 20
0.1041497014295938
 30
0.0
 11
0.1460950468178402
 21
0.1036834959528
 31
0.0
  0
LINE
  5
44E
330
1F
100
AcDbEntity
  8
0
100
AcDbLine
 10
0.1446810327331548
 20
0.1018908301797116
 30
0.0
 11
0.1444566380675446
 21
0.1015922213560493
 31
0.0
  0
LINE
  5
44F
330
1F
100
AcDbEntity
  8
0
100
AcDbLine
 10
0.1428345477921921
 20
0.0987793850681307
 30
0.0
 11
0.1425004862691771
 21
0.0981238792306335
 31
0.0
  0
LINE
  5
450
330
1F
100
AcDbEntity
  8
0
100
AcDbLine
 10
0.1416235016947293
 20
0.0958284537684518
 30
0.0
 11
0.1415584236826312
 21
0.0956398645071836
 31
0.0
  0
LINE
  5
451
330
1F
100
AcDbEntity
  8
0
100
AcDbLine
 10
0.1408227024494251
 20
0.0924037406042743
 30
0.0
 11
0.1407226883317839
 21
0.091746604128793
 31
0.0
  0
LINE
  5
452
330
1F
100
AcDbEntity
  8
0
100
AcDbLine
 10
0.152487444245067
 20
0.0695459958770081
 30
0.0
 11
0.1523622824321996
 21
0.0696022343477757
 31
0.0
  0
LINE
  5
453
330
1F
100
AcDbEntity
  8
0
100
AcDbLine
 10
0.1829754638123588
 20
0.0809442564427305
 30
0.0
 11
0.1825963575835835
 21
0.0800196695645297
 31
0.0
  0
LINE
  5
454
330
1F
100
AcDbEntity
  8
0
100
AcDbLine
 10
0.183417450285866
 20
0.0821320723464197
 30
0.0
 11
0.1832945179637085
 21
0.0817547110496612
 31
0.0
  0
LINE
  5
455
330
1F
100
AcDbEntity
  8
0
100
AcDbLine
 10
0.184277985811597
 20
0.0855972559592885
 30
0.0
 11
0.1842373423721205
 21
0.0853710236969168
 31
0.0
  0
LINE
  5
456
330
1F
100
AcDbEntity
  8
0
100
AcDbLine
 10
0.1605847426241641
 20
0.1110054867756812
 30
0.0
 11
0.1605256726252264
 21
0.110999806059517
 31
0.0
  0
LINE
  5
457
330
1F
100
AcDbEntity
  8
0
100
AcDbLine
 10
0.1551928641717445
 20
0.0935996417543442
 30
0.0
 11
0.1556488657813083
 21
0.0937141920468361
 31
0.0
  0
LINE
  5
458
330
1F
100
AcDbEntity
  8
0
100
AcDbLine
 10
0.1556488657813083
 20
0.0937141920468361
 30
0.0
 11
0.1562496782723378
 21
0.0939694368867726
 31
0.0
  0
LINE
  5
459
330
1F
100
AcDbEntity
  8
0
100
AcDbLine
 10
0.1562496782723378
 20
0.0939694368867726
 30
0.0
 11
0.1565868310141872
 21
0.093998722269252
 31
0.0
  0
LINE
  5
45A
330
1F
100
AcDbEntity
  8
0
100
AcDbLine
 10
0.1832074225391757
 20
0.0817880752152355
 30
0.0
 11
0.183781403296435
 21
0.0835288392126178
 31
0.0
  0
LINE
  5
45B
330
1F
100
AcDbEntity
  8
0
100
AcDbLine
 10
0.183781403296435
 20
0.0835288392126178
 30
0.0
 11
0.183753436475576
 21
0.0835680403402598
 31
0.0
  0
LINE
  5
45C
330
1F
100
AcDbEntity
  8
0
100
AcDbLine
 10
0.1611872828077089
 20
0.1110947971605287
 30
0.0
 11
0.1612339558057051
 21
0.1110546589484961
 31
0.0
  0
LINE
  5
45D
330
1F
100
AcDbEntity
  8
0
100
AcDbLine
 10
0.1612339558057051
 20
0.1110546589484961
 30
0.0
 11
0.1614000825654279
 21
0.1110947971605287
 31
0.0
  0
LINE
  5
45E
330
1F
100
AcDbEntity
  8
0
100
AcDbLine
 10
0.1617969159130502
 20
0.1110814791759999
 30
0.0
 11
0.161850530407441
 21
0.1110947971605287
 31
0.0
  0
LINE
  5
45F
330
1F
100
AcDbEntity
  8
0
100
AcDbLine
 10
0.161850530407441
 20
0.1110947971605287
 30
0.0
 11
0.1619664768665593
 21
0.1110947971605287
 31
0.0
  0
LINE
  5
460
330
1F
100
AcDbEntity
  8
0
100
AcDbLine
 10
0.1624298845136547
 20
0.1120608881787983
 30
0.0
 11
0.1625021814258566
 21
0.1120729238386206
 31
0.0
  0
LINE
  5
461
330
1F
100
AcDbEntity
  8
0
100
AcDbLine
 10
0.1622590437916137
 20
0.1120397984590613
 30
0.0
 11
0.1622971471376281
 21
0.1120729238386206
 31
0.0
  0
LINE
  5
462
330
1F
100
AcDbEntity
  8
0
100
AcDbLine
 10
0.1622590437916137
 20
0.1120397984590613
 30
0.0
 11
0.1623257141979002
 21
0.112060888176688
 31
0.0
  0
LINE
  5
463
330
1F
100
AcDbEntity
  8
0
100
AcDbLine
 10
0.1620976936689607
 20
0.1120397984590613
 30
0.0
 11
0.1621724462463084
 21
0.1120397984590613
 31
0.0
  0
LINE
  5
464
330
1F
100
AcDbEntity
  8
0
100
AcDbLine
 10
0.1622129758457445
 20
0.1120608881780918
 30
0.0
 11
0.1622590437916137
 21
0.1120397984590613
 31
0.0
  0
LINE
  5
465
330
1F
100
AcDbEntity
  8
0
100
AcDbLine
 10
0.1621724462463084
 20
0.1120397984590613
 30
0.0
 11
0.1622129758457445
 21
0.1120608881780918
 31
0.0
  0
LINE
  5
466
330
1F
100
AcDbEntity
  8
0
100
AcDbLine
 10
0.1622129758457445
 20
0.1120608881780918
 30
0.0
 11
0.1622625427414227
 21
0.1120729238386206
 31
0.0
  0
LINE
  5
467
330
1F
100
AcDbEntity
  8
0
100
AcDbLine
 10
0.1622971471376281
 20
0.1120729238386206
 30
0.0
 11
0.1623637622403243
 21
0.1120729238386206
 31
0.0
  0
LINE
  5
468
330
1F
100
AcDbEntity
  8
0
100
AcDbLine
 10
0.1623059741256788
 20
0.1120397984590613
 30
0.0
 11
0.1623257141979002
 21
0.112060888176688
 31
0.0
  0
LINE
  5
469
330
1F
100
AcDbEntity
  8
0
100
AcDbLine
 10
0.1621243898559391
 20
0.1110947971605287
 30
0.0
 11
0.1621726621094189
 21
0.1110913474700005
 31
0.0
  0
LINE
  5
46A
330
1F
100
AcDbEntity
  8
0
100
AcDbLine
 10
0.1632825717540022
 20
0.1110947971605287
 30
0.0
 11
0.1633276496874664
 21
0.1110814791759999
 31
0.0
  0
LINE
  5
46B
330
1F
100
AcDbEntity
  8
0
100
AcDbLine
 10
0.1628019610950054
 20
0.1110947971605287
 30
0.0
 11
0.1629536168627005
 21
0.111091315805033
 31
0.0
  0
LINE
  5
46C
330
1F
100
AcDbEntity
  8
0
100
AcDbLine
 10
0.1626675966042007
 20
0.1120397984590613
 30
0.0
 11
0.1626151408424398
 21
0.1120397984590613
 31
0.0
  0
LINE
  5
46D
330
1F
100
AcDbEntity
  8
0
100
AcDbLine
 10
0.1626151408424398
 20
0.1120397984590613
 30
0.0
 11
0.1625924482766044
 21
0.1120729238386206
 31
0.0
  0
LINE
  5
46E
330
1F
100
AcDbEntity
  8
0
100
AcDbLine
 10
0.1627192508610228
 20
0.1120397984590613
 30
0.0
 11
0.1626675966042007
 21
0.1120397984590613
 31
0.0
  0
LINE
  5
46F
330
1F
100
AcDbEntity
  8
0
100
AcDbLine
 10
0.162769710500192
 20
0.1120397984590613
 30
0.0
 11
0.1627192508610228
 21
0.1120397984590613
 31
0.0
  0
LINE
  5
470
330
1F
100
AcDbEntity
  8
0
100
AcDbLine
 10
0.1628185914748378
 20
0.1120397984590613
 30
0.0
 11
0.162769710500192
 21
0.1120397984590613
 31
0.0
  0
LINE
  5
471
330
1F
100
AcDbEntity
  8
0
100
AcDbLine
 10
0.162769710500192
 20
0.1120397984590613
 30
0.0
 11
0.1627085552178818
 21
0.1120729238386206
 31
0.0
  0
LINE
  5
472
330
1F
100
AcDbEntity
  8
0
100
AcDbLine
 10
0.162769710500192
 20
0.1120397984590613
 30
0.0
 11
0.1627353378141328
 21
0.1120729238386206
 31
0.0
  0
LINE
  5
473
330
1F
100
AcDbEntity
  8
0
100
AcDbLine
 10
0.1628185914748378
 20
0.1120397984590613
 30
0.0
 11
0.1627608033601922
 21
0.1120729238386206
 31
0.0
  0
LINE
  5
474
330
1F
100
AcDbEntity
  8
0
100
AcDbLine
 10
0.1628655218089029
 20
0.1120397984590613
 30
0.0
 11
0.1628070195590175
 21
0.1120729238386206
 31
0.0
  0
LINE
  5
475
330
1F
100
AcDbEntity
  8
0
100
AcDbLine
 10
0.1629101442965243
 20
0.1120397984590613
 30
0.0
 11
0.1628457995399862
 21
0.1120729238386206
 31
0.0
  0
LINE
  5
476
330
1F
100
AcDbEntity
  8
0
100
AcDbLine
 10
0.1629101442965243
 20
0.1120397984590613
 30
0.0
 11
0.1628759650199703
 21
0.1120729238386206
 31
0.0
  0
LINE
  5
477
330
1F
100
AcDbEntity
  8
0
100
AcDbLine
 10
0.1629521193542081
 20
0.1120397984590613
 30
0.0
 11
0.1629031346389588
 21
0.1120729238386206
 31
0.0
  0
LINE
  5
478
330
1F
100
AcDbEntity
  8
0
100
AcDbLine
 10
0.1628457995399862
 20
0.1120729238386206
 30
0.0
 11
0.1628185914748378
 21
0.1120397984590613
 31
0.0
  0
LINE
  5
479
330
1F
100
AcDbEntity
  8
0
100
AcDbLine
 10
0.1628655218089029
 20
0.1120397984590613
 30
0.0
 11
0.1628185914748378
 21
0.1120397984590613
 31
0.0
  0
LINE
  5
47A
330
1F
100
AcDbEntity
  8
0
100
AcDbLine
 10
0.1515752828129977
 20
0.0700389373533359
 30
0.0
 11
0.1516023550867193
 21
0.07002987956114
 31
0.0
  0
LINE
  5
47B
330
1F
100
AcDbEntity
  8
0
100
AcDbLine
 10
0.1514689619064035
 20
0.0701014030207094
 30
0.0
 11
0.15143441270261
 21
0.0701245993689952
 31
0.0
  0
LINE
  5
47C
330
1F
100
AcDbEntity
  8
0
100
AcDbLine
 10
0.1450663991715324
 20
-0.0643033283441481
 30
0.0
 11
0.1450622827257526
 21
-0.0643471675603804
 31
0.0
  0
LINE
  5
47D
330
1F
100
AcDbEntity
  8
0
100
AcDbLine
 10
0.1782527697573281
 20
0.0736857312822121
 30
0.0
 11
0.1782063359674206
 21
0.0736411357369463
 31
0.0
  0
LINE
  5
47E
330
1F
100
AcDbEntity
  8
0
100
AcDbLine
 10
0.1781646917085659
 20
0.0735846442957256
 30
0.0
 11
0.1781186322193156
 21
0.0735384477889688
 31
0.0
  0
LINE
  5
47F
330
1F
100
AcDbEntity
  8
0
100
AcDbLine
 10
0.1762506897449837
 20
0.0718968841244754
 30
0.0
 11
0.1760429519213906
 21
0.071713701645359
 31
0.0
  0
LINE
  5
480
330
1F
100
AcDbEntity
  8
0
100
AcDbLine
 10
0.1759592719319295
 20
0.0716480867329767
 30
0.0
 11
0.175853367740024
 21
0.071576982619115
 31
0.0
  0
LINE
  5
481
330
1F
100
AcDbEntity
  8
0
100
AcDbLine
 10
0.173728222475133
 20
0.070150159297314
 30
0.0
 11
0.1736555104559266
 21
0.0701013404205563
 31
0.0
  0
LINE
  5
482
330
1F
100
AcDbEntity
  8
0
100
AcDbLine
 10
0.1450622827257525
 20
0.0757625055820528
 30
0.0
 11
0.1450624748113658
 21
0.0727283139358664
 31
0.0
  0
LINE
  5
483
330
1F
100
AcDbEntity
  8
0
100
AcDbLine
 10
0.1450624748113658
 20
0.0727283139358664
 30
0.0
 11
0.1450663991715324
 21
-0.0643033283441481
 31
0.0
  0
LINE
  5
484
330
1F
100
AcDbEntity
  8
0
100
AcDbLine
 10
0.1800592150982034
 20
-0.0818952518194136
 30
0.0
 11
0.1800523056070676
 21
-0.0818387940494673
 31
0.0
  0
LINE
  5
485
330
1F
100
AcDbEntity
  8
0
100
AcDbLine
 10
0.1450652592327011
 20
-0.0818968164413389
 30
0.0
 11
0.1450859648130715
 21
-0.0819779413147727
 31
0.0
  0
LINE
  5
486
330
1F
100
AcDbEntity
  8
0
100
AcDbLine
 10
0.17354933887687
 20
0.0700389651342502
 30
0.0
 11
0.1734773336100751
 21
0.0700075686107986
 31
0.0
  0
LINE
  5
487
330
1F
100
AcDbEntity
  8
0
100
AcDbLine
 10
0.1752581515239899
 20
0.0711451119862037
 30
0.0
 11
0.175470773160076
 21
0.0712824611658008
 31
0.0
  0
LINE
  5
488
330
1F
100
AcDbEntity
  8
0
100
AcDbLine
 10
0.1754935579817306
 20
0.0712964237323554
 30
0.0
 11
0.1756138597126614
 21
0.0713877808130444
 31
0.0
  0
LINE
  5
489
330
1F
100
AcDbEntity
  8
0
100
AcDbLine
 10
0.1772787676022858
 20
0.0727553472828617
 30
0.0
 11
0.1779450589517957
 21
0.073390202289549
 31
0.0
  0
LINE
  5
48A
330
1F
100
AcDbEntity
  8
0
100
AcDbLine
 10
0.1800622828747641
 20
0.0757625055820528
 30
0.0
 11
0.1802216406540134
 21
0.0760007555626364
 31
0.0
  0
LINE
  5
48B
330
1F
100
AcDbEntity
  8
0
100
AcDbLine
 10
0.1822652611686482
 20
0.0793504415278132
 30
0.0
 11
0.1825963575835835
 21
0.0800196695645297
 31
0.0
  0
LINE
  5
48C
330
1F
100
AcDbEntity
  8
0
100
AcDbLine
 10
0.0702068653400552
 20
0.07272706683889
 30
0.0
 11
0.0677386167251084
 21
0.0717139601413058
 31
0.0
  0
LINE
  5
48D
330
1F
100
AcDbEntity
  8
0
100
AcDbLine
 10
0.0677386167251084
 20
0.0717139601413058
 30
0.0
 11
0.0672411991222016
 21
0.0715097922540234
 31
0.0
  0
LINE
  5
48E
330
1F
100
AcDbEntity
  8
0
100
AcDbLine
 10
0.0612622827967193
 20
0.0701228968124449
 30
0.0
 11
0.0579050082211564
 21
0.0715079606484248
 31
0.0
  0
LINE
  5
48F
330
1F
100
AcDbEntity
  8
0
100
AcDbLine
 10
0.0579050082211564
 20
0.0715079606484248
 30
0.0
 11
0.057406834056466
 21
0.0717112631589442
 31
0.0
  0
LINE
  5
490
330
1F
100
AcDbEntity
  8
0
100
AcDbLine
 10
0.0574298278871488
 20
0.0715481765851223
 30
0.0
 11
0.0572513338775175
 21
0.0715683866929105
 31
0.0
  0
LINE
  5
491
330
1F
100
AcDbEntity
  8
0
100
AcDbLine
 10
0.0537301440086581
 20
0.0724220362126147
 30
0.0
 11
0.0536746899145904
 21
0.0725348651542512
 31
0.0
  0
LINE
  5
492
330
1F
100
AcDbEntity
  8
0
100
AcDbLine
 10
0.0536746899145904
 20
0.0725348651542512
 30
0.0
 11
0.0536622830178153
 21
0.0725601086832578
 31
0.0
  0
LINE
  5
493
330
1F
100
AcDbEntity
  8
0
100
AcDbLine
 10
0.0536622830178153
 20
0.0727088568851455
 30
0.0
 11
0.0536319256271732
 21
0.072781784447139
 31
0.0
  0
LINE
  5
494
330
1F
100
AcDbEntity
  8
0
100
AcDbLine
 10
0.0714622825827014
 20
0.0735503769133791
 30
0.0
 11
0.0714926399733436
 21
0.0733928528470207
 31
0.0
  0
LINE
  5
495
330
1F
100
AcDbEntity
  8
0
100
AcDbLine
 10
0.0745622829045665
 20
0.0735503769133791
 30
0.0
 11
0.0745110927592527
 21
0.0734325990362653
 31
0.0
  0
LINE
  5
496
330
1F
100
AcDbEntity
  8
0
100
AcDbLine
 10
0.0733042421262276
 20
0.0728059590313425
 30
0.0
 11
0.0732531452950596
 21
0.0727944738916936
 31
0.0
  0
LINE
  5
497
330
1F
100
AcDbEntity
  8
0
100
AcDbLine
 10
0.0732531452950596
 20
0.0727944738916936
 30
0.0
 11
0.0731877550925624
 21
0.0727742532938719
 31
0.0
  0
LINE
  5
498
330
1F
100
AcDbEntity
  8
0
100
AcDbLine
 10
0.0724380888487708
 20
0.072601664883293
 30
0.0
 11
0.0722342489663752
 21
0.0725654544719911
 31
0.0
  0
LINE
  5
499
330
1F
100
AcDbEntity
  8
0
100
AcDbLine
 10
0.0721384898270976
 20
0.0725439304936519
 30
0.0
 11
0.0718119222902667
 21
0.072490431750893
 31
0.0
  0
LINE
  5
49A
330
1F
100
AcDbEntity
  8
0
100
AcDbLine
 10
0.0718119222902667
 20
0.072490431750893
 30
0.0
 11
0.0715444121952664
 21
0.0724429108710067
 31
0.0
  0
LINE
  5
49B
330
1F
100
AcDbEntity
  8
0
100
AcDbLine
 10
0.0535801534052503
 20
0.0724429108710067
 30
0.0
 11
0.0533126433102502
 21
0.072490431750893
 31
0.0
  0
LINE
  5
49C
330
1F
100
AcDbEntity
  8
0
100
AcDbLine
 10
0.0533126433102502
 20
0.072490431750893
 30
0.0
 11
0.0529860757734191
 21
0.0725439304936519
 31
0.0
  0
LINE
  5
49D
330
1F
100
AcDbEntity
  8
0
100
AcDbLine
 10
0.0519368105079543
 20
0.0727742532938719
 30
0.0
 11
0.0518714203054571
 21
0.0727944738916936
 31
0.0
  0
LINE
  5
49E
330
1F
100
AcDbEntity
  8
0
100
AcDbLine
 10
0.0518714203054571
 20
0.0727944738916936
 30
0.0
 11
0.0518203234742891
 21
0.0728059590313425
 31
0.0
  0
LINE
  5
49F
330
1F
100
AcDbEntity
  8
0
100
AcDbLine
 10
0.050613472841264
 20
0.0734325990362653
 30
0.0
 11
0.0505622826959502
 21
0.0735503769133791
 31
0.0
  0
LINE
  5
4A0
330
1F
100
AcDbEntity
  8
0
100
AcDbLine
 10
0.0678687967802894
 20
0.0748096739240137
 30
0.0
 11
0.0676947377133679
 21
0.0748229117662698
 31
0.0
  0
LINE
  5
4A1
330
1F
100
AcDbEntity
  8
0
100
AcDbLine
 10
0.0676947377133679
 20
0.0748229117662698
 30
0.0
 11
0.067095480531038
 21
0.074868487513577
 31
0.0
  0
LINE
  5
4A2
330
1F
100
AcDbEntity
  8
0
100
AcDbLine
 10
0.0580290850694787
 20
0.074868487513577
 30
0.0
 11
0.0574298278871488
 21
0.0748229117662698
 31
0.0
  0
LINE
  5
4A3
330
1F
100
AcDbEntity
  8
0
100
AcDbLine
 10
0.0574298278871488
 20
0.0748229117662698
 30
0.0
 11
0.0572557688202273
 21
0.0748096739240137
 31
0.0
  0
LINE
  5
4A4
330
1F
100
AcDbEntity
  8
0
100
AcDbLine
 10
0.0505622826959502
 20
0.0735503769133791
 30
0.0
 11
0.050613472841264
 21
0.0736681547904929
 31
0.0
  0
LINE
  5
4A5
330
1F
100
AcDbEntity
  8
0
100
AcDbLine
 10
0.050613472841264
 20
0.0736681547904929
 30
0.0
 11
0.050613472841264
 21
0.0737044720429769
 31
0.0
  0
LINE
  5
4A6
330
1F
100
AcDbEntity
  8
0
100
AcDbLine
 10
0.0596904949262303
 20
0.0751719247868007
 30
0.0
 11
0.0601382741231521
 21
0.0751833451193974
 31
0.0
  0
LINE
  5
4A7
330
1F
100
AcDbEntity
  8
0
100
AcDbLine
 10
0.0601382741231521
 20
0.0751833451193974
 30
0.0
 11
0.0603572885948729
 21
0.0751920177120557
 31
0.0
  0
LINE
  5
4A8
330
1F
100
AcDbEntity
  8
0
100
AcDbLine
 10
0.0603572885948729
 20
0.0751920177120557
 30
0.0
 11
0.0606021148650586
 21
0.0751951750918055
 31
0.0
  0
LINE
  5
4A9
330
1F
100
AcDbEntity
  8
0
100
AcDbLine
 10
0.0606021148650586
 20
0.0751951750918055
 30
0.0
 11
0.0611158426828247
 21
0.0752082774033542
 31
0.0
  0
LINE
  5
4AA
330
1F
100
AcDbEntity
  8
0
100
AcDbLine
 10
0.064008722917692
 20
0.0752082774033542
 30
0.0
 11
0.0645224507354581
 21
0.0751951750918055
 31
0.0
  0
LINE
  5
4AB
330
1F
100
AcDbEntity
  8
0
100
AcDbLine
 10
0.0645224507354581
 20
0.0751951750918055
 30
0.0
 11
0.0647672770056438
 21
0.0751920177120557
 31
0.0
  0
LINE
  5
4AC
330
1F
100
AcDbEntity
  8
0
100
AcDbLine
 10
0.0647672770056438
 20
0.0751920177120557
 30
0.0
 11
0.0649862914773646
 21
0.0751833451193974
 31
0.0
  0
LINE
  5
4AD
330
1F
100
AcDbEntity
  8
0
100
AcDbLine
 10
0.0649862914773646
 20
0.0751833451193974
 30
0.0
 11
0.0654340706742865
 21
0.0751719247868007
 31
0.0
  0
LINE
  5
4AE
330
1F
100
AcDbEntity
  8
0
100
AcDbLine
 10
0.0668175412784826
 20
0.0751119263657985
 30
0.0
 11
0.0668650946113536
 21
0.075108947778719
 31
0.0
  0
LINE
  5
4AF
330
1F
100
AcDbEntity
  8
0
100
AcDbLine
 10
0.0668650946113536
 20
0.075108947778719
 30
0.0
 11
0.0668971828627896
 21
0.0751076771396985
 31
0.0
  0
LINE
  5
4B0
330
1F
100
AcDbEntity
  8
0
100
AcDbLine
 10
0.0684133364330542
 20
0.075006072859575
 30
0.0
 11
0.068646917169101
 21
0.0749864209801968
 31
0.0
  0
LINE
  5
4B1
330
1F
100
AcDbEntity
  8
0
100
AcDbLine
 10
0.068646917169101
 20
0.0749864209801968
 30
0.0
 11
0.0688794689695847
 21
0.0749703051972976
 31
0.0
  0
LINE
  5
4B2
330
1F
100
AcDbEntity
  8
0
100
AcDbLine
 10
0.0731877550925624
 20
0.0743265005328864
 30
0.0
 11
0.0732531530916499
 21
0.0743062775241268
 31
0.0
  0
LINE
  5
4B3
330
1F
100
AcDbEntity
  8
0
100
AcDbLine
 10
0.0732531530916499
 20
0.0743062775241268
 30
0.0
 11
0.0733042421262276
 21
0.0742947941165259
 31
0.0
  0
LINE
  5
4B4
330
1F
100
AcDbEntity
  8
0
100
AcDbLine
 10
0.0733042421262276
 20
0.0742947941165259
 30
0.0
 11
0.0733905090761808
 21
0.074263802963481
 31
0.0
  0
LINE
  5
4B5
330
1F
100
AcDbEntity
  8
0
100
AcDbLine
 10
0.0733905090761808
 20
0.074263802963481
 30
0.0
 11
0.0737824781309378
 21
0.0741425944595751
 31
0.0
  0
LINE
  5
4B6
330
1F
100
AcDbEntity
  8
0
100
AcDbLine
 10
0.0745110927592527
 20
0.0737044720429769
 30
0.0
 11
0.0745110927592527
 21
0.073668154790493
 31
0.0
  0
LINE
  5
4B7
330
1F
100
AcDbEntity
  8
0
100
AcDbLine
 10
0.0745110927592527
 20
0.073668154790493
 30
0.0
 11
0.0745622829045665
 21
0.0735503769133791
 31
0.0
  0
LINE
  5
4B8
330
1F
100
AcDbEntity
  8
0
100
AcDbLine
 10
0.0567612263351925
 20
0.075006072859575
 30
0.0
 11
0.0569856047141862
 21
0.0750291569123669
 31
0.0
  0
LINE
  5
4B9
330
1F
100
AcDbEntity
  8
0
100
AcDbLine
 10
0.0557249282929611
 20
0.0746594092240993
 30
0.0
 11
0.0553497934225511
 21
0.0746675079813291
 31
0.0
  0
LINE
  5
4BA
330
1F
100
AcDbEntity
  8
0
100
AcDbLine
 10
0.0553497934225511
 20
0.0746675079813291
 30
0.0
 11
0.0539141155139228
 21
0.0746985027188471
 31
0.0
  0
LINE
  5
4BB
330
1F
100
AcDbEntity
  8
0
100
AcDbLine
 10
0.068044741899415
 20
0.0750281515791144
 30
0.0
 11
0.0678687967802894
 21
0.0749881781096399
 31
0.0
  0
LINE
  5
4BC
330
1F
100
AcDbEntity
  8
0
100
AcDbLine
 10
0.0693996373075556
 20
0.0746594092240993
 30
0.0
 11
0.069010540049107
 21
0.0747036675814345
 31
0.0
  0
LINE
  5
4BD
330
1F
100
AcDbEntity
  8
0
100
AcDbLine
 10
0.0708175214450371
 20
0.0747590066003706
 30
0.0
 11
0.0706466302718532
 21
0.0747845785211613
 31
0.0
  0
LINE
  5
4BE
330
1F
100
AcDbEntity
  8
0
100
AcDbLine
 10
0.0706466302718532
 20
0.0747845785211613
 30
0.0
 11
0.0705197543348682
 21
0.0748004477744437
 31
0.0
  0
LINE
  5
4BF
330
1F
100
AcDbEntity
  8
0
100
AcDbLine
 10
0.0697747721779656
 20
0.0747021694520973
 30
0.0
 11
0.0705310084368598
 21
0.0747145048090279
 31
0.0
  0
LINE
  5
4C0
330
1F
100
AcDbEntity
  8
0
100
AcDbLine
 10
0.0741791245569127
 20
0.0739516257842168
 30
0.0
 11
0.0742135845567596
 21
0.0739500525562703
 31
0.0
  0
LINE
  5
4C1
330
1F
100
AcDbEntity
  8
0
100
AcDbLine
 10
0.0714926399733436
 20
0.0733928528470207
 30
0.0
 11
0.0724647563393724
 21
0.0733694518729638
 31
0.0
  0
LINE
  5
4C2
330
1F
100
AcDbEntity
  8
0
100
AcDbLine
 10
0.0724647563393724
 20
0.0733694518729638
 30
0.0
 11
0.0729814960132849
 21
0.0733694518729638
 31
0.0
  0
LINE
  5
4C3
330
1F
100
AcDbEntity
  8
0
100
AcDbLine
 10
0.0742135845567596
 20
0.073150701270488
 30
0.0
 11
0.074183078770818
 21
0.073152071782238
 31
0.0
  0
LINE
  5
4C4
330
1F
100
AcDbEntity
  8
0
100
AcDbLine
 10
0.0526476763819408
 20
0.0733694518729638
 30
0.0
 11
0.0536319256271732
 21
0.0733928528470207
 31
0.0
  0
LINE
  5
4C5
330
1F
100
AcDbEntity
  8
0
100
AcDbLine
 10
0.0536319256271732
 20
0.0733928528470207
 30
0.0
 11
0.0536805372632834
 21
0.0733694518729638
 31
0.0
  0
LINE
  5
4C6
330
1F
100
AcDbEntity
  8
0
100
AcDbLine
 10
0.0509109810437572
 20
0.073150701270488
 30
0.0
 11
0.0509464962851299
 21
0.0731483421911427
 31
0.0
  0
LINE
  5
4C7
330
1F
100
AcDbEntity
  8
0
100
AcDbLine
 10
0.0591217236570579
 20
0.075006072859575
 30
0.0
 11
0.0601526092715126
 21
0.0749726925755067
 31
0.0
  0
LINE
  5
4C8
330
1F
100
AcDbEntity
  8
0
100
AcDbLine
 10
0.051365227590088
 20
0.1050683866929105
 30
0.0
 11
0.0514120357607981
 21
0.1050683866929105
 31
0.0
  0
LINE
  5
4C9
330
1F
100
AcDbEntity
  8
0
100
AcDbLine
 10
0.0571740384363852
 20
0.1050683866929105
 30
0.0
 11
0.0572898774188363
 21
0.1050683866929105
 31
0.0
  0
LINE
  5
4CA
330
1F
100
AcDbEntity
  8
0
100
AcDbLine
 10
0.0616412076516285
 20
0.1050683866929105
 30
0.0
 11
0.0619389305006957
 21
0.1050683866929105
 31
0.0
  0
LINE
  5
4CB
330
1F
100
AcDbEntity
  8
0
100
AcDbLine
 10
0.0635516212779499
 20
0.1050683866929105
 30
0.0
 11
0.0638488559829396
 21
0.1050683866929105
 31
0.0
  0
LINE
  5
4CC
330
1F
100
AcDbEntity
  8
0
100
AcDbLine
 10
0.0681855276723341
 20
0.1050683866929105
 30
0.0
 11
0.0683007865774451
 21
0.1050683866929105
 31
0.0
  0
LINE
  5
4CD
330
1F
100
AcDbEntity
  8
0
100
AcDbLine
 10
0.0740070470629338
 20
0.1050683866929105
 30
0.0
 11
0.0740531321390312
 21
0.1050683866929105
 31
0.0
  0
LINE
  5
4CE
330
1F
100
AcDbEntity
  8
0
100
AcDbLine
 10
0.0772252236722638
 20
0.1050683866929105
 30
0.0
 11
0.0774593387899617
 21
0.1050683866929105
 31
0.0
  0
LINE
  5
4CF
330
1F
100
AcDbEntity
  8
0
100
AcDbLine
 10
0.0784057988403954
 20
0.1050683866929105
 30
0.0
 11
0.0785290580784021
 21
0.1050683866929105
 31
0.0
  0
LINE
  5
4D0
330
1F
100
AcDbEntity
  8
0
100
AcDbLine
 10
0.0804719574066163
 20
0.1050683866929105
 30
0.0
 11
0.0805371391052492
 21
0.1050683866929105
 31
0.0
  0
LINE
  5
4D1
330
1F
100
AcDbEntity
  8
0
100
AcDbLine
 10
0.0447639093245874
 20
0.1050683866929105
 30
0.0
 11
0.0467967142426301
 21
0.1050683866929105
 31
0.0
  0
LINE
  5
4D2
330
1F
100
AcDbEntity
  8
0
100
AcDbLine
 10
0.0467967142426301
 20
0.1050683866929105
 30
0.0
 11
0.0469238946317987
 21
0.1050683866929105
 31
0.0
  0
LINE
  5
4D3
330
1F
100
AcDbEntity
  8
0
100
AcDbLine
 10
0.0478953540119647
 20
0.1050683866929105
 30
0.0
 11
0.0481346547222994
 21
0.1050683866929105
 31
0.0
  0
LINE
  5
4D4
330
1F
100
AcDbEntity
  8
0
100
AcDbLine
 10
0.0635390964342952
 20
0.1070683866929105
 30
0.0
 11
0.0635825111850717
 21
0.1070683866929105
 31
0.0
  0
LINE
  5
4D5
330
1F
100
AcDbEntity
  8
0
100
AcDbLine
 10
0.0619033359794751
 20
0.1070683866929105
 30
0.0
 11
0.0619468220296427
 21
0.1070683866929105
 31
0.0
  0
LINE
  5
4D6
330
1F
100
AcDbEntity
  8
0
100
AcDbLine
 10
0.0480810342522011
 20
0.1070683866929105
 30
0.0
 11
0.0481159870370726
 21
0.1070683866929105
 31
0.0
  0
LINE
  5
4D7
330
1F
100
AcDbEntity
  8
0
100
AcDbLine
 10
0.0772365498096326
 20
0.1070683866929105
 30
0.0
 11
0.0772707451755076
 21
0.1070683866929105
 31
0.0
  0
LINE
  5
4D8
330
1F
100
AcDbEntity
  8
0
100
AcDbLine
 10
0.0772707451755076
 20
0.1070683866929105
 30
0.0
 11
0.078223226627819
 21
0.1070683866929105
 31
0.0
  0
LINE
  5
4D9
330
1F
100
AcDbEntity
  8
0
100
AcDbLine
 10
0.0807611578496214
 20
0.1070683866929105
 30
0.0
 11
0.0813208745984174
 21
0.1070683866929105
 31
0.0
  0
LINE
  5
4DA
330
1F
100
AcDbEntity
  8
0
100
AcDbLine
 10
0.0745110927592527
 20
0.0734325990362653
 30
0.0
 11
0.0745110927592527
 21
0.0735562357544164
 31
0.0
  0
LINE
  5
4DB
330
1F
100
AcDbEntity
  8
0
100
AcDbLine
 10
0.0715444121952664
 20
0.0746578429557515
 30
0.0
 11
0.0712466450850975
 21
0.0746992841298246
 31
0.0
  0
LINE
  5
4DC
330
1F
100
AcDbEntity
  8
0
100
AcDbLine
 10
0.0678687967802894
 20
0.0750262373734025
 30
0.0
 11
0.0670081338964192
 21
0.0750999882602028
 31
0.0
  0
LINE
  5
4DD
330
1F
100
AcDbEntity
  8
0
100
AcDbLine
 10
0.0469598738919507
 20
0.0715683868605486
 30
0.0
 11
0.0450622827257525
 21
0.0715783864710322
 31
0.0
  0
LINE
  5
4DE
330
1F
100
AcDbEntity
  8
0
100
AcDbLine
 10
0.0564776484314158
 20
0.0749864209801968
 30
0.0
 11
0.0567112291674626
 21
0.075006072859575
 31
0.0
  0
LINE
  5
4DF
330
1F
100
AcDbEntity
  8
0
100
AcDbLine
 10
0.0582273827377271
 20
0.0751076771396985
 30
0.0
 11
0.0582594709891631
 21
0.075108947778719
 31
0.0
  0
LINE
  5
4E0
330
1F
100
AcDbEntity
  8
0
100
AcDbLine
 10
0.0582594709891631
 20
0.075108947778719
 30
0.0
 11
0.0583070243220341
 21
0.0751119263657985
 31
0.0
  0
LINE
  5
4E1
330
1F
100
AcDbEntity
  8
0
100
AcDbLine
 10
0.0529860757734191
 20
0.0745568231198778
 30
0.0
 11
0.0531667681574642
 21
0.0745844086029029
 31
0.0
  0
LINE
  5
4E2
330
1F
100
AcDbEntity
  8
0
100
AcDbLine
 10
0.0531667681574642
 20
0.0745844086029029
 30
0.0
 11
0.0535801534052503
 21
0.0746578429557515
 31
0.0
  0
LINE
  5
4E3
330
1F
100
AcDbEntity
  8
0
100
AcDbLine
 10
0.0535801534052503
 20
0.0746578429557515
 30
0.0
 11
0.0538779205154192
 21
0.0746992841298246
 31
0.0
  0
LINE
  5
4E4
330
1F
100
AcDbEntity
  8
0
100
AcDbLine
 10
0.050613472841264
 20
0.0734325990362653
 30
0.0
 11
0.050613472841264
 21
0.0736681547904929
 31
0.0
  0
LINE
  5
4E5
330
1F
100
AcDbEntity
  8
0
100
AcDbLine
 10
0.0518203234742891
 20
0.0742947941165259
 30
0.0
 11
0.0518714125088669
 21
0.0743062775241268
 31
0.0
  0
LINE
  5
4E6
330
1F
100
AcDbEntity
  8
0
100
AcDbLine
 10
0.0518714125088669
 20
0.0743062775241268
 30
0.0
 11
0.0519368105079543
 21
0.0743265005328864
 31
0.0
  0
LINE
  5
4E7
330
1F
100
AcDbEntity
  8
0
100
AcDbLine
 10
0.0519368105079543
 20
0.0743265005328864
 30
0.0
 11
0.0521026762645256
 21
0.0743646862303824
 31
0.0
  0
LINE
  5
4E8
330
1F
100
AcDbEntity
  8
0
100
AcDbLine
 10
-0.1962276365777991
 20
0.0723250211600511
 30
0.0
 11
-0.1961536557289189
 21
0.0723146238284305
 31
0.0
  0
LINE
  5
4E9
330
1F
100
AcDbEntity
  8
0
100
AcDbLine
 10
-0.203746406037725
 20
0.0733817153691703
 30
0.0
 11
-0.2036591467323929
 21
0.0733694518729638
 31
0.0
  0
LINE
  5
4EA
330
1F
100
AcDbEntity
  8
0
100
AcDbLine
 10
-0.065435814487423
 20
0.0715683866929105
 30
0.0
 11
-0.0654617987905042
 21
0.0715694320489952
 31
0.0
  0
LINE
  5
4EB
330
1F
100
AcDbEntity
  8
0
100
AcDbLine
 10
-0.0654617987905042
 20
0.0715694320489952
 30
0.0
 11
-0.0655391233745836
 21
0.0715683866929105
 31
0.0
  0
LINE
  5
4EC
330
1F
100
AcDbEntity
  8
0
100
AcDbLine
 10
-0.067751056392982
 20
0.0715683866929105
 30
0.0
 11
-0.0678228465253598
 21
0.0715683866929105
 31
0.0
  0
LINE
  5
4ED
330
1F
100
AcDbEntity
  8
0
100
AcDbLine
 10
-0.067751056392982
 20
0.0715683866929105
 30
0.0
 11
-0.0677869514591709
 21
0.0715683866929105
 31
0.0
  0
LINE
  5
4EE
330
1F
100
AcDbEntity
  8
0
100
AcDbLine
 10
-0.0564473149735379
 20
0.1050683866929105
 30
0.0
 11
-0.0564191294152412
 21
0.1050683866929105
 31
0.0
  0
LINE
  5
4EF
330
1F
100
AcDbEntity
  8
0
100
AcDbLine
 10
-0.052639414836281
 20
0.1050683866929105
 30
0.0
 11
-0.0526014635262436
 21
0.1050683866929105
 31
0.0
  0
LINE
  5
4F0
330
1F
100
AcDbEntity
  8
0
100
AcDbLine
 10
-0.0495374472312064
 20
0.1050683866929105
 30
0.0
 11
-0.0492662127560134
 21
0.1050683866929105
 31
0.0
  0
LINE
  5
4F1
330
1F
100
AcDbEntity
  8
0
100
AcDbLine
 10
-0.043796598306685
 20
0.1050683866929105
 30
0.0
 11
-0.0436297569872057
 21
0.1050683866929105
 31
0.0
  0
LINE
  5
4F2
330
1F
100
AcDbEntity
  8
0
100
AcDbLine
 10
-0.0436297569872057
 20
0.1050683866929105
 30
0.0
 11
-0.0420832034044344
 21
0.1050683866929105
 31
0.0
  0
LINE
  5
4F3
330
1F
100
AcDbEntity
  8
0
100
AcDbLine
 10
-0.0491565307756938
 20
0.1070683866929105
 30
0.0
 11
-0.0491169136753188
 21
0.1070683866929105
 31
0.0
  0
LINE
  5
4F4
330
1F
100
AcDbEntity
  8
0
100
AcDbLine
 10
-0.0155794888464527
 20
0.1184735378493035
 30
0.0
 11
-0.0156334961794804
 21
0.1172523571368149
 31
0.0
  0
LINE
  5
4F5
330
1F
100
AcDbEntity
  8
0
100
AcDbLine
 10
-0.0154730906954523
 20
0.1178183867078116
 30
0.0
 11
-0.0155132289074848
 21
0.1173084385882905
 31
0.0
  0
LINE
  5
4F6
330
1F
100
AcDbEntity
  8
0
100
AcDbLine
 10
-0.0154730906954523
 20
0.1178183867078116
 30
0.0
 11
-0.0154730907671641
 21
0.1173271553780726
 31
0.0
  0
LINE
  5
4F7
330
1F
100
AcDbEntity
  8
0
100
AcDbLine
 10
-0.0154730906954523
 20
0.1185145489353528
 30
0.0
 11
-0.0155111617947074
 21
0.1184735344512199
 31
0.0
  0
LINE
  5
4F8
330
1F
100
AcDbEntity
  8
0
100
AcDbLine
 10
-0.0153080085886199
 20
0.1180414710607221
 30
0.0
 11
-0.0154730906954523
 21
0.1179120905645033
 31
0.0
  0
LINE
  5
4F9
330
1F
100
AcDbEntity
  8
0
100
AcDbLine
 10
-0.0145280893969197
 20
0.121032975824208
 30
0.0
 11
-0.0145280893969197
 21
0.1209582232468603
 31
0.0
  0
LINE
  5
4FA
330
1F
100
AcDbEntity
  8
0
100
AcDbLine
 10
-0.0145280893969197
 20
0.1202205251966445
 30
0.0
 11
-0.0144949640173603
 21
0.1202848699531825
 31
0.0
  0
LINE
  5
4FB
330
1F
100
AcDbEntity
  8
0
100
AcDbLine
 10
-0.0145280893969197
 20
0.1209162481891764
 30
0.0
 11
-0.0145280893969197
 21
0.120871625701555
 31
0.0
  0
LINE
  5
4FC
330
1F
100
AcDbEntity
  8
0
100
AcDbLine
 10
-0.0145280893969197
 20
0.1209972314018598
 30
0.0
 11
-0.0145280893969197
 21
0.1209582232468603
 31
0.0
  0
LINE
  5
4FD
330
1F
100
AcDbEntity
  8
0
100
AcDbLine
 10
0.1711488736960807
 20
0.0925348130952097
 30
0.0
 11
0.1724369219015847
 21
0.0902074018382059
 31
0.0
  0
LINE
  5
4FE
330
1F
100
AcDbEntity
  8
0
100
AcDbLine
 10
0.1619048933349386
 20
0.1110430594085194
 30
0.0
 11
0.161850530407441
 21
0.1110947971605287
 31
0.0
  0
LINE
  5
4FF
330
1F
100
AcDbEntity
  8
0
100
AcDbLine
 10
0.151180851317526
 20
0.070267608447984
 30
0.0
 11
0.15143441270261
 21
0.0701245993689952
 31
0.0
  0
LINE
  5
500
330
1F
100
AcDbEntity
  8
0
100
AcDbLine
 10
0.1460950468178402
 20
0.0745060984632523
 30
0.0
 11
0.1469278607927206
 21
0.0736213856606257
 31
0.0
  0
LINE
  5
501
330
1F
100
AcDbEntity
  8
0
100
AcDbLine
 10
0.1638906097948115
 20
0.1110546589484961
 30
0.0
 11
0.1638437299999135
 21
0.1110564911843857
 31
0.0
  0
LINE
  5
502
330
1F
100
AcDbEntity
  8
0
100
AcDbLine
 10
0.1617462140652245
 20
0.1110305710773863
 30
0.0
 11
0.1614596532842666
 21
0.1110418818153515
 31
0.0
  0
LINE
  5
503
330
1F
100
AcDbEntity
  8
0
100
AcDbLine
 10
0.1614596532842666
 20
0.1110418818153515
 30
0.0
 11
0.1612339558057051
 21
0.1110546589484961
 31
0.0
  0
LINE
  5
504
330
1F
100
AcDbEntity
  8
0
100
AcDbLine
 10
0.175853367740024
 20
0.071576982619115
 30
0.0
 11
0.1756138597126614
 21
0.0713877808130444
 31
0.0
  0
LINE
  5
505
330
1F
100
AcDbEntity
  8
0
100
AcDbLine
 10
0.1605847426241641
 20
0.1110054867756812
 30
0.0
 11
0.1606111489751784
 21
0.1110085438841071
 31
0.0
  0
LINE
  5
506
330
1F
100
AcDbEntity
  8
0
100
AcDbLine
 10
0.1599059866718512
 20
0.1110947971605287
 30
0.0
 11
0.16003536716807
 21
0.1112598792673611
 31
0.0
  0
LINE
  5
507
330
1F
100
AcDbEntity
  8
0
100
AcDbLine
 10
0.1616217273846764
 20
0.1110947971605287
 30
0.0
 11
0.161746211949796
 21
0.1110793140817335
 31
0.0
  0
LINE
  5
508
330
1F
100
AcDbEntity
  8
0
100
AcDbLine
 10
0.1623892277863837
 20
0.1120729238386206
 30
0.0
 11
0.1624298845136547
 21
0.1120608881787983
 31
0.0
  0
LINE
  5
509
330
1F
100
AcDbEntity
  8
0
100
AcDbLine
 10
0.1622971471376281
 20
0.1120729238386206
 30
0.0
 11
0.1623257141979002
 21
0.112060888176688
 31
0.0
  0
LINE
  5
50A
330
1F
100
AcDbEntity
  8
0
100
AcDbLine
 10
0.1621724462463084
 20
0.1120397984590613
 30
0.0
 11
0.1622370457777783
 21
0.1120729238386206
 31
0.0
  0
LINE
  5
50B
330
1F
100
AcDbEntity
  8
0
100
AcDbLine
 10
0.1638437299999135
 20
0.1110564911843857
 30
0.0
 11
0.1639161828029949
 21
0.1110523350780164
 31
0.0
  0
LINE
  5
50C
330
1F
100
AcDbEntity
  8
0
100
AcDbLine
 10
0.1639161828029949
 20
0.1110523350780164
 30
0.0
 11
0.1639372827928077
 21
0.1110947971605287
 31
0.0
  0
LINE
  5
50D
330
1F
100
AcDbEntity
  8
0
100
AcDbLine
 10
0.1629101442965243
 20
0.1120397984590613
 30
0.0
 11
0.1628655218089029
 21
0.1120397984590613
 31
0.0
  0
LINE
  5
50E
330
1F
100
AcDbEntity
  8
0
100
AcDbLine
 10
0.1629521193542081
 20
0.1120397984590613
 30
0.0
 11
0.1629101442965243
 21
0.1120397984590613
 31
0.0
  0
LINE
  5
50F
330
1F
100
AcDbEntity
  8
0
100
AcDbLine
 10
0.1629911275092076
 20
0.1120397984590613
 30
0.0
 11
0.1629521193542081
 21
0.1120397984590613
 31
0.0
  0
LINE
  5
510
330
1F
100
AcDbEntity
  8
0
100
AcDbLine
 10
0.1630268719315558
 20
0.1120397984590613
 30
0.0
 11
0.1629521193542081
 21
0.1120397984590613
 31
0.0
  0
LINE
  5
511
330
1F
100
AcDbEntity
  8
0
100
AcDbLine
 10
0.1800622828747641
 20
0.0757625055820528
 30
0.0
 11
0.180062090524604
 21
0.0727241351436883
 31
0.0
  0
LINE
  5
512
330
1F
100
AcDbEntity
  8
0
100
AcDbLine
 10
0.1734773336100751
 20
0.0700075686107986
 30
0.0
 11
0.1734189103073914
 21
0.0699743641924351
 31
0.0
  0
LINE
  5
513
330
1F
100
AcDbEntity
  8
0
100
AcDbLine
 10
0.1450903047579339
 20
-0.0820220054816728
 30
0.0
 11
0.1450686231698406
 21
-0.0820542025058684
 31
0.0
  0
LINE
  5
514
330
1F
100
AcDbEntity
  8
0
100
AcDbLine
 10
0.1450722599934492
 20
-0.0818387940494673
 30
0.0
 11
0.1450652592327011
 21
-0.0818968164413389
 31
0.0
  0
LINE
  5
515
330
1F
100
AcDbEntity
  8
0
100
AcDbLine
 10
0.1796584688569914
 20
0.0752557917153985
 30
0.0
 11
0.1799289866651019
 21
0.0756095218098849
 31
0.0
  0
LINE
  5
516
330
1F
100
AcDbEntity
  8
0
100
AcDbLine
 10
0.0719577974430525
 20
0.0745844086029029
 30
0.0
 11
0.0721384898270976
 21
0.0745568231198778
 31
0.0
  0
LINE
  5
517
330
1F
100
AcDbEntity
  8
0
100
AcDbLine
 10
0.0649719563290041
 20
0.0749726925755067
 30
0.0
 11
0.0660052844009179
 21
0.0750063902069383
 31
0.0
  0
LINE
  5
518
330
1F
100
AcDbEntity
  8
0
100
AcDbLine
 10
0.0680848473194551
 20
0.075025372283314
 30
0.0
 11
0.068044741899415
 21
0.0750281515791144
 31
0.0
  0
LINE
  5
519
330
1F
100
AcDbEntity
  8
0
100
AcDbLine
 10
0.0681389608863306
 20
0.0750291569123669
 30
0.0
 11
0.0680848473194551
 21
0.075025372283314
 31
0.0
  0
LINE
  5
51A
330
1F
100
AcDbEntity
  8
0
100
AcDbLine
 10
0.0705310084368598
 20
0.0747145048090279
 30
0.0
 11
0.0711986443697647
 21
0.0747003050438477
 31
0.0
  0
LINE
  5
51B
330
1F
100
AcDbEntity
  8
0
100
AcDbLine
 10
0.0511177121881233
 20
0.0730583705191206
 30
0.0
 11
0.0521026762645256
 21
0.0730715436054249
 31
0.0
  0
LINE
  5
51C
330
1F
100
AcDbEntity
  8
0
100
AcDbLine
 10
0.0805371391052492
 20
0.1050683866929105
 30
0.0
 11
0.0809945067838792
 21
0.1050683866929105
 31
0.0
  0
LINE
  5
51D
330
1F
100
AcDbEntity
  8
0
100
AcDbLine
 10
0.0809945067838792
 20
0.1050683866929105
 30
0.0
 11
0.0815613993530062
 21
0.1050683866929105
 31
0.0
  0
LINE
  5
51E
330
1F
100
AcDbEntity
  8
0
100
AcDbLine
 10
0.0435631662475103
 20
0.1050683866929105
 30
0.0
 11
0.0441303557548078
 21
0.1050683866929105
 31
0.0
  0
LINE
  5
51F
330
1F
100
AcDbEntity
  8
0
100
AcDbLine
 10
0.0441303557548078
 20
0.1050683866929105
 30
0.0
 11
0.0442223624795599
 21
0.1050683866929105
 31
0.0
  0
LINE
  5
520
330
1F
100
AcDbEntity
  8
0
100
AcDbLine
 10
0.0442223624795599
 20
0.1050683866929105
 30
0.0
 11
0.0447094610164738
 21
0.1050683866929105
 31
0.0
  0
LINE
  5
521
330
1F
100
AcDbEntity
  8
0
100
AcDbLine
 10
0.0447094610164738
 20
0.1050683866929105
 30
0.0
 11
0.0447639093245874
 21
0.1050683866929105
 31
0.0
  0
LINE
  5
522
330
1F
100
AcDbEntity
  8
0
100
AcDbLine
 10
0.0745110927592527
 20
0.0735562357544164
 30
0.0
 11
0.0745110927592527
 21
0.073668154790493
 31
0.0
  0
LINE
  5
523
330
1F
100
AcDbEntity
  8
0
100
AcDbLine
 10
0.0711986443697647
 20
0.0747003050438477
 30
0.0
 11
0.0708124505581248
 21
0.0747934402810368
 31
0.0
  0
LINE
  5
524
330
1F
100
AcDbEntity
  8
0
100
AcDbLine
 10
0.0708124505581248
 20
0.0747934402810368
 30
0.0
 11
0.0706466302718532
 21
0.0747845785211613
 31
0.0
  0
LINE
  5
525
330
1F
100
AcDbEntity
  8
0
100
AcDbLine
 10
0.068044741899415
 20
0.0750281515791144
 30
0.0
 11
0.0678687967802894
 21
0.0750262373734025
 31
0.0
  0
LINE
  5
526
330
1F
100
AcDbEntity
  8
0
100
AcDbLine
 10
0.0509464965995865
 20
0.0739524116565032
 30
0.0
 11
0.0510203751246941
 21
0.0740074149783542
 31
0.0
  0
LINE
  5
527
330
1F
100
AcDbEntity
  8
0
100
AcDbLine
 10
-0.0266823154440447
 20
0.1050683866929105
 30
0.0
 11
-0.0268844801217857
 21
0.1050683866929105
 31
0.0
  0
LINE
  5
528
330
1F
100
AcDbEntity
  8
0
100
AcDbLine
 10
-0.030971032977158
 20
0.1050683866929105
 30
0.0
 11
-0.0325084815757052
 21
0.1050683866929105
 31
0.0
  0
LINE
  5
529
330
1F
100
AcDbEntity
  8
0
100
AcDbLine
 10
-0.0492662127560134
 20
0.1050683866929105
 30
0.0
 11
-0.0479603692985224
 21
0.1050683866929105
 31
0.0
  0
LINE
  5
52A
330
1F
100
AcDbEntity
  8
0
100
AcDbLine
 10
-0.0479603692985224
 20
0.1050683866929105
 30
0.0
 11
-0.0477557902952958
 21
0.1050683866929105
 31
0.0
  0
LINE
  5
52B
330
1F
100
AcDbEntity
  8
0
100
AcDbLine
 10
-0.0491169136753188
 20
0.1070683866929105
 30
0.0
 11
-0.0478276021053622
 21
0.1070683866929105
 31
0.0
  0
LINE
  5
52C
330
1F
100
AcDbEntity
  8
0
100
AcDbLine
 10
-0.0478276021053622
 20
0.1070683866929105
 30
0.0
 11
-0.0477977208489338
 21
0.1070683866929105
 31
0.0
  0
LINE
  5
52D
330
1F
100
AcDbEntity
  8
0
100
AcDbLine
 10
-0.0155248833283974
 20
0.122037982044279
 30
0.0
 11
-0.0155520595210345
 21
0.1215374334108525
 31
0.0
  0
LINE
  5
52E
330
1F
100
AcDbEntity
  8
0
100
AcDbLine
 10
-0.0145280893969197
 20
0.121065184422194
 30
0.0
 11
-0.0145280893969197
 21
0.121032975824208
 31
0.0
  0
LINE
  5
52F
330
1F
100
AcDbEntity
  8
0
100
AcDbLine
 10
0.1619664768665593
 20
0.1110947971605287
 30
0.0
 11
0.1619048933349386
 21
0.1110430594085194
 31
0.0
  0
LINE
  5
530
330
1F
100
AcDbEntity
  8
0
100
AcDbLine
 10
0.1430047752951872
 20
0.0790341658275916
 30
0.0
 11
0.1430822499539267
 21
0.0788708869955094
 31
0.0
  0
LINE
  5
531
330
1F
100
AcDbEntity
  8
0
100
AcDbLine
 10
0.1416797518320889
 20
0.082198133642487
 30
0.0
 11
0.1419919245387923
 21
0.0812934898427279
 31
0.0
  0
LINE
  5
532
330
1F
100
AcDbEntity
  8
0
100
AcDbLine
 10
0.1408597654552322
 20
0.085542333661011
 30
0.0
 11
0.140922645151199
 21
0.0851291865697653
 31
0.0
  0
LINE
  5
533
330
1F
100
AcDbEntity
  8
0
100
AcDbLine
 10
0.1844018772687327
 20
0.091746604128793
 30
0.0
 11
0.1843018631510915
 21
0.0924037406042743
 31
0.0
  0
LINE
  5
534
330
1F
100
AcDbEntity
  8
0
100
AcDbLine
 10
0.1835661419178855
 20
0.0956398645071836
 30
0.0
 11
0.1835010639057872
 21
0.0958284537684519
 31
0.0
  0
LINE
  5
535
330
1F
100
AcDbEntity
  8
0
100
AcDbLine
 10
0.1826240793313395
 20
0.0981238792306335
 30
0.0
 11
0.1822051400515087
 21
0.0989842981163836
 31
0.0
  0
LINE
  5
536
330
1F
100
AcDbEntity
  8
0
100
AcDbLine
 10
0.180667927532972
 20
0.1015922213560493
 30
0.0
 11
0.1804202472723769
 21
0.1019288287902664
 31
0.0
  0
LINE
  5
537
330
1F
100
AcDbEntity
  8
0
100
AcDbLine
 10
0.1761300983350288
 20
0.1064128336152585
 30
0.0
 11
0.1755947033752202
 21
0.1068067844009121
 31
0.0
  0
LINE
  5
538
330
1F
100
AcDbEntity
  8
0
100
AcDbLine
 10
0.1727861930127751
 20
0.1085748300543578
 30
0.0
 11
0.1726068215593744
 21
0.1086621662911075
 31
0.0
  0
LINE
  5
539
330
1F
100
AcDbEntity
  8
0
100
AcDbLine
 10
0.1703635901655565
 20
0.1096651554694922
 30
0.0
 11
0.1694589463657972
 21
0.1099773281761957
 31
0.0
  0
LINE
  5
53A
330
1F
100
AcDbEntity
  8
0
100
AcDbLine
 10
0.1665278934385191
 20
0.1107344348570855
 30
0.0
 11
0.1661147463472734
 21
0.1107973145530523
 31
0.0
  0
LINE
  5
53B
330
1F
100
AcDbEntity
  8
0
100
AcDbLine
 10
0.1599104758794914
 20
0.1109343916765006
 30
0.0
 11
0.1592533394040102
 21
0.1108343775588593
 31
0.0
  0
LINE
  5
53C
330
1F
100
AcDbEntity
  8
0
100
AcDbLine
 10
0.1560172155011009
 20
0.1100986563256533
 30
0.0
 11
0.1559635444572201
 21
0.1100659692849777
 31
0.0
  0
LINE
  5
53D
330
1F
100
AcDbEntity
  8
0
100
AcDbLine
 10
0.153533200777651
 20
0.1091565937391074
 30
0.0
 11
0.1528776949401537
 21
0.1088225322160924
 31
0.0
  0
LINE
  5
53E
330
1F
100
AcDbEntity
  8
0
100
AcDbLine
 10
0.1500648586522352
 20
0.1072004419407399
 30
0.0
 11
0.1497282512180181
 21
0.1069527616801448
 31
0.0
  0
LINE
  5
53F
330
1F
100
AcDbEntity
  8
0
100
AcDbLine
 10
0.145244246393026
 20
0.1026626127427966
 30
0.0
 11
0.1449199998401883
 21
0.1022088309955119
 31
0.0
  0
LINE
  5
540
330
1F
100
AcDbEntity
  8
0
100
AcDbLine
 10
0.1419919245387923
 20
0.0968961045733244
 30
0.0
 11
0.1416797518320889
 21
0.0959914607735653
 31
0.0
  0
LINE
  5
541
330
1F
100
AcDbEntity
  8
0
100
AcDbLine
 10
0.140922645151199
 20
0.093060407846287
 30
0.0
 11
0.1408597654552322
 21
0.0926472607550413
 31
0.0
  0
LINE
  5
542
330
1F
100
AcDbEntity
  8
0
100
AcDbLine
 10
0.1838501990402052
 20
0.0835447246796043
 30
0.0
 11
0.1835491175829119
 21
0.0825612987833966
 31
0.0
  0
LINE
  5
543
330
1F
100
AcDbEntity
  8
0
100
AcDbLine
 10
0.1630590805295418
 20
0.1120397984590613
 30
0.0
 11
0.1629911275092076
 21
0.1120397984590613
 31
0.0
  0
LINE
  5
544
330
1F
100
AcDbEntity
  8
0
100
AcDbLine
 10
0.1630268719315558
 20
0.1120397984590613
 30
0.0
 11
0.1629911275092076
 21
0.1120397984590613
 31
0.0
  0
LINE
  5
545
330
1F
100
AcDbEntity
  8
0
100
AcDbLine
 10
0.1730075426939345
 20
0.0697485750087232
 30
0.0
 11
0.1734189103073914
 21
0.0699743641924351
 31
0.0
  0
LINE
  5
546
330
1F
100
AcDbEntity
  8
0
100
AcDbLine
 10
0.173728222475133
 20
0.070150159297314
 30
0.0
 11
0.1740632132138621
 21
0.070342810883239
 31
0.0
  0
LINE
  5
547
330
1F
100
AcDbEntity
  8
0
100
AcDbLine
 10
0.1782527697573281
 20
0.0736857312822121
 30
0.0
 11
0.1784216333623539
 21
0.0738531814261036
 31
0.0
  0
LINE
  5
548
330
1F
100
AcDbEntity
  8
0
100
AcDbLine
 10
0.1804388799540522
 20
0.076291171377283
 30
0.0
 11
0.1804967356739202
 21
0.0763788627609456
 31
0.0
  0
LINE
  5
549
330
1F
100
AcDbEntity
  8
0
100
AcDbLine
 10
0.0565622827481042
 20
0.0715683868605486
 30
0.0
 11
0.0564875599439752
 21
0.0716548655251952
 31
0.0
  0
LINE
  5
54A
330
1F
100
AcDbEntity
  8
0
100
AcDbLine
 10
0.0536319256271732
 20
0.0733928528470207
 30
0.0
 11
0.0536622830178153
 21
0.0735503769133791
 31
0.0
  0
LINE
  5
54B
330
1F
100
AcDbEntity
  8
0
100
AcDbLine
 10
0.0684133364330542
 20
0.075006072859575
 30
0.0
 11
0.0683632440055816
 21
0.0750060794610519
 31
0.0
  0
LINE
  5
54C
330
1F
100
AcDbEntity
  8
0
100
AcDbLine
 10
0.0543070441554796
 20
0.0747590066003706
 30
0.0
 11
0.0544779353286635
 21
0.0747845785211613
 31
0.0
  0
LINE
  5
54D
330
1F
100
AcDbEntity
  8
0
100
AcDbLine
 10
-0.2136653538751883
 20
0.0747757326457755
 30
0.0
 11
-0.2136100842267583
 21
0.0747679645377488
 31
0.0
  0
LINE
  5
54E
330
1F
100
AcDbEntity
  8
0
100
AcDbLine
 10
-0.0251282908185581
 20
0.1050683866929105
 30
0.0
 11
-0.0253949613998026
 21
0.1050683866929105
 31
0.0
  0
LINE
  5
54F
330
1F
100
AcDbEntity
  8
0
100
AcDbLine
 10
-0.0253949613998026
 20
0.1050683866929105
 30
0.0
 11
-0.0266823154440447
 21
0.1050683866929105
 31
0.0
  0
LINE
  5
550
330
1F
100
AcDbEntity
  8
0
100
AcDbLine
 10
-0.0564191294152412
 20
0.1050683866929105
 30
0.0
 11
-0.0556169813828486
 21
0.1050683866929105
 31
0.0
  0
LINE
  5
551
330
1F
100
AcDbEntity
  8
0
100
AcDbLine
 10
-0.0556169813828486
 20
0.1050683866929105
 30
0.0
 11
-0.055585781541865
 21
0.1050683866929105
 31
0.0
  0
LINE
  5
552
330
1F
100
AcDbEntity
  8
0
100
AcDbLine
 10
-0.0192241620387173
 20
0.1050683866929105
 30
0.0
 11
-0.0192531340153413
 21
0.1050683866929105
 31
0.0
  0
LINE
  5
553
330
1F
100
AcDbEntity
  8
0
100
AcDbLine
 10
-0.0145280893969197
 20
0.1202205251966445
 30
0.0
 11
-0.0144949640173603
 21
0.1202547044731984
 31
0.0
  0
LINE
  5
554
330
1F
100
AcDbEntity
  8
0
100
AcDbLine
 10
0.1492115220709908
 20
0.0716170489663971
 30
0.0
 11
0.1495298622252963
 21
0.0713828100151403
 31
0.0
  0
LINE
  5
555
330
1F
100
AcDbEntity
  8
0
100
AcDbLine
 10
0.1451179839669445
 20
0.0756985773877434
 30
0.0
 11
0.145244246393026
 21
0.0755269816732557
 31
0.0
  0
LINE
  5
556
330
1F
100
AcDbEntity
  8
0
100
AcDbLine
 10
0.1609849476232688
 20
0.1110947971605287
 30
0.0
 11
0.1608772971200901
 21
0.1110298696226997
 31
0.0
  0
LINE
  5
557
330
1F
100
AcDbEntity
  8
0
100
AcDbLine
 10
0.17707519676416
 20
0.0725664515635521
 30
0.0
 11
0.1762506897449837
 21
0.0718968841244754
 31
0.0
  0
LINE
  5
558
330
1F
100
AcDbEntity
  8
0
100
AcDbLine
 10
0.1843367555408659
 20
0.0860876322794704
 30
0.0
 11
0.1842975090397519
 21
0.0857305295894896
 31
0.0
  0
LINE
  5
559
330
1F
100
AcDbEntity
  8
0
100
AcDbLine
 10
0.1630875081616018
 20
0.1120397984590613
 30
0.0
 11
0.1630268719315558
 21
0.1120397984590613
 31
0.0
  0
LINE
  5
55A
330
1F
100
AcDbEntity
  8
0
100
AcDbLine
 10
0.1630590805295418
 20
0.1120397984590613
 30
0.0
 11
0.1630268719315558
 21
0.1120397984590613
 31
0.0
  0
LINE
  5
55B
330
1F
100
AcDbEntity
  8
0
100
AcDbLine
 10
0.0686370056565416
 20
0.0716548655251952
 30
0.0
 11
0.0685622828524123
 21
0.0715683868605486
 31
0.0
  0
LINE
  5
55C
330
1F
100
AcDbEntity
  8
0
100
AcDbLine
 10
0.0683632440055816
 20
0.0750060794610519
 30
0.0
 11
0.0681389608863306
 21
0.0750291569123669
 31
0.0
  0
LINE
  5
55D
330
1F
100
AcDbEntity
  8
0
100
AcDbLine
 10
-0.0220889426581363
 20
0.1050683866929105
 30
0.0
 11
-0.0221259984448264
 21
0.1050683866929105
 31
0.0
  0
LINE
  5
55E
330
1F
100
AcDbEntity
  8
0
100
AcDbLine
 10
-0.0156334961794804
 20
0.1349683858644059
 30
0.0
 11
-0.0155432527172738
 21
0.1226683866180321
 31
0.0
  0
LINE
  5
55F
330
1F
100
AcDbEntity
  8
0
100
AcDbLine
 10
-0.0155432527172738
 20
0.1226683866180321
 30
0.0
 11
-0.0155425190292351
 21
0.1225683864395908
 31
0.0
  0
LINE
  5
560
330
1F
100
AcDbEntity
  8
0
100
AcDbLine
 10
-0.0145280893969197
 20
0.1201785501389606
 30
0.0
 11
-0.0144949640173603
 21
0.1202235937299049
 31
0.0
  0
LINE
  5
561
330
1F
100
AcDbEntity
  8
0
100
AcDbLine
 10
-0.0648153357211025
 20
0.0715683866929105
 30
0.0
 11
-0.0643324708675037
 21
0.0715693514414517
 31
0.0
  0
LINE
  5
562
330
1F
100
AcDbEntity
  8
0
100
AcDbLine
 10
0.1448502956073724
 20
0.0760623766330642
 30
0.0
 11
0.1450622827257525
 21
0.0757625055820528
 31
0.0
  0
LINE
  5
563
330
1F
100
AcDbEntity
  8
0
100
AcDbLine
 10
0.1639161828029949
 20
0.1110523350780164
 30
0.0
 11
0.1638906097948115
 21
0.1110546589484961
 31
0.0
  0
LINE
  5
564
330
1F
100
AcDbEntity
  8
0
100
AcDbLine
 10
0.1430822499539267
 20
0.099318707420543
 30
0.0
 11
0.1429949137171769
 21
0.0991393359671423
 31
0.0
  0
LINE
  5
565
330
1F
100
AcDbEntity
  8
0
100
AcDbLine
 10
0.1631321857427742
 20
0.1120397984590613
 30
0.0
 11
0.1630590805295418
 21
0.1120397984590613
 31
0.0
  0
LINE
  5
566
330
1F
100
AcDbEntity
  8
0
100
AcDbLine
 10
0.1630875081616018
 20
0.1120397984590613
 30
0.0
 11
0.1630590805295418
 21
0.1120397984590613
 31
0.0
  0
LINE
  5
567
330
1F
100
AcDbEntity
  8
0
100
AcDbLine
 10
-0.0155111617947074
 20
0.1184735344512199
 30
0.0
 11
-0.0154730906954523
 21
0.1183157185505918
 31
0.0
  0
LINE
  5
568
330
1F
100
AcDbEntity
  8
0
100
AcDbLine
 10
-0.0594730905287455
 20
0.071569004595594
 30
0.0
 11
-0.0643324708675037
 21
0.0715693514414517
 31
0.0
  0
LINE
  5
569
330
1F
100
AcDbEntity
  8
0
100
AcDbLine
 10
0.1489944672654878
 20
0.0717767608007939
 30
0.0
 11
0.1490889045484365
 21
0.0717072725825522
 31
0.0
  0
LINE
  5
56A
330
1F
100
AcDbEntity
  8
0
100
AcDbLine
 10
0.1631687608175475
 20
0.1120397984590613
 30
0.0
 11
0.1631321857427742
 21
0.1120397984590613
 31
0.0
  0
LINE
  5
56B
330
1F
100
AcDbEntity
  8
0
100
AcDbLine
 10
0.1631321857427742
 20
0.1120397984590613
 30
0.0
 11
0.1630875081616018
 21
0.1120397984590613
 31
0.0
  0
LINE
  5
56C
330
1F
100
AcDbEntity
  8
0
100
AcDbLine
 10
0.0612622827967193
 20
0.0701228968124449
 30
0.0
 11
0.0612622827967193
 21
0.0701930601927152
 31
0.0
  0
LINE
  5
56D
330
1F
100
AcDbEntity
  8
0
100
AcDbLine
 10
-0.0154864086799811
 20
0.1187206272225669
 30
0.0
 11
-0.0155794888464527
 21
0.1184735378493035
 31
0.0
  0
LINE
  5
56E
330
1F
100
AcDbEntity
  8
0
100
AcDbLine
 10
-0.0154730906954523
 20
0.1221457218698999
 30
0.0
 11
-0.0155196675447723
 21
0.1221042121669466
 31
0.0
  0
LINE
  5
56F
330
1F
100
AcDbEntity
  8
0
100
AcDbLine
 10
-0.0154997008106663
 20
0.1223793184400738
 30
0.0
 11
-0.0155022310660989
 21
0.122338670720238
 31
0.0
  0
LINE
  5
570
330
1F
100
AcDbEntity
  8
0
100
AcDbLine
 10
-0.0155425190292351
 20
0.1225683864395908
 30
0.0
 11
-0.0154891331779092
 21
0.1225033336502411
 31
0.0
  0
LINE
  5
571
330
1F
100
AcDbEntity
  8
0
100
AcDbLine
 10
-0.0570690079622458
 20
0.1299683869074872
 30
0.0
 11
-0.0570690079622458
 21
0.1349683858644059
 31
0.0
  0
LINE
  5
572
330
1F
100
AcDbEntity
  8
0
100
AcDbLine
 10
-0.0529756194634845
 20
0.0865683865252724
 30
0.0
 11
-0.0508053822739281
 21
0.0865583869147888
 31
0.0
  0
LINE
  5
573
330
1F
100
AcDbEntity
  8
0
100
AcDbLine
 10
-0.0155668215827367
 20
0.1211153572883255
 30
0.0
 11
-0.0155601024619472
 21
0.1213428988906343
 31
0.0
  0
LINE
  5
574
330
1F
100
AcDbEntity
  8
0
100
AcDbLine
 10
0.174737522647542
 20
0.0707943851301843
 30
0.0
 11
0.1752581515239899
 21
0.0711451119862037
 31
0.0
  0
LINE
  5
575
330
1F
100
AcDbEntity
  8
0
100
AcDbLine
 10
0.1771184048488112
 20
0.0726020390181337
 30
0.0
 11
0.1772787676022858
 21
0.0727553472828617
 31
0.0
  0
LINE
  5
576
330
1F
100
AcDbEntity
  8
0
100
AcDbLine
 10
0.1788051638772435
 20
0.0742817435578194
 30
0.0
 11
0.1792395278081375
 21
0.074774155222566
 31
0.0
  0
LINE
  5
577
330
1F
100
AcDbEntity
  8
0
100
AcDbLine
 10
0.1819250783397547
 20
0.0786769529471791
 30
0.0
 11
0.1820385247062097
 21
0.0789015525164671
 31
0.0
  0
LINE
  5
578
330
1F
100
AcDbEntity
  8
0
100
AcDbLine
 10
0.1829754638123588
 20
0.0809442564427305
 30
0.0
 11
0.1831895431858204
 21
0.0814760954911047
 31
0.0
  0
LINE
  5
579
330
1F
100
AcDbEntity
  8
0
100
AcDbLine
 10
0.1843367555408659
 20
0.0860876322794704
 30
0.0
 11
0.1844193224971228
 21
0.0867313931329695
 31
0.0
  0
LINE
  5
57A
330
1F
100
AcDbEntity
  8
0
100
AcDbLine
 10
0.1606111489751784
 20
0.1110085438841071
 30
0.0
 11
0.1608772971200901
 21
0.1110298696226997
 31
0.0
  0
LINE
  5
57B
330
1F
100
AcDbEntity
  8
0
100
AcDbLine
 10
0.0601526092715126
 20
0.0749726925755067
 30
0.0
 11
0.0590707188449365
 21
0.0749285349290707
 31
0.0
  0
LINE
  5
57C
330
1F
100
AcDbEntity
  8
0
100
AcDbLine
 10
0.0583070243220341
 20
0.0751119263657985
 30
0.0
 11
0.0596904949262303
 21
0.0751719247868007
 31
0.0
  0
LINE
  5
57D
330
1F
100
AcDbEntity
  8
0
100
AcDbLine
 10
0.0638622828037974
 20
0.070892152300388
 30
0.0
 11
0.0638622828037974
 21
0.0712870329073158
 31
0.0
  0
LINE
  5
57E
330
1F
100
AcDbEntity
  8
0
100
AcDbLine
 10
0.0638622828037974
 20
0.0701525194407353
 30
0.0
 11
0.0638622828037974
 21
0.070892152300388
 31
0.0
  0
LINE
  5
57F
330
1F
100
AcDbEntity
  8
0
100
AcDbLine
 10
0.0638622828037974
 20
0.0719916883311282
 30
0.0
 11
0.0638622828037974
 21
0.0712870329073158
 31
0.0
  0
LINE
  5
580
330
1F
100
AcDbEntity
  8
0
100
AcDbLine
 10
0.0612622827967193
 20
0.0719916883311282
 30
0.0
 11
0.0612622827967193
 21
0.0712870329073158
 31
0.0
  0
LINE
  5
581
330
1F
100
AcDbEntity
  8
0
100
AcDbLine
 10
0.0612622827967193
 20
0.0712870329073158
 30
0.0
 11
0.0612622827967193
 21
0.070892152300388
 31
0.0
  0
LINE
  5
582
330
1F
100
AcDbEntity
  8
0
100
AcDbLine
 10
0.0612622827967193
 20
0.0701930601927152
 30
0.0
 11
0.0612622827967193
 21
0.070892152300388
 31
0.0
  0
LINE
  5
583
330
1F
100
AcDbEntity
  8
0
100
AcDbLine
 10
0.0525622830237757
 20
0.1349683866370311
 30
0.0
 11
0.0725622825767408
 21
0.1349683866370311
 31
0.0
  0
LINE
  5
584
330
1F
100
AcDbEntity
  8
0
100
AcDbLine
 10
0.0725622825767408
 20
0.1299683867487899
 30
0.0
 11
0.0525622830237757
 21
0.1299683867487899
 31
0.0
  0
LINE
  5
585
330
1F
100
AcDbEntity
  8
0
100
AcDbLine
 10
0.0685622828524123
 20
0.0715683868605486
 30
0.0
 11
0.0678732317229992
 21
0.0715683866929105
 31
0.0
  0
LINE
  5
586
330
1F
100
AcDbEntity
  8
0
100
AcDbLine
 10
0.0572513338775175
 20
0.0715683866929105
 30
0.0
 11
0.0565622827481042
 21
0.0715683868605486
 31
0.0
  0
LINE
  5
587
330
1F
100
AcDbEntity
  8
0
100
AcDbLine
 10
0.051365227590088
 20
0.1050683866929105
 30
0.0
 11
0.0481346547222994
 21
0.1050683866929105
 31
0.0
  0
LINE
  5
588
330
1F
100
AcDbEntity
  8
0
100
AcDbLine
 10
0.0571740384363852
 20
0.1050683866929105
 30
0.0
 11
0.0514120357607981
 21
0.1050683866929105
 31
0.0
  0
LINE
  5
589
330
1F
100
AcDbEntity
  8
0
100
AcDbLine
 10
0.0572898774188363
 20
0.1050683866929105
 30
0.0
 11
0.0616412076516285
 21
0.1050683866929105
 31
0.0
  0
LINE
  5
58A
330
1F
100
AcDbEntity
  8
0
100
AcDbLine
 10
0.0619389305006957
 20
0.1050683866929105
 30
0.0
 11
0.0635516212779499
 21
0.1050683866929105
 31
0.0
  0
LINE
  5
58B
330
1F
100
AcDbEntity
  8
0
100
AcDbLine
 10
0.0638488559829396
 20
0.1050683866929105
 30
0.0
 11
0.0681855276723341
 21
0.1050683866929105
 31
0.0
  0
LINE
  5
58C
330
1F
100
AcDbEntity
  8
0
100
AcDbLine
 10
0.0740070470629338
 20
0.1050683866929105
 30
0.0
 11
0.0683007865774451
 21
0.1050683866929105
 31
0.0
  0
LINE
  5
58D
330
1F
100
AcDbEntity
  8
0
100
AcDbLine
 10
0.0740531321390312
 20
0.1050683866929105
 30
0.0
 11
0.0772252236722638
 21
0.1050683866929105
 31
0.0
  0
LINE
  5
58E
330
1F
100
AcDbEntity
  8
0
100
AcDbLine
 10
0.0774593387899617
 20
0.1050683866929105
 30
0.0
 11
0.0784057988403954
 21
0.1050683866929105
 31
0.0
  0
LINE
  5
58F
330
1F
100
AcDbEntity
  8
0
100
AcDbLine
 10
0.0785290580784021
 20
0.1050683866929105
 30
0.0
 11
0.0804719574066163
 21
0.1050683866929105
 31
0.0
  0
LINE
  5
590
330
1F
100
AcDbEntity
  8
0
100
AcDbLine
 10
0.084562282681049
 20
0.1050683866929105
 30
0.0
 11
0.0815613993530062
 21
0.1050683866929105
 31
0.0
  0
LINE
  5
591
330
1F
100
AcDbEntity
  8
0
100
AcDbLine
 10
0.0435631662475103
 20
0.1050683866929105
 30
0.0
 11
0.0405622829194675
 21
0.1050683866929105
 31
0.0
  0
LINE
  5
592
330
1F
100
AcDbEntity
  8
0
100
AcDbLine
 10
0.0469238946317987
 20
0.1050683866929105
 30
0.0
 11
0.0478953540119647
 21
0.1050683866929105
 31
0.0
  0
LINE
  5
593
330
1F
100
AcDbEntity
  8
0
100
AcDbLine
 10
0.0406622827495943
 20
0.1350683875571778
 30
0.0
 11
0.0523622824321996
 21
0.1350683875571778
 31
0.0
  0
LINE
  5
594
330
1F
100
AcDbEntity
  8
0
100
AcDbLine
 10
0.0405622829194675
 20
0.134968385864406
 30
0.0
 11
0.0523622824321996
 21
0.134968385864406
 31
0.0
  0
LINE
  5
595
330
1F
100
AcDbEntity
  8
0
100
AcDbLine
 10
0.0635825111850717
 20
0.1070683866929105
 30
0.0
 11
0.0682281381514163
 21
0.1070683866929105
 31
0.0
  0
LINE
  5
596
330
1F
100
AcDbEntity
  8
0
100
AcDbLine
 10
0.0619468220296427
 20
0.1070683866929105
 30
0.0
 11
0.0635390964342952
 21
0.1070683866929105
 31
0.0
  0
LINE
  5
597
330
1F
100
AcDbEntity
  8
0
100
AcDbLine
 10
0.0572591723578844
 20
0.1070683866929105
 30
0.0
 11
0.0619033359794751
 21
0.1070683866929105
 31
0.0
  0
LINE
  5
598
330
1F
100
AcDbEntity
  8
0
100
AcDbLine
 10
0.0523383725877415
 20
0.1070683866929105
 30
0.0
 11
0.0572591723578844
 21
0.1070683866929105
 31
0.0
  0
LINE
  5
599
330
1F
100
AcDbEntity
  8
0
100
AcDbLine
 10
0.0738688899247348
 20
0.1070683866929105
 30
0.0
 11
0.0682281381514163
 21
0.1070683866929105
 31
0.0
  0
LINE
  5
59A
330
1F
100
AcDbEntity
  8
0
100
AcDbLine
 10
0.0449454631117288
 20
0.1070683866929105
 30
0.0
 11
0.0471218734736903
 21
0.1070683866929105
 31
0.0
  0
LINE
  5
59B
330
1F
100
AcDbEntity
  8
0
100
AcDbLine
 10
0.0471218734736903
 20
0.1070683866929105
 30
0.0
 11
0.0480810342522011
 21
0.1070683866929105
 31
0.0
  0
LINE
  5
59C
330
1F
100
AcDbEntity
  8
0
100
AcDbLine
 10
0.0481159870370726
 20
0.1070683866929105
 30
0.0
 11
0.0515531956447068
 21
0.1070683866929105
 31
0.0
  0
LINE
  5
59D
330
1F
100
AcDbEntity
  8
0
100
AcDbLine
 10
0.0725622825767408
 20
0.1349683866370311
 30
0.0
 11
0.0770751970331679
 21
0.134968385864406
 31
0.0
  0
LINE
  5
59E
330
1F
100
AcDbEntity
  8
0
100
AcDbLine
 10
0.0772365498096326
 20
0.1070683866929105
 30
0.0
 11
0.0738688899247348
 21
0.1070683866929105
 31
0.0
  0
LINE
  5
59F
330
1F
100
AcDbEntity
  8
0
100
AcDbLine
 10
0.0803095807047297
 20
0.1070683866929105
 30
0.0
 11
0.078223226627819
 21
0.1070683866929105
 31
0.0
  0
LINE
  5
5A0
330
1F
100
AcDbEntity
  8
0
100
AcDbLine
 10
0.080667927532972
 20
0.134968385864406
 30
0.0
 11
0.0771481736074697
 21
0.134968385864406
 31
0.0
  0
LINE
  5
5A1
330
1F
100
AcDbEntity
  8
0
100
AcDbLine
 10
0.0803095807047297
 20
0.1070683866929105
 30
0.0
 11
0.0807611578496214
 21
0.1070683866929105
 31
0.0
  0
LINE
  5
5A2
330
1F
100
AcDbEntity
  8
0
100
AcDbLine
 10
0.0833016928728233
 20
0.134968385864406
 30
0.0
 11
0.0807780433889042
 21
0.134968385864406
 31
0.0
  0
LINE
  5
5A3
330
1F
100
AcDbEntity
  8
0
100
AcDbLine
 10
0.0813208745984174
 20
0.1070683866929105
 30
0.0
 11
0.084562282681049
 21
0.1070683866929105
 31
0.0
  0
LINE
  5
5A4
330
1F
100
AcDbEntity
  8
0
100
AcDbLine
 10
0.0405622829194675
 20
0.1070683866929105
 30
0.0
 11
0.0438036910020991
 21
0.1070683866929105
 31
0.0
  0
LINE
  5
5A5
330
1F
100
AcDbEntity
  8
0
100
AcDbLine
 10
0.0725622825767408
 20
0.1350683875571778
 30
0.0
 11
0.0523622824321996
 21
0.1350683875571778
 31
0.0
  0
LINE
  5
5A6
330
1F
100
AcDbEntity
  8
0
100
AcDbLine
 10
0.0844622828509222
 20
0.1350683875571778
 30
0.0
 11
0.0725622825767408
 21
0.1350683875571778
 31
0.0
  0
LINE
  5
5A7
330
1F
100
AcDbEntity
  8
0
100
AcDbLine
 10
0.0725622825767408
 20
0.1349683866370311
 30
0.0
 11
0.0725622825767408
 21
0.1350683875571778
 31
0.0
  0
LINE
  5
5A8
330
1F
100
AcDbEntity
  8
0
100
AcDbLine
 10
0.0523622824321996
 20
0.1299683869074872
 30
0.0
 11
0.0525622830237757
 21
0.1299683867487899
 31
0.0
  0
LINE
  5
5A9
330
1F
100
AcDbEntity
  8
0
100
AcDbLine
 10
0.0835539874103428
 20
-0.139231613320128
 30
0.0
 11
0.0415705781901737
 21
-0.139231613320128
 31
0.0
  0
LINE
  5
5AA
330
1F
100
AcDbEntity
  8
0
100
AcDbLine
 10
0.0405622829194675
 20
-0.1349316079426715
 30
0.0
 11
0.0385646064101012
 21
-0.13493161328213
 31
0.0
  0
LINE
  5
5AB
330
1F
100
AcDbEntity
  8
0
100
AcDbLine
 10
0.0846487588686517
 20
-0.1387316131133744
 30
0.0
 11
0.0865599591904153
 21
-0.1387316131133744
 31
0.0
  0
LINE
  5
5AC
330
1F
100
AcDbEntity
  8
0
100
AcDbLine
 10
0.0405161668585433
 20
-0.1387316131133744
 30
0.0
 11
0.0846487588686517
 21
-0.1387316131133744
 31
0.0
  0
LINE
  5
5AD
330
1F
100
AcDbEntity
  8
0
100
AcDbLine
 10
0.0405161668585433
 20
-0.1387316131133744
 30
0.0
 11
0.0385646064101012
 21
-0.1387316131133744
 31
0.0
  0
LINE
  5
5AE
330
1F
100
AcDbEntity
  8
0
100
AcDbLine
 10
0.0845622826810489
 20
-0.1349316079426715
 30
0.0
 11
0.0405622829194675
 21
-0.1349316079426715
 31
0.0
  0
LINE
  5
5AF
330
1F
100
AcDbEntity
  8
0
100
AcDbLine
 10
0.0865599591904153
 20
-0.13493161328213
 30
0.0
 11
0.0845622826810489
 21
-0.1349316079426715
 31
0.0
  0
LINE
  5
5B0
330
1F
100
AcDbEntity
  8
0
100
AcDbLine
 10
0.0469598738919507
 20
0.0715683868605486
 30
0.0
 11
0.0565622827481042
 21
0.0715683868605486
 31
0.0
  0
LINE
  5
5B1
330
1F
100
AcDbEntity
  8
0
100
AcDbLine
 10
0.0800522823329578
 20
0.0715683868605486
 30
0.0
 11
0.0685622828524123
 21
0.0715683868605486
 31
0.0
  0
LINE
  5
5B2
330
1F
100
AcDbEntity
  8
0
100
AcDbLine
 10
0.0798509210791003
 20
0.0865683865252724
 30
0.0
 11
0.0452736445214164
 21
0.0865683865252724
 31
0.0
  0
LINE
  5
5B3
330
1F
100
AcDbEntity
  8
0
100
AcDbLine
 10
-0.2037619495032197
 20
0.0702657582804359
 30
0.0
 11
-0.2045296871167931
 21
0.070147613141217
 31
0.0
  0
LINE
  5
5B4
330
1F
100
AcDbEntity
  8
0
100
AcDbLine
 10
-0.2045296871167931
 20
0.070147613141217
 30
0.0
 11
-0.205023258452171
 21
0.0701228968124449
 31
0.0
  0
LINE
  5
5B5
330
1F
100
AcDbEntity
  8
0
100
AcDbLine
 10
-0.205023258452171
 20
0.0701228968124449
 30
0.0
 11
-0.2054240329727961
 21
0.0701525194407353
 31
0.0
  0
LINE
  5
5B6
330
1F
100
AcDbEntity
  8
0
100
AcDbLine
 10
-0.2118570901960828
 20
0.0735117700075278
 30
0.0
 11
-0.2122859390146218
 21
0.0735720407813933
 31
0.0
  0
LINE
  5
5B7
330
1F
100
AcDbEntity
  8
0
100
AcDbLine
 10
-0.2105085166315939
 20
0.0743320680828488
 30
0.0
 11
-0.212021952422666
 21
0.0745447676225942
 31
0.0
  0
LINE
  5
5B8
330
1F
100
AcDbEntity
  8
0
100
AcDbLine
 10
-0.2102013665698213
 20
0.0742889009546778
 30
0.0
 11
-0.2083053810818352
 21
0.074022437677144
 31
0.0
  0
LINE
  5
5B9
330
1F
100
AcDbEntity
  8
0
100
AcDbLine
 10
-0.1994240889909841
 20
0.0727742532938719
 30
0.0
 11
-0.197871038025455
 21
0.0725559862016227
 31
0.0
  0
LINE
  5
5BA
330
1F
100
AcDbEntity
  8
0
100
AcDbLine
 10
-0.1977462245644587
 20
0.0725384448113259
 30
0.0
 11
-0.1962276365777991
 21
0.0723250211600511
 31
0.0
  0
LINE
  5
5BB
330
1F
100
AcDbEntity
  8
0
100
AcDbLine
 10
-0.2106476897620391
 20
0.0733417998527274
 30
0.0
 11
-0.2118570901960828
 21
0.0735117700075278
 31
0.0
  0
LINE
  5
5BC
330
1F
100
AcDbEntity
  8
0
100
AcDbLine
 10
-0.2074634913993704
 20
0.0728942899350996
 30
0.0
 11
-0.2038855791681702
 21
0.072391447139049
 31
0.0
  0
LINE
  5
5BD
330
1F
100
AcDbEntity
  8
0
100
AcDbLine
 10
-0.2137147137345478
 20
0.0737728419829513
 30
0.0
 11
-0.2122859390146218
 21
0.0735720407813933
 31
0.0
  0
LINE
  5
5BE
330
1F
100
AcDbEntity
  8
0
100
AcDbLine
 10
-0.2074634913993704
 20
0.0728942899350996
 30
0.0
 11
-0.2106476897620391
 21
0.0733417998527274
 31
0.0
  0
LINE
  5
5BF
330
1F
100
AcDbEntity
  8
0
100
AcDbLine
 10
-0.2038855791681702
 20
0.072391447139049
 30
0.0
 11
-0.200506374326291
 21
0.0719165308467205
 31
0.0
  0
LINE
  5
5C0
330
1F
100
AcDbEntity
  8
0
100
AcDbLine
 10
-0.1978853976943533
 20
0.0715481765851223
 30
0.0
 11
-0.1964566229744274
 21
0.0713473753835643
 31
0.0
  0
LINE
  5
5C1
330
1F
100
AcDbEntity
  8
0
100
AcDbLine
 10
-0.1978853976943533
 20
0.0715481765851223
 30
0.0
 11
-0.1983142465128923
 21
0.0716084473589877
 31
0.0
  0
LINE
  5
5C2
330
1F
100
AcDbEntity
  8
0
100
AcDbLine
 10
-0.1983142465128923
 20
0.0716084473589877
 30
0.0
 11
-0.200506374326291
 21
0.0719165308467205
 31
0.0
  0
LINE
  5
5C3
330
1F
100
AcDbEntity
  8
0
100
AcDbLine
 10
-0.20699051728556
 20
0.0707195039136446
 30
0.0
 11
-0.2062850857432603
 21
0.0703943183414785
 31
0.0
  0
LINE
  5
5C4
330
1F
100
AcDbEntity
  8
0
100
AcDbLine
 10
-0.2062850857432603
 20
0.0703943183414785
 30
0.0
 11
-0.2058174472700103
 21
0.0702345127772727
 31
0.0
  0
LINE
  5
5C5
330
1F
100
AcDbEntity
  8
0
100
AcDbLine
 10
-0.2058174472700103
 20
0.0702345127772727
 30
0.0
 11
-0.2054240329727961
 21
0.0701525194407353
 31
0.0
  0
LINE
  5
5C6
330
1F
100
AcDbEntity
  8
0
100
AcDbLine
 10
-0.2093354627558169
 20
0.0720435435893994
 30
0.0
 11
-0.2075746312425826
 21
0.0710291057874784
 31
0.0
  0
LINE
  5
5C7
330
1F
100
AcDbEntity
  8
0
100
AcDbLine
 10
-0.1024730906479548
 20
0.1349683866370311
 30
0.0
 11
-0.0570690079622458
 21
0.1349683858644059
 31
0.0
  0
LINE
  5
5C8
330
1F
100
AcDbEntity
  8
0
100
AcDbLine
 10
-0.1024730906479548
 20
0.1299683867487899
 30
0.0
 11
-0.0594730905287455
 21
0.1299683867487899
 31
0.0
  0
LINE
  5
5C9
330
1F
100
AcDbEntity
  8
0
100
AcDbLine
 10
-0.0655391233745836
 20
0.0715683866929105
 30
0.0
 11
-0.0657520229563076
 21
0.0715683866929105
 31
0.0
  0
LINE
  5
5CA
330
1F
100
AcDbEntity
  8
0
100
AcDbLine
 10
-0.0594730905287455
 20
0.1050683866929105
 30
0.0
 11
-0.0564473149735379
 21
0.1050683866929105
 31
0.0
  0
LINE
  5
5CB
330
1F
100
AcDbEntity
  8
0
100
AcDbLine
 10
-0.052639414836281
 20
0.1050683866929105
 30
0.0
 11
-0.055585781541865
 21
0.1050683866929105
 31
0.0
  0
LINE
  5
5CC
330
1F
100
AcDbEntity
  8
0
100
AcDbLine
 10
-0.0526014635262436
 20
0.1050683866929105
 30
0.0
 11
-0.0495374472312064
 21
0.1050683866929105
 31
0.0
  0
LINE
  5
5CD
330
1F
100
AcDbEntity
  8
0
100
AcDbLine
 10
-0.043796598306685
 20
0.1050683866929105
 30
0.0
 11
-0.0477557902952958
 21
0.1050683866929105
 31
0.0
  0
LINE
  5
5CE
330
1F
100
AcDbEntity
  8
0
100
AcDbLine
 10
-0.0325084815757052
 20
0.1050683866929105
 30
0.0
 11
-0.0420832034044344
 21
0.1050683866929105
 31
0.0
  0
LINE
  5
5CF
330
1F
100
AcDbEntity
  8
0
100
AcDbLine
 10
-0.0308054792979378
 20
0.1050683866929105
 30
0.0
 11
-0.030971032977158
 21
0.1050683866929105
 31
0.0
  0
LINE
  5
5D0
330
1F
100
AcDbEntity
  8
0
100
AcDbLine
 10
-0.0184833194201049
 20
0.1050683866929105
 30
0.0
 11
-0.0154730907671641
 21
0.1050683866929105
 31
0.0
  0
LINE
  5
5D1
330
1F
100
AcDbEntity
  8
0
100
AcDbLine
 10
-0.0156334961794804
 20
0.1349683858644059
 30
0.0
 11
-0.0309280233487974
 21
0.1349683858644059
 31
0.0
  0
LINE
  5
5D2
330
1F
100
AcDbEntity
  8
0
100
AcDbLine
 10
-0.0156334961794804
 20
0.1349683858644059
 30
0.0
 11
-0.0154730907671641
 21
0.1349683858644059
 31
0.0
  0
LINE
  5
5D3
330
1F
100
AcDbEntity
  8
0
100
AcDbLine
 10
-0.056220184205455
 20
0.1070683866929105
 30
0.0
 11
-0.0594730905287455
 21
0.1070683866929105
 31
0.0
  0
LINE
  5
5D4
330
1F
100
AcDbEntity
  8
0
100
AcDbLine
 10
-0.055356479255386
 20
0.1070683866929105
 30
0.0
 11
-0.056220184205455
 21
0.1070683866929105
 31
0.0
  0
LINE
  5
5D5
330
1F
100
AcDbEntity
  8
0
100
AcDbLine
 10
-0.0570690079622458
 20
0.1349683858644059
 30
0.0
 11
-0.0540071564756821
 21
0.1349683858644059
 31
0.0
  0
LINE
  5
5D6
330
1F
100
AcDbEntity
  8
0
100
AcDbLine
 10
-0.055356479255386
 20
0.1070683866929105
 30
0.0
 11
-0.0524418683260424
 21
0.1070683866929105
 31
0.0
  0
LINE
  5
5D7
330
1F
100
AcDbEntity
  8
0
100
AcDbLine
 10
-0.0499660919450711
 20
0.1349683858644059
 30
0.0
 11
-0.0539373892389725
 21
0.1349683858644059
 31
0.0
  0
LINE
  5
5D8
330
1F
100
AcDbEntity
  8
0
100
AcDbLine
 10
-0.0491565307756938
 20
0.1070683866929105
 30
0.0
 11
-0.0524418683260424
 21
0.1070683866929105
 31
0.0
  0
LINE
  5
5D9
330
1F
100
AcDbEntity
  8
0
100
AcDbLine
 10
-0.0435518150195872
 20
0.1070683866929105
 30
0.0
 11
-0.0477977208489338
 21
0.1070683866929105
 31
0.0
  0
LINE
  5
5DA
330
1F
100
AcDbEntity
  8
0
100
AcDbLine
 10
-0.0435518150195872
 20
0.1070683866929105
 30
0.0
 11
-0.0420248401885373
 21
0.1070683866929105
 31
0.0
  0
LINE
  5
5DB
330
1F
100
AcDbEntity
  8
0
100
AcDbLine
 10
-0.0448131768063198
 20
0.1349683858644059
 30
0.0
 11
-0.0498094639771174
 21
0.1349683858644059
 31
0.0
  0
LINE
  5
5DC
330
1F
100
AcDbEntity
  8
0
100
AcDbLine
 10
-0.0374730906479548
 20
0.1070683866929105
 30
0.0
 11
-0.0420248401885373
 21
0.1070683866929105
 31
0.0
  0
LINE
  5
5DD
330
1F
100
AcDbEntity
  8
0
100
AcDbLine
 10
-0.0156334961794804
 20
0.1172523571368149
 30
0.0
 11
-0.0204801217250343
 21
0.1149923381435137
 31
0.0
  0
LINE
  5
5DE
330
1F
100
AcDbEntity
  8
0
100
AcDbLine
 10
-0.0155730905972908
 20
0.1350683875571778
 30
0.0
 11
-0.0569566736959408
 21
0.1350683875571778
 31
0.0
  0
LINE
  5
5DF
330
1F
100
AcDbEntity
  8
0
100
AcDbLine
 10
-0.0374730906479548
 20
0.1070683866929105
 30
0.0
 11
-0.0204801217250343
 21
0.1149923381435137
 31
0.0
  0
LINE
  5
5E0
330
1F
100
AcDbEntity
  8
0
100
AcDbLine
 10
-0.0584647952580394
 20
-0.139231613320128
 30
0.0
 11
-0.0164813860378703
 21
-0.139231613320128
 31
0.0
  0
LINE
  5
5E1
330
1F
100
AcDbEntity
  8
0
100
AcDbLine
 10
-0.0154730906954523
 20
0.1178183867078116
 30
0.0
 11
-0.0154730906954523
 21
0.1179120905645033
 31
0.0
  0
LINE
  5
5E2
330
1F
100
AcDbEntity
  8
0
100
AcDbLine
 10
-0.0145280893969197
 20
0.1201785501389606
 30
0.0
 11
-0.0145280893969197
 21
0.1199619086756213
 31
0.0
  0
LINE
  5
5E3
330
1F
100
AcDbEntity
  8
0
100
AcDbLine
 10
-0.0145280893969197
 20
0.1211748647101997
 30
0.0
 11
-0.0145280893969197
 21
0.121032975824208
 31
0.0
  0
LINE
  5
5E4
330
1F
100
AcDbEntity
  8
0
100
AcDbLine
 10
-0.0154730906954523
 20
0.1226683866180321
 30
0.0
 11
-0.0154730907671641
 21
0.1225683864395908
 31
0.0
  0
LINE
  5
5E5
330
1F
100
AcDbEntity
  8
0
100
AcDbLine
 10
-0.0154730906954523
 20
0.1185145489353528
 30
0.0
 11
-0.0154730906954523
 21
0.1183157185505918
 31
0.0
  0
LINE
  5
5E6
330
1F
100
AcDbEntity
  8
0
100
AcDbLine
 10
-0.0154730906954523
 20
0.1226683866180321
 30
0.0
 11
-0.0154730906954523
 21
0.1233079221047303
 31
0.0
  0
LINE
  5
5E7
330
1F
100
AcDbEntity
  8
0
100
AcDbLine
 10
-0.0154730906954523
 20
0.1210683867166592
 30
0.0
 11
-0.0154730906954523
 21
0.1221457218698999
 31
0.0
  0
LINE
  5
5E8
330
1F
100
AcDbEntity
  8
0
100
AcDbLine
 10
-0.0154730906954523
 20
0.1200683866691618
 30
0.0
 11
-0.0154730906954523
 21
0.1210683867166592
 31
0.0
  0
LINE
  5
5E9
330
1F
100
AcDbEntity
  8
0
100
AcDbLine
 10
-0.0154730906954523
 20
0.1190611061820602
 30
0.0
 11
-0.0154730906954523
 21
0.1200683866691618
 31
0.0
  0
LINE
  5
5EA
330
1F
100
AcDbEntity
  8
0
100
AcDbLine
 10
-0.0154730906954523
 20
0.1179120905645033
 30
0.0
 11
-0.0154730906954523
 21
0.1183157185505918
 31
0.0
  0
LINE
  5
5EB
330
1F
100
AcDbEntity
  8
0
100
AcDbLine
 10
-0.0153866145795613
 20
-0.1387316131133744
 30
0.0
 11
-0.0134965944566539
 21
-0.1387316131133744
 31
0.0
  0
LINE
  5
5EC
330
1F
100
AcDbEntity
  8
0
100
AcDbLine
 10
-0.0595595667163483
 20
-0.1387316131133744
 30
0.0
 11
-0.0153866145795613
 21
-0.1387316131133744
 31
0.0
  0
LINE
  5
5ED
330
1F
100
AcDbEntity
  8
0
100
AcDbLine
 10
-0.0614495868392557
 20
-0.1387316131133744
 30
0.0
 11
-0.0595595667163483
 21
-0.1387316131133744
 31
0.0
  0
LINE
  5
5EE
330
1F
100
AcDbEntity
  8
0
100
AcDbLine
 10
-0.0594730905287455
 20
-0.1349316079426715
 30
0.0
 11
-0.0614495868392557
 21
-0.13493161328213
 31
0.0
  0
LINE
  5
5EF
330
1F
100
AcDbEntity
  8
0
100
AcDbLine
 10
-0.0154730907671641
 20
-0.1349316079426715
 30
0.0
 11
-0.0594730905287455
 21
-0.1349316079426715
 31
0.0
  0
LINE
  5
5F0
330
1F
100
AcDbEntity
  8
0
100
AcDbLine
 10
-0.0134965944566539
 20
-0.13493161328213
 30
0.0
 11
-0.0154730907671641
 21
-0.1349316079426715
 31
0.0
  0
LINE
  5
5F1
330
1F
100
AcDbEntity
  8
0
100
AcDbLine
 10
-0.0648153357211025
 20
0.0715683866929105
 30
0.0
 11
-0.065435814487423
 21
0.0715683866929105
 31
0.0
  0
LINE
  5
5F2
330
1F
100
AcDbEntity
  8
0
100
AcDbLine
 10
-0.0658597081548744
 20
0.0715683866929105
 30
0.0
 11
-0.067751056392982
 21
0.0715683866929105
 31
0.0
  0
LINE
  5
5F3
330
1F
100
AcDbEntity
  8
0
100
AcDbLine
 10
-0.0508184980979319
 20
0.0715683868605486
 30
0.0
 11
-0.0594730905287455
 21
0.071569004595594
 31
0.0
  0
LINE
  5
5F4
330
1F
100
AcDbEntity
  8
0
100
AcDbLine
 10
-0.0594305987885149
 20
0.0865683865252724
 30
0.0
 11
-0.0529756194634845
 21
0.0865683865252724
 31
0.0
  0
LINE
  5
5F5
330
1F
100
AcDbEntity
  8
0
100
AcDbLine
 10
-0.2087743206246057
 20
0.0865683865252724
 30
0.0
 11
-0.2193053884728112
 21
0.0865683865252724
 31
0.0
  0
LINE
  5
5F6
330
1F
100
AcDbEntity
  8
0
100
AcDbLine
 10
-0.1908439023716607
 20
0.0715683868605485
 30
0.0
 11
-0.0678587415915487
 21
0.0715683866929105
 31
0.0
  0
LINE
  5
5F7
330
1F
100
AcDbEntity
  8
0
100
AcDbLine
 10
-0.2087743206246057
 20
0.0865683865252724
 30
0.0
 11
-0.2083053810818352
 21
0.0865583869147887
 31
0.0
  0
LINE
  5
5F8
330
1F
100
AcDbEntity
  8
0
100
AcDbLine
 10
-0.2121467658841766
 20
0.0745623090115146
 30
0.0
 11
-0.2136100842267583
 21
0.0747679645377488
 31
0.0
  0
LINE
  5
5F9
330
1F
100
AcDbEntity
  8
0
100
AcDbLine
 10
-0.2193053884728112
 20
0.075568386584877
 30
0.0
 11
-0.2137393347259101
 21
0.0747861299767963
 31
0.0
  0
LINE
  5
5FA
330
1F
100
AcDbEntity
  8
0
100
AcDbLine
 10
-0.197871038025455
 20
0.0725559862016227
 30
0.0
 11
-0.1977462245644587
 21
0.0725384448113259
 31
0.0
  0
LINE
  5
5FB
330
1F
100
AcDbEntity
  8
0
100
AcDbLine
 10
-0.2102013665698213
 20
0.0742889009546778
 30
0.0
 11
-0.2105085166315939
 21
0.0743320680828488
 31
0.0
  0
LINE
  5
5FC
330
1F
100
AcDbEntity
  8
0
100
AcDbLine
 10
-0.2083053810818352
 20
0.074022437677144
 30
0.0
 11
-0.2062338437156919
 21
0.0737313019537945
 31
0.0
  0
LINE
  5
5FD
330
1F
100
AcDbEntity
  8
0
100
AcDbLine
 10
-0.2121467658841766
 20
0.0745623090115146
 30
0.0
 11
-0.212021952422666
 21
0.0745447676225942
 31
0.0
  0
LINE
  5
5FE
330
1F
100
AcDbEntity
  8
0
100
AcDbLine
 10
-0.203746406037725
 20
0.0733817153691703
 30
0.0
 11
-0.2061465844103598
 21
0.073719038457588
 31
0.0
  0
LINE
  5
5FF
330
1F
100
AcDbEntity
  8
0
100
AcDbLine
 10
-0.2036591467323929
 20
0.0733694518729638
 30
0.0
 11
-0.1996916238782634
 21
0.0728118528720805
 31
0.0
  0
LINE
  5
600
330
1F
100
AcDbEntity
  8
0
100
AcDbLine
 10
-0.0185155409418534
 20
0.1050683866929105
 30
0.0
 11
-0.0192241620387173
 21
0.1050683866929105
 31
0.0
  0
LINE
  5
601
330
1F
100
AcDbEntity
  8
0
100
AcDbLine
 10
-0.0220889426581363
 20
0.1050683866929105
 30
0.0
 11
-0.0192531340153413
 21
0.1050683866929105
 31
0.0
  0
LINE
  5
602
330
1F
100
AcDbEntity
  8
0
100
AcDbLine
 10
-0.0221259984448264
 20
0.1050683866929105
 30
0.0
 11
-0.0251282908185581
 21
0.1050683866929105
 31
0.0
  0
LINE
  5
603
330
1F
100
AcDbEntity
  8
0
100
AcDbLine
 10
-0.0268844801217857
 20
0.1050683866929105
 30
0.0
 11
-0.0308054792979378
 21
0.1050683866929105
 31
0.0
  0
LINE
  5
604
330
1F
100
AcDbEntity
  8
0
100
AcDbLine
 10
0.1686748876679252
 20
0.0939694368867726
 30
0.0
 11
0.1675622826884996
 21
0.0940947970962675
 31
0.0
  0
LINE
  5
605
330
1F
100
AcDbEntity
  8
0
100
AcDbLine
 10
0.1573622827861022
 20
0.0940947970962675
 30
0.0
 11
0.1675622826884996
 21
0.0940947970962675
 31
0.0
  0
LINE
  5
606
330
1F
100
AcDbEntity
  8
0
100
AcDbLine
 10
0.1714714402775775
 20
0.092212246323988
 30
0.0
 11
0.1711488736960807
 21
0.0925348130952097
 31
0.0
  0
LINE
  5
607
330
1F
100
AcDbEntity
  8
0
100
AcDbLine
 10
0.1720671272348176
 20
0.0912642158223839
 30
0.0
 11
0.1714714402775775
 21
0.092212246323988
 31
0.0
  0
LINE
  5
608
330
1F
100
AcDbEntity
  8
0
100
AcDbLine
 10
0.1724369219015847
 20
0.0902074018382059
 30
0.0
 11
0.1725622825767409
 21
0.0890947972080262
 31
0.0
  0
LINE
  5
609
330
1F
100
AcDbEntity
  8
0
100
AcDbLine
 10
0.1724369219015847
 20
0.0902074018382059
 30
0.0
 11
0.1720671272348176
 21
0.0912642158223839
 31
0.0
  0
LINE
  5
60A
330
1F
100
AcDbEntity
  8
0
100
AcDbLine
 10
0.1706797322701226
 20
0.0930039547971041
 30
0.0
 11
0.1711488736960807
 21
0.0925348130952097
 31
0.0
  0
LINE
  5
60B
330
1F
100
AcDbEntity
  8
0
100
AcDbLine
 10
0.1697317013028573
 20
0.0935996417543442
 30
0.0
 11
0.1706797322701226
 21
0.0930039547971041
 31
0.0
  0
LINE
  5
60C
330
1F
100
AcDbEntity
  8
0
100
AcDbLine
 10
0.1697317013028573
 20
0.0935996417543442
 30
0.0
 11
0.1686748876679252
 21
0.0939694368867726
 31
0.0
  0
LINE
  5
60D
330
1F
100
AcDbEntity
  8
0
100
AcDbLine
 10
0.1429601386632334
 20
0.0990825882768781
 30
0.0
 11
0.1428345477921921
 21
0.0987793850681307
 31
0.0
  0
LINE
  5
60E
330
1F
100
AcDbEntity
  8
0
100
AcDbLine
 10
0.1465776589424256
 20
0.1041497014295938
 30
0.0
 11
0.1470059333812009
 21
0.1046511466270835
 31
0.0
  0
LINE
  5
60F
330
1F
100
AcDbEntity
  8
0
100
AcDbLine
 10
0.1821644269372832
 20
0.0791070061391742
 30
0.0
 11
0.1820385247062097
 21
0.0789015525164671
 31
0.0
  0
LINE
  5
610
330
1F
100
AcDbEntity
  8
0
100
AcDbLine
 10
0.1821644269372832
 20
0.0791070061391742
 30
0.0
 11
0.1822652611686482
 21
0.0793504415278132
 31
0.0
  0
LINE
  5
611
330
1F
100
AcDbEntity
  8
0
100
AcDbLine
 10
0.1523622824321996
 20
0.0697151683858187
 30
0.0
 11
0.1523622824321996
 21
0.0696357396087201
 31
0.0
  0
LINE
  5
612
330
1F
100
AcDbEntity
  8
0
100
AcDbLine
 10
0.1725622825767409
 20
0.069498880180018
 30
0.0
 11
0.1730075426939345
 21
0.0697485750087232
 31
0.0
  0
LINE
  5
613
330
1F
100
AcDbEntity
  8
0
100
AcDbLine
 10
0.1839126439448006
 20
0.0838320872359996
 30
0.0
 11
0.1838651998295754
 21
0.0836367952789549
 31
0.0
  0
LINE
  5
614
330
1F
100
AcDbEntity
  8
0
100
AcDbLine
 10
0.1725622825767409
 20
0.069498880180018
 30
0.0
 11
0.1725622825767409
 21
0.0696112141600401
 31
0.0
  0
LINE
  5
615
330
1F
100
AcDbEntity
  8
0
100
AcDbLine
 10
0.1725622825767409
 20
0.0696112141600401
 30
0.0
 11
0.1725622825767409
 21
0.0890947972080262
 31
0.0
  0
LINE
  5
616
330
1F
100
AcDbEntity
  8
0
100
AcDbLine
 10
0.1598122828151594
 20
0.1110947971605287
 30
0.0
 11
0.1599059866718512
 21
0.1110947971605287
 31
0.0
  0
LINE
  5
617
330
1F
100
AcDbEntity
  8
0
100
AcDbLine
 10
0.1605226749531488
 20
0.1110947971605287
 30
0.0
 11
0.1599059866718512
 21
0.1110947971605287
 31
0.0
  0
LINE
  5
618
330
1F
100
AcDbEntity
  8
0
100
AcDbLine
 10
0.1609849476232688
 20
0.1110947971605287
 30
0.0
 11
0.1605226749531488
 21
0.1110947971605287
 31
0.0
  0
LINE
  5
619
330
1F
100
AcDbEntity
  8
0
100
AcDbLine
 10
0.1619664768665593
 20
0.1110947971605287
 30
0.0
 11
0.1621243898559391
 21
0.1110947971605287
 31
0.0
  0
LINE
  5
61A
330
1F
100
AcDbEntity
  8
0
100
AcDbLine
 10
0.1621724462463084
 20
0.1120397984590613
 30
0.0
 11
0.1619558047829691
 21
0.1120397984590613
 31
0.0
  0
LINE
  5
61B
330
1F
100
AcDbEntity
  8
0
100
AcDbLine
 10
0.1624053147394938
 20
0.1120397984590613
 30
0.0
 11
0.1623059741256788
 21
0.1120397984590613
 31
0.0
  0
LINE
  5
61C
330
1F
100
AcDbEntity
  8
0
100
AcDbLine
 10
0.1632825717540022
 20
0.1110947971605287
 30
0.0
 11
0.1630001757445775
 21
0.1110947971605287
 31
0.0
  0
LINE
  5
61D
330
1F
100
AcDbEntity
  8
0
100
AcDbLine
 10
0.1646018906473677
 20
0.1110947971605287
 30
0.0
 11
0.1639372827928077
 21
0.1110947971605287
 31
0.0
  0
LINE
  5
61E
330
1F
100
AcDbEntity
  8
0
100
AcDbLine
 10
0.1653018182120781
 20
0.1110947971605287
 30
0.0
 11
0.1646018906473677
 21
0.1110947971605287
 31
0.0
  0
LINE
  5
61F
330
1F
100
AcDbEntity
  8
0
100
AcDbLine
 10
0.1623226045055111
 20
0.1110947971605287
 30
0.0
 11
0.1628019610950054
 21
0.1110947971605287
 31
0.0
  0
LINE
  5
620
330
1F
100
AcDbEntity
  8
0
100
AcDbLine
 10
0.1759592719319295
 20
0.0716480867329767
 30
0.0
 11
0.1760429519213906
 21
0.071713701645359
 31
0.0
  0
LINE
  5
621
330
1F
100
AcDbEntity
  8
0
100
AcDbLine
 10
0.1736555104559266
 20
0.0701013404205563
 30
0.0
 11
0.17354933887687
 21
0.0700389651342502
 31
0.0
  0
LINE
  5
622
330
1F
100
AcDbEntity
  8
0
100
AcDbLine
 10
0.1514689619064035
 20
0.0701014030207094
 30
0.0
 11
0.1515752828129977
 21
0.0700389373533359
 31
0.0
  0
LINE
  5
623
330
1F
100
AcDbEntity
  8
0
100
AcDbLine
 10
0.1516023550867193
 20
0.07002987956114
 30
0.0
 11
0.1523383725877415
 21
0.0696147643616946
 31
0.0
  0
LINE
  5
624
330
1F
100
AcDbEntity
  8
0
100
AcDbLine
 10
0.149126444056214
 20
0.0716741703771833
 30
0.0
 11
0.1492115220709908
 21
0.0716170489663971
 31
0.0
  0
LINE
  5
625
330
1F
100
AcDbEntity
  8
0
100
AcDbLine
 10
0.1800592150982034
 20
-0.0818952518194136
 30
0.0
 11
0.180052282332958
 21
-0.0822064327686247
 31
0.0
  0
LINE
  5
626
330
1F
100
AcDbEntity
  8
0
100
AcDbLine
 10
0.0741041904758226
 20
0.0730933386351755
 30
0.0
 11
0.074183078770818
 21
0.073152071782238
 31
0.0
  0
LINE
  5
627
330
1F
100
AcDbEntity
  8
0
100
AcDbLine
 10
0.0733042421262276
 20
0.0728059590313425
 30
0.0
 11
0.0737379121778607
 21
0.0729617539994747
 31
0.0
  0
LINE
  5
628
330
1F
100
AcDbEntity
  8
0
100
AcDbLine
 10
0.0529860757734191
 20
0.0725439304936519
 30
0.0
 11
0.0527151870737095
 21
0.0726048187028493
 31
0.0
  0
LINE
  5
629
330
1F
100
AcDbEntity
  8
0
100
AcDbLine
 10
0.0518203234742891
 20
0.0728059590313425
 30
0.0
 11
0.0513806552447816
 21
0.0729639088310737
 31
0.0
  0
LINE
  5
62A
330
1F
100
AcDbEntity
  8
0
100
AcDbLine
 10
0.0510203751246941
 20
0.0730933386351755
 30
0.0
 11
0.0509464962851299
 21
0.0731483421911427
 31
0.0
  0
LINE
  5
62B
330
1F
100
AcDbEntity
  8
0
100
AcDbLine
 10
0.0513806560768394
 20
0.0741368448716462
 30
0.0
 11
0.0518203234742891
 21
0.0742947941165259
 31
0.0
  0
LINE
  5
62C
330
1F
100
AcDbEntity
  8
0
100
AcDbLine
 10
0.0527151880343018
 20
0.0744959350183882
 30
0.0
 11
0.0529860757734191
 21
0.0745568231198778
 31
0.0
  0
LINE
  5
62D
330
1F
100
AcDbEntity
  8
0
100
AcDbLine
 10
0.0557794800526359
 20
0.0749213694157535
 30
0.0
 11
0.0562450966309321
 21
0.0749703051972976
 31
0.0
  0
LINE
  5
62E
330
1F
100
AcDbEntity
  8
0
100
AcDbLine
 10
0.0570796633153317
 20
0.0750281404644198
 30
0.0
 11
0.0582273827377271
 21
0.0751076771396985
 31
0.0
  0
LINE
  5
62F
330
1F
100
AcDbEntity
  8
0
100
AcDbLine
 10
0.0688794689695847
 20
0.0749703051972976
 30
0.0
 11
0.0693450855478808
 21
0.0749213694157535
 31
0.0
  0
LINE
  5
630
330
1F
100
AcDbEntity
  8
0
100
AcDbLine
 10
0.072409377566215
 20
0.0744959350183882
 30
0.0
 11
0.0721384898270976
 21
0.0745568231198778
 31
0.0
  0
LINE
  5
631
330
1F
100
AcDbEntity
  8
0
100
AcDbLine
 10
0.0741041904758226
 20
0.0740074149783542
 30
0.0
 11
0.0741791245569127
 21
0.0739516257842168
 31
0.0
  0
LINE
  5
632
330
1F
100
AcDbEntity
  8
0
100
AcDbLine
 10
0.0591217236570579
 20
0.075006072859575
 30
0.0
 11
0.0596904949262303
 21
0.0751719247868007
 31
0.0
  0
LINE
  5
633
330
1F
100
AcDbEntity
  8
0
100
AcDbLine
 10
-0.0594730905287455
 20
0.0865583869147888
 30
0.0
 11
-0.2083053810818352
 21
0.0865583869147887
 31
0.0
  0
LINE
  5
634
330
1F
100
AcDbEntity
  8
0
100
AcDbLine
 10
0.1446810327331548
 20
0.1018908301797116
 30
0.0
 11
0.1447639093245875
 21
0.1020260723894985
 31
0.0
  0
LINE
  5
635
330
1F
100
AcDbEntity
  8
0
100
AcDbLine
 10
0.1447639093245875
 20
0.1020260723894985
 30
0.0
 11
0.1449199998401883
 21
0.1022088309955119
 31
0.0
  0
LINE
  5
636
330
1F
100
AcDbEntity
  8
0
100
AcDbLine
 10
0.1523994355290494
 20
0.108589666690316
 30
0.0
 11
0.1525744917314063
 21
0.108696941345051
 31
0.0
  0
LINE
  5
637
330
1F
100
AcDbEntity
  8
0
100
AcDbLine
 10
0.1525744917314063
 20
0.108696941345051
 30
0.0
 11
0.1528776949401537
 21
0.1088225322160924
 31
0.0
  0
LINE
  5
638
330
1F
100
AcDbEntity
  8
0
100
AcDbLine
 10
0.155539100238888
 20
0.109924922296471
 30
0.0
 11
0.1557639087993215
 21
0.1100180410435946
 31
0.0
  0
LINE
  5
639
330
1F
100
AcDbEntity
  8
0
100
AcDbLine
 10
0.1557639087993215
 20
0.1100180410435946
 30
0.0
 11
0.1559635444572201
 21
0.1100659692849777
 31
0.0
  0
LINE
  5
63A
330
1F
100
AcDbEntity
  8
0
100
AcDbLine
 10
0.1800622828747642
 20
-0.0817374932258543
 30
0.0
 11
0.180062090524604
 21
0.0727241351436883
 31
0.0
  0
LINE
  5
63B
330
1F
100
AcDbEntity
  8
0
100
AcDbLine
 10
0.1800523056070676
 20
-0.0818387940494673
 30
0.0
 11
0.1800622828747642
 21
-0.0817374932258543
 31
0.0
  0
LINE
  5
63C
330
1F
100
AcDbEntity
  8
0
100
AcDbLine
 10
0.1450622827257526
 20
-0.0817374932258543
 30
0.0
 11
0.1450722599934492
 21
-0.0818387940494673
 31
0.0
  0
LINE
  5
63D
330
1F
100
AcDbEntity
  8
0
100
AcDbLine
 10
-0.1908439023716607
 20
0.0715683868605485
 30
0.0
 11
-0.1961536557289189
 21
0.0723146238284305
 31
0.0
  0
LINE
  5
63E
330
1F
100
AcDbEntity
  8
0
100
AcDbLine
 10
-0.0144759689399347
 20
0.1204897904599859
 30
0.0
 11
-0.0144730906479548
 21
0.1205683866929105
 31
0.0
  0
LINE
  5
63F
330
1F
100
AcDbEntity
  8
0
100
AcDbLine
 10
-0.0144759689399347
 20
0.1205072496732539
 30
0.0
 11
-0.0144730906479548
 21
0.1205683866929105
 31
0.0
  0
LINE
  5
640
330
1F
100
AcDbEntity
  8
0
100
AcDbLine
 10
-0.0144759689399347
 20
0.1205410905068204
 30
0.0
 11
-0.0144730906479548
 21
0.1205683866929105
 31
0.0
  0
LINE
  5
641
330
1F
100
AcDbEntity
  8
0
100
AcDbLine
 10
-0.0144759689399347
 20
0.1205072496732539
 30
0.0
 11
-0.0144759689399347
 21
0.1205410905068204
 31
0.0
  0
LINE
  5
642
330
1F
100
AcDbEntity
  8
0
100
AcDbLine
 10
-0.0144759689399347
 20
0.1205410905068204
 30
0.0
 11
-0.0144759689399347
 21
0.1205822453294315
 31
0.0
  0
LINE
  5
643
330
1F
100
AcDbEntity
  8
0
100
AcDbLine
 10
-0.0144759689399347
 20
0.1205822453294315
 30
0.0
 11
-0.0144759689399347
 21
0.120619686741564
 31
0.0
  0
LINE
  5
644
330
1F
100
AcDbEntity
  8
0
100
AcDbLine
 10
-0.0144759689399347
 20
0.120619686741564
 30
0.0
 11
-0.0144730906479548
 21
0.1205683866929105
 31
0.0
  0
LINE
  5
645
330
1F
100
AcDbEntity
  8
0
100
AcDbLine
 10
-0.0144759689399347
 20
0.1206433823454501
 30
0.0
 11
-0.0144730906479548
 21
0.1205683866929105
 31
0.0
  0
LINE
  5
646
330
1F
100
AcDbEntity
  8
0
100
AcDbLine
 10
-0.0144759689399347
 20
0.1204897904599859
 30
0.0
 11
-0.0144949640173603
 21
0.1202222766651614
 31
0.0
  0
LINE
  5
647
330
1F
100
AcDbEntity
  8
0
100
AcDbLine
 10
-0.0144949640173603
 20
0.1203953316790359
 30
0.0
 11
-0.0144949640173603
 21
0.1203698661329765
 31
0.0
  0
LINE
  5
648
330
1F
100
AcDbEntity
  8
0
100
AcDbLine
 10
-0.0144949640173603
 20
0.1204221142752869
 30
0.0
 11
-0.0144949640173603
 21
0.1203953316790359
 31
0.0
  0
LINE
  5
649
330
1F
100
AcDbEntity
  8
0
100
AcDbLine
 10
-0.0144949640173603
 20
0.1204500100930529
 30
0.0
 11
-0.0144949640173603
 21
0.1204221142752869
 31
0.0
  0
LINE
  5
64A
330
1F
100
AcDbEntity
  8
0
100
AcDbLine
 10
-0.0144949640173603
 20
0.1204788068271666
 30
0.0
 11
-0.0144949640173603
 21
0.1204500100930529
 31
0.0
  0
LINE
  5
64B
330
1F
100
AcDbEntity
  8
0
100
AcDbLine
 10
-0.0144949640173603
 20
0.1205082853185088
 30
0.0
 11
-0.0144949640173603
 21
0.1204788068271666
 31
0.0
  0
LINE
  5
64C
330
1F
100
AcDbEntity
  8
0
100
AcDbLine
 10
-0.0144949640173603
 20
0.1205382212165643
 30
0.0
 11
-0.0144949640173603
 21
0.1205082853185088
 31
0.0
  0
LINE
  5
64D
330
1F
100
AcDbEntity
  8
0
100
AcDbLine
 10
-0.0144949640173603
 20
0.1205683866929105
 30
0.0
 11
-0.0144949640173603
 21
0.1205382212165643
 31
0.0
  0
LINE
  5
64E
330
1F
100
AcDbEntity
  8
0
100
AcDbLine
 10
-0.0144949640173603
 20
0.1205985521692566
 30
0.0
 11
-0.0144949640173603
 21
0.1205683866929105
 31
0.0
  0
LINE
  5
64F
330
1F
100
AcDbEntity
  8
0
100
AcDbLine
 10
-0.0144949640173603
 20
0.1206284880673122
 30
0.0
 11
-0.0144949640173603
 21
0.1205985521692566
 31
0.0
  0
LINE
  5
650
330
1F
100
AcDbEntity
  8
0
100
AcDbLine
 10
-0.0144949640173603
 20
0.1206579665586543
 30
0.0
 11
-0.0144949640173603
 21
0.1206284880673122
 31
0.0
  0
LINE
  5
651
330
1F
100
AcDbEntity
  8
0
100
AcDbLine
 10
-0.0144949640173603
 20
0.120686763292768
 30
0.0
 11
-0.0144949640173603
 21
0.1206579665586543
 31
0.0
  0
LINE
  5
652
330
1F
100
AcDbEntity
  8
0
100
AcDbLine
 10
-0.0144949640173603
 20
0.120714659110534
 30
0.0
 11
-0.0144949640173603
 21
0.120686763292768
 31
0.0
  0
LINE
  5
653
330
1F
100
AcDbEntity
  8
0
100
AcDbLine
 10
-0.0144949640173603
 20
0.120741441706785
 30
0.0
 11
-0.0144949640173603
 21
0.120714659110534
 31
0.0
  0
LINE
  5
654
330
1F
100
AcDbEntity
  8
0
100
AcDbLine
 10
-0.0144949640173603
 20
0.1207669072528444
 30
0.0
 11
-0.0144949640173603
 21
0.120741441706785
 31
0.0
  0
LINE
  5
655
330
1F
100
AcDbEntity
  8
0
100
AcDbLine
 10
-0.0145280893969197
 20
0.1211725568928598
 30
0.0
 11
-0.0144949640173603
 21
0.1209131796559161
 31
0.0
  0
LINE
  5
656
330
1F
100
AcDbEntity
  8
0
100
AcDbLine
 10
-0.0144949640173603
 20
0.1209144967206596
 30
0.0
 11
-0.0144759689399347
 21
0.1206433823454501
 31
0.0
  0
LINE
  5
657
330
1F
100
AcDbEntity
  8
0
100
AcDbLine
 10
-0.0144759689399347
 20
0.1206433823454501
 30
0.0
 11
-0.0144949640173603
 21
0.1209131796559161
 31
0.0
  0
LINE
  5
658
330
1F
100
AcDbEntity
  8
0
100
AcDbLine
 10
-0.0144759689399347
 20
0.1206433823454501
 30
0.0
 11
-0.0144949640173603
 21
0.120909238531611
 31
0.0
  0
LINE
  5
659
330
1F
100
AcDbEntity
  8
0
100
AcDbLine
 10
-0.0144759689399347
 20
0.1206433823454501
 30
0.0
 11
-0.0144949640173603
 21
0.1209027032955857
 31
0.0
  0
LINE
  5
65A
330
1F
100
AcDbEntity
  8
0
100
AcDbLine
 10
-0.0144759689399347
 20
0.1206433823454501
 30
0.0
 11
-0.0144949640173603
 21
0.1208936237153905
 31
0.0
  0
LINE
  5
65B
330
1F
100
AcDbEntity
  8
0
100
AcDbLine
 10
-0.0144759689399347
 20
0.1206433823454501
 30
0.0
 11
-0.0144949640173603
 21
0.1208820689126225
 31
0.0
  0
LINE
  5
65C
330
1F
100
AcDbEntity
  8
0
100
AcDbLine
 10
-0.0144759689399347
 20
0.120619686741564
 30
0.0
 11
-0.0144949640173603
 21
0.1208820689126225
 31
0.0
  0
LINE
  5
65D
330
1F
100
AcDbEntity
  8
0
100
AcDbLine
 10
-0.0144759689399347
 20
0.120619686741564
 30
0.0
 11
-0.0144949640173603
 21
0.120868126751746
 31
0.0
  0
LINE
  5
65E
330
1F
100
AcDbEntity
  8
0
100
AcDbLine
 10
-0.0144759689399347
 20
0.120619686741564
 30
0.0
 11
-0.0144949640173603
 21
0.1208519034326384
 31
0.0
  0
LINE
  5
65F
330
1F
100
AcDbEntity
  8
0
100
AcDbLine
 10
-0.0144759689399347
 20
0.120619686741564
 30
0.0
 11
-0.0144949640173603
 21
0.1208335223555407
 31
0.0
  0
LINE
  5
660
330
1F
100
AcDbEntity
  8
0
100
AcDbLine
 10
-0.0144759689399347
 20
0.120619686741564
 30
0.0
 11
-0.0144949640173603
 21
0.1208131234516697
 31
0.0
  0
LINE
  5
661
330
1F
100
AcDbEntity
  8
0
100
AcDbLine
 10
-0.0144759689399347
 20
0.120619686741564
 30
0.0
 11
-0.0144949640173603
 21
0.1207908619317534
 31
0.0
  0
LINE
  5
662
330
1F
100
AcDbEntity
  8
0
100
AcDbLine
 10
-0.0144759689399347
 20
0.120619686741564
 30
0.0
 11
-0.0144949640173603
 21
0.1207669072528444
 31
0.0
  0
LINE
  5
663
330
1F
100
AcDbEntity
  8
0
100
AcDbLine
 10
-0.0144759689399347
 20
0.1205822453294315
 30
0.0
 11
-0.0144949640173603
 21
0.1207669072528444
 31
0.0
  0
LINE
  5
664
330
1F
100
AcDbEntity
  8
0
100
AcDbLine
 10
-0.0144759689399347
 20
0.1205822453294315
 30
0.0
 11
-0.0144949640173603
 21
0.120741441706785
 31
0.0
  0
LINE
  5
665
330
1F
100
AcDbEntity
  8
0
100
AcDbLine
 10
-0.0144759689399347
 20
0.1205822453294315
 30
0.0
 11
-0.0144949640173603
 21
0.120714659110534
 31
0.0
  0
LINE
  5
666
330
1F
100
AcDbEntity
  8
0
100
AcDbLine
 10
-0.0144759689399347
 20
0.1205822453294315
 30
0.0
 11
-0.0144949640173603
 21
0.120686763292768
 31
0.0
  0
LINE
  5
667
330
1F
100
AcDbEntity
  8
0
100
AcDbLine
 10
-0.0144759689399347
 20
0.1205822453294315
 30
0.0
 11
-0.0144949640173603
 21
0.1206579665586543
 31
0.0
  0
LINE
  5
668
330
1F
100
AcDbEntity
  8
0
100
AcDbLine
 10
-0.0144759689399347
 20
0.1205822453294315
 30
0.0
 11
-0.0144949640173603
 21
0.1206284880673122
 31
0.0
  0
LINE
  5
669
330
1F
100
AcDbEntity
  8
0
100
AcDbLine
 10
-0.0144759689399347
 20
0.1205410905068204
 30
0.0
 11
-0.0144949640173603
 21
0.1205985521692566
 31
0.0
  0
LINE
  5
66A
330
1F
100
AcDbEntity
  8
0
100
AcDbLine
 10
-0.0144759689399347
 20
0.1205410905068204
 30
0.0
 11
-0.0144949640173603
 21
0.1205683866929105
 31
0.0
  0
LINE
  5
66B
330
1F
100
AcDbEntity
  8
0
100
AcDbLine
 10
-0.0144759689399347
 20
0.1205410905068204
 30
0.0
 11
-0.0144949640173603
 21
0.1205082853185088
 31
0.0
  0
LINE
  5
66C
330
1F
100
AcDbEntity
  8
0
100
AcDbLine
 10
-0.0144759689399347
 20
0.1205410905068204
 30
0.0
 11
-0.0144949640173603
 21
0.1204788068271666
 31
0.0
  0
LINE
  5
66D
330
1F
100
AcDbEntity
  8
0
100
AcDbLine
 10
-0.0144759689399347
 20
0.1205410905068204
 30
0.0
 11
-0.0144949640173603
 21
0.1204500100930529
 31
0.0
  0
LINE
  5
66E
330
1F
100
AcDbEntity
  8
0
100
AcDbLine
 10
-0.0144759689399347
 20
0.1205410905068204
 30
0.0
 11
-0.0144949640173603
 21
0.1204221142752869
 31
0.0
  0
LINE
  5
66F
330
1F
100
AcDbEntity
  8
0
100
AcDbLine
 10
-0.0144759689399347
 20
0.1205072496732539
 30
0.0
 11
-0.0144949640173603
 21
0.1204221142752869
 31
0.0
  0
LINE
  5
670
330
1F
100
AcDbEntity
  8
0
100
AcDbLine
 10
-0.0144759689399347
 20
0.1205072496732539
 30
0.0
 11
-0.0144949640173603
 21
0.1203953316790359
 31
0.0
  0
LINE
  5
671
330
1F
100
AcDbEntity
  8
0
100
AcDbLine
 10
-0.0144759689399347
 20
0.1205072496732539
 30
0.0
 11
-0.0144949640173603
 21
0.1203698661329765
 31
0.0
  0
LINE
  5
672
330
1F
100
AcDbEntity
  8
0
100
AcDbLine
 10
-0.0144759689399347
 20
0.1205072496732539
 30
0.0
 11
-0.0144949640173603
 21
0.1203459114540676
 31
0.0
  0
LINE
  5
673
330
1F
100
AcDbEntity
  8
0
100
AcDbLine
 10
-0.0144759689399347
 20
0.1205072496732539
 30
0.0
 11
-0.0144949640173603
 21
0.1203236499341512
 31
0.0
  0
LINE
  5
674
330
1F
100
AcDbEntity
  8
0
100
AcDbLine
 10
-0.0144759689399347
 20
0.1205072496732539
 30
0.0
 11
-0.0144949640173603
 21
0.1203032510302803
 31
0.0
  0
LINE
  5
675
330
1F
100
AcDbEntity
  8
0
100
AcDbLine
 10
-0.0144759689399347
 20
0.1205072496732539
 30
0.0
 11
-0.0144949640173603
 21
0.1202848699531825
 31
0.0
  0
LINE
  5
676
330
1F
100
AcDbEntity
  8
0
100
AcDbLine
 10
-0.0144759689399347
 20
0.1204897904599859
 30
0.0
 11
-0.0144949640173603
 21
0.1202848699531825
 31
0.0
  0
LINE
  5
677
330
1F
100
AcDbEntity
  8
0
100
AcDbLine
 10
-0.0144759689399347
 20
0.1204897904599859
 30
0.0
 11
-0.0144949640173603
 21
0.1202686466340749
 31
0.0
  0
LINE
  5
678
330
1F
100
AcDbEntity
  8
0
100
AcDbLine
 10
-0.0144759689399347
 20
0.1204897904599859
 30
0.0
 11
-0.0144949640173603
 21
0.1202547044731984
 31
0.0
  0
LINE
  5
679
330
1F
100
AcDbEntity
  8
0
100
AcDbLine
 10
-0.0144759689399347
 20
0.1204897904599859
 30
0.0
 11
-0.0144949640173603
 21
0.1202431496704305
 31
0.0
  0
LINE
  5
67A
330
1F
100
AcDbEntity
  8
0
100
AcDbLine
 10
-0.0144759689399347
 20
0.1204897904599859
 30
0.0
 11
-0.0144949640173603
 21
0.1202340700902352
 31
0.0
  0
LINE
  5
67B
330
1F
100
AcDbEntity
  8
0
100
AcDbLine
 10
-0.0144759689399347
 20
0.1204897904599859
 30
0.0
 11
-0.0144949640173603
 21
0.12022753485421
 31
0.0
  0
LINE
  5
67C
330
1F
100
AcDbEntity
  8
0
100
AcDbLine
 10
-0.0144759689399347
 20
0.1204897904599859
 30
0.0
 11
-0.0144949640173603
 21
0.1202235937299049
 31
0.0
  0
LINE
  5
67D
330
1F
100
AcDbEntity
  8
0
100
AcDbLine
 10
-0.0144759689399347
 20
0.1206469829258351
 30
0.0
 11
-0.0144730906479548
 21
0.1205683866929105
 31
0.0
  0
LINE
  5
67E
330
1F
100
AcDbEntity
  8
0
100
AcDbLine
 10
-0.0144759689399347
 20
0.1206295237125671
 30
0.0
 11
-0.0144730906479548
 21
0.1205683866929105
 31
0.0
  0
LINE
  5
67F
330
1F
100
AcDbEntity
  8
0
100
AcDbLine
 10
-0.0144759689399347
 20
0.1206082910457992
 30
0.0
 11
-0.0144730906479548
 21
0.1205683866929105
 31
0.0
  0
LINE
  5
680
330
1F
100
AcDbEntity
  8
0
100
AcDbLine
 10
-0.0144759689399347
 20
0.1206082910457992
 30
0.0
 11
-0.0144759689399347
 21
0.1205753424801953
 31
0.0
  0
LINE
  5
681
330
1F
100
AcDbEntity
  8
0
100
AcDbLine
 10
-0.0144730906479548
 20
0.1205683866929105
 30
0.0
 11
-0.0144759689399347
 21
0.1205346580746193
 31
0.0
  0
LINE
  5
682
330
1F
100
AcDbEntity
  8
0
100
AcDbLine
 10
-0.0144759689399347
 20
0.1205753424801953
 30
0.0
 11
-0.0144759689399347
 21
0.1205346580746193
 31
0.0
  0
LINE
  5
683
330
1F
100
AcDbEntity
  8
0
100
AcDbLine
 10
-0.0144759689399347
 20
0.1205346580746193
 30
0.0
 11
-0.0144759689399347
 21
0.1205030112242168
 31
0.0
  0
LINE
  5
684
330
1F
100
AcDbEntity
  8
0
100
AcDbLine
 10
-0.0144759689399347
 20
0.1205030112242168
 30
0.0
 11
-0.0144730906479548
 21
0.1205683866929105
 31
0.0
  0
LINE
  5
685
330
1F
100
AcDbEntity
  8
0
100
AcDbLine
 10
-0.0144759689399347
 20
0.1204912973981193
 30
0.0
 11
-0.0144730906479548
 21
0.1205683866929105
 31
0.0
  0
LINE
  5
686
330
1F
100
AcDbEntity
  8
0
100
AcDbLine
 10
-0.0144949640173603
 20
0.1209144967206596
 30
0.0
 11
-0.0144759689399347
 21
0.1206469829258351
 31
0.0
  0
LINE
  5
687
330
1F
100
AcDbEntity
  8
0
100
AcDbLine
 10
-0.0144949640173603
 20
0.120741441706785
 30
0.0
 11
-0.0144949640173603
 21
0.1207669072528444
 31
0.0
  0
LINE
  5
688
330
1F
100
AcDbEntity
  8
0
100
AcDbLine
 10
-0.0144949640173603
 20
0.120714659110534
 30
0.0
 11
-0.0144949640173603
 21
0.120741441706785
 31
0.0
  0
LINE
  5
689
330
1F
100
AcDbEntity
  8
0
100
AcDbLine
 10
-0.0144949640173603
 20
0.120686763292768
 30
0.0
 11
-0.0144949640173603
 21
0.120714659110534
 31
0.0
  0
LINE
  5
68A
330
1F
100
AcDbEntity
  8
0
100
AcDbLine
 10
-0.0144949640173603
 20
0.1206579665586543
 30
0.0
 11
-0.0144949640173603
 21
0.120686763292768
 31
0.0
  0
LINE
  5
68B
330
1F
100
AcDbEntity
  8
0
100
AcDbLine
 10
-0.0144949640173603
 20
0.1206284880673122
 30
0.0
 11
-0.0144949640173603
 21
0.1206579665586543
 31
0.0
  0
LINE
  5
68C
330
1F
100
AcDbEntity
  8
0
100
AcDbLine
 10
-0.0144949640173603
 20
0.1205985521692566
 30
0.0
 11
-0.0144949640173603
 21
0.1206284880673122
 31
0.0
  0
LINE
  5
68D
330
1F
100
AcDbEntity
  8
0
100
AcDbLine
 10
-0.0144949640173603
 20
0.1205683866929105
 30
0.0
 11
-0.0144949640173603
 21
0.1205985521692566
 31
0.0
  0
LINE
  5
68E
330
1F
100
AcDbEntity
  8
0
100
AcDbLine
 10
-0.0144949640173603
 20
0.1205382212165643
 30
0.0
 11
-0.0144949640173603
 21
0.1205683866929105
 31
0.0
  0
LINE
  5
68F
330
1F
100
AcDbEntity
  8
0
100
AcDbLine
 10
-0.0144949640173603
 20
0.1205082853185088
 30
0.0
 11
-0.0144949640173603
 21
0.1205382212165643
 31
0.0
  0
LINE
  5
690
330
1F
100
AcDbEntity
  8
0
100
AcDbLine
 10
-0.0144949640173603
 20
0.1204788068271666
 30
0.0
 11
-0.0144949640173603
 21
0.1205082853185088
 31
0.0
  0
LINE
  5
691
330
1F
100
AcDbEntity
  8
0
100
AcDbLine
 10
-0.0144949640173603
 20
0.1204500100930529
 30
0.0
 11
-0.0144949640173603
 21
0.1204788068271666
 31
0.0
  0
LINE
  5
692
330
1F
100
AcDbEntity
  8
0
100
AcDbLine
 10
-0.0144949640173603
 20
0.1204221142752869
 30
0.0
 11
-0.0144949640173603
 21
0.1204500100930529
 31
0.0
  0
LINE
  5
693
330
1F
100
AcDbEntity
  8
0
100
AcDbLine
 10
-0.0144949640173603
 20
0.1203953316790359
 30
0.0
 11
-0.0144949640173603
 21
0.1204221142752869
 31
0.0
  0
LINE
  5
694
330
1F
100
AcDbEntity
  8
0
100
AcDbLine
 10
-0.0144949640173603
 20
0.1203698661329765
 30
0.0
 11
-0.0144949640173603
 21
0.1203953316790359
 31
0.0
  0
LINE
  5
695
330
1F
100
AcDbEntity
  8
0
100
AcDbLine
 10
-0.0145280893969197
 20
0.1199642164929612
 30
0.0
 11
-0.0144949640173603
 21
0.1202235937299049
 31
0.0
  0
LINE
  5
696
330
1F
100
AcDbEntity
  8
0
100
AcDbLine
 10
-0.0144759689399347
 20
0.1204897904599859
 30
0.0
 11
-0.0144949640173603
 21
0.1202235937299049
 31
0.0
  0
LINE
  5
697
330
1F
100
AcDbEntity
  8
0
100
AcDbLine
 10
-0.0144759689399347
 20
0.1204912973981193
 30
0.0
 11
-0.0144949640173603
 21
0.1202235937299049
 31
0.0
  0
LINE
  5
698
330
1F
100
AcDbEntity
  8
0
100
AcDbLine
 10
-0.0144759689399347
 20
0.1204912973981193
 30
0.0
 11
-0.0144949640173603
 21
0.12022753485421
 31
0.0
  0
LINE
  5
699
330
1F
100
AcDbEntity
  8
0
100
AcDbLine
 10
-0.0144759689399347
 20
0.1204912973981193
 30
0.0
 11
-0.0144949640173603
 21
0.1202340700902352
 31
0.0
  0
LINE
  5
69A
330
1F
100
AcDbEntity
  8
0
100
AcDbLine
 10
-0.0144759689399347
 20
0.1205030112242168
 30
0.0
 11
-0.0144949640173603
 21
0.1202340700902352
 31
0.0
  0
LINE
  5
69B
330
1F
100
AcDbEntity
  8
0
100
AcDbLine
 10
-0.0144759689399347
 20
0.1205030112242168
 30
0.0
 11
-0.0144949640173603
 21
0.1202431496704305
 31
0.0
  0
LINE
  5
69C
330
1F
100
AcDbEntity
  8
0
100
AcDbLine
 10
-0.0144759689399347
 20
0.1205030112242168
 30
0.0
 11
-0.0144949640173603
 21
0.1202547044731984
 31
0.0
  0
LINE
  5
69D
330
1F
100
AcDbEntity
  8
0
100
AcDbLine
 10
-0.0144759689399347
 20
0.1205030112242168
 30
0.0
 11
-0.0144949640173603
 21
0.1202686466340749
 31
0.0
  0
LINE
  5
69E
330
1F
100
AcDbEntity
  8
0
100
AcDbLine
 10
-0.0144759689399347
 20
0.1205030112242168
 30
0.0
 11
-0.0144949640173603
 21
0.1202848699531825
 31
0.0
  0
LINE
  5
69F
330
1F
100
AcDbEntity
  8
0
100
AcDbLine
 10
-0.0144759689399347
 20
0.1205030112242168
 30
0.0
 11
-0.0144949640173603
 21
0.1203032510302803
 31
0.0
  0
LINE
  5
6A0
330
1F
100
AcDbEntity
  8
0
100
AcDbLine
 10
-0.0144759689399347
 20
0.1205346580746193
 30
0.0
 11
-0.0144949640173603
 21
0.1203032510302803
 31
0.0
  0
LINE
  5
6A1
330
1F
100
AcDbEntity
  8
0
100
AcDbLine
 10
-0.0144759689399347
 20
0.1205346580746193
 30
0.0
 11
-0.0144949640173603
 21
0.1203236499341512
 31
0.0
  0
LINE
  5
6A2
330
1F
100
AcDbEntity
  8
0
100
AcDbLine
 10
-0.0144759689399347
 20
0.1205346580746193
 30
0.0
 11
-0.0144949640173603
 21
0.1203459114540676
 31
0.0
  0
LINE
  5
6A3
330
1F
100
AcDbEntity
  8
0
100
AcDbLine
 10
-0.0144759689399347
 20
0.1205346580746193
 30
0.0
 11
-0.0144949640173603
 21
0.1203698661329765
 31
0.0
  0
LINE
  5
6A4
330
1F
100
AcDbEntity
  8
0
100
AcDbLine
 10
-0.0144759689399347
 20
0.1205346580746193
 30
0.0
 11
-0.0144949640173603
 21
0.1203953316790359
 31
0.0
  0
LINE
  5
6A5
330
1F
100
AcDbEntity
  8
0
100
AcDbLine
 10
-0.0144759689399347
 20
0.1205346580746193
 30
0.0
 11
-0.0144949640173603
 21
0.1204221142752869
 31
0.0
  0
LINE
  5
6A6
330
1F
100
AcDbEntity
  8
0
100
AcDbLine
 10
-0.0144759689399347
 20
0.1205346580746193
 30
0.0
 11
-0.0144949640173603
 21
0.1204500100930529
 31
0.0
  0
LINE
  5
6A7
330
1F
100
AcDbEntity
  8
0
100
AcDbLine
 10
-0.0144759689399347
 20
0.1205753424801953
 30
0.0
 11
-0.0144949640173603
 21
0.1204500100930529
 31
0.0
  0
LINE
  5
6A8
330
1F
100
AcDbEntity
  8
0
100
AcDbLine
 10
-0.0144759689399347
 20
0.1205753424801953
 30
0.0
 11
-0.0144949640173603
 21
0.1204788068271666
 31
0.0
  0
LINE
  5
6A9
330
1F
100
AcDbEntity
  8
0
100
AcDbLine
 10
-0.0144759689399347
 20
0.1205753424801953
 30
0.0
 11
-0.0144949640173603
 21
0.1205082853185088
 31
0.0
  0
LINE
  5
6AA
330
1F
100
AcDbEntity
  8
0
100
AcDbLine
 10
-0.0144759689399347
 20
0.1205753424801953
 30
0.0
 11
-0.0144949640173603
 21
0.1205382212165643
 31
0.0
  0
LINE
  5
6AB
330
1F
100
AcDbEntity
  8
0
100
AcDbLine
 10
-0.0144759689399347
 20
0.1205753424801953
 30
0.0
 11
-0.0144949640173603
 21
0.1205985521692566
 31
0.0
  0
LINE
  5
6AC
330
1F
100
AcDbEntity
  8
0
100
AcDbLine
 10
-0.0144759689399347
 20
0.1205753424801953
 30
0.0
 11
-0.0144949640173603
 21
0.1206284880673122
 31
0.0
  0
LINE
  5
6AD
330
1F
100
AcDbEntity
  8
0
100
AcDbLine
 10
-0.0144759689399347
 20
0.1206082910457992
 30
0.0
 11
-0.0144949640173603
 21
0.1206284880673122
 31
0.0
  0
LINE
  5
6AE
330
1F
100
AcDbEntity
  8
0
100
AcDbLine
 10
-0.0144759689399347
 20
0.1206082910457992
 30
0.0
 11
-0.0144949640173603
 21
0.1206579665586543
 31
0.0
  0
LINE
  5
6AF
330
1F
100
AcDbEntity
  8
0
100
AcDbLine
 10
-0.0144759689399347
 20
0.1206082910457992
 30
0.0
 11
-0.0144949640173603
 21
0.120686763292768
 31
0.0
  0
LINE
  5
6B0
330
1F
100
AcDbEntity
  8
0
100
AcDbLine
 10
-0.0144759689399347
 20
0.1206082910457992
 30
0.0
 11
-0.0144949640173603
 21
0.120714659110534
 31
0.0
  0
LINE
  5
6B1
330
1F
100
AcDbEntity
  8
0
100
AcDbLine
 10
-0.0144759689399347
 20
0.1206082910457992
 30
0.0
 11
-0.0144949640173603
 21
0.120741441706785
 31
0.0
  0
LINE
  5
6B2
330
1F
100
AcDbEntity
  8
0
100
AcDbLine
 10
-0.0144759689399347
 20
0.1206295237125671
 30
0.0
 11
-0.0144949640173603
 21
0.120741441706785
 31
0.0
  0
LINE
  5
6B3
330
1F
100
AcDbEntity
  8
0
100
AcDbLine
 10
-0.0144759689399347
 20
0.1206295237125671
 30
0.0
 11
-0.0144949640173603
 21
0.1207669072528444
 31
0.0
  0
LINE
  5
6B4
330
1F
100
AcDbEntity
  8
0
100
AcDbLine
 10
-0.0144759689399347
 20
0.1206295237125671
 30
0.0
 11
-0.0144949640173603
 21
0.1207908619317534
 31
0.0
  0
LINE
  5
6B5
330
1F
100
AcDbEntity
  8
0
100
AcDbLine
 10
-0.0144759689399347
 20
0.1206295237125671
 30
0.0
 11
-0.0144949640173603
 21
0.1208131234516697
 31
0.0
  0
LINE
  5
6B6
330
1F
100
AcDbEntity
  8
0
100
AcDbLine
 10
-0.0144759689399347
 20
0.1206295237125671
 30
0.0
 11
-0.0144949640173603
 21
0.1208335223555407
 31
0.0
  0
LINE
  5
6B7
330
1F
100
AcDbEntity
  8
0
100
AcDbLine
 10
-0.0144759689399347
 20
0.1206295237125671
 30
0.0
 11
-0.0144949640173603
 21
0.1208519034326384
 31
0.0
  0
LINE
  5
6B8
330
1F
100
AcDbEntity
  8
0
100
AcDbLine
 10
-0.0144759689399347
 20
0.1206469829258351
 30
0.0
 11
-0.0144949640173603
 21
0.1208519034326384
 31
0.0
  0
LINE
  5
6B9
330
1F
100
AcDbEntity
  8
0
100
AcDbLine
 10
-0.0144759689399347
 20
0.1206469829258351
 30
0.0
 11
-0.0144949640173603
 21
0.120868126751746
 31
0.0
  0
LINE
  5
6BA
330
1F
100
AcDbEntity
  8
0
100
AcDbLine
 10
-0.0144759689399347
 20
0.1206469829258351
 30
0.0
 11
-0.0144949640173603
 21
0.1208820689126225
 31
0.0
  0
LINE
  5
6BB
330
1F
100
AcDbEntity
  8
0
100
AcDbLine
 10
-0.0144759689399347
 20
0.1206469829258351
 30
0.0
 11
-0.0144949640173603
 21
0.1208936237153905
 31
0.0
  0
LINE
  5
6BC
330
1F
100
AcDbEntity
  8
0
100
AcDbLine
 10
-0.0144759689399347
 20
0.1206469829258351
 30
0.0
 11
-0.0144949640173603
 21
0.1209027032955857
 31
0.0
  0
LINE
  5
6BD
330
1F
100
AcDbEntity
  8
0
100
AcDbLine
 10
-0.0144759689399347
 20
0.1206469829258351
 30
0.0
 11
-0.0144949640173603
 21
0.120909238531611
 31
0.0
  0
LINE
  5
6BE
330
1F
100
AcDbEntity
  8
0
100
AcDbLine
 10
-0.0144759689399347
 20
0.1206469829258351
 30
0.0
 11
-0.0144949640173603
 21
0.1209131796559161
 31
0.0
  0
LINE
  5
6BF
330
1F
100
AcDbEntity
  8
0
100
AcDbLine
 10
0.1625484241637372
 20
0.1120919189160463
 30
0.0
 11
0.1625109827516048
 21
0.1120919189160463
 31
0.0
  0
LINE
  5
6C0
330
1F
100
AcDbEntity
  8
0
100
AcDbLine
 10
0.1625109827516048
 20
0.1120919189160463
 30
0.0
 11
0.1625622828002583
 21
0.1120947972080261
 31
0.0
  0
LINE
  5
6C1
330
1F
100
AcDbEntity
  8
0
100
AcDbLine
 10
0.1624872871477186
 20
0.1120919189160463
 30
0.0
 11
0.1625622828002583
 21
0.1120947972080261
 31
0.0
  0
LINE
  5
6C2
330
1F
100
AcDbEntity
  8
0
100
AcDbLine
 10
0.1624836865673337
 20
0.1120919189160463
 30
0.0
 11
0.1625622828002583
 21
0.1120947972080261
 31
0.0
  0
LINE
  5
6C3
330
1F
100
AcDbEntity
  8
0
100
AcDbLine
 10
0.1625011457806017
 20
0.1120919189160463
 30
0.0
 11
0.1625622828002583
 21
0.1120947972080261
 31
0.0
  0
LINE
  5
6C4
330
1F
100
AcDbEntity
  8
0
100
AcDbLine
 10
0.1625011457806017
 20
0.1120919189160463
 30
0.0
 11
0.1625349866141682
 21
0.1120919189160463
 31
0.0
  0
LINE
  5
6C5
330
1F
100
AcDbEntity
  8
0
100
AcDbLine
 10
0.1625349866141682
 20
0.1120919189160463
 30
0.0
 11
0.1625622828002583
 21
0.1120947972080261
 31
0.0
  0
LINE
  5
6C6
330
1F
100
AcDbEntity
  8
0
100
AcDbLine
 10
0.1625021814258566
 20
0.1120729238386206
 30
0.0
 11
0.1625321173239121
 21
0.1120729238386206
 31
0.0
  0
LINE
  5
6C7
330
1F
100
AcDbEntity
  8
0
100
AcDbLine
 10
0.1624727029345144
 20
0.1120729238386206
 30
0.0
 11
0.1625021814258566
 21
0.1120729238386206
 31
0.0
  0
LINE
  5
6C8
330
1F
100
AcDbEntity
  8
0
100
AcDbLine
 10
0.1624439062004007
 20
0.1120729238386206
 30
0.0
 11
0.1624727029345144
 21
0.1120729238386206
 31
0.0
  0
LINE
  5
6C9
330
1F
100
AcDbEntity
  8
0
100
AcDbLine
 10
0.1624160103826347
 20
0.1120729238386206
 30
0.0
 11
0.1624439062004007
 21
0.1120729238386206
 31
0.0
  0
LINE
  5
6CA
330
1F
100
AcDbEntity
  8
0
100
AcDbLine
 10
0.1623892277863837
 20
0.1120729238386206
 30
0.0
 11
0.1624160103826347
 21
0.1120729238386206
 31
0.0
  0
LINE
  5
6CB
330
1F
100
AcDbEntity
  8
0
100
AcDbLine
 10
0.1623637622403243
 20
0.1120729238386206
 30
0.0
 11
0.1623892277863837
 21
0.1120729238386206
 31
0.0
  0
LINE
  5
6CC
330
1F
100
AcDbEntity
  8
0
100
AcDbLine
 10
0.1623892277863837
 20
0.1120729238386206
 30
0.0
 11
0.1623637622403243
 21
0.1120729238386206
 31
0.0
  0
LINE
  5
6CD
330
1F
100
AcDbEntity
  8
0
100
AcDbLine
 10
0.1624160103826347
 20
0.1120729238386206
 30
0.0
 11
0.1623892277863837
 21
0.1120729238386206
 31
0.0
  0
LINE
  5
6CE
330
1F
100
AcDbEntity
  8
0
100
AcDbLine
 10
0.1624439062004007
 20
0.1120729238386206
 30
0.0
 11
0.1624160103826347
 21
0.1120729238386206
 31
0.0
  0
LINE
  5
6CF
330
1F
100
AcDbEntity
  8
0
100
AcDbLine
 10
0.1624727029345144
 20
0.1120729238386206
 30
0.0
 11
0.1624439062004007
 21
0.1120729238386206
 31
0.0
  0
LINE
  5
6D0
330
1F
100
AcDbEntity
  8
0
100
AcDbLine
 10
0.1625021814258566
 20
0.1120729238386206
 30
0.0
 11
0.1624727029345144
 21
0.1120729238386206
 31
0.0
  0
LINE
  5
6D1
330
1F
100
AcDbEntity
  8
0
100
AcDbLine
 10
0.1625094247580768
 20
0.1120397984590613
 30
0.0
 11
0.1625321173239121
 21
0.1120729238386206
 31
0.0
  0
LINE
  5
6D2
330
1F
100
AcDbEntity
  8
0
100
AcDbLine
 10
0.1625321173239121
 20
0.1120729238386206
 30
0.0
 11
0.1625021814258566
 21
0.1120729238386206
 31
0.0
  0
LINE
  5
6D3
330
1F
100
AcDbEntity
  8
0
100
AcDbLine
 10
0.1625622828002583
 20
0.1120729238386206
 30
0.0
 11
0.1625321173239121
 21
0.1120729238386206
 31
0.0
  0
LINE
  5
6D4
330
1F
100
AcDbEntity
  8
0
100
AcDbLine
 10
0.1625622828002583
 20
0.1120729238386206
 30
0.0
 11
0.1625349866141682
 21
0.1120919189160463
 31
0.0
  0
LINE
  5
6D5
330
1F
100
AcDbEntity
  8
0
100
AcDbLine
 10
0.1625349866141682
 20
0.1120919189160463
 30
0.0
 11
0.1625021814258566
 21
0.1120729238386206
 31
0.0
  0
LINE
  5
6D6
330
1F
100
AcDbEntity
  8
0
100
AcDbLine
 10
0.1625349866141682
 20
0.1120919189160463
 30
0.0
 11
0.1624727029345144
 21
0.1120729238386206
 31
0.0
  0
LINE
  5
6D7
330
1F
100
AcDbEntity
  8
0
100
AcDbLine
 10
0.1625349866141682
 20
0.1120919189160463
 30
0.0
 11
0.1624439062004007
 21
0.1120729238386206
 31
0.0
  0
LINE
  5
6D8
330
1F
100
AcDbEntity
  8
0
100
AcDbLine
 10
0.1625349866141682
 20
0.1120919189160463
 30
0.0
 11
0.1624160103826347
 21
0.1120729238386206
 31
0.0
  0
LINE
  5
6D9
330
1F
100
AcDbEntity
  8
0
100
AcDbLine
 10
0.1625011457806017
 20
0.1120919189160463
 30
0.0
 11
0.1624160103826347
 21
0.1120729238386206
 31
0.0
  0
LINE
  5
6DA
330
1F
100
AcDbEntity
  8
0
100
AcDbLine
 10
0.1625011457806017
 20
0.1120919189160463
 30
0.0
 11
0.1623892277863837
 21
0.1120729238386206
 31
0.0
  0
LINE
  5
6DB
330
1F
100
AcDbEntity
  8
0
100
AcDbLine
 10
0.1625011457806017
 20
0.1120919189160463
 30
0.0
 11
0.1623637622403243
 21
0.1120729238386206
 31
0.0
  0
LINE
  5
6DC
330
1F
100
AcDbEntity
  8
0
100
AcDbLine
 10
0.1625011457806017
 20
0.1120919189160463
 30
0.0
 11
0.1623398075614154
 21
0.1120729238386206
 31
0.0
  0
LINE
  5
6DD
330
1F
100
AcDbEntity
  8
0
100
AcDbLine
 10
0.1625011457806017
 20
0.1120919189160463
 30
0.0
 11
0.162317546041499
 21
0.1120729238386206
 31
0.0
  0
LINE
  5
6DE
330
1F
100
AcDbEntity
  8
0
100
AcDbLine
 10
0.1625011457806017
 20
0.1120919189160463
 30
0.0
 11
0.1622971471376281
 21
0.1120729238386206
 31
0.0
  0
LINE
  5
6DF
330
1F
100
AcDbEntity
  8
0
100
AcDbLine
 10
0.1625011457806017
 20
0.1120919189160463
 30
0.0
 11
0.1622787660605303
 21
0.1120729238386206
 31
0.0
  0
LINE
  5
6E0
330
1F
100
AcDbEntity
  8
0
100
AcDbLine
 10
0.1624836865673337
 20
0.1120919189160463
 30
0.0
 11
0.1622787660605303
 21
0.1120729238386206
 31
0.0
  0
LINE
  5
6E1
330
1F
100
AcDbEntity
  8
0
100
AcDbLine
 10
0.1624836865673337
 20
0.1120919189160463
 30
0.0
 11
0.1622625427414227
 21
0.1120729238386206
 31
0.0
  0
LINE
  5
6E2
330
1F
100
AcDbEntity
  8
0
100
AcDbLine
 10
0.1624836865673337
 20
0.1120919189160463
 30
0.0
 11
0.1622486005805462
 21
0.1120729238386206
 31
0.0
  0
LINE
  5
6E3
330
1F
100
AcDbEntity
  8
0
100
AcDbLine
 10
0.1624836865673337
 20
0.1120919189160463
 30
0.0
 11
0.1622370457777783
 21
0.1120729238386206
 31
0.0
  0
LINE
  5
6E4
330
1F
100
AcDbEntity
  8
0
100
AcDbLine
 10
0.1624836865673337
 20
0.1120919189160463
 30
0.0
 11
0.162227966197583
 21
0.1120729238386206
 31
0.0
  0
LINE
  5
6E5
330
1F
100
AcDbEntity
  8
0
100
AcDbLine
 10
0.1624836865673337
 20
0.1120919189160463
 30
0.0
 11
0.1622214309615578
 21
0.1120729238386206
 31
0.0
  0
LINE
  5
6E6
330
1F
100
AcDbEntity
  8
0
100
AcDbLine
 10
0.1624836865673337
 20
0.1120919189160463
 30
0.0
 11
0.1622174898372527
 21
0.1120729238386206
 31
0.0
  0
LINE
  5
6E7
330
1F
100
AcDbEntity
  8
0
100
AcDbLine
 10
0.1624872871477186
 20
0.1120919189160463
 30
0.0
 11
0.1622174898372527
 21
0.1120729238386206
 31
0.0
  0
LINE
  5
6E8
330
1F
100
AcDbEntity
  8
0
100
AcDbLine
 10
0.1624872871477186
 20
0.1120919189160463
 30
0.0
 11
0.1622161727725092
 21
0.1120729238386206
 31
0.0
  0
LINE
  5
6E9
330
1F
100
AcDbEntity
  8
0
100
AcDbLine
 10
0.1624872871477186
 20
0.1120919189160463
 30
0.0
 11
0.1622174898372527
 21
0.1120729238386206
 31
0.0
  0
LINE
  5
6EA
330
1F
100
AcDbEntity
  8
0
100
AcDbLine
 10
0.1624872871477186
 20
0.1120919189160463
 30
0.0
 11
0.1622214309615578
 21
0.1120729238386206
 31
0.0
  0
LINE
  5
6EB
330
1F
100
AcDbEntity
  8
0
100
AcDbLine
 10
0.1624872871477186
 20
0.1120919189160463
 30
0.0
 11
0.162227966197583
 21
0.1120729238386206
 31
0.0
  0
LINE
  5
6EC
330
1F
100
AcDbEntity
  8
0
100
AcDbLine
 10
0.1624872871477186
 20
0.1120919189160463
 30
0.0
 11
0.1622370457777783
 21
0.1120729238386206
 31
0.0
  0
LINE
  5
6ED
330
1F
100
AcDbEntity
  8
0
100
AcDbLine
 10
0.1624872871477186
 20
0.1120919189160463
 30
0.0
 11
0.1622486005805462
 21
0.1120729238386206
 31
0.0
  0
LINE
  5
6EE
330
1F
100
AcDbEntity
  8
0
100
AcDbLine
 10
0.1625109827516048
 20
0.1120919189160463
 30
0.0
 11
0.1622486005805462
 21
0.1120729238386206
 31
0.0
  0
LINE
  5
6EF
330
1F
100
AcDbEntity
  8
0
100
AcDbLine
 10
0.1625109827516048
 20
0.1120919189160463
 30
0.0
 11
0.1622625427414227
 21
0.1120729238386206
 31
0.0
  0
LINE
  5
6F0
330
1F
100
AcDbEntity
  8
0
100
AcDbLine
 10
0.1625109827516048
 20
0.1120919189160463
 30
0.0
 11
0.1622787660605303
 21
0.1120729238386206
 31
0.0
  0
LINE
  5
6F1
330
1F
100
AcDbEntity
  8
0
100
AcDbLine
 10
0.1625109827516048
 20
0.1120919189160463
 30
0.0
 11
0.1622971471376281
 21
0.1120729238386206
 31
0.0
  0
LINE
  5
6F2
330
1F
100
AcDbEntity
  8
0
100
AcDbLine
 10
0.1625109827516048
 20
0.1120919189160463
 30
0.0
 11
0.162317546041499
 21
0.1120729238386206
 31
0.0
  0
LINE
  5
6F3
330
1F
100
AcDbEntity
  8
0
100
AcDbLine
 10
0.1625109827516048
 20
0.1120919189160463
 30
0.0
 11
0.1623398075614154
 21
0.1120729238386206
 31
0.0
  0
LINE
  5
6F4
330
1F
100
AcDbEntity
  8
0
100
AcDbLine
 10
0.1625109827516048
 20
0.1120919189160463
 30
0.0
 11
0.1623637622403243
 21
0.1120729238386206
 31
0.0
  0
LINE
  5
6F5
330
1F
100
AcDbEntity
  8
0
100
AcDbLine
 10
0.1625484241637372
 20
0.1120919189160463
 30
0.0
 11
0.1623637622403243
 21
0.1120729238386206
 31
0.0
  0
LINE
  5
6F6
330
1F
100
AcDbEntity
  8
0
100
AcDbLine
 10
0.1625484241637372
 20
0.1120919189160463
 30
0.0
 11
0.1623892277863837
 21
0.1120729238386206
 31
0.0
  0
LINE
  5
6F7
330
1F
100
AcDbEntity
  8
0
100
AcDbLine
 10
0.1625484241637372
 20
0.1120919189160463
 30
0.0
 11
0.1624160103826347
 21
0.1120729238386206
 31
0.0
  0
LINE
  5
6F8
330
1F
100
AcDbEntity
  8
0
100
AcDbLine
 10
0.1625484241637372
 20
0.1120919189160463
 30
0.0
 11
0.1624439062004007
 21
0.1120729238386206
 31
0.0
  0
LINE
  5
6F9
330
1F
100
AcDbEntity
  8
0
100
AcDbLine
 10
0.1625484241637372
 20
0.1120919189160463
 30
0.0
 11
0.1624727029345144
 21
0.1120729238386206
 31
0.0
  0
LINE
  5
6FA
330
1F
100
AcDbEntity
  8
0
100
AcDbLine
 10
0.1625484241637372
 20
0.1120919189160463
 30
0.0
 11
0.1625021814258566
 21
0.1120729238386206
 31
0.0
  0
LINE
  5
6FB
330
1F
100
AcDbEntity
  8
0
100
AcDbLine
 10
0.1625622828002583
 20
0.1120729238386206
 30
0.0
 11
0.1625321173239121
 21
0.1120729238386206
 31
0.0
  0
LINE
  5
6FC
330
1F
100
AcDbEntity
  8
0
100
AcDbLine
 10
0.1625761414367793
 20
0.1120919189160463
 30
0.0
 11
0.1626135828489118
 21
0.1120919189160463
 31
0.0
  0
LINE
  5
6FD
330
1F
100
AcDbEntity
  8
0
100
AcDbLine
 10
0.1626135828489118
 20
0.1120919189160463
 30
0.0
 11
0.1625622828002583
 21
0.1120947972080261
 31
0.0
  0
LINE
  5
6FE
330
1F
100
AcDbEntity
  8
0
100
AcDbLine
 10
0.1626313991661795
 20
0.1120919189160463
 30
0.0
 11
0.1625622828002583
 21
0.1120947972080261
 31
0.0
  0
LINE
  5
6FF
330
1F
100
AcDbEntity
  8
0
100
AcDbLine
 10
0.1626417878148408
 20
0.1120919189160463
 30
0.0
 11
0.1625622828002583
 21
0.1120947972080261
 31
0.0
  0
LINE
  5
700
330
1F
100
AcDbEntity
  8
0
100
AcDbLine
 10
0.1625622828002583
 20
0.1120947972080261
 30
0.0
 11
0.1626346140553273
 21
0.1120919189160463
 31
0.0
  0
LINE
  5
701
330
1F
100
AcDbEntity
  8
0
100
AcDbLine
 10
0.1626346140553273
 20
0.1120919189160463
 30
0.0
 11
0.1626080591965496
 21
0.1120919189160463
 31
0.0
  0
LINE
  5
702
330
1F
100
AcDbEntity
  8
0
100
AcDbLine
 10
0.1626080591965496
 20
0.1120919189160463
 30
0.0
 11
0.1625622828002583
 21
0.1120947972080261
 31
0.0
  0
LINE
  5
703
330
1F
100
AcDbEntity
  8
0
100
AcDbLine
 10
0.1625829388146434
 20
0.1120919189160463
 30
0.0
 11
0.1625484241637372
 21
0.1120919189160463
 31
0.0
  0
LINE
  5
704
330
1F
100
AcDbEntity
  8
0
100
AcDbLine
 10
0.1625349866141682
 20
0.1120919189160463
 30
0.0
 11
0.1625761414367793
 21
0.1120919189160463
 31
0.0
  0
LINE
  5
705
330
1F
100
AcDbEntity
  8
0
100
AcDbLine
 10
0.16262238417466
 20
0.1120729238386206
 30
0.0
 11
0.1625924482766044
 21
0.1120729238386206
 31
0.0
  0
LINE
  5
706
330
1F
100
AcDbEntity
  8
0
100
AcDbLine
 10
0.1626518626660022
 20
0.1120729238386206
 30
0.0
 11
0.16262238417466
 21
0.1120729238386206
 31
0.0
  0
LINE
  5
707
330
1F
100
AcDbEntity
  8
0
100
AcDbLine
 10
0.1626806594001159
 20
0.1120729238386206
 30
0.0
 11
0.1626518626660022
 21
0.1120729238386206
 31
0.0
  0
LINE
  5
708
330
1F
100
AcDbEntity
  8
0
100
AcDbLine
 10
0.1627085552178818
 20
0.1120729238386206
 30
0.0
 11
0.1626806594001159
 21
0.1120729238386206
 31
0.0
  0
LINE
  5
709
330
1F
100
AcDbEntity
  8
0
100
AcDbLine
 10
0.1627353378141328
 20
0.1120729238386206
 30
0.0
 11
0.1627085552178818
 21
0.1120729238386206
 31
0.0
  0
LINE
  5
70A
330
1F
100
AcDbEntity
  8
0
100
AcDbLine
 10
0.1627608033601922
 20
0.1120729238386206
 30
0.0
 11
0.1627353378141328
 21
0.1120729238386206
 31
0.0
  0
LINE
  5
70B
330
1F
100
AcDbEntity
  8
0
100
AcDbLine
 10
0.1627353378141328
 20
0.1120729238386206
 30
0.0
 11
0.1627608033601922
 21
0.1120729238386206
 31
0.0
  0
LINE
  5
70C
330
1F
100
AcDbEntity
  8
0
100
AcDbLine
 10
0.1627085552178818
 20
0.1120729238386206
 30
0.0
 11
0.1627353378141328
 21
0.1120729238386206
 31
0.0
  0
LINE
  5
70D
330
1F
100
AcDbEntity
  8
0
100
AcDbLine
 10
0.1626806594001159
 20
0.1120729238386206
 30
0.0
 11
0.1627085552178818
 21
0.1120729238386206
 31
0.0
  0
LINE
  5
70E
330
1F
100
AcDbEntity
  8
0
100
AcDbLine
 10
0.1626518626660022
 20
0.1120729238386206
 30
0.0
 11
0.1626806594001159
 21
0.1120729238386206
 31
0.0
  0
LINE
  5
70F
330
1F
100
AcDbEntity
  8
0
100
AcDbLine
 10
0.16262238417466
 20
0.1120729238386206
 30
0.0
 11
0.1626518626660022
 21
0.1120729238386206
 31
0.0
  0
LINE
  5
710
330
1F
100
AcDbEntity
  8
0
100
AcDbLine
 10
0.1625924482766044
 20
0.1120729238386206
 30
0.0
 11
0.16262238417466
 21
0.1120729238386206
 31
0.0
  0
LINE
  5
711
330
1F
100
AcDbEntity
  8
0
100
AcDbLine
 10
0.1625622828002583
 20
0.1120729238386206
 30
0.0
 11
0.1625924482766044
 21
0.1120729238386206
 31
0.0
  0
LINE
  5
712
330
1F
100
AcDbEntity
  8
0
100
AcDbLine
 10
0.1625484241637372
 20
0.1120919189160463
 30
0.0
 11
0.1625924482766044
 21
0.1120729238386206
 31
0.0
  0
LINE
  5
713
330
1F
100
AcDbEntity
  8
0
100
AcDbLine
 10
0.1625829388146434
 20
0.1120919189160463
 30
0.0
 11
0.16262238417466
 21
0.1120729238386206
 31
0.0
  0
LINE
  5
714
330
1F
100
AcDbEntity
  8
0
100
AcDbLine
 10
0.1625829388146434
 20
0.1120919189160463
 30
0.0
 11
0.1626518626660022
 21
0.1120729238386206
 31
0.0
  0
LINE
  5
715
330
1F
100
AcDbEntity
  8
0
100
AcDbLine
 10
0.1626080591965496
 20
0.1120919189160463
 30
0.0
 11
0.1626518626660022
 21
0.1120729238386206
 31
0.0
  0
LINE
  5
716
330
1F
100
AcDbEntity
  8
0
100
AcDbLine
 10
0.1626080591965496
 20
0.1120919189160463
 30
0.0
 11
0.1626806594001159
 21
0.1120729238386206
 31
0.0
  0
LINE
  5
717
330
1F
100
AcDbEntity
  8
0
100
AcDbLine
 10
0.1626080591965496
 20
0.1120919189160463
 30
0.0
 11
0.1627085552178818
 21
0.1120729238386206
 31
0.0
  0
LINE
  5
718
330
1F
100
AcDbEntity
  8
0
100
AcDbLine
 10
0.1626080591965496
 20
0.1120919189160463
 30
0.0
 11
0.1627353378141328
 21
0.1120729238386206
 31
0.0
  0
LINE
  5
719
330
1F
100
AcDbEntity
  8
0
100
AcDbLine
 10
0.1626080591965496
 20
0.1120919189160463
 30
0.0
 11
0.1627608033601922
 21
0.1120729238386206
 31
0.0
  0
LINE
  5
71A
330
1F
100
AcDbEntity
  8
0
100
AcDbLine
 10
0.1626080591965496
 20
0.1120919189160463
 30
0.0
 11
0.1627847580391012
 21
0.1120729238386206
 31
0.0
  0
LINE
  5
71B
330
1F
100
AcDbEntity
  8
0
100
AcDbLine
 10
0.1626346140553273
 20
0.1120919189160463
 30
0.0
 11
0.1627847580391012
 21
0.1120729238386206
 31
0.0
  0
LINE
  5
71C
330
1F
100
AcDbEntity
  8
0
100
AcDbLine
 10
0.1626346140553273
 20
0.1120919189160463
 30
0.0
 11
0.1628070195590175
 21
0.1120729238386206
 31
0.0
  0
LINE
  5
71D
330
1F
100
AcDbEntity
  8
0
100
AcDbLine
 10
0.1626346140553273
 20
0.1120919189160463
 30
0.0
 11
0.1628274184628885
 21
0.1120729238386206
 31
0.0
  0
LINE
  5
71E
330
1F
100
AcDbEntity
  8
0
100
AcDbLine
 10
0.1626346140553273
 20
0.1120919189160463
 30
0.0
 11
0.1628457995399862
 21
0.1120729238386206
 31
0.0
  0
LINE
  5
71F
330
1F
100
AcDbEntity
  8
0
100
AcDbLine
 10
0.1626346140553273
 20
0.1120919189160463
 30
0.0
 11
0.1628620228590939
 21
0.1120729238386206
 31
0.0
  0
LINE
  5
720
330
1F
100
AcDbEntity
  8
0
100
AcDbLine
 10
0.1626346140553273
 20
0.1120919189160463
 30
0.0
 11
0.1628759650199703
 21
0.1120729238386206
 31
0.0
  0
LINE
  5
721
330
1F
100
AcDbEntity
  8
0
100
AcDbLine
 10
0.1626346140553273
 20
0.1120919189160463
 30
0.0
 11
0.1628875198227383
 21
0.1120729238386206
 31
0.0
  0
LINE
  5
722
330
1F
100
AcDbEntity
  8
0
100
AcDbLine
 10
0.1626417878148408
 20
0.1120919189160463
 30
0.0
 11
0.1628875198227383
 21
0.1120729238386206
 31
0.0
  0
LINE
  5
723
330
1F
100
AcDbEntity
  8
0
100
AcDbLine
 10
0.1626417878148408
 20
0.1120919189160463
 30
0.0
 11
0.1628965994029335
 21
0.1120729238386206
 31
0.0
  0
LINE
  5
724
330
1F
100
AcDbEntity
  8
0
100
AcDbLine
 10
0.1626417878148408
 20
0.1120919189160463
 30
0.0
 11
0.1629031346389588
 21
0.1120729238386206
 31
0.0
  0
LINE
  5
725
330
1F
100
AcDbEntity
  8
0
100
AcDbLine
 10
0.1626417878148408
 20
0.1120919189160463
 30
0.0
 11
0.1629070757632639
 21
0.1120729238386206
 31
0.0
  0
LINE
  5
726
330
1F
100
AcDbEntity
  8
0
100
AcDbLine
 10
0.1626417878148408
 20
0.1120919189160463
 30
0.0
 11
0.1629083928280074
 21
0.1120729238386206
 31
0.0
  0
LINE
  5
727
330
1F
100
AcDbEntity
  8
0
100
AcDbLine
 10
0.1626417878148408
 20
0.1120919189160463
 30
0.0
 11
0.1629070757632639
 21
0.1120729238386206
 31
0.0
  0
LINE
  5
728
330
1F
100
AcDbEntity
  8
0
100
AcDbLine
 10
0.1626417878148408
 20
0.1120919189160463
 30
0.0
 11
0.1629031346389588
 21
0.1120729238386206
 31
0.0
  0
LINE
  5
729
330
1F
100
AcDbEntity
  8
0
100
AcDbLine
 10
0.1626313991661795
 20
0.1120919189160463
 30
0.0
 11
0.1629031346389588
 21
0.1120729238386206
 31
0.0
  0
LINE
  5
72A
330
1F
100
AcDbEntity
  8
0
100
AcDbLine
 10
0.1626313991661795
 20
0.1120919189160463
 30
0.0
 11
0.1628965994029335
 21
0.1120729238386206
 31
0.0
  0
LINE
  5
72B
330
1F
100
AcDbEntity
  8
0
100
AcDbLine
 10
0.1626313991661795
 20
0.1120919189160463
 30
0.0
 11
0.1628875198227383
 21
0.1120729238386206
 31
0.0
  0
LINE
  5
72C
330
1F
100
AcDbEntity
  8
0
100
AcDbLine
 10
0.1626313991661795
 20
0.1120919189160463
 30
0.0
 11
0.1628759650199703
 21
0.1120729238386206
 31
0.0
  0
LINE
  5
72D
330
1F
100
AcDbEntity
  8
0
100
AcDbLine
 10
0.1626313991661795
 20
0.1120919189160463
 30
0.0
 11
0.1628620228590939
 21
0.1120729238386206
 31
0.0
  0
LINE
  5
72E
330
1F
100
AcDbEntity
  8
0
100
AcDbLine
 10
0.1626135828489118
 20
0.1120919189160463
 30
0.0
 11
0.1628620228590939
 21
0.1120729238386206
 31
0.0
  0
LINE
  5
72F
330
1F
100
AcDbEntity
  8
0
100
AcDbLine
 10
0.1626135828489118
 20
0.1120919189160463
 30
0.0
 11
0.1628457995399862
 21
0.1120729238386206
 31
0.0
  0
LINE
  5
730
330
1F
100
AcDbEntity
  8
0
100
AcDbLine
 10
0.1626135828489118
 20
0.1120919189160463
 30
0.0
 11
0.1628274184628885
 21
0.1120729238386206
 31
0.0
  0
LINE
  5
731
330
1F
100
AcDbEntity
  8
0
100
AcDbLine
 10
0.1626135828489118
 20
0.1120919189160463
 30
0.0
 11
0.1628070195590175
 21
0.1120729238386206
 31
0.0
  0
LINE
  5
732
330
1F
100
AcDbEntity
  8
0
100
AcDbLine
 10
0.1626135828489118
 20
0.1120919189160463
 30
0.0
 11
0.1627847580391012
 21
0.1120729238386206
 31
0.0
  0
LINE
  5
733
330
1F
100
AcDbEntity
  8
0
100
AcDbLine
 10
0.1626135828489118
 20
0.1120919189160463
 30
0.0
 11
0.1627608033601922
 21
0.1120729238386206
 31
0.0
  0
LINE
  5
734
330
1F
100
AcDbEntity
  8
0
100
AcDbLine
 10
0.1625761414367793
 20
0.1120919189160463
 30
0.0
 11
0.1627608033601922
 21
0.1120729238386206
 31
0.0
  0
LINE
  5
735
330
1F
100
AcDbEntity
  8
0
100
AcDbLine
 10
0.1625761414367793
 20
0.1120919189160463
 30
0.0
 11
0.1627353378141328
 21
0.1120729238386206
 31
0.0
  0
LINE
  5
736
330
1F
100
AcDbEntity
  8
0
100
AcDbLine
 10
0.1625761414367793
 20
0.1120919189160463
 30
0.0
 11
0.1627085552178818
 21
0.1120729238386206
 31
0.0
  0
LINE
  5
737
330
1F
100
AcDbEntity
  8
0
100
AcDbLine
 10
0.1625761414367793
 20
0.1120919189160463
 30
0.0
 11
0.1626806594001159
 21
0.1120729238386206
 31
0.0
  0
LINE
  5
738
330
1F
100
AcDbEntity
  8
0
100
AcDbLine
 10
0.1625761414367793
 20
0.1120919189160463
 30
0.0
 11
0.1626518626660022
 21
0.1120729238386206
 31
0.0
  0
LINE
  5
739
330
1F
100
AcDbEntity
  8
0
100
AcDbLine
 10
0.1625761414367793
 20
0.1120919189160463
 30
0.0
 11
0.16262238417466
 21
0.1120729238386206
 31
0.0
  0
LINE
  5
73A
330
1F
100
AcDbEntity
  8
0
100
AcDbLine
 10
0.1625622828002583
 20
0.1120729238386206
 30
0.0
 11
0.1625924482766044
 21
0.1120729238386206
 31
0.0
  0
ENDSEC
  0
SECTION
  2
OBJECTS
  0
DICTIONARY
  5
C
330
0
100
AcDbDictionary
  3
ACAD_GROUP
350
D
  3
ACAD_LAYOUT
350
1A
  3
ACAD_MATERIAL
350
43
  3
ACAD_MLEADERSTYLE
350
5B
  3
ACAD_MLINESTYLE
350
17
  3
ACAD_PLOTSETTINGS
350
19
  3
ACAD_SCALELIST
350
47
  3
ACAD_VISUALSTYLE
350
2A
  3
ACDBHEADERROUNDTRIPXREC
350
73B
  3
ACDBVARIABLEDICTIONARY
350
75C
  3
DWGPROPS
350
763
  0
DICTIONARY
  5
764
330
8
100
AcDbDictionary
280
     1
  3
ACAD_XREC_ROUNDTRIP
360
765
  0
DICTIONARY
  5
D
102
{ACAD_REACTORS
330
C
102
}
330
C
100
AcDbDictionary
  0
DICTIONARY
  5
1A
102
{ACAD_REACTORS
330
C
102
}
330
C
100
AcDbDictionary
  0
DICTIONARY
  5
43
102
{ACAD_REACTORS
330
C
102
}
330
C
100
AcDbDictionary
  3
BYBLOCK
350
45
  3
BYLAYER
350
44
  3
GLOBAL
350
46
  0
DICTIONARY
  5
5B
102
{ACAD_REACTORS
330
C
102
}
330
C
100
AcDbDictionary
  3
STANDARD
350
5C
  0
DICTIONARY
  5
17
102
{ACAD_REACTORS
330
C
102
}
330
C
100
AcDbDictionary
  3
STANDARD
350
18
  0
DICTIONARY
  5
19
102
{ACAD_REACTORS
330
C
102
}
330
C
100
AcDbDictionary
  0
DICTIONARY
  5
47
102
{ACAD_REACTORS
330
C
102
}
330
C
100
AcDbDictionary
  3
A0
350
48
  3
A1
350
49
  3
A2
350
4A
  3
A3
350
4B
  3
A4
350
4C
  3
A5
350
4D
  3
A6
350
4E
  3
A7
350
4F
  3
A8
350
50
  3
A9
350
51
  3
B1
350
52
  3
B2
350
53
  3
B3
350
54
  3
B4
350
55
  3
B5
350
56
  3
B6
350
57
  3
B7
350
58
  0
DICTIONARY
  5
2A
102
{ACAD_REACTORS
330
C
102
}
330
C
100
AcDbDictionary
  3
2DWIREFRAME
350
2F
  3
BASIC
350
32
  3
BRIGHTEN
350
36
  3
COLORCHANGE
350
3A
  3
CONCEPTUAL
350
34
  3
DIM
350
35
  3
EDGECOLOROFF
350
3D
  3
FACEPATTERN
350
39
  3
FLAT
350
2B
  3
FLATWITHEDGES
350
2C
  3
GOURAUD
350
2D
  3
GOURAUDWITHEDGES
350
2E
  3
HIDDEN
350
31
  3
JITTEROFF
350
3B
  3
LINEPATTERN
350
38
  3
OVERHANGOFF
350
3C
  3
REALISTIC
350
33
  3
SHADED
350
42
  3
SHADED_WITH_EDGES
350
41
  3
SHADES_OF_GRAY
350
3E
  3
SKETCHY
350
3F
  3
THICKEN
350
37
  3
WIREFRAME
350
30
  3
X-RAY
350
40
  0
DICTIONARY
  5
73B
102
{ACAD_REACTORS
330
C
102
}
330
C
100
AcDbDictionary
  3
CEPSNID
350
745
  3
CEPSNTYPE
350
744
  3
DIMSTYLEDATA
350
75B
  3
FINGERPRINTGUID
350
746
  3
HYPERLINKBASE
350
73E
  3
INSUNITS
350
743
  3
LAYOUTDICT
350
740
  3
LWETCUNION
350
742
  3
PLOTSETDICT
350
741
  3
PSVPSCALE
350
748
  3
PUCSBASE
350
74B
  3
PUCSORGBACK
350
751
  3
PUCSORGBOTTOM
350
74D
  3
PUCSORGFRONT
350
750
  3
PUCSORGLEFT
350
74E
  3
PUCSORGRIGHT
350
74F
  3
PUCSORGTOP
350
74C
  3
PUCSORTHOREF
350
749
  3
PUCSORTHOVIEW
350
74A
  3
STYLESHEET
350
73F
  3
TSTACKALIGN
350
73C
  3
TSTACKSIZE
350
73D
  3
UCSBASE
350
754
  3
UCSORGBACK
350
75A
  3
UCSORGBOTTOM
350
756
  3
UCSORGFRONT
350
759
  3
UCSORGLEFT
350
757
  3
UCSORGRIGHT
350
758
  3
UCSORGTOP
350
755
  3
UCSORTHOREF
350
752
  3
UCSORTHOVIEW
350
753
  3
VERSIONGUID
350
747
  0
DICTIONARY
  5
75C
102
{ACAD_REACTORS
330
C
102
}
330
C
100
AcDbDictionary
  3
CANNOSCALE
350
766
  3
CMLEADERSTYLE
350
75E
  3
CTABLESTYLE
350
75D
  3
DIMASSOC
350
761
  3
HIDETEXT
350
762
  3
MSLTSCALE
350
767
  0
XRECORD
  5
763
102
{ACAD_REACTORS
330
C
102
}
330
C
100
AcDbXrecord
  1
DWGPROPS COOKIE
  2

  3

  4

  6

  7

  8
im_marketing1
  9

300
=
301
=
302
=
303
=
304
=
305
=
306
=
307
=
308
=
309
=
 40
0.0
 41
2460501.469955533
 42
2460501.469985104
  1

 90
        0
  0
XRECORD
  5
765
102
{ACAD_REACTORS
330
764
102
}
330
764
100
AcDbXrecord
102
VTR_0.000_0.000_1.000_1.000_VISUALSTYLE
340
2F
102
VTR_0.000_0.000_1.000_1.000_GRIDDISPLAY
 70
     3
102
VTR_0.000_0.000_1.000_1.000_GRIDMAJOR
 70
     5
102
VTR_0.000_0.000_1.000_1.000_DEFAULTLIGHTING
280
     1
102
VTR_0.000_0.000_1.000_1.000_DEFAULTLIGHTINGTYPE
 70
     1
102
VTR_0.000_0.000_1.000_1.000_BRIGHTNESS
141
0.0
102
VTR_0.000_0.000_1.000_1.000_CONTRAST
142
0.0
  0
MATERIAL
  5
45
102
{ACAD_REACTORS
330
43
102
}
102
{ACAD_XDICTIONARY
360
76A
102
}
330
43
100
AcDbMaterial
  1
BYBLOCK
  0
MATERIAL
  5
44
102
{ACAD_REACTORS
330
43
102
}
102
{ACAD_XDICTIONARY
360
768
102
}
330
43
100
AcDbMaterial
  1
BYLAYER
  0
MATERIAL
  5
46
102
{ACAD_REACTORS
330
43
102
}
102
{ACAD_XDICTIONARY
360
76C
102
}
330
43
100
AcDbMaterial
  1
GLOBAL
  0
ACAD_PROXY_OBJECT
  5
5C
102
{ACAD_REACTORS
330
5B
102
}
330
5B
100
AcDbProxyObject
 90
      499
 91
      505
 93
      610
310
40901902A4063FBFFFFFE056BD1B81E855B9FC0AD7A3703D0AD73F4214DD185B99185C9900AD7A3703D0AC73F90141901A02B5E8DC0F42B1CFC02B5E8DC0F42B1CFE5764000000000000300FC0
340
14
340
0
340
11
340
0
 94
        0
1001
ACAD_MLEADERVER
1070
     2
  0
MLINESTYLE
  5
18
102
{ACAD_REACTORS
330
17
102
}
330
17
100
AcDbMlineStyle
  2
Standard
 70
     0
  3

 62
   256
 51
90.0
 52
90.0
 71
     2
 49
0.5
 62
   256
  6
BYLAYER
 49
-0.5
 62
   256
  6
BYLAYER
  0
ACAD_PROXY_OBJECT
  5
48
102
{ACAD_REACTORS
330
47
102
}
330
47
100
AcDbProxyObject
 90
      499
 91
      503
 93
       41
310
903313A31580
  0
ACAD_PROXY_OBJECT
  5
49
102
{ACAD_REACTORS
330
47
102
}
330
47
100
AcDbProxyObject
 90
      499
 91
      503
 93
      257
310
90E312F31323822203D2031272D3022000000000000200FC000000000000284000
  0
ACAD_PROXY_OBJECT
  5
4A
102
{ACAD_REACTORS
330
47
102
}
330
47
100
AcDbProxyObject
 90
      499
 91
      503
 93
      249
310
90D312F363422203D2031272D3022000000000000240FC000000000000284000
  0
ACAD_PROXY_OBJECT
  5
4B
102
{ACAD_REACTORS
330
47
102
}
330
47
100
AcDbProxyObject
 90
      499
 91
      503
 93
      249
310
90D312F333222203D2031272D3022000000000000280FC000000000000284000
  0
ACAD_PROXY_OBJECT
  5
4C
102
{ACAD_REACTORS
330
47
102
}
330
47
100
AcDbProxyObject
 90
      499
 91
      503
 93
      249
310
90D312F313622203D2031272D30220000000000002C0FC000000000000284000
  0
ACAD_PROXY_OBJECT
  5
4D
102
{ACAD_REACTORS
330
47
102
}
330
47
100
AcDbProxyObject
 90
      499
 91
      503
 93
      249
310
90D332F333222203D2031272D30220000000000002E0FC000000000000284000
  0
ACAD_PROXY_OBJECT
  5
4E
102
{ACAD_REACTORS
330
47
102
}
330
47
100
AcDbProxyObject
 90
      499
 91
      503
 93
      241
310
90C312F3822203D2031272D3022000000000000300FC000000000000284000
  0
ACAD_PROXY_OBJECT
  5
4F
102
{ACAD_REACTORS
330
47
102
}
330
47
100
AcDbProxyObject
 90
      499
 91
      503
 93
      249
310
90D332F313622203D2031272D3022000000000000320FC000000000000284000
  0
ACAD_PROXY_OBJECT
  5
50
102
{ACAD_REACTORS
330
47
102
}
330
47
100
AcDbProxyObject
 90
      499
 91
      503
 93
      241
310
90C312F3422203D2031272D3022000000000000340FC000000000000284000
  0
ACAD_PROXY_OBJECT
  5
51
102
{ACAD_REACTORS
330
47
102
}
330
47
100
AcDbProxyObject
 90
      499
 91
      503
 93
      241
310
90C332F3822203D2031272D3022000000000000360FC000000000000284000
  0
ACAD_PROXY_OBJECT
  5
52
102
{ACAD_REACTORS
330
47
102
}
330
47
100
AcDbProxyObject
 90
      499
 91
      503
 93
      241
310
90C312F3222203D2031272D3022000000000000380FC000000000000284000
  0
ACAD_PROXY_OBJECT
  5
53
102
{ACAD_REACTORS
330
47
102
}
330
47
100
AcDbProxyObject
 90
      499
 91
      503
 93
      241
310
90C332F3422203D2031272D30220000000000003A0FC000000000000284000
  0
ACAD_PROXY_OBJECT
  5
54
102
{ACAD_REACTORS
330
47
102
}
330
47
100
AcDbProxyObject
 90
      499
 91
      503
 93
      161
310
90A3122203D2031272D30224000000000000284000
  0
ACAD_PROXY_OBJECT
  5
55
102
{ACAD_REACTORS
330
47
102
}
330
47
100
AcDbProxyObject
 90
      499
 91
      503
 93
      257
310
90E312D312F3222203D2031272D30220000000000003E0FC000000000000284000
  0
ACAD_PROXY_OBJECT
  5
56
102
{ACAD_REACTORS
330
47
102
}
330
47
100
AcDbProxyObject
 90
      499
 91
      503
 93
      225
310
90A3322203D2031272D302200000000000002100000000000000284000
  0
ACAD_PROXY_OBJECT
  5
57
102
{ACAD_REACTORS
330
47
102
}
330
47
100
AcDbProxyObject
 90
      499
 91
      503
 93
      225
310
90A3622203D2031272D302200000000000006100000000000000284000
  0
ACAD_PROXY_OBJECT
  5
58
102
{ACAD_REACTORS
330
47
102
}
330
47
100
AcDbProxyObject
 90
      499
 91
      503
 93
      249
310
90D31272D3022203D2031272D30220000000000000A100000000000000284000
  0
ACAD_PROXY_OBJECT
  5
2F
102
{ACAD_REACTORS
330
2A
102
}
330
2A
100
AcDbProxyObject
 90
      499
 91
      501
 93
      436
310
42CC9915DA5C99599C985B595049028333333333333E33F0000000000000F90107901411070040501600405405064090741402480A0340
1001
ACAD
1000
AcDbSavedByObjectVersion
1070
     0
  0
ACAD_PROXY_OBJECT
  5
32
102
{ACAD_REACTORS
330
2A
102
}
330
2A
100
AcDbProxyObject
 90
      499
 91
      501
 93
      388
310
4150985CDA58D07406404333333333333E33F0000000000000F90107A41107004050150841D405064090741402480A0350
1001
ACAD
1000
AcDbSavedByObjectVersion
1070
     0
  0
ACAD_PROXY_OBJECT
  5
36
102
{ACAD_REACTORS
330
2A
102
}
330
2A
100
AcDbProxyObject
 90
      499
 91
      501
 93
      428
310
42109C9A59DA1D195B90C409028333333333333E33F0000000000000F9010790141107004050150841D405064090741402480A029950
1001
ACAD
1000
AcDbSavedByObjectVersion
1070
     0
  0
ACAD_PROXY_OBJECT
  5
3A
102
{ACAD_REACTORS
330
2A
102
}
330
2A
100
AcDbProxyObject
 90
      499
 91
      501
 93
      452
310
42D0DBDB1BDC90DA185B99D95104090240C333333333333E33F0000000000000F90108901411070040501508421405064090741402480A0350
1001
ACAD
1000
AcDbSavedByObjectVersion
1070
     0
  0
ACAD_PROXY_OBJECT
  5
34
102
{ACAD_REACTORS
330
2A
102
}
330
2A
100
AcDbProxyObject
 90
      499
 91
      501
 93
      500
310
4290DBDB98D95C1D1D585B10940D028333333333333E33F0000000000000F90107902409070040501000000000018199010841D405064090740C02480A0340
1001
ACAD
1000
AcDbSavedByObjectVersion
1070
     0
  0
ACAD_PROXY_OBJECT
  5
35
102
{ACAD_REACTORS
330
2A
102
}
330
2A
100
AcDbProxyObject
 90
      499
 91
      501
 93
      412
310
40D11A5B50B409028333333333333E33F0000000000000F9010790141107004050150841D405064090741402480A02677FFFFFD0
1001
ACAD
1000
AcDbSavedByObjectVersion
1070
     0
  0
ACAD_PROXY_OBJECT
  5
3D
102
{ACAD_REACTORS
330
2A
102
}
330
2A
100
AcDbProxyObject
 90
      499
 91
      501
 93
      452
310
43115919D950DBDB1BDC93D999916409028333333333333E33F0000000000000F9010790141107004050150841D405064090741402480A0350
1001
ACAD
1000
AcDbSavedByObjectVersion
1070
     0
  0
ACAD_PROXY_OBJECT
  5
39
102
{ACAD_REACTORS
330
2A
102
}
330
2A
100
AcDbProxyObject
 90
      499
 91
      501
 93
      444
310
42D19858D95C185D1D195C9B90F409028333333333333E33F0000000000000F9010790141107004050150841D405064090741402480A0350
1001
ACAD
1000
AcDbSavedByObjectVersion
1070
     0
  0
ACAD_PROXY_OBJECT
  5
2B
102
{ACAD_REACTORS
330
2A
102
}
330
2A
100
AcDbProxyObject
 90
      499
 91
      501
 93
      380
310
41119B185D240901404333333333333E33F0000000000000F9010740A907004050150841D405064090741402480A1B50
1001
ACAD
1000
AcDbSavedByObjectVersion
1070
     0
  0
ACAD_PROXY_OBJECT
  5
2C
102
{ACAD_REACTORS
330
2A
102
}
330
2A
100
AcDbProxyObject
 90
      499
 91
      501
 93
      468
310
43519B185D15DA5D1A115919D95CD0140901404333333333333E33F0000000000000F90107409019070040501600405405064090741402480A1B50
1001
ACAD
1000
AcDbSavedByObjectVersion
1070
     0
  0
ACAD_PROXY_OBJECT
  5
2D
102
{ACAD_REACTORS
330
2A
102
}
330
2A
100
AcDbProxyObject
 90
      499
 91
      501
 93
      404
310
41D1DBDD5C985D5910240902404333333333333E33F0000000000000F9010740A9070040501641D405064090741402480A1B50
1001
ACAD
1000
AcDbSavedByObjectVersion
1070
     0
  0
ACAD_PROXY_OBJECT
  5
2E
102
{ACAD_REACTORS
330
2A
102
}
330
2A
100
AcDbProxyObject
 90
      499
 91
      501
 93
      492
310
4411DBDD5C985D5915DA5D1A115919D95CD0340902404333333333333E33F0000000000000F90107409019070040501600405405064090741402480A1B50
1001
ACAD
1000
AcDbSavedByObjectVersion
1070
     0
  0
ACAD_PROXY_OBJECT
  5
31
102
{ACAD_REACTORS
330
2A
102
}
330
2A
100
AcDbProxyObject
 90
      499
 91
      501
 93
      476
310
41921A5919195B90640502408333333333333E33F0000000000000F901079024090700405020000000000001110200405405064090740C02480A0340
1001
ACAD
1000
AcDbSavedByObjectVersion
1070
     0
  0
ACAD_PROXY_OBJECT
  5
3B
102
{ACAD_REACTORS
330
2A
102
}
330
2A
100
AcDbProxyObject
 90
      499
 91
      501
 93
      428
310
42529A5D1D195C93D999914409028333333333333E33F0000000000000F9010790141107004050150A41D405064090741402480A0350
1001
ACAD
1000
AcDbSavedByObjectVersion
1070
     0
  0
ACAD_PROXY_OBJECT
  5
38
102
{ACAD_REACTORS
330
2A
102
}
330
2A
100
AcDbProxyObject
 90
      499
 91
      501
 93
      444
310
42D31A5B995C185D1D195C9B90E409028333333333333E33F0000000000000F9010790141107004050750841D405064090741402483A0350
1001
ACAD
1000
AcDbSavedByObjectVersion
1070
     0
  0
ACAD_PROXY_OBJECT
  5
3C
102
{ACAD_REACTORS
330
2A
102
}
330
2A
100
AcDbProxyObject
 90
      499
 91
      501
 93
      444
310
42D3DD995C9A185B99D3D999915409028333333333333E33F0000000000000F9010790141107004050150941D405064090741402480A0350
1001
ACAD
1000
AcDbSavedByObjectVersion
1070
     0
  0
ACAD_PROXY_OBJECT
  5
33
102
{ACAD_REACTORS
330
2A
102
}
330
2A
100
AcDbProxyObject
 90
      499
 91
      501
 93
      428
310
425499585B1A5CDD1A58D08409038333333333333E33F0000000000000F9010740A907004050150800405405064090740C02480A1B40
1001
ACAD
1000
AcDbSavedByObjectVersion
1070
     0
  0
ACAD_PROXY_OBJECT
  5
42
102
{ACAD_REACTORS
330
2A
102
}
330
2A
100
AcDbProxyObject
 90
      499
 91
      501
 93
      420
310
4194DA1859195911B40902404333333333333E33F0000000000000F9010740A41107004050150800405405064090840C02480A0B40
1001
ACAD
1000
AcDbSavedByObjectVersion
1070
     0
  0
ACAD_PROXY_OBJECT
  5
41
102
{ACAD_REACTORS
330
2A
102
}
330
2A
100
AcDbProxyObject
 90
      499
 91
      501
 93
      516
310
4454DA18591959081DDA5D1A08195919D95CD1A40902404333333333333E33F0000000000000F901074090142907004050250800405405064090740C02480A0B40
1001
ACAD
1000
AcDbSavedByObjectVersion
1070
     0
  0
ACAD_PROXY_OBJECT
  5
3E
102
{ACAD_REACTORS
330
2A
102
}
330
2A
100
AcDbProxyObject
 90
      499
 91
      501
 93
      532
310
4394DA1859195CC81BD98811DC985E5174090240C333333333333E33F0000000000000F901079024090741D01000000000000111010841D405064090740C02480A0340
1001
ACAD
1000
AcDbSavedByObjectVersion
1070
     0
  0
ACAD_PROXY_OBJECT
  5
3F
102
{ACAD_REACTORS
330
2A
102
}
330
2A
100
AcDbProxyObject
 90
      499
 91
      501
 93
      476
310
41D4DAD95D18DA1E51840502408333333333333E33F0000000000000F901079024090741D01000000000000111010B41D405064090741802480A0340
1001
ACAD
1000
AcDbSavedByObjectVersion
1070
     0
  0
ACAD_PROXY_OBJECT
  5
37
102
{ACAD_REACTORS
330
2A
102
}
330
2A
100
AcDbProxyObject
 90
      499
 91
      501
 93
      412
310
41D51A1A58DAD95B90D409028333333333333E33F0000000000000F9010790141107004050150C41D405064090741402480A0350
1001
ACAD
1000
AcDbSavedByObjectVersion
1070
     0
  0
ACAD_PROXY_OBJECT
  5
30
102
{ACAD_REACTORS
330
2A
102
}
330
2A
100
AcDbProxyObject
 90
      499
 91
      501
 93
      420
310
4255DA5C99599C985B595059028333333333333E33F0000000000000F90107901411070040501600405405064090740C02480A0340
1001
ACAD
1000
AcDbSavedByObjectVersion
1070
     0
  0
ACAD_PROXY_OBJECT
  5
40
102
{ACAD_REACTORS
330
2A
102
}
330
2A
100
AcDbProxyObject
 90
      499
 91
      501
 93
      404
310
41560B54985E51940902404000000000000E03F0000000000000F9010740501907004050150841D405064090740C02480A1B40
1001
ACAD
1000
AcDbSavedByObjectVersion
1070
     0
  0
XRECORD
  5
745
102
{ACAD_REACTORS
330
73B
102
}
330
73B
100
AcDbXrecord
340
0
  0
XRECORD
  5
744
102
{ACAD_REACTORS
330
73B
102
}
330
73B
100
AcDbXrecord
 90
        0
  0
XRECORD
  5
75B
102
{ACAD_REACTORS
330
73B
102
}
330
73B
100
AcDbXrecord
1000
DSTYLE
1002
{
1070
   171
 70
     2
1070
   143
 40
25.4
1070
   274
 70
     2
1070
    41
 40
0.18
1070
   141
 40
0.09
1070
   271
 70
     4
1070
    43
 40
0.38
1070
   278
 70
    46
1070
    44
 40
0.18
1070
    42
 40
0.0625
1070
   147
 40
0.09
1070
    77
 70
     0
1070
   272
 70
     4
1070
    73
 70
     1
1070
   172
 70
     0
1070
    74
 70
     1
1070
   283
 70
     1
1070
   340
340
11
1070
   140
 40
0.18
1070
   284
 70
     0
1070
    78
 70
     0
1002
}
  0
XRECORD
  5
746
102
{ACAD_REACTORS
330
73B
102
}
330
73B
100
AcDbXrecord
  1
{ab4f8bbb-0b5d-4512-96a8-d7404c62aab1}
  0
XRECORD
  5
73E
102
{ACAD_REACTORS
330
73B
102
}
330
73B
100
AcDbXrecord
  1

  0
XRECORD
  5
743
102
{ACAD_REACTORS
330
73B
102
}
330
73B
100
AcDbXrecord
 90
        6
  0
XRECORD
  5
740
102
{ACAD_REACTORS
330
73B
102
}
330
73B
100
AcDbXrecord
340
1A
  0
XRECORD
  5
742
102
{ACAD_REACTORS
330
73B
102
}
330
73B
100
AcDbXrecord
 90
    10781
  0
XRECORD
  5
741
102
{ACAD_REACTORS
330
73B
102
}
330
73B
100
AcDbXrecord
340
19
  0
XRECORD
  5
748
102
{ACAD_REACTORS
330
73B
102
}
330
73B
100
AcDbXrecord
 40
0.0
  0
XRECORD
  5
74B
102
{ACAD_REACTORS
330
73B
102
}
330
73B
100
AcDbXrecord
340
0
  0
XRECORD
  5
751
102
{ACAD_REACTORS
330
73B
102
}
330
73B
100
AcDbXrecord
 10
0.0
 20
0.0
 30
0.0
  0
XRECORD
  5
74D
102
{ACAD_REACTORS
330
73B
102
}
330
73B
100
AcDbXrecord
 10
0.0
 20
0.0
 30
0.0
  0
XRECORD
  5
750
102
{ACAD_REACTORS
330
73B
102
}
330
73B
100
AcDbXrecord
 10
0.0
 20
0.0
 30
0.0
  0
XRECORD
  5
74E
102
{ACAD_REACTORS
330
73B
102
}
330
73B
100
AcDbXrecord
 10
0.0
 20
0.0
 30
0.0
  0
XRECORD
  5
74F
102
{ACAD_REACTORS
330
73B
102
}
330
73B
100
AcDbXrecord
 10
0.0
 20
0.0
 30
0.0
  0
XRECORD
  5
74C
102
{ACAD_REACTORS
330
73B
102
}
330
73B
100
AcDbXrecord
 10
0.0
 20
0.0
 30
0.0
  0
XRECORD
  5
749
102
{ACAD_REACTORS
330
73B
102
}
330
73B
100
AcDbXrecord
340
0
  0
XRECORD
  5
74A
102
{ACAD_REACTORS
330
73B
102
}
330
73B
100
AcDbXrecord
 70
     0
  0
XRECORD
  5
73F
102
{ACAD_REACTORS
330
73B
102
}
330
73B
100
AcDbXrecord
  1

  0
XRECORD
  5
73C
102
{ACAD_REACTORS
330
73B
102
}
330
73B
100
AcDbXrecord
 90
        1
  0
XRECORD
  5
73D
102
{ACAD_REACTORS
330
73B
102
}
330
73B
100
AcDbXrecord
 90
       70
  0
XRECORD
  5
754
102
{ACAD_REACTORS
330
73B
102
}
330
73B
100
AcDbXrecord
340
0
  0
XRECORD
  5
75A
102
{ACAD_REACTORS
330
73B
102
}
330
73B
100
AcDbXrecord
 10
0.0
 20
0.0
 30
0.0
  0
XRECORD
  5
756
102
{ACAD_REACTORS
330
73B
102
}
330
73B
100
AcDbXrecord
 10
0.0
 20
0.0
 30
0.0
  0
XRECORD
  5
759
102
{ACAD_REACTORS
330
73B
102
}
330
73B
100
AcDbXrecord
 10
0.0
 20
0.0
 30
0.0
  0
XRECORD
  5
757
102
{ACAD_REACTORS
330
73B
102
}
330
73B
100
AcDbXrecord
 10
0.0
 20
0.0
 30
0.0
  0
XRECORD
  5
758
102
{ACAD_REACTORS
330
73B
102
}
330
73B
100
AcDbXrecord
 10
0.0
 20
0.0
 30
0.0
  0
XRECORD
  5
755
102
{ACAD_REACTORS
330
73B
102
}
330
73B
100
AcDbXrecord
 10
0.0
 20
0.0
 30
0.0
  0
XRECORD
  5
752
102
{ACAD_REACTORS
330
73B
102
}
330
73B
100
AcDbXrecord
340
0
  0
XRECORD
  5
753
102
{ACAD_REACTORS
330
73B
102
}
330
73B
100
AcDbXrecord
 70
     0
  0
XRECORD
  5
747
102
{ACAD_REACTORS
330
73B
102
}
330
73B
100
AcDbXrecord
  1
{FAEB1C32-E019-11D5-929B-00C0DF256EC4}
  0
DICTIONARYVAR
  5
766
102
{ACAD_REACTORS
330
75C
102
}
330
75C
100
DictionaryVariables
280
     0
  1
1:1
  0
DICTIONARYVAR
  5
75E
102
{ACAD_REACTORS
330
75C
102
}
330
75C
100
DictionaryVariables
280
     0
  1
Standard
  0
DICTIONARYVAR
  5
75D
102
{ACAD_REACTORS
330
75C
102
}
330
75C
100
DictionaryVariables
280
     0
  1
Standard
  0
DICTIONARYVAR
  5
761
102
{ACAD_REACTORS
330
75C
102
}
330
75C
100
DictionaryVariables
280
     0
  1
2
  0
DICTIONARYVAR
  5
762
102
{ACAD_REACTORS
330
75C
102
}
330
75C
100
DictionaryVariables
280
     0
  1
1
  0
DICTIONARYVAR
  5
767
102
{ACAD_REACTORS
330
75C
102
}
330
75C
100
DictionaryVariables
280
     0
  1
1
  0
DICTIONARY
  5
76A
330
45
100
AcDbDictionary
280
     1
  3
ACAD_XREC_ROUNDTRIP
360
76B
  0
DICTIONARY
  5
768
330
44
100
AcDbDictionary
280
     1
  3
ACAD_XREC_ROUNDTRIP
360
769
  0
DICTIONARY
  5
76C
330
46
100
AcDbDictionary
280
     1
  3
ACAD_XREC_ROUNDTRIP
360
76D
  0
XRECORD
  5
76B
102
{ACAD_REACTORS
330
76A
102
}
330
76A
100
AcDbXrecord
102
MATERIAL
148
0.0
149
0.0
149
0.0
 93
        0
 94
      127
282
     0
 72
     1
 77
     1
171
     1
175
     1
179
     1
273
     0
  0
XRECORD
  5
769
102
{ACAD_REACTORS
330
768
102
}
330
768
100
AcDbXrecord
102
MATERIAL
148
0.0
149
0.0
149
0.0
 93
        0
 94
      127
282
     0
 72
     1
 77
     1
171
     1
175
     1
179
     1
273
     0
  0
XRECORD
  5
76D
102
{ACAD_REACTORS
330
76C
102
}
330
76C
100
AcDbXrecord
102
MATERIAL
148
0.0
149
0.0
149
0.0
 93
        0
 94
      127
282
     0
 72
     1
 77
     1
171
     1
175
     1
179
     1
273
     0
  0
ENDSEC
  0
EOF
