  0
SECTION
  2
HEADER
  9
$ACADVER
  1
AC1032
  9
$ACADMAINTVER
 90
      228
  9
$DWGCODEPAGE
  3
ANSI_1252
  9
$REQUIREDVERSIONS
160
                 0
  9
$INSBASE
 10
0.0
 20
0.0
 30
0.0
  9
$EXTMIN
 10
1.000000000000000E+20
 20
1.000000000000000E+20
 30
1.000000000000000E+20
  9
$EXTMAX
 10
-1.000000000000000E+20
 20
-1.000000000000000E+20
 30
-1.000000000000000E+20
  9
$LIMMIN
 10
0.0
 20
0.0
  9
$LIMMAX
 10
12.0
 20
9.0
  9
$ORTHOMODE
 70
     0
  9
$REGENMODE
 70
     1
  9
$FILLMODE
 70
     1
  9
$QTEXTMODE
 70
     0
  9
$MIRRTEXT
 70
     0
  9
$LTSCALE
 40
1.0
  9
$ATTMODE
 70
     1
  9
$TEXTSIZE
 40
0.2
  9
$TRACEWID
 40
0.05
  9
$TEXTSTYLE
  7
Standard
  9
$CLAYER
  8
0
  9
$CELTYPE
  6
ByLayer
  9
$CECOLOR
 62
   256
  9
$CELTSCALE
 40
1.0
  9
$DISPSILH
 70
     0
  9
$DIMSCALE
 40
1.0
  9
$DIMASZ
 40
0.18
  9
$DIMEXO
 40
0.0625
  9
$DIMDLI
 40
0.38
  9
$DIMRND
 40
0.0
  9
$DIMDLE
 40
0.0
  9
$DIMEXE
 40
0.18
  9
$DIMTP
 40
0.0
  9
$DIMTM
 40
0.0
  9
$DIMTXT
 40
0.18
  9
$DIMCEN
 40
0.09
  9
$DIMTSZ
 40
0.0
  9
$DIMTOL
 70
     0
  9
$DIMLIM
 70
     0
  9
$DIMTIH
 70
     1
  9
$DIMTOH
 70
     1
  9
$DIMSE1
 70
     0
  9
$DIMSE2
 70
     0
  9
$DIMTAD
 70
     0
  9
$DIMZIN
 70
     0
  9
$DIMBLK
  1

  9
$DIMASO
 70
     1
  9
$DIMSHO
 70
     1
  9
$DIMPOST
  1

  9
$DIMAPOST
  1

  9
$DIMALT
 70
     0
  9
$DIMALTD
 70
     2
  9
$DIMALTF
 40
25.4
  9
$DIMLFAC
 40
1.0
  9
$DIMTOFL
 70
     0
  9
$DIMTVP
 40
0.0
  9
$DIMTIX
 70
     0
  9
$DIMSOXD
 70
     0
  9
$DIMSAH
 70
     0
  9
$DIMBLK1
  1

  9
$DIMBLK2
  1

  9
$DIMSTYLE
  2
Standard
  9
$DIMCLRD
 70
     0
  9
$DIMCLRE
 70
     0
  9
$DIMCLRT
 70
     0
  9
$DIMTFAC
 40
1.0
  9
$DIMGAP
 40
0.09
  9
$DIMJUST
 70
     0
  9
$DIMSD1
 70
     0
  9
$DIMSD2
 70
     0
  9
$DIMTOLJ
 70
     1
  9
$DIMTZIN
 70
     0
  9
$DIMALTZ
 70
     0
  9
$DIMALTTZ
 70
     0
  9
$DIMUPT
 70
     0
  9
$DIMDEC
 70
     4
  9
$DIMTDEC
 70
     4
  9
$DIMALTU
 70
     2
  9
$DIMALTTD
 70
     2
  9
$DIMTXSTY
  7
Standard
  9
$DIMAUNIT
 70
     0
  9
$DIMADEC
 70
     0
  9
$DIMALTRND
 40
0.0
  9
$DIMAZIN
 70
     0
  9
$DIMDSEP
 70
    46
  9
$DIMATFIT
 70
     3
  9
$DIMFRAC
 70
     0
  9
$DIMLDRBLK
  1

  9
$DIMLUNIT
 70
     2
  9
$DIMLWD
 70
    -2
  9
$DIMLWE
 70
    -2
  9
$DIMTMOVE
 70
     0
  9
$DIMFXL
 40
1.0
  9
$DIMFXLON
 70
     0
  9
$DIMJOGANG
 40
0.7853981633974483
  9
$DIMTFILL
 70
     0
  9
$DIMTFILLCLR
 70
     0
  9
$DIMARCSYM
 70
     0
  9
$DIMLTYPE
  6

  9
$DIMLTEX1
  6

  9
$DIMLTEX2
  6

  9
$DIMTXTDIRECTION
 70
     0
  9
$LUNITS
 70
     2
  9
$LUPREC
 70
     4
  9
$SKETCHINC
 40
0.1
  9
$FILLETRAD
 40
0.0
  9
$AUNITS
 70
     0
  9
$AUPREC
 70
     0
  9
$MENU
  1
.
  9
$ELEVATION
 40
0.0
  9
$PELEVATION
 40
0.0
  9
$THICKNESS
 40
0.0
  9
$LIMCHECK
 70
     0
  9
$CHAMFERA
 40
0.0
  9
$CHAMFERB
 40
0.0
  9
$CHAMFERC
 40
0.0
  9
$CHAMFERD
 40
0.0
  9
$SKPOLY
 70
     0
  9
$TDCREATE
 40
2460145.734340278
  9
$TDUCREATE
 40
2460145.692673611
  9
$TDUPDATE
 40
2460145.734340278
  9
$TDUUPDATE
 40
2460145.692673611
  9
$TDINDWG
 40
0.0000000000
  9
$TDUSRTIMER
 40
0.0000000000
  9
$USRTIMER
 70
     1
  9
$ANGBASE
 50
0.0
  9
$ANGDIR
 70
     0
  9
$PDMODE
 70
     0
  9
$PDSIZE
 40
0.0
  9
$PLINEWID
 40
0.0
  9
$SPLFRAME
 70
     0
  9
$SPLINETYPE
 70
     6
  9
$SPLINESEGS
 70
     8
  9
$HANDSEED
  5
AE
  9
$SURFTAB1
 70
     6
  9
$SURFTAB2
 70
     6
  9
$SURFTYPE
 70
     6
  9
$SURFU
 70
     6
  9
$SURFV
 70
     6
  9
$UCSBASE
  2

  9
$UCSNAME
  2

  9
$UCSORG
 10
0.0
 20
0.0
 30
0.0
  9
$UCSXDIR
 10
1.0
 20
0.0
 30
0.0
  9
$UCSYDIR
 10
0.0
 20
1.0
 30
0.0
  9
$UCSORTHOREF
  2

  9
$UCSORTHOVIEW
 70
     0
  9
$UCSORGTOP
 10
0.0
 20
0.0
 30
0.0
  9
$UCSORGBOTTOM
 10
0.0
 20
0.0
 30
0.0
  9
$UCSORGLEFT
 10
0.0
 20
0.0
 30
0.0
  9
$UCSORGRIGHT
 10
0.0
 20
0.0
 30
0.0
  9
$UCSORGFRONT
 10
0.0
 20
0.0
 30
0.0
  9
$UCSORGBACK
 10
0.0
 20
0.0
 30
0.0
  9
$PUCSBASE
  2

  9
$PUCSNAME
  2

  9
$PUCSORG
 10
0.0
 20
0.0
 30
0.0
  9
$PUCSXDIR
 10
1.0
 20
0.0
 30
0.0
  9
$PUCSYDIR
 10
0.0
 20
1.0
 30
0.0
  9
$PUCSORTHOREF
  2

  9
$PUCSORTHOVIEW
 70
     0
  9
$PUCSORGTOP
 10
0.0
 20
0.0
 30
0.0
  9
$PUCSORGBOTTOM
 10
0.0
 20
0.0
 30
0.0
  9
$PUCSORGLEFT
 10
0.0
 20
0.0
 30
0.0
  9
$PUCSORGRIGHT
 10
0.0
 20
0.0
 30
0.0
  9
$PUCSORGFRONT
 10
0.0
 20
0.0
 30
0.0
  9
$PUCSORGBACK
 10
0.0
 20
0.0
 30
0.0
  9
$USERI1
 70
     0
  9
$USERI2
 70
     0
  9
$USERI3
 70
     0
  9
$USERI4
 70
     0
  9
$USERI5
 70
     0
  9
$USERR1
 40
0.0
  9
$USERR2
 40
0.0
  9
$USERR3
 40
0.0
  9
$USERR4
 40
0.0
  9
$USERR5
 40
0.0
  9
$WORLDVIEW
 70
     1
  9
$SHADEDGE
 70
     3
  9
$SHADEDIF
 70
    70
  9
$TILEMODE
 70
     1
  9
$MAXACTVP
 70
    64
  9
$PINSBASE
 10
0.0
 20
0.0
 30
0.0
  9
$PLIMCHECK
 70
     0
  9
$PEXTMIN
 10
1.000000000000000E+20
 20
1.000000000000000E+20
 30
1.000000000000000E+20
  9
$PEXTMAX
 10
-1.000000000000000E+20
 20
-1.000000000000000E+20
 30
-1.000000000000000E+20
  9
$PLIMMIN
 10
0.0
 20
0.0
  9
$PLIMMAX
 10
12.0
 20
9.0
  9
$UNITMODE
 70
     0
  9
$VISRETAIN
 70
     1
  9
$PLINEGEN
 70
     0
  9
$PSLTSCALE
 70
     1
  9
$TREEDEPTH
 70
  3020
  9
$CMLSTYLE
  2
Standard
  9
$CMLJUST
 70
     0
  9
$CMLSCALE
 40
1.0
  9
$PROXYGRAPHICS
 70
     1
  9
$MEASUREMENT
 70
     0
  9
$CELWEIGHT
370
    -1
  9
$ENDCAPS
280
     0
  9
$JOINSTYLE
280
     0
  9
$LWDISPLAY
290
     1
  9
$INSUNITS
 70
     4
  9
$HYPERLINKBASE
  1

  9
$STYLESHEET
  1

  9
$XEDIT
290
     1
  9
$CEPSNTYPE
380
     0
  9
$PSTYLEMODE
290
     1
  9
$FINGERPRINTGUID
  2
{B8F345F2-A7D1-F349-AAF2-9D8D3C7A423E}
  9
$VERSIONGUID
  2
{7E415EA6-35BA-E743-AE52-964C02F97AEC}
  9
$EXTNAMES
290
     1
  9
$PSVPSCALE
 40
0.0
  9
$OLESTARTUP
290
     0
  9
$SORTENTS
280
   127
  9
$INDEXCTL
280
     0
  9
$HIDETEXT
280
     1
  9
$XCLIPFRAME
280
     2
  9
$HALOGAP
280
     0
  9
$OBSCOLOR
 70
   257
  9
$OBSLTYPE
280
     0
  9
$INTERSECTIONDISPLAY
280
     0
  9
$INTERSECTIONCOLOR
 70
   257
  9
$DIMASSOC
280
     2
  9
$PROJECTNAME
  1

  9
$CAMERADISPLAY
290
     0
  9
$LENSLENGTH
 40
50.0
  9
$CAMERAHEIGHT
 40
0.0
  9
$STEPSPERSEC
 40
2.0
  9
$STEPSIZE
 40
6.0
  9
$3DDWFPREC
 40
2.0
  9
$PSOLWIDTH
 40
0.25
  9
$PSOLHEIGHT
 40
4.0
  9
$LOFTANG1
 40
1.570796326794896
  9
$LOFTANG2
 40
1.570796326794896
  9
$LOFTMAG1
 40
0.0
  9
$LOFTMAG2
 40
0.0
  9
$LOFTPARAM
 70
     7
  9
$LOFTNORMALS
280
     1
  9
$LATITUDE
 40
37.795
  9
$LONGITUDE
 40
-122.394
  9
$NORTHDIRECTION
 40
0.0
  9
$TIMEZONE
 70
 -8000
  9
$LIGHTGLYPHDISPLAY
280
     1
  9
$TILEMODELIGHTSYNCH
280
     1
  9
$CMATERIAL
347
11
  9
$SOLIDHIST
280
     0
  9
$SHOWHIST
280
     1
  9
$DWFFRAME
280
     2
  9
$DGNFRAME
280
     0
  9
$REALWORLDSCALE
290
     1
  9
$INTERFERECOLOR
 62
     1
  9
$INTERFEREOBJVS
345
33
  9
$INTERFEREVPVS
346
30
  9
$CSHADOW
280
     0
  9
$SHADOWPLANELOCATION
 40
0.0
  0
ENDSEC
  0
SECTION
  2
CLASSES
  0
CLASS
  1
ACDBDICTIONARYWDFLT
  2
AcDbDictionaryWithDefault
  3
ObjectDBX Classes
 90
        0
 91
        1
280
     0
281
     0
  0
CLASS
  1
MATERIAL
  2
AcDbMaterial
  3
ObjectDBX Classes
 90
     1153
 91
        3
280
     0
281
     0
  0
CLASS
  1
VISUALSTYLE
  2
AcDbVisualStyle
  3
ObjectDBX Classes
 90
     4095
 91
       24
280
     0
281
     0
  0
CLASS
  1
SCALE
  2
AcDbScale
  3
ObjectDBX Classes
 90
     1153
 91
       17
280
     0
281
     0
  0
CLASS
  1
TABLESTYLE
  2
AcDbTableStyle
  3
ObjectDBX Classes
 90
     4095
 91
        1
280
     0
281
     0
  0
CLASS
  1
MLEADERSTYLE
  2
AcDbMLeaderStyle
  3
ACDB_MLEADERSTYLE_CLASS
 90
     4095
 91
        1
280
     0
281
     0
  0
CLASS
  1
ACDBSECTIONVIEWSTYLE
  2
AcDbSectionViewStyle
  3
ObjectDBX Classes
 90
     1025
 91
        1
280
     0
281
     0
  0
CLASS
  1
ACDBDETAILVIEWSTYLE
  2
AcDbDetailViewStyle
  3
ObjectDBX Classes
 90
     1025
 91
        1
280
     0
281
     0
  0
CLASS
  1
DICTIONARYVAR
  2
AcDbDictionaryVar
  3
ObjectDBX Classes
 90
        0
 91
        5
280
     0
281
     0
  0
CLASS
  1
CELLSTYLEMAP
  2
AcDbCellStyleMap
  3
ObjectDBX Classes
 90
     1152
 91
        1
280
     0
281
     0
  0
ENDSEC
  0
SECTION
  2
TABLES
  0
TABLE
  2
VPORT
  5
8
330
0
100
AcDbSymbolTable
 70
     1
  0
VPORT
  5
57
330
8
100
AcDbSymbolTableRecord
100
AcDbViewportTableRecord
  2
*Active
 70
     0
 10
0.0
 20
0.0
 11
1.0
 21
1.0
 12
0.0
 22
0.0
 13
0.0
 23
0.0
 14
1.0
 24
1.0
 15
0.0
 25
0.0
 16
0.0
 26
0.0
 36
1.0
 17
49.99999998749986
 27
-49.99999998749986
 37
0.0
 40
101.9999999744997
 41
1.0
 42
50.0
 43
0.0
 44
0.0
 50
0.0
 51
0.0
 71
     0
 72
   100
 73
     1
 74
     1
 75
     0
 76
     0
 77
     0
 78
     0
281
     0
 65
     1
110
0.0
120
0.0
130
0.0
111
1.0
121
0.0
131
0.0
112
0.0
122
1.0
132
0.0
 79
     0
146
0.0
 60
     3
 61
     5
292
     1
282
     1
141
0.0
142
0.0
 63
   250
421
  3355443
  0
ENDTAB
  0
TABLE
  2
LTYPE
  5
5
330
0
100
AcDbSymbolTable
 70
     1
  0
LTYPE
  5
5B
330
5
100
AcDbSymbolTableRecord
100
AcDbLinetypeTableRecord
  2
ByBlock
 70
     0
  3

 72
    65
 73
     0
 40
0.0
  0
LTYPE
  5
5C
330
5
100
AcDbSymbolTableRecord
100
AcDbLinetypeTableRecord
  2
ByLayer
 70
     0
  3

 72
    65
 73
     0
 40
0.0
  0
LTYPE
  5
5D
330
5
100
AcDbSymbolTableRecord
100
AcDbLinetypeTableRecord
  2
Continuous
 70
     0
  3
Solid line
 72
    65
 73
     0
 40
0.0
  0
ENDTAB
  0
TABLE
  2
LAYER
  5
2
330
0
100
AcDbSymbolTable
 70
     2
  0
LAYER
  5
54
330
2
100
AcDbSymbolTableRecord
100
AcDbLayerTableRecord
  2
0
 70
     0
 62
     7
  6
Continuous
370
    -3
390
F
347
21
348
0
  0
LAYER
  5
78
330
2
100
AcDbSymbolTableRecord
100
AcDbLayerTableRecord
  2
Camada 1
 70
     0
 62
     7
  6
Continuous
370
     0
390
F
347
21
348
0
  0
ENDTAB
  0
TABLE
  2
STYLE
  5
3
330
0
100
AcDbSymbolTable
 70
     2
  0
STYLE
  5
55
330
3
100
AcDbSymbolTableRecord
100
AcDbTextStyleTableRecord
  2
Standard
 70
     0
 40
0.0
 41
1.0
 50
0.0
 71
     0
 42
0.2
  3
txt
  4

  0
STYLE
  5
5A
330
3
100
AcDbSymbolTableRecord
100
AcDbTextStyleTableRecord
  2
Annotative
 70
     0
 40
0.0
 41
1.0
 50
0.0
 71
     0
 42
0.2
  3
txt
  4

1001
AcadAnnotative
1000
AnnotativeData
1002
{
1070
     1
1070
     1
1002
}
  0
ENDTAB
  0
TABLE
  2
VIEW
  5
6
330
0
100
AcDbSymbolTable
 70
     0
  0
ENDTAB
  0
TABLE
  2
UCS
  5
7
330
0
100
AcDbSymbolTable
 70
     0
  0
ENDTAB
  0
TABLE
  2
APPID
  5
9
330
0
100
AcDbSymbolTable
 70
     2
  0
APPID
  5
56
330
9
100
AcDbSymbolTableRecord
100
AcDbRegAppTableRecord
  2
ACAD
 70
     0
  0
APPID
  5
5E
330
9
100
AcDbSymbolTableRecord
100
AcDbRegAppTableRecord
  2
AcadAnnotative
 70
     0
  0
ENDTAB
  0
TABLE
  2
DIMSTYLE
  5
A
330
0
100
AcDbSymbolTable
 70
     2
100
AcDbDimStyleTable
 71
     0
  0
DIMSTYLE
105
58
330
A
100
AcDbSymbolTableRecord
100
AcDbDimStyleTableRecord
  2
Standard
 70
     0
340
55
  0
DIMSTYLE
105
59
330
A
100
AcDbSymbolTableRecord
100
AcDbDimStyleTableRecord
  2
Annotative
 70
     0
340
55
1001
AcadAnnotative
1000
AnnotativeData
1002
{
1070
     1
1070
     1
1002
}
  0
ENDTAB
  0
TABLE
  2
BLOCK_RECORD
  5
1
330
0
100
AcDbSymbolTable
 70
     3
  0
BLOCK_RECORD
  5
70
330
1
100
AcDbSymbolTableRecord
100
AcDbBlockTableRecord
  2
*Model_Space
340
73
 70
     0
280
     1
281
     0
  0
BLOCK_RECORD
  5
6C
330
1
100
AcDbSymbolTableRecord
100
AcDbBlockTableRecord
  2
*Paper_Space
340
6F
 70
     0
280
     1
281
     0
  0
BLOCK_RECORD
  5
74
330
1
100
AcDbSymbolTableRecord
100
AcDbBlockTableRecord
  2
*Paper_Space0
340
77
 70
     0
280
     1
281
     0
  0
BLOCK_RECORD
  5
79
330
1
100
AcDbSymbolTableRecord
100
AcDbBlockTableRecord
  2
Block_0
340
0
102
{BLKREFS
331
7A
102
}
 70
     0
280
     1
281
     0
  0
BLOCK_RECORD
  5
7D
330
1
100
AcDbSymbolTableRecord
100
AcDbBlockTableRecord
  2
Block_1
340
0
102
{BLKREFS
331
7E
102
}
 70
     0
280
     1
281
     0
  0
ENDTAB
  0
ENDSEC
  0
SECTION
  2
BLOCKS
  0
BLOCK
  5
71
330
70
100
AcDbEntity
  8
0
100
AcDbBlockBegin
  2
*Model_Space
 70
     0
 10
0.0
 20
0.0
 30
0.0
  3
*Model_Space
  1

  0
ENDBLK
  5
72
330
70
100
AcDbEntity
  8
0
100
AcDbBlockEnd
  0
BLOCK
  5
6D
330
6C
100
AcDbEntity
 67
     1
  8
0
100
AcDbBlockBegin
  2
*Paper_Space
 70
     0
 10
0.0
 20
0.0
 30
0.0
  3
*Paper_Space
  1

  0
ENDBLK
  5
6E
330
6C
100
AcDbEntity
 67
     1
  8
0
100
AcDbBlockEnd
  0
BLOCK
  5
75
330
74
100
AcDbEntity
 67
     1
  8
0
100
AcDbBlockBegin
  2
*Paper_Space0
 70
     0
 10
0.0
 20
0.0
 30
0.0
  3
*Paper_Space0
  1

  0
ENDBLK
  5
76
330
74
100
AcDbEntity
 67
     1
  8
0
100
AcDbBlockEnd
  0
BLOCK
  5
7B
330
79
100
AcDbEntity
  8
0
100
AcDbBlockBegin
  2
Block_0
 70
     0
 10
0.0
 20
0.0
 30
0.0
  3
Block_0
  1

  0
INSERT
  5
7E
330
79
100
AcDbEntity
  8
Camada 1
100
AcDbBlockReference
  2
Block_1
 10
0.0
 20
0.0
 30
0.0
  0
ENDBLK
  5
7C
330
79
100
AcDbEntity
  8
0
100
AcDbBlockEnd
  0
BLOCK
  5
7F
330
7D
100
AcDbEntity
  8
0
100
AcDbBlockBegin
  2
Block_1
 70
     0
 10
0.0
 20
0.0
 30
0.0
  3
Block_1
  1

  0
SPLINE
  5
81
330
7D
100
AcDbEntity
  8
Camada 1
 62
    28
420
  1184269
370
    15
100
AcDbSpline
210
0.0
220
0.0
230
1.0
 70
    11
 71
     3
 72
   179
 73
   175
 74
     0
 42
0.0000000001
 43
0.0000000001
 40
0.0
 40
0.0
 40
0.0
 40
0.0
 40
1.0
 40
1.0
 40
1.0
 40
2.0
 40
2.0
 40
2.0
 40
3.0
 40
3.0
 40
3.0
 40
4.0
 40
4.0
 40
4.0
 40
5.0
 40
5.0
 40
5.0
 40
6.0
 40
6.0
 40
6.0
 40
7.0
 40
7.0
 40
7.0
 40
8.0
 40
8.0
 40
8.0
 40
9.0
 40
9.0
 40
9.0
 40
10.0
 40
10.0
 40
10.0
 40
11.0
 40
11.0
 40
11.0
 40
12.0
 40
12.0
 40
12.0
 40
13.0
 40
13.0
 40
13.0
 40
14.0
 40
14.0
 40
14.0
 40
15.0
 40
15.0
 40
15.0
 40
16.0
 40
16.0
 40
16.0
 40
17.0
 40
17.0
 40
17.0
 40
18.0
 40
18.0
 40
18.0
 40
19.0
 40
19.0
 40
19.0
 40
20.0
 40
20.0
 40
20.0
 40
21.0
 40
21.0
 40
21.0
 40
22.0
 40
22.0
 40
22.0
 40
23.0
 40
23.0
 40
23.0
 40
24.0
 40
24.0
 40
24.0
 40
25.0
 40
25.0
 40
25.0
 40
26.0
 40
26.0
 40
26.0
 40
27.0
 40
27.0
 40
27.0
 40
28.0
 40
28.0
 40
28.0
 40
29.0
 40
29.0
 40
29.0
 40
30.0
 40
30.0
 40
30.0
 40
31.0
 40
31.0
 40
31.0
 40
32.0
 40
32.0
 40
32.0
 40
33.0
 40
33.0
 40
33.0
 40
34.0
 40
34.0
 40
34.0
 40
35.0
 40
35.0
 40
35.0
 40
36.0
 40
36.0
 40
36.0
 40
37.0
 40
37.0
 40
37.0
 40
38.0
 40
38.0
 40
38.0
 40
39.0
 40
39.0
 40
39.0
 40
40.0
 40
40.0
 40
40.0
 40
41.0
 40
41.0
 40
41.0
 40
42.0
 40
42.0
 40
42.0
 40
43.0
 40
43.0
 40
43.0
 40
44.0
 40
44.0
 40
44.0
 40
45.0
 40
45.0
 40
45.0
 40
46.0
 40
46.0
 40
46.0
 40
47.0
 40
47.0
 40
47.0
 40
48.0
 40
48.0
 40
48.0
 40
49.0
 40
49.0
 40
49.0
 40
50.0
 40
50.0
 40
50.0
 40
51.0
 40
51.0
 40
51.0
 40
52.0
 40
52.0
 40
52.0
 40
53.0
 40
53.0
 40
53.0
 40
54.0
 40
54.0
 40
54.0
 40
55.0
 40
55.0
 40
55.0
 40
56.0
 40
56.0
 40
56.0
 40
57.0
 40
57.0
 40
57.0
 40
58.0
 40
58.0
 40
58.0
 40
58.0
 10
44.64275135407694
 20
-29.4131590451775
 30
0.0
 10
44.64275135407694
 20
-29.4131590451775
 30
0.0
 10
44.66638726601256
 20
-45.2863961212534
 30
0.0
 10
44.66638726601256
 20
-45.2863961212534
 30
0.0
 10
44.66638726601256
 20
-45.2863961212534
 30
0.0
 10
43.26656489880032
 20
-45.28463320129806
 30
0.0
 10
43.26656489880032
 20
-45.28463320129806
 30
0.0
 10
43.26656489880032
 20
-45.28463320129806
 30
0.0
 10
43.26656489880032
 20
-43.67666987280872
 30
0.0
 10
43.26656489880032
 20
-43.67666987280872
 30
0.0
 10
43.23340383614416
 20
-43.40891328362192
 30
0.0
 10
43.08841241712998
 20
-43.27062230617847
 30
0.0
 10
42.82312324301044
 20
-43.27274050160572
 30
0.0
 10
42.82312324301044
 20
-43.27274050160572
 30
0.0
 10
40.36002867537365
 20
-43.27274050160572
 30
0.0
 10
40.36002867537365
 20
-43.27274050160572
 30
0.0
 10
40.19245976926727
 20
-43.26039198747578
 30
0.0
 10
40.09438759013326
 20
-43.32989140592899
 30
0.0
 10
40.08204008530896
 20
-43.49957581598179
 30
0.0
 10
40.08204008530896
 20
-43.49957581598179
 30
0.0
 10
40.08204008530896
 20
-46.00182941134419
 30
0.0
 10
40.08204008530896
 20
-46.00182941134419
 30
0.0
 10
40.08204008530896
 20
-46.00182941134419
 30
0.0
 10
38.34743215343961
 20
-46.00182941134419
 30
0.0
 10
38.34743215343961
 20
-46.00182941134419
 30
0.0
 10
38.28745990431757
 20
-45.99653795999731
 30
0.0
 10
38.23419011537689
 20
-46.01911410134909
 30
0.0
 10
38.18656503464437
 20
-46.06815019091609
 30
0.0
 10
38.18656503464437
 20
-46.06815019091609
 30
0.0
 10
38.05885965137552
 20
-46.19621084965686
 30
0.0
 10
38.05885965137552
 20
-46.19621084965686
 30
0.0
 10
38.01511501315539
 20
-46.23960021240508
 30
0.0
 10
37.99500695974109
 20
-46.2939304447998
 30
0.0
 10
37.99253752606351
 20
-46.35672269298018
 30
0.0
 10
37.99253752606351
 20
-46.35672269298018
 30
0.0
 10
37.99253752606351
 20
-48.89037241243276
 30
0.0
 10
37.99253752606351
 20
-48.89037241243276
 30
0.0
 10
37.99500695974109
 20
-48.95493296353017
 30
0.0
 10
38.0087651369651
 20
-49.0110234243994
 30
0.0
 10
38.05286235917629
 20
-49.04453774391684
 30
0.0
 10
38.05286235917629
 20
-49.04453774391684
 30
0.0
 10
38.21125937142341
 20
-49.20928597809467
 30
0.0
 10
38.21125937142341
 20
-49.20928597809467
 30
0.0
 10
38.25959029300828
 20
-49.23927176622059
 30
0.0
 10
38.29239877167337
 20
-49.25055983689648
 30
0.0
 10
38.32203197580822
 20
-49.24985466891435
 30
0.0
 10
38.32203197580822
 20
-49.24985466891435
 30
0.0
 10
40.08204008530896
 20
-49.25479353627014
 30
0.0
 10
40.08204008530896
 20
-49.25479353627014
 30
0.0
 10
40.08204008530896
 20
-49.25479353627014
 30
0.0
 10
40.08204008530896
 20
-51.70130656327386
 30
0.0
 10
40.08204008530896
 20
-51.70130656327386
 30
0.0
 10
40.09509309455018
 20
-51.83500856587173
 30
0.0
 10
40.16529566237522
 20
-51.91579605500083
 30
0.0
 10
40.3092289929811
 20
-51.92849715312185
 30
0.0
 10
40.3092289929811
 20
-51.92849715312185
 30
0.0
 10
42.90567365209489
 20
-51.93096524105932
 30
0.0
 10
42.90567365209489
 20
-51.93096524105932
 30
0.0
 10
43.0905285939466
 20
-51.90344754087089
 30
0.0
 10
43.22670137596279
 20
-51.80890389312842
 30
0.0
 10
43.26656489880032
 20
-51.58242116274341
 30
0.0
 10
43.26656489880032
 20
-51.58242116274341
 30
0.0
 10
43.26656489880032
 20
-49.91801478939346
 30
0.0
 10
43.26656489880032
 20
-49.91801478939346
 30
0.0
 10
43.26656489880032
 20
-49.91801478939346
 30
0.0
 10
44.68332071776681
 20
-49.9226010727582
 30
0.0
 10
44.68332071776681
 20
-49.9226010727582
 30
0.0
 10
44.75070126792256
 20
-50.1317991131383
 30
0.0
 10
44.89216482841542
 20
-50.27079256708304
 30
0.0
 10
45.15674816168261
 20
-50.29160578847948
 30
0.0
 10
45.15674816168261
 20
-50.29160578847948
 30
0.0
 10
50.59093748523317
 20
-50.29125320448841
 30
0.0
 10
50.59093748523317
 20
-50.29125320448841
 30
0.0
 10
50.84070421643294
 20
-50.25809416044288
 30
0.0
 10
51.02026770693777
 20
-50.12227396241775
 30
0.0
 10
51.05730921210632
 20
-49.84604728300276
 30
0.0
 10
51.05730921210632
 20
-49.84604728300276
 30
0.0
 10
51.06436492914897
 20
-41.18323626018474
 30
0.0
 10
51.06436492914897
 20
-41.18323626018474
 30
0.0
 10
51.09752666467535
 20
-40.8036486417697
 30
0.0
 10
51.30637077532395
 20
-40.5694036806195
 30
0.0
 10
51.70077634154683
 20
-40.48861888297124
 30
0.0
 10
51.70077634154683
 20
-40.48861888297124
 30
0.0
 10
64.03106376318757
 20
-40.48226967965116
 30
0.0
 10
64.03106376318757
 20
-40.48226967965116
 30
0.0
 10
64.74649705327834
 20
-40.40853656182426
 30
0.0
 10
65.1994652055292
 20
-40.02506782802663
 30
0.0
 10
65.30706253538376
 20
-39.23414119163447
 30
0.0
 10
65.30706253538376
 20
-39.23414119163447
 30
0.0
 10
65.30600478341056
 20
-35.45906477147635
 30
0.0
 10
65.30600478341056
 20
-35.45906477147635
 30
0.0
 10
65.26296531317256
 20
-34.7672680661914
 30
0.0
 10
64.70945689385022
 20
-34.24656879840437
 30
0.0
 10
64.01377907318266
 20
-34.22363738158067
 30
0.0
 10
64.01377907318266
 20
-34.22363738158067
 30
0.0
 10
51.62810366717399
 20
-34.2144648148512
 30
0.0
 10
51.62810366717399
 20
-34.2144648148512
 30
0.0
 10
51.29719820859448
 20
-34.13156182177568
 30
0.0
 10
51.08235613287643
 20
-33.91390176560993
 30
0.0
 10
51.05836830981996
 20
-33.47468977197245
 30
0.0
 10
51.05836830981996
 20
-33.47468977197245
 30
0.0
 10
51.06401234515789
 20
-24.8880799549188
 30
0.0
 10
51.06401234515789
 20
-24.8880799549188
 30
0.0
 10
51.01956253895563
 20
-24.62702784452399
 30
0.0
 10
50.88197942097516
 20
-24.45028368020728
 30
0.0
 10
50.58670378585951
 20
-24.41570891723578
 30
0.0
 10
50.58670378585951
 20
-24.41570891723578
 30
0.0
 10
45.19661235739035
 20
-24.41465385674342
 30
0.0
 10
45.19661235739035
 20
-24.41465385674342
 30
0.0
 10
44.92567847506298
 20
-24.42559203490909
 30
0.0
 10
44.75846215294734
 20
-24.54553518741274
 30
0.0
 10
44.68896475310476
 20
-24.76813680241515
 30
0.0
 10
44.68896475310476
 20
-24.76813680241515
 30
0.0
 10
43.26656489880032
 20
-24.77978014856295
 30
0.0
 10
43.26656489880032
 20
-24.77978014856295
 30
0.0
 10
43.26656489880032
 20
-24.77978014856295
 30
0.0
 10
43.26656489880032
 20
-23.13301374069013
 30
0.0
 10
43.26656489880032
 20
-23.13301374069013
 30
0.0
 10
43.22035082690197
 20
-22.91852424896315
 30
0.0
 10
43.10428744404082
 20
-22.79011369771216
 30
0.0
 10
42.90179253671229
 20
-22.76823734138083
 30
0.0
 10
42.90179253671229
 20
-22.76823734138083
 30
0.0
 10
40.3092289929811
 20
-22.76823734138083
 30
0.0
 10
40.3092289929811
 20
-22.76823734138083
 30
0.0
 10
40.15365399840295
 20
-22.77035822828894
 30
0.0
 10
40.09085973161194
 20
-22.8578421217675
 30
0.0
 10
40.08204008530896
 20
-22.99507534723775
 30
0.0
 10
40.08204008530896
 20
-22.99507534723775
 30
0.0
 10
40.08204008530896
 20
-25.55730051885197
 30
0.0
 10
40.08204008530896
 20
-25.55730051885197
 30
0.0
 10
40.08204008530896
 20
-25.55730051885197
 30
0.0
 10
38.34743215343961
 20
-25.55730051885197
 30
0.0
 10
38.34743215343961
 20
-25.55730051885197
 30
0.0
 10
38.30650953288845
 20
-25.5484832275944
 30
0.0
 10
38.25394558480012
 20
-25.57105936894618
 30
0.0
 10
38.19115131800911
 20
-25.62079793501448
 30
0.0
 10
38.19115131800911
 20
-25.62079793501448
 30
0.0
 10
38.05074550948945
 20
-25.76967450663253
 30
0.0
 10
38.05074550948945
 20
-25.76967450663253
 30
0.0
 10
38.01158715463407
 20
-25.82753057893795
 30
0.0
 10
37.98830382668952
 20
-25.87938464895265
 30
0.0
 10
37.99253752606351
 20
-25.92172164268935
 30
0.0
 10
37.99253752606351
 20
-25.92172164268935
 30
0.0
 10
37.99253752606351
 20
-28.44549093594947
 30
0.0
 10
37.99253752606351
 20
-28.44549093594947
 30
0.0
 10
37.99042067637635
 20
-28.50793329161962
 30
0.0
 10
38.00417885360035
 20
-28.56261341652457
 30
0.0
 10
38.05286235917629
 20
-28.60000885142462
 30
0.0
 10
38.05286235917629
 20
-28.60000885142462
 30
0.0
 10
38.19573760137417
 20
-28.75346632344572
 30
0.0
 10
38.19573760137417
 20
-28.75346632344572
 30
0.0
 10
38.23771797389822
 20
-28.78909614690958
 30
0.0
 10
38.28040418727493
 20
-28.80603094440426
 30
0.0
 10
38.32379556863377
 20
-28.80638621987618
 30
0.0
 10
38.32379556863377
 20
-28.80638621987618
 30
0.0
 10
40.08204008530896
 20
-28.81026195229708
 30
0.0
 10
40.08204008530896
 20
-28.81026195229708
 30
0.0
 10
40.08204008530896
 20
-28.81026195229708
 30
0.0
 10
40.08204008530896
 20
-31.19680878601034
 30
0.0
 10
40.08204008530896
 20
-31.19680878601034
 30
0.0
 10
40.09862095307183
 20
-31.33756246842958
 30
0.0
 10
40.16917644132272
 20
-31.4187052330306
 30
0.0
 10
40.3092289929811
 20
-31.42364140890557
 30
0.0
 10
40.3092289929811
 20
-31.42364140890557
 30
0.0
 10
42.87709819993358
 20
-31.42364140890557
 30
0.0
 10
42.87709819993358
 20
-31.42364140890557
 30
0.0
 10
43.11063732023143
 20
-31.41164817024753
 30
0.0
 10
43.23340383614416
 20
-31.28923423832556
 30
0.0
 10
43.26656489880032
 20
-31.07792069399904
 30
0.0
 10
43.26656489880032
 20
-31.07792069399904
 30
0.0
 10
43.26656489880032
 20
-29.41245387719536
 30
0.0
 10
43.26656489880032
 20
-29.41245387719536
 30
0.0
 10
43.26656489880032
 20
-29.41245387719536
 30
0.0
 10
44.64275135407694
 20
-29.4131590451775
 30
0.0
 10
44.64275135407694
 20
-29.4131590451775
 30
0.0
  0
SPLINE
  5
82
330
7D
100
AcDbEntity
  8
Camada 1
 62
    28
420
  1184269
370
    15
100
AcDbSpline
210
0.0
220
0.0
230
1.0
 70
    24
 71
     3
 72
     8
 73
     4
 74
     0
 42
0.0000000001
 43
0.0000000001
 40
0.0
 40
0.0
 40
0.0
 40
0.0
 40
1.0
 40
1.0
 40
1.0
 40
1.0
 10
40.08204008530896
 20
-25.55730051885197
 30
0.0
 10
40.08204008530896
 20
-25.55730051885197
 30
0.0
 10
40.08204008530896
 20
-28.81026195229708
 30
0.0
 10
40.08204008530896
 20
-28.81026195229708
 30
0.0
  0
SPLINE
  5
83
330
7D
100
AcDbEntity
  8
Camada 1
 62
    28
420
  1184269
370
    15
100
AcDbSpline
210
0.0
220
0.0
230
1.0
 70
    24
 71
     3
 72
     8
 73
     4
 74
     0
 42
0.0000000001
 43
0.0000000001
 40
0.0
 40
0.0
 40
0.0
 40
0.0
 40
1.0
 40
1.0
 40
1.0
 40
1.0
 10
44.68896475310476
 20
-24.76813680241515
 30
0.0
 10
44.68896475310476
 20
-24.76813680241515
 30
0.0
 10
44.64275135407694
 20
-29.4131590451775
 30
0.0
 10
44.64275135407694
 20
-29.4131590451775
 30
0.0
  0
SPLINE
  5
84
330
7D
100
AcDbEntity
  8
Camada 1
 62
    28
420
  1184269
370
    15
100
AcDbSpline
210
0.0
220
0.0
230
1.0
 70
    24
 71
     3
 72
     8
 73
     4
 74
     0
 42
0.0000000001
 43
0.0000000001
 40
0.0
 40
0.0
 40
0.0
 40
0.0
 40
1.0
 40
1.0
 40
1.0
 40
1.0
 10
40.08204008530896
 20
-46.00182941134419
 30
0.0
 10
40.08204008530896
 20
-46.00182941134419
 30
0.0
 10
40.08204008530896
 20
-49.25479353627014
 30
0.0
 10
40.08204008530896
 20
-49.25479353627014
 30
0.0
  0
SPLINE
  5
85
330
7D
100
AcDbEntity
  8
Camada 1
 62
    28
420
  1184269
370
    15
100
AcDbSpline
210
0.0
220
0.0
230
1.0
 70
     9
 71
     3
 72
    29
 73
    25
 74
     0
 42
0.0000000001
 43
0.0000000001
 40
0.0
 40
0.0
 40
0.0
 40
0.0
 40
1.0
 40
1.0
 40
1.0
 40
2.0
 40
2.0
 40
2.0
 40
3.0
 40
3.0
 40
3.0
 40
4.0
 40
4.0
 40
4.0
 40
5.0
 40
5.0
 40
5.0
 40
6.0
 40
6.0
 40
6.0
 40
7.0
 40
7.0
 40
7.0
 40
8.0
 40
8.0
 40
8.0
 40
8.0
 10
57.77172898861579
 20
-40.09103871508832
 30
0.0
 10
57.77172898861579
 20
-40.09103871508832
 30
0.0
 10
45.95226175430973
 20
-40.09103871508832
 30
0.0
 10
45.95226175430973
 20
-40.09103871508832
 30
0.0
 10
45.47389544303812
 20
-40.09103871508832
 30
0.0
 10
45.08548716901447
 20
-39.7029810064451
 30
0.0
 10
45.08548716901447
 20
-39.22426345692286
 30
0.0
 10
45.08548716901447
 20
-39.22426345692286
 30
0.0
 10
45.08548716901447
 20
-35.40085880666071
 30
0.0
 10
45.08548716901447
 20
-35.40085880666071
 30
0.0
 10
45.08548716901447
 20
-34.92214125713847
 30
0.0
 10
45.47389544303812
 20
-34.53408354849525
 30
0.0
 10
45.95226175430973
 20
-34.53408354849525
 30
0.0
 10
45.95226175430973
 20
-34.53408354849525
 30
0.0
 10
57.77172898861579
 20
-34.53408354849525
 30
0.0
 10
57.77172898861579
 20
-34.53408354849525
 30
0.0
 10
58.25044922961889
 20
-34.53408354849525
 30
0.0
 10
58.63850424678126
 20
-34.92214125713847
 30
0.0
 10
58.63850424678126
 20
-35.40085880666071
 30
0.0
 10
58.63850424678126
 20
-35.40085880666071
 30
0.0
 10
58.63850424678126
 20
-39.22426345692286
 30
0.0
 10
58.63850424678126
 20
-39.22426345692286
 30
0.0
 10
58.63850424678126
 20
-39.7029810064451
 30
0.0
 10
58.25044922961889
 20
-40.09103871508832
 30
0.0
 10
57.77172898861579
 20
-40.09103871508832
 30
0.0
  0
SPLINE
  5
86
330
7D
100
AcDbEntity
  8
Camada 1
 62
    28
420
  1184269
370
    15
100
AcDbSpline
210
0.0
220
0.0
230
1.0
 70
    24
 71
     3
 72
     8
 73
     4
 74
     0
 42
0.0000000001
 43
0.0000000001
 40
0.0
 40
0.0
 40
0.0
 40
0.0
 40
1.0
 40
1.0
 40
1.0
 40
1.0
 10
44.66638726601256
 20
-46.8992956256177
 30
0.0
 10
44.66638726601256
 20
-46.8992956256177
 30
0.0
 10
43.26656489880032
 20
-46.8992956256177
 30
0.0
 10
43.26656489880032
 20
-46.8992956256177
 30
0.0
  0
SPLINE
  5
87
330
7D
100
AcDbEntity
  8
Camada 1
 62
    28
420
  1184269
370
    15
100
AcDbSpline
210
0.0
220
0.0
230
1.0
 70
    24
 71
     3
 72
     8
 73
     4
 74
     0
 42
0.0000000001
 43
0.0000000001
 40
0.0
 40
0.0
 40
0.0
 40
0.0
 40
1.0
 40
1.0
 40
1.0
 40
1.0
 10
43.26656489880032
 20
-48.20986646930455
 30
0.0
 10
43.26656489880032
 20
-48.20986646930455
 30
0.0
 10
44.68332071776681
 20
-48.20986646930455
 30
0.0
 10
44.68332071776681
 20
-48.20986646930455
 30
0.0
  0
SPLINE
  5
88
330
7D
100
AcDbEntity
  8
Camada 1
 62
    28
420
  1184269
370
    15
100
AcDbSpline
210
0.0
220
0.0
230
1.0
 70
    24
 71
     3
 72
     8
 73
     4
 74
     0
 42
0.0000000001
 43
0.0000000001
 40
0.0
 40
0.0
 40
0.0
 40
0.0
 40
1.0
 40
1.0
 40
1.0
 40
1.0
 10
43.26656489880032
 20
-49.91801478939346
 30
0.0
 10
43.26656489880032
 20
-49.91801478939346
 30
0.0
 10
43.26656489880032
 20
-45.28463320129806
 30
0.0
 10
43.26656489880032
 20
-45.28463320129806
 30
0.0
  0
SPLINE
  5
89
330
7D
100
AcDbEntity
  8
Camada 1
 62
    28
420
  1184269
370
    15
100
AcDbSpline
210
0.0
220
0.0
230
1.0
 70
    24
 71
     3
 72
     8
 73
     4
 74
     0
 42
0.0000000001
 43
0.0000000001
 40
0.0
 40
0.0
 40
0.0
 40
0.0
 40
1.0
 40
1.0
 40
1.0
 40
1.0
 10
44.68332071776681
 20
-48.93094379473327
 30
0.0
 10
44.68332071776681
 20
-48.93094379473327
 30
0.0
 10
43.26656489880032
 20
-48.93094379473327
 30
0.0
 10
43.26656489880032
 20
-48.93094379473327
 30
0.0
  0
SPLINE
  5
8A
330
7D
100
AcDbEntity
  8
Camada 1
 62
    28
420
  1184269
370
    15
100
AcDbSpline
210
0.0
220
0.0
230
1.0
 70
    24
 71
     3
 72
     8
 73
     4
 74
     0
 42
0.0000000001
 43
0.0000000001
 40
0.0
 40
0.0
 40
0.0
 40
0.0
 40
1.0
 40
1.0
 40
1.0
 40
1.0
 10
44.66638726601256
 20
-45.2863961212534
 30
0.0
 10
44.66638726601256
 20
-45.2863961212534
 30
0.0
 10
44.68332071776681
 20
-49.9226010727582
 30
0.0
 10
44.68332071776681
 20
-49.9226010727582
 30
0.0
  0
SPLINE
  5
8B
330
7D
100
AcDbEntity
  8
Camada 1
 62
    28
420
  1184269
370
    15
100
AcDbSpline
210
0.0
220
0.0
230
1.0
 70
    24
 71
     3
 72
     8
 73
     4
 74
     0
 42
0.0000000001
 43
0.0000000001
 40
0.0
 40
0.0
 40
0.0
 40
0.0
 40
1.0
 40
1.0
 40
1.0
 40
1.0
 10
43.26656489880032
 20
-46.16728281350416
 30
0.0
 10
43.26656489880032
 20
-46.16728281350416
 30
0.0
 10
44.66638726601256
 20
-46.16728281350416
 30
0.0
 10
44.66638726601256
 20
-46.16728281350416
 30
0.0
  0
SPLINE
  5
8C
330
7D
100
AcDbEntity
  8
Camada 1
 62
    28
420
  1184269
370
    15
100
AcDbSpline
210
0.0
220
0.0
230
1.0
 70
    24
 71
     3
 72
     8
 73
     4
 74
     0
 42
0.0000000001
 43
0.0000000001
 40
0.0
 40
0.0
 40
0.0
 40
0.0
 40
1.0
 40
1.0
 40
1.0
 40
1.0
 10
43.26656489880032
 20
-27.70712622903499
 30
0.0
 10
43.26656489880032
 20
-27.70712622903499
 30
0.0
 10
44.64275135407694
 20
-27.70712622903499
 30
0.0
 10
44.64275135407694
 20
-27.70712622903499
 30
0.0
  0
SPLINE
  5
8D
330
7D
100
AcDbEntity
  8
Camada 1
 62
    28
420
  1184269
370
    15
100
AcDbSpline
210
0.0
220
0.0
230
1.0
 70
    24
 71
     3
 72
     8
 73
     4
 74
     0
 42
0.0000000001
 43
0.0000000001
 40
0.0
 40
0.0
 40
0.0
 40
0.0
 40
1.0
 40
1.0
 40
1.0
 40
1.0
 10
44.64275135407694
 20
-26.36728014816607
 30
0.0
 10
44.64275135407694
 20
-26.36728014816607
 30
0.0
 10
43.26656489880032
 20
-26.36728014816607
 30
0.0
 10
43.26656489880032
 20
-26.36728014816607
 30
0.0
  0
SPLINE
  5
8E
330
7D
100
AcDbEntity
  8
Camada 1
 62
    28
420
  1184269
370
    15
100
AcDbSpline
210
0.0
220
0.0
230
1.0
 70
     8
 71
     3
 72
    14
 73
    10
 74
     0
 42
0.0000000001
 43
0.0000000001
 40
0.0
 40
0.0
 40
0.0
 40
0.0
 40
1.0
 40
1.0
 40
1.0
 40
2.0
 40
2.0
 40
2.0
 40
3.0
 40
3.0
 40
3.0
 40
3.0
 10
43.26656489880032
 20
-29.41245387719536
 30
0.0
 10
43.26656489880032
 20
-29.41245387719536
 30
0.0
 10
43.26656489880032
 20
-24.77978014856295
 30
0.0
 10
43.26656489880032
 20
-24.77978014856295
 30
0.0
 10
43.26656489880032
 20
-24.77978014856295
 30
0.0
 10
43.26656489880032
 20
-25.63914306847343
 30
0.0
 10
43.26656489880032
 20
-25.63914306847343
 30
0.0
 10
43.26656489880032
 20
-25.63914306847343
 30
0.0
 10
44.68896475310476
 20
-25.63914306847343
 30
0.0
 10
44.68896475310476
 20
-25.63914306847343
 30
0.0
  0
SPLINE
  5
8F
330
7D
100
AcDbEntity
  8
Camada 1
 62
    28
420
  1184269
370
    15
100
AcDbSpline
210
0.0
220
0.0
230
1.0
 70
    24
 71
     3
 72
     8
 73
     4
 74
     0
 42
0.0000000001
 43
0.0000000001
 40
0.0
 40
0.0
 40
0.0
 40
0.0
 40
1.0
 40
1.0
 40
1.0
 40
1.0
 10
44.64275135407694
 20
-28.42820624594457
 30
0.0
 10
44.64275135407694
 20
-28.42820624594457
 30
0.0
 10
43.26656489880032
 20
-28.42820624594457
 30
0.0
 10
43.26656489880032
 20
-28.42820624594457
 30
0.0
  0
SPLINE
  5
90
330
7D
100
AcDbEntity
  8
Camada 1
 62
    28
420
  1184269
370
    15
100
AcDbSpline
210
0.0
220
0.0
230
1.0
 70
     8
 71
     3
 72
    20
 73
    16
 74
     0
 42
0.0000000001
 43
0.0000000001
 40
0.0
 40
0.0
 40
0.0
 40
0.0
 40
1.0
 40
1.0
 40
1.0
 40
2.0
 40
2.0
 40
2.0
 40
3.0
 40
3.0
 40
3.0
 40
4.0
 40
4.0
 40
4.0
 40
5.0
 40
5.0
 40
5.0
 40
5.0
 10
44.58736471544911
 20
-24.76813680241515
 30
0.0
 10
44.6910816027916
 20
-25.0531807730877
 30
0.0
 10
44.69284519561715
 20
-25.34351619510712
 30
0.0
 10
44.58736471544911
 20
-25.63914306847343
 30
0.0
 10
44.58736471544911
 20
-25.63914306847343
 30
0.0
 10
44.58736471544911
 20
-26.36728014816607
 30
0.0
 10
44.58736471544911
 20
-26.36728014816607
 30
0.0
 10
44.66215356663889
 20
-26.8417666897955
 30
0.0
 10
44.67026770852495
 20
-27.29367170711145
 30
0.0
 10
44.56549239633936
 20
-27.70712622903499
 30
0.0
 10
44.56549239633936
 20
-27.70712622903499
 30
0.0
 10
44.58736471544911
 20
-28.42820624594457
 30
0.0
 10
44.58736471544911
 20
-28.42820624594457
 30
0.0
 10
44.67062029251602
 20
-28.75840788228238
 30
0.0
 10
44.67308972619392
 20
-29.08684390718399
 30
0.0
 10
44.56549239633936
 20
-29.4131590451775
 30
0.0
  0
SPLINE
  5
91
330
7D
100
AcDbEntity
  8
Camada 1
 62
    28
420
  1184269
370
    15
100
AcDbSpline
210
0.0
220
0.0
230
1.0
 70
     8
 71
     3
 72
    20
 73
    16
 74
     0
 42
0.0000000001
 43
0.0000000001
 40
0.0
 40
0.0
 40
0.0
 40
0.0
 40
1.0
 40
1.0
 40
1.0
 40
2.0
 40
2.0
 40
2.0
 40
3.0
 40
3.0
 40
3.0
 40
4.0
 40
4.0
 40
4.0
 40
5.0
 40
5.0
 40
5.0
 40
5.0
 10
44.55632050248009
 20
-45.28604353726233
 30
0.0
 10
44.63604822102537
 20
-45.52522736576835
 30
0.0
 10
44.63463721219087
 20
-45.75664896350915
 30
0.0
 10
44.57113710454752
 20
-46.19091670682914
 30
0.0
 10
44.57113710454752
 20
-46.19091670682914
 30
0.0
 10
44.57113710454752
 20
-46.9155225636494
 30
0.0
 10
44.57113710454752
 20
-46.9155225636494
 30
0.0
 10
44.66391783233465
 20
-47.18539734826346
 30
0.0
 10
44.70131192149428
 20
-47.69586898882866
 30
0.0
 10
44.58207326410255
 20
-48.23561855805679
 30
0.0
 10
44.58207326410255
 20
-48.23561855805679
 30
0.0
 10
44.58207326410255
 20
-48.95634329949444
 30
0.0
 10
44.58207326410255
 20
-48.95634329949444
 30
0.0
 10
44.67167871735943
 20
-49.35674683078676
 30
0.0
 10
44.67485399188968
 20
-49.63332340271197
 30
0.0
 10
44.55632050248009
 20
-49.95399988832923
 30
0.0
  0
SPLINE
  5
92
330
7D
100
AcDbEntity
  8
Camada 1
 62
    28
420
  1184269
370
    15
100
AcDbSpline
210
0.0
220
0.0
230
1.0
 70
    11
 71
     3
 72
    41
 73
    37
 74
     0
 42
0.0000000001
 43
0.0000000001
 40
0.0
 40
0.0
 40
0.0
 40
0.0
 40
1.0
 40
1.0
 40
1.0
 40
2.0
 40
2.0
 40
2.0
 40
3.0
 40
3.0
 40
3.0
 40
4.0
 40
4.0
 40
4.0
 40
5.0
 40
5.0
 40
5.0
 40
6.0
 40
6.0
 40
6.0
 40
7.0
 40
7.0
 40
7.0
 40
8.0
 40
8.0
 40
8.0
 40
9.0
 40
9.0
 40
9.0
 40
10.0
 40
10.0
 40
10.0
 40
11.0
 40
11.0
 40
11.0
 40
12.0
 40
12.0
 40
12.0
 40
12.0
 10
47.80152306951107
 20
-66.52996646489438
 30
0.0
 10
47.80152306951107
 20
-66.52996646489438
 30
0.0
 10
44.42685085351548
 20
-66.5197361461917
 30
0.0
 10
44.42685085351548
 20
-66.5197361461917
 30
0.0
 10
44.42685085351548
 20
-66.5197361461917
 30
0.0
 10
41.53266247134854
 20
-65.16930447114818
 30
0.0
 10
41.53266247134854
 20
-65.16930447114818
 30
0.0
 10
41.45152374396878
 20
-65.13155645225706
 30
0.0
 10
41.39966496386259
 20
-65.05006379514582
 30
0.0
 10
41.39966496386259
 20
-64.96010643076807
 30
0.0
 10
41.39966496386259
 20
-64.96010643076807
 30
0.0
 10
41.39966496386259
 20
-62.76159452352827
 30
0.0
 10
41.39966496386259
 20
-62.76159452352827
 30
0.0
 10
41.38132050327384
 20
-62.5809719353098
 30
0.0
 10
41.44658420374276
 20
-62.45891058737889
 30
0.0
 10
41.59933718065193
 20
-62.39858642713599
 30
0.0
 10
41.59933718065193
 20
-62.39858642713599
 30
0.0
 10
55.181280948831
 20
-62.38835610843331
 30
0.0
 10
55.181280948831
 20
-62.38835610843331
 30
0.0
 10
55.41870051164124
 20
-62.37601028578422
 30
0.0
 10
55.54605331091903
 20
-62.4754928008825
 30
0.0
 10
55.56439844437799
 20
-62.69068746059161
 30
0.0
 10
55.56439844437799
 20
-62.69068746059161
 30
0.0
 10
55.56086991298646
 20
-63.2459587998693
 30
0.0
 10
55.56086991298646
 20
-63.2459587998693
 30
0.0
 10
55.52100639014893
 20
-63.41670365337615
 30
0.0
 10
55.43104768003076
 20
-63.51230505309183
 30
0.0
 10
55.28923220841705
 20
-63.53135535453293
 30
0.0
 10
55.28923220841705
 20
-63.53135535453293
 30
0.0
 10
47.95498188727259
 20
-63.53312096596912
 30
0.0
 10
47.95498188727259
 20
-63.53312096596912
 30
0.0
 10
47.8477371414091
 20
-63.53100277054186
 30
0.0
 10
47.79623161816419
 20
-63.580744028091
 30
0.0
 10
47.79552645018205
 20
-63.67881620722501
 30
0.0
 10
47.79552645018205
 20
-63.67881620722501
 30
0.0
 10
47.80152306951107
 20
-66.52996646489438
 30
0.0
 10
47.80152306951107
 20
-66.52996646489438
 30
0.0
  0
SPLINE
  5
93
330
7D
100
AcDbEntity
  8
Camada 1
 62
    28
420
  1184269
370
    15
100
AcDbSpline
210
0.0
220
0.0
230
1.0
 70
    24
 71
     3
 72
     8
 73
     4
 74
     0
 42
0.0000000001
 43
0.0000000001
 40
0.0
 40
0.0
 40
0.0
 40
0.0
 40
1.0
 40
1.0
 40
1.0
 40
1.0
 10
50.81671504763604
 20
-70.19638780322473
 30
0.0
 10
50.81671504763604
 20
-70.19638780322473
 30
0.0
 10
53.48265643372221
 20
-70.19638780322473
 30
0.0
 10
53.48265643372221
 20
-70.19638780322473
 30
0.0
  0
SPLINE
  5
94
330
7D
100
AcDbEntity
  8
Camada 1
 62
    28
420
  1184269
370
    15
100
AcDbSpline
210
0.0
220
0.0
230
1.0
 70
     9
 71
     3
 72
   200
 73
   196
 74
     0
 42
0.0000000001
 43
0.0000000001
 40
0.0
 40
0.0
 40
0.0
 40
0.0
 40
1.0
 40
1.0
 40
1.0
 40
2.0
 40
2.0
 40
2.0
 40
3.0
 40
3.0
 40
3.0
 40
4.0
 40
4.0
 40
4.0
 40
5.0
 40
5.0
 40
5.0
 40
6.0
 40
6.0
 40
6.0
 40
7.0
 40
7.0
 40
7.0
 40
8.0
 40
8.0
 40
8.0
 40
9.0
 40
9.0
 40
9.0
 40
10.0
 40
10.0
 40
10.0
 40
11.0
 40
11.0
 40
11.0
 40
12.0
 40
12.0
 40
12.0
 40
13.0
 40
13.0
 40
13.0
 40
14.0
 40
14.0
 40
14.0
 40
15.0
 40
15.0
 40
15.0
 40
16.0
 40
16.0
 40
16.0
 40
17.0
 40
17.0
 40
17.0
 40
18.0
 40
18.0
 40
18.0
 40
19.0
 40
19.0
 40
19.0
 40
20.0
 40
20.0
 40
20.0
 40
21.0
 40
21.0
 40
21.0
 40
22.0
 40
22.0
 40
22.0
 40
23.0
 40
23.0
 40
23.0
 40
24.0
 40
24.0
 40
24.0
 40
25.0
 40
25.0
 40
25.0
 40
26.0
 40
26.0
 40
26.0
 40
27.0
 40
27.0
 40
27.0
 40
28.0
 40
28.0
 40
28.0
 40
29.0
 40
29.0
 40
29.0
 40
30.0
 40
30.0
 40
30.0
 40
31.0
 40
31.0
 40
31.0
 40
32.0
 40
32.0
 40
32.0
 40
33.0
 40
33.0
 40
33.0
 40
34.0
 40
34.0
 40
34.0
 40
35.0
 40
35.0
 40
35.0
 40
36.0
 40
36.0
 40
36.0
 40
37.0
 40
37.0
 40
37.0
 40
38.0
 40
38.0
 40
38.0
 40
39.0
 40
39.0
 40
39.0
 40
40.0
 40
40.0
 40
40.0
 40
41.0
 40
41.0
 40
41.0
 40
42.0
 40
42.0
 40
42.0
 40
43.0
 40
43.0
 40
43.0
 40
44.0
 40
44.0
 40
44.0
 40
45.0
 40
45.0
 40
45.0
 40
46.0
 40
46.0
 40
46.0
 40
47.0
 40
47.0
 40
47.0
 40
48.0
 40
48.0
 40
48.0
 40
49.0
 40
49.0
 40
49.0
 40
50.0
 40
50.0
 40
50.0
 40
51.0
 40
51.0
 40
51.0
 40
52.0
 40
52.0
 40
52.0
 40
53.0
 40
53.0
 40
53.0
 40
54.0
 40
54.0
 40
54.0
 40
55.0
 40
55.0
 40
55.0
 40
56.0
 40
56.0
 40
56.0
 40
57.0
 40
57.0
 40
57.0
 40
58.0
 40
58.0
 40
58.0
 40
59.0
 40
59.0
 40
59.0
 40
60.0
 40
60.0
 40
60.0
 40
61.0
 40
61.0
 40
61.0
 40
62.0
 40
62.0
 40
62.0
 40
63.0
 40
63.0
 40
63.0
 40
64.0
 40
64.0
 40
64.0
 40
65.0
 40
65.0
 40
65.0
 40
65.0
 10
50.45546987119911
 20
-75.74558073905262
 30
0.0
 10
50.45370695124377
 20
-75.7932038011745
 30
0.0
 10
50.47522668636276
 20
-75.83942191029381
 30
0.0
 10
50.51156167780876
 20
-75.8852793609795
 30
0.0
 10
50.51156167780876
 20
-75.8852793609795
 30
0.0
 10
50.74827607263687
 20
-76.12446588096635
 30
0.0
 10
50.74827607263687
 20
-76.12446588096635
 30
0.0
 10
50.80013417987284
 20
-76.14986269424668
 30
0.0
 10
50.84317365011084
 20
-76.15903526097615
 30
0.0
 10
50.8812729072526
 20
-76.1597404289583
 30
0.0
 10
50.8812729072526
 20
-76.1597404289583
 30
0.0
 10
53.41880374208778
 20
-76.1597404289583
 30
0.0
 10
53.41880374208778
 20
-76.1597404289583
 30
0.0
 10
53.48971215076485
 20
-76.15268874913692
 30
0.0
 10
53.55285967441714
 20
-76.12622610944085
 30
0.0
 10
53.60789238331316
 20
-76.08142371924751
 30
0.0
 10
53.60789238331316
 20
-76.08142371924751
 30
0.0
 10
53.78498778588052
 20
-75.90362449443844
 30
0.0
 10
53.78498778588052
 20
-75.90362449443844
 30
0.0
 10
53.83578679540287
 20
-75.84294775020449
 30
0.0
 10
53.85377934487075
 20
-75.78368134193479
 30
0.0
 10
53.85342541513925
 20
-75.72512010164725
 30
0.0
 10
53.85342541513925
 20
-75.72512010164725
 30
0.0
 10
53.85342541513925
 20
-74.86152079088224
 30
0.0
 10
53.85342541513925
 20
-74.86152079088224
 30
0.0
 10
53.85342541513925
 20
-74.86152079088224
 30
0.0
 10
54.02840396801977
 20
-74.86152079088224
 30
0.0
 10
54.02840396801977
 20
-74.86152079088224
 30
0.0
 10
54.35578224094818
 20
-74.7916714799188
 30
0.0
 10
54.45420700407326
 20
-74.59870306905125
 30
0.0
 10
54.40340664881049
 20
-74.27308771607818
 30
0.0
 10
54.4146960652268
 20
-73.92207554982478
 30
0.0
 10
54.58438182102002
 20
-73.68500453378434
 30
0.0
 10
54.91916704924172
 20
-73.56576654926282
 30
0.0
 10
54.91916704924172
 20
-73.56576654926282
 30
0.0
 10
59.81783848432686
 20
-73.24403231167235
 30
0.0
 10
59.81783848432686
 20
-73.24403231167235
 30
0.0
 10
59.81783848432686
 20
-73.24403231167235
 30
0.0
 10
61.74506527098834
 20
-71.64771502081167
 30
0.0
 10
61.74506527098834
 20
-71.64771502081167
 30
0.0
 10
61.92039640785993
 20
-71.55740507244286
 30
0.0
 10
61.99588975416131
 20
-71.42899452119187
 30
0.0
 10
62.01599780757561
 20
-71.28011794957382
 30
0.0
 10
62.01599780757561
 20
-71.28011794957382
 30
0.0
 10
62.01599780757561
 20
-70.64124114071933
 30
0.0
 10
62.01599780757561
 20
-70.64124114071933
 30
0.0
 10
61.96308060262601
 20
-70.38900093862038
 30
0.0
 10
61.80327392728482
 20
-70.23695380256356
 30
0.0
 10
61.52140321253188
 20
-70.19850330717115
 30
0.0
 10
61.52140321253188
 20
-70.19850330717115
 30
0.0
 10
53.48265643372221
 20
-70.19638780322473
 30
0.0
 10
53.48265643372221
 20
-70.19638780322473
 30
0.0
 10
53.54862597504348
 20
-70.14135240284787
 30
0.0
 10
53.57931827689195
 20
-70.07291342784871
 30
0.0
 10
53.57790659518725
 20
-69.99212593871959
 30
0.0
 10
53.57790659518725
 20
-69.99212593871959
 30
0.0
 10
53.57790659518725
 20
-68.07654518968679
 30
0.0
 10
53.57790659518725
 20
-68.07654518968679
 30
0.0
 10
53.74124314766039
 20
-68.06102341963722
 30
0.0
 10
53.83966791078546
 20
-67.97882559454383
 30
0.0
 10
53.85342541513925
 20
-67.80913849301019
 30
0.0
 10
53.85342541513925
 20
-67.80913849301019
 30
0.0
 10
53.85342541513925
 20
-67.25845343709725
 30
0.0
 10
53.85342541513925
 20
-67.25845343709725
 30
0.0
 10
53.81955985737117
 20
-67.06125132685603
 30
0.0
 10
53.71196252751661
 20
-67.00762895392428
 30
0.0
 10
53.58566748021203
 20
-66.99069415642959
 30
0.0
 10
53.58566748021203
 20
-66.99069415642959
 30
0.0
 10
50.7239343198489
 20
-66.99069415642959
 30
0.0
 10
50.7239343198489
 20
-66.99069415642959
 30
0.0
 10
50.56377371477623
 20
-67.00163233459526
 30
0.0
 10
50.46852355331119
 20
-67.08418005219886
 30
0.0
 10
50.45652896891274
 20
-67.25845343709725
 30
0.0
 10
50.45652896891274
 20
-67.25845343709725
 30
0.0
 10
50.45652896891274
 20
-67.80913849301019
 30
0.0
 10
50.45652896891274
 20
-67.80913849301019
 30
0.0
 10
50.48157588968285
 20
-67.99187927665592
 30
0.0
 10
50.57717863513896
 20
-68.0701959863667
 30
0.0
 10
50.72217005415314
 20
-68.07654518968679
 30
0.0
 10
50.72217005415314
 20
-68.07654518968679
 30
0.0
 10
50.72217005415314
 20
-69.99212593871959
 30
0.0
 10
50.72217005415314
 20
-69.99212593871959
 30
0.0
 10
50.73134262088261
 20
-70.07749971121345
 30
0.0
 10
50.75885897533062
 20
-70.14875935814116
 30
0.0
 10
50.81671504763604
 20
-70.19638780322473
 30
0.0
 10
50.81671504763604
 20
-70.19638780322473
 30
0.0
 10
48.31269853231798
 20
-70.19462219178855
 30
0.0
 10
48.31269853231798
 20
-70.19462219178855
 30
0.0
 10
47.84068142436646
 20
-70.15828720034256
 30
0.0
 10
47.80787361857157
 20
-69.68450582669527
 30
0.0
 10
47.80787361857157
 20
-69.68450582669527
 30
0.0
 10
47.80787361857157
 20
-69.68450582669527
 30
0.0
 10
47.80152306951107
 20
-66.6481466974427
 30
0.0
 10
47.80152306951107
 20
-66.6481466974427
 30
0.0
 10
47.80152306951107
 20
-66.6481466974427
 30
0.0
 10
41.39507868049817
 20
-66.6481466974427
 30
0.0
 10
41.39507868049817
 20
-66.6481466974427
 30
0.0
 10
41.39507868049817
 20
-66.6481466974427
 30
0.0
 10
41.3548625736699
 20
-70.60948704967637
 30
0.0
 10
41.3548625736699
 20
-70.60948704967637
 30
0.0
 10
41.3548625736699
 20
-70.60948704967637
 30
0.0
 10
40.04640958897456
 20
-70.60948704967637
 30
0.0
 10
40.04640958897456
 20
-70.60948704967637
 30
0.0
 10
40.04640958897456
 20
-70.60948704967637
 30
0.0
 10
40.04640958897456
 20
-68.92003644703748
 30
0.0
 10
40.04640958897456
 20
-68.92003644703748
 30
0.0
 10
40.00654572970225
 20
-68.65545311377029
 30
0.0
 10
39.8735485586511
 20
-68.52492436709204
 30
0.0
 10
39.65623738569025
 20
-68.51645965982555
 30
0.0
 10
39.65623738569025
 20
-68.51645965982555
 30
0.0
 10
37.05520711608193
 20
-68.51469404838936
 30
0.0
 10
37.05520711608193
 20
-68.51469404838936
 30
0.0
 10
36.87846497037618
 20
-68.54468252799612
 30
0.0
 10
36.79062378281474
 20
-68.63463989237385
 30
0.0
 10
36.78744850828481
 20
-68.78245332905702
 30
0.0
 10
36.78744850828481
 20
-68.78245332905702
 30
0.0
 10
36.78744850828481
 20
-71.18980800120501
 30
0.0
 10
36.78744850828481
 20
-71.18980800120501
 30
0.0
 10
36.78744850828481
 20
-71.18980800120501
 30
0.0
 10
35.08847073631442
 20
-71.18980800120501
 30
0.0
 10
35.08847073631442
 20
-71.18980800120501
 30
0.0
 10
35.02355961983689
 20
-71.18134060245767
 30
0.0
 10
34.9604127690545
 20
-71.20497718726351
 30
0.0
 10
34.8997346790801
 20
-71.26777481840557
 30
0.0
 10
34.8997346790801
 20
-71.26777481840557
 30
0.0
 10
34.76991244612442
 20
-71.3968905376387
 30
0.0
 10
34.76991244612442
 20
-71.3968905376387
 30
0.0
 10
34.71523164834926
 20
-71.45686211389052
 30
0.0
 10
34.69053731157022
 20
-71.51965436207089
 30
0.0
 10
34.69300674524812
 20
-71.5849227726313
 30
0.0
 10
34.69300674524812
 20
-71.5849227726313
 30
0.0
 10
34.69300674524812
 20
-74.1122179058021
 30
0.0
 10
34.69300674524812
 20
-74.1122179058021
 30
0.0
 10
34.70605975448999
 20
-74.20217796166068
 30
0.0
 10
34.72899049844347
 20
-74.26497559280275
 30
0.0
 10
34.76426773791626
 20
-74.29425352146569
 30
0.0
 10
34.76426773791626
 20
-74.29425352146569
 30
0.0
 10
34.90890724580958
 20
-74.45088694088724
 30
0.0
 10
34.90890724580958
 20
-74.45088694088724
 30
0.0
 10
34.97734554793853
 20
-74.49286865915204
 30
0.0
 10
35.03837622190399
 20
-74.51756030445022
 30
0.0
 10
35.08847073631442
 20
-74.51756030445022
 30
0.0
 10
35.08847073631442
 20
-74.51756030445022
 30
0.0
 10
36.78744850828481
 20
-74.51756030445022
 30
0.0
 10
36.78744850828481
 20
-74.51756030445022
 30
0.0
 10
36.78744850828481
 20
-74.51756030445022
 30
0.0
 10
36.78744850828481
 20
-76.96442860692553
 30
0.0
 10
36.78744850828481
 20
-76.96442860692553
 30
0.0
 10
36.80261769434298
 20
-77.11859124692876
 30
0.0
 10
36.87387935988133
 20
-77.22372048884584
 30
0.0
 10
37.05520711608193
 20
-77.23183261212127
 30
0.0
 10
37.05520711608193
 20
-77.23183261212127
 30
0.0
 10
39.64142078362284
 20
-77.23183261212127
 30
0.0
 10
39.64142078362284
 20
-77.23183261212127
 30
0.0
 10
39.88060427569374
 20
-77.19902346058595
 30
0.0
 10
40.02312626103001
 20
-77.0713180773171
 30
0.0
 10
40.04640958897456
 20
-76.82684548894505
 30
0.0
 10
40.04640958897456
 20
-76.82684548894505
 30
0.0
 10
40.04640958897456
 20
-75.09788125597886
 30
0.0
 10
40.04640958897456
 20
-75.09788125597886
 30
0.0
 10
40.04640958897456
 20
-75.09788125597886
 30
0.0
 10
41.54924266624151
 20
-75.09788125597886
 30
0.0
 10
41.54924266624151
 20
-75.09788125597886
 30
0.0
 10
41.62473735828331
 20
-75.09470530857839
 30
0.0
 10
41.67977074004955
 20
-75.07530511462708
 30
0.0
 10
41.71504865239255
 20
-75.04002518367345
 30
0.0
 10
41.92283433819806
 20
-75.28414787953527
 30
0.0
 10
42.22481243349476
 20
-75.44254691039302
 30
0.0
 10
42.65026221268697
 20
-75.48910952906085
 30
0.0
 10
42.65026221268697
 20
-75.48910952906085
 30
0.0
 10
46.44650376536239
 20
-75.50075287520866
 30
0.0
 10
46.44650376536239
 20
-75.50075287520866
 30
0.0
 10
46.8857117217786
 20
-75.46159721183411
 30
0.0
 10
47.23637264978134
 20
-75.31801209156293
 30
0.0
 10
47.47026502694048
 20
-75.03614406829085
 30
0.0
 10
47.86819777881446
 20
-74.60893069627307
 30
0.0
 10
48.30634798325747
 20
-74.27555849549651
 30
0.0
 10
48.80940863130811
 20
-74.09140737588652
 30
0.0
 10
49.17241807344081
 20
-73.98345746204089
 30
0.0
 10
49.53789560351097
 20
-74.08328986964939
 30
0.0
 10
49.77531516632122
 20
-74.49957044646318
 30
0.0
 10
49.80000950310026
 20
-74.5630678626257
 30
0.0
 10
49.84798649495363
 20
-74.60328935241598
 30
0.0
 10
49.90972368264229
 20
-74.63009650166059
 30
0.0
 10
49.90972368264229
 20
-74.63009650166059
 30
0.0
 10
50.10516152718711
 20
-74.7955525953014
 30
0.0
 10
50.10516152718711
 20
-74.7955525953014
 30
0.0
 10
50.16548703317043
 20
-74.8509378881885
 30
0.0
 10
50.22440085744905
 20
-74.87703986945096
 30
0.0
 10
50.28119783204084
 20
-74.86152079088224
 30
0.0
 10
50.28119783204084
 20
-74.86152079088224
 30
0.0
 10
50.45582380093061
 20
-74.86152079088224
 30
0.0
 10
50.45582380093061
 20
-74.86152079088224
 30
0.0
 10
50.45582380093061
 20
-74.86152079088224
 30
0.0
 10
50.45546987119911
 20
-75.74558073905262
 30
0.0
 10
50.45546987119911
 20
-75.74558073905262
 30
0.0
  0
SPLINE
  5
95
330
7D
100
AcDbEntity
  8
Camada 1
 62
    28
420
  1184269
370
    15
100
AcDbSpline
210
0.0
220
0.0
230
1.0
 70
     8
 71
     3
 72
     8
 73
     4
 74
     0
 42
0.0000000001
 43
0.0000000001
 40
0.0
 40
0.0
 40
0.0
 40
0.0
 40
1.0
 40
1.0
 40
1.0
 40
1.0
 10
47.79552645018205
 20
-63.67881620722501
 30
0.0
 10
48.2770673631137
 20
-64.08133793394458
 30
0.0
 10
48.2770673631137
 20
-64.85709538427826
 30
0.0
 10
47.80152306951107
 20
-65.28783728768755
 30
0.0
  0
SPLINE
  5
96
330
7D
100
AcDbEntity
  8
Camada 1
 62
    28
420
  1184269
370
    15
100
AcDbSpline
210
0.0
220
0.0
230
1.0
 70
     8
 71
     3
 72
     8
 73
     4
 74
     0
 42
0.0000000001
 43
0.0000000001
 40
0.0
 40
0.0
 40
0.0
 40
0.0
 40
1.0
 40
1.0
 40
1.0
 40
1.0
 10
42.19623698133313
 20
-65.47904277859977
 30
0.0
 10
42.19623698133313
 20
-65.47904277859977
 30
0.0
 10
41.95035136551596
 20
-66.11227824359717
 30
0.0
 10
41.92424534703255
 20
-66.6396819901762
 30
0.0
  0
SPLINE
  5
97
330
7D
100
AcDbEntity
  8
Camada 1
 62
    28
420
  1184269
370
    15
100
AcDbSpline
210
0.0
220
0.0
230
1.0
 70
    24
 71
     3
 72
     8
 73
     4
 74
     0
 42
0.0000000001
 43
0.0000000001
 40
0.0
 40
0.0
 40
0.0
 40
0.0
 40
1.0
 40
1.0
 40
1.0
 40
1.0
 10
47.13159733759576
 20
-66.5197361461917
 30
0.0
 10
47.13159733759576
 20
-66.5197361461917
 30
0.0
 10
47.17957567518956
 20
-66.6481466974427
 30
0.0
 10
47.17957567518956
 20
-66.6481466974427
 30
0.0
  0
SPLINE
  5
98
330
7D
100
AcDbEntity
  8
Camada 1
 62
    28
420
  1184269
370
    15
100
AcDbSpline
210
0.0
220
0.0
230
1.0
 70
    24
 71
     3
 72
     8
 73
     4
 74
     0
 42
0.0000000001
 43
0.0000000001
 40
0.0
 40
0.0
 40
0.0
 40
0.0
 40
1.0
 40
1.0
 40
1.0
 40
1.0
 10
50.45582380093061
 20
-74.86152079088224
 30
0.0
 10
50.45582380093061
 20
-74.86152079088224
 30
0.0
 10
53.85342541513925
 20
-74.86152079088224
 30
0.0
 10
53.85342541513925
 20
-74.86152079088224
 30
0.0
  0
SPLINE
  5
99
330
7D
100
AcDbEntity
  8
Camada 1
 62
    28
420
  1184269
370
    15
100
AcDbSpline
210
0.0
220
0.0
230
1.0
 70
    24
 71
     3
 72
     8
 73
     4
 74
     0
 42
0.0000000001
 43
0.0000000001
 40
0.0
 40
0.0
 40
0.0
 40
0.0
 40
1.0
 40
1.0
 40
1.0
 40
1.0
 10
36.78744850828481
 20
-71.18980800120501
 30
0.0
 10
36.78744850828481
 20
-71.18980800120501
 30
0.0
 10
36.78744850828481
 20
-74.51756030445022
 30
0.0
 10
36.78744850828481
 20
-74.51756030445022
 30
0.0
  0
SPLINE
  5
9A
330
7D
100
AcDbEntity
  8
Camada 1
 62
    28
420
  1184269
370
    15
100
AcDbSpline
210
0.0
220
0.0
230
1.0
 70
     8
 71
     3
 72
    23
 73
    19
 74
     0
 42
0.0000000001
 43
0.0000000001
 40
0.0
 40
0.0
 40
0.0
 40
0.0
 40
1.0
 40
1.0
 40
1.0
 40
2.0
 40
2.0
 40
2.0
 40
3.0
 40
3.0
 40
3.0
 40
4.0
 40
4.0
 40
4.0
 40
5.0
 40
5.0
 40
5.0
 40
6.0
 40
6.0
 40
6.0
 40
6.0
 10
41.71504865239255
 20
-75.04002518367345
 30
0.0
 10
41.71504865239255
 20
-75.04002518367345
 30
0.0
 10
41.67165659816349
 20
-71.55846013293523
 30
0.0
 10
41.67165659816349
 20
-71.55846013293523
 30
0.0
 10
41.7094039441844
 20
-70.91922804860882
 30
0.0
 10
41.90378470962686
 20
-70.46061586102002
 30
0.0
 10
42.44670955338524
 20
-70.42992759639282
 30
0.0
 10
42.44670955338524
 20
-70.42992759639282
 30
0.0
 10
46.48707245618204
 20
-70.40382023216865
 30
0.0
 10
46.48707245618204
 20
-70.40382023216865
 30
0.0
 10
47.08291517776024
 20
-70.51177014601427
 30
0.0
 10
47.41875950369557
 20
-70.83632505553329
 30
0.0
 10
47.52318088614966
 20
-71.35384837591987
 30
0.0
 10
47.52318088614966
 20
-71.35384837591987
 30
0.0
 10
47.54717005494657
 20
-73.89490774214657
 30
0.0
 10
47.54717005494657
 20
-73.89490774214657
 30
0.0
 10
47.59091469316669
 20
-74.75780188492944
 30
0.0
 10
47.2420180308597
 20
-75.30742918886918
 30
0.0
 10
46.44650376536239
 20
-75.50075287520866
 30
0.0
  0
SPLINE
  5
9B
330
7D
100
AcDbEntity
  8
Camada 1
 62
    28
420
  1184269
370
    15
100
AcDbSpline
210
0.0
220
0.0
230
1.0
 70
     8
 71
     3
 72
     8
 73
     4
 74
     0
 42
0.0000000001
 43
0.0000000001
 40
0.0
 40
0.0
 40
0.0
 40
0.0
 40
1.0
 40
1.0
 40
1.0
 40
1.0
 10
48.80940863130811
 20
-74.09140737588652
 30
0.0
 10
48.80940863130811
 20
-74.09140737588652
 30
0.0
 10
52.20560125529324
 20
-73.73792443021478
 30
0.0
 10
54.91916704924172
 20
-73.56576654926282
 30
0.0
  0
SPLINE
  5
9C
330
7D
100
AcDbEntity
  8
Camada 1
 62
    28
420
  1184269
370
    15
100
AcDbSpline
210
0.0
220
0.0
230
1.0
 70
    24
 71
     3
 72
     8
 73
     4
 74
     0
 42
0.0000000001
 43
0.0000000001
 40
0.0
 40
0.0
 40
0.0
 40
0.0
 40
1.0
 40
1.0
 40
1.0
 40
1.0
 10
40.04640958897456
 20
-70.60948704967637
 30
0.0
 10
40.04640958897456
 20
-70.60948704967637
 30
0.0
 10
40.04640958897456
 20
-75.09788125597886
 30
0.0
 10
40.04640958897456
 20
-75.09788125597886
 30
0.0
  0
SPLINE
  5
9D
330
7D
100
AcDbEntity
  8
Camada 1
 62
    28
420
  1184269
370
    15
100
AcDbSpline
210
0.0
220
0.0
230
1.0
 70
     8
 71
     3
 72
    14
 73
    10
 74
     0
 42
0.0000000001
 43
0.0000000001
 40
0.0
 40
0.0
 40
0.0
 40
0.0
 40
1.0
 40
1.0
 40
1.0
 40
2.0
 40
2.0
 40
2.0
 40
3.0
 40
3.0
 40
3.0
 40
3.0
 10
40.04640958897456
 20
-71.28505950841047
 30
0.0
 10
40.04640958897456
 20
-71.28505950841047
 30
0.0
 10
41.23738750910308
 20
-71.28505950841047
 30
0.0
 10
41.23738750910308
 20
-71.28505950841047
 30
0.0
 10
41.38767037946414
 20
-71.64101323350052
 30
0.0
 10
41.40037080471493
 20
-72.01813276397807
 30
0.0
 10
41.23738750910308
 20
-72.43229245388376
 30
0.0
 10
41.23738750910308
 20
-72.43229245388376
 30
0.0
 10
40.04640958897456
 20
-72.43229245388376
 30
0.0
 10
40.04640958897456
 20
-72.43229245388376
 30
0.0
  0
SPLINE
  5
9E
330
7D
100
AcDbEntity
  8
Camada 1
 62
    28
420
  1184269
370
    15
100
AcDbSpline
210
0.0
220
0.0
230
1.0
 70
     8
 71
     3
 72
    14
 73
    10
 74
     0
 42
0.0000000001
 43
0.0000000001
 40
0.0
 40
0.0
 40
0.0
 40
0.0
 40
1.0
 40
1.0
 40
1.0
 40
2.0
 40
2.0
 40
2.0
 40
3.0
 40
3.0
 40
3.0
 40
3.0
 10
40.04640958897456
 20
-73.25673610127421
 30
0.0
 10
40.04640958897456
 20
-73.25673610127421
 30
0.0
 10
41.23738750910308
 20
-73.25673610127421
 30
0.0
 10
41.23738750910308
 20
-73.25673610127421
 30
0.0
 10
41.44446802692614
 20
-73.57952539935704
 30
0.0
 10
41.42894558400636
 20
-73.96229165665338
 30
0.0
 10
41.23738750910308
 20
-74.39832231992871
 30
0.0
 10
41.23738750910308
 20
-74.39832231992871
 30
0.0
 10
40.04640958897456
 20
-74.39832231992871
 30
0.0
 10
40.04640958897456
 20
-74.39832231992871
 30
0.0
  0
SPLINE
  5
9F
330
7D
100
AcDbEntity
  8
Camada 1
 62
    28
420
  1184269
370
    15
100
AcDbSpline
210
0.0
220
0.0
230
1.0
 70
     8
 71
     3
 72
    11
 73
     7
 74
     0
 42
0.0000000001
 43
0.0000000001
 40
0.0
 40
0.0
 40
0.0
 40
0.0
 40
1.0
 40
1.0
 40
1.0
 40
2.0
 40
2.0
 40
2.0
 40
2.0
 10
41.39966496386259
 20
-75.09788125597886
 30
0.0
 10
41.39966496386259
 20
-75.09788125597886
 30
0.0
 10
41.3548625736699
 20
-70.60948704967637
 30
0.0
 10
41.3548625736699
 20
-70.60948704967637
 30
0.0
 10
41.3548625736699
 20
-70.60948704967637
 30
0.0
 10
41.23738750910308
 20
-71.28505950841047
 30
0.0
 10
41.23738750910308
 20
-71.28505950841047
 30
0.0
  0
SPLINE
  5
A0
330
7D
100
AcDbEntity
  8
Camada 1
 62
    28
420
  1184269
370
    15
100
AcDbSpline
210
0.0
220
0.0
230
1.0
 70
    24
 71
     3
 72
     8
 73
     4
 74
     0
 42
0.0000000001
 43
0.0000000001
 40
0.0
 40
0.0
 40
0.0
 40
0.0
 40
1.0
 40
1.0
 40
1.0
 40
1.0
 10
41.23738750910308
 20
-74.39832231992871
 30
0.0
 10
41.23738750910308
 20
-74.39832231992871
 30
0.0
 10
41.3548625736699
 20
-75.09788125597886
 30
0.0
 10
41.3548625736699
 20
-75.09788125597886
 30
0.0
  0
SPLINE
  5
A1
330
7D
100
AcDbEntity
  8
Camada 1
 62
    28
420
  1184269
370
    15
100
AcDbSpline
210
0.0
220
0.0
230
1.0
 70
    24
 71
     3
 72
     8
 73
     4
 74
     0
 42
0.0000000001
 43
0.0000000001
 40
0.0
 40
0.0
 40
0.0
 40
0.0
 40
1.0
 40
1.0
 40
1.0
 40
1.0
 10
41.23738750910308
 20
-73.25673610127421
 30
0.0
 10
41.23738750910308
 20
-73.25673610127421
 30
0.0
 10
41.37955691044829
 20
-73.10927524858214
 30
0.0
 10
41.37955691044829
 20
-73.10927524858214
 30
0.0
  0
SPLINE
  5
A2
330
7D
100
AcDbEntity
  8
Camada 1
 62
    28
420
  1184269
370
    15
100
AcDbSpline
210
0.0
220
0.0
230
1.0
 70
    24
 71
     3
 72
     8
 73
     4
 74
     0
 42
0.0000000001
 43
0.0000000001
 40
0.0
 40
0.0
 40
0.0
 40
0.0
 40
1.0
 40
1.0
 40
1.0
 40
1.0
 10
41.23738750910308
 20
-72.43229245388376
 30
0.0
 10
41.23738750910308
 20
-72.43229245388376
 30
0.0
 10
41.37426478623121
 20
-72.55223560638741
 30
0.0
 10
41.37426478623121
 20
-72.55223560638741
 30
0.0
  0
SPLINE
  5
A3
330
7D
100
AcDbEntity
  8
Camada 1
 62
    28
420
  1184269
370
    15
100
AcDbSpline
210
0.0
220
0.0
230
1.0
 70
    24
 71
     3
 72
     8
 73
     4
 74
     0
 42
0.0000000001
 43
0.0000000001
 40
0.0
 40
0.0
 40
0.0
 40
0.0
 40
1.0
 40
1.0
 40
1.0
 40
1.0
 10
50.72217005415314
 20
-68.07654518968679
 30
0.0
 10
50.72217005415314
 20
-68.07654518968679
 30
0.0
 10
53.57790659518725
 20
-68.07654518968679
 30
0.0
 10
53.57790659518725
 20
-68.07654518968679
 30
0.0
  0
LWPOLYLINE
  5
A4
330
7D
100
AcDbEntity
  8
Camada 1
100
AcDbPolyline
 90
        4
 70
     1
 43
0.0
 10
34.64005522391771
 20
-77.28471482781985
 10
65.35994475108234
 20
-77.28471482781985
 10
65.35994475108234
 20
-22.7152851471802
 10
34.64005522391771
 20
-22.7152851471802
  0
ENDBLK
  5
80
330
7D
100
AcDbEntity
  8
0
100
AcDbBlockEnd
  0
ENDSEC
  0
SECTION
  2
ENTITIES
  0
INSERT
  5
7A
330
70
100
AcDbEntity
  8
Camada 1
100
AcDbBlockReference
  2
Block_0
 10
0.0
 20
0.0
 30
0.0
  0
ENDSEC
  0
SECTION
  2
OBJECTS
  0
DICTIONARY
  5
C
330
0
100
AcDbDictionary
281
     1
  3
ACAD_COLOR
350
63
  3
ACAD_DETAILVIEWSTYLE
350
6A
  3
ACAD_GROUP
350
D
  3
ACAD_LAYOUT
350
62
  3
ACAD_MATERIAL
350
10
  3
ACAD_MLEADERSTYLE
350
66
  3
ACAD_MLINESTYLE
350
5F
  3
ACAD_PLOTSETTINGS
350
61
  3
ACAD_PLOTSTYLENAME
350
E
  3
ACAD_SCALELIST
350
42
  3
ACAD_SECTIONVIEWSTYLE
350
68
  3
ACAD_TABLESTYLE
350
64
  3
ACAD_VISUALSTYLE
350
29
  3
ACDB_RECOMPOSE_DATA
350
AD
  3
AcDbVariableDictionary
350
A5
  0
DICTIONARY
  5
63
102
{ACAD_REACTORS
330
C
102
}
330
C
100
AcDbDictionary
281
     1
  0
DICTIONARY
  5
6A
102
{ACAD_REACTORS
330
C
102
}
330
C
100
AcDbDictionary
281
     1
  3
Imperial24
350
6B
  0
DICTIONARY
  5
D
102
{ACAD_REACTORS
330
C
102
}
330
C
100
AcDbDictionary
281
     1
  0
DICTIONARY
  5
62
102
{ACAD_REACTORS
330
C
102
}
330
C
100
AcDbDictionary
281
     1
  3
Layout1
350
6F
  3
Layout2
350
77
  3
Model
350
73
  0
DICTIONARY
  5
10
102
{ACAD_REACTORS
330
C
102
}
330
C
100
AcDbDictionary
281
     1
  3
ByBlock
350
19
  3
ByLayer
350
11
  3
Global
350
21
  0
DICTIONARY
  5
66
102
{ACAD_REACTORS
330
C
102
}
330
C
100
AcDbDictionary
281
     1
  3
Standard
350
67
  0
DICTIONARY
  5
5F
102
{ACAD_REACTORS
330
C
102
}
330
C
100
AcDbDictionary
281
     1
  3
Standard
350
60
  0
DICTIONARY
  5
61
102
{ACAD_REACTORS
330
C
102
}
330
C
100
AcDbDictionary
281
     1
  0
ACDBDICTIONARYWDFLT
  5
E
102
{ACAD_REACTORS
330
C
102
}
330
C
100
AcDbDictionary
281
     1
  3
Normal
350
F
100
AcDbDictionaryWithDefault
340
F
  0
DICTIONARY
  5
42
102
{ACAD_REACTORS
330
C
102
}
330
C
100
AcDbDictionary
281
     1
  3
A0
350
43
  3
A1
350
44
  3
A2
350
45
  3
A3
350
46
  3
A4
350
47
  3
A5
350
48
  3
A6
350
49
  3
A7
350
4A
  3
A8
350
4B
  3
A9
350
4C
  3
B0
350
4D
  3
B1
350
4E
  3
B2
350
4F
  3
B3
350
50
  3
B4
350
51
  3
B5
350
52
  3
B6
350
53
  0
DICTIONARY
  5
68
102
{ACAD_REACTORS
330
C
102
}
330
C
100
AcDbDictionary
281
     1
  3
Imperial24
350
69
  0
DICTIONARY
  5
64
102
{ACAD_REACTORS
330
C
102
}
330
C
100
AcDbDictionary
281
     1
  3
Standard
350
65
  0
DICTIONARY
  5
29
102
{ACAD_REACTORS
330
C
102
}
330
C
100
AcDbDictionary
281
     1
  3
2dWireframe
350
2F
  3
Basic
350
2E
  3
Brighten
350
35
  3
ColorChange
350
39
  3
Conceptual
350
32
  3
Dim
350
34
  3
EdgeColorOff
350
41
  3
Facepattern
350
38
  3
Flat
350
2A
  3
FlatWithEdges
350
2B
  3
Gouraud
350
2C
  3
GouraudWithEdges
350
2D
  3
Hidden
350
31
  3
JitterOff
350
3F
  3
Linepattern
350
37
  3
OverhangOff
350
40
  3
Realistic
350
33
  3
Shaded
350
3E
  3
Shaded with edges
350
3D
  3
Shades of Gray
350
3A
  3
Sketchy
350
3B
  3
Thicken
350
36
  3
Wireframe
350
30
  3
X-Ray
350
3C
  0
XRECORD
  5
AD
102
{ACAD_REACTORS
330
C
102
}
330
C
100
AcDbXrecord
280
     1
 90
        1
330
65
  0
DICTIONARY
  5
A5
102
{ACAD_REACTORS
330
C
102
}
330
C
100
AcDbDictionary
281
     1
  3
CANNOSCALE
350
AA
  3
CMLEADERSTYLE
350
A7
  3
CTABLESTYLE
350
A6
  3
CVIEWDETAILSTYLE
350
A8
  3
CVIEWSECTIONSTYLE
350
A9
  0
ACDBDETAILVIEWSTYLE
  5
6B
102
{ACAD_REACTORS
330
6A
102
}
330
6A
100
AcDbModelDocViewStyle
 70
     0
  3
Imperial24
290
     1
300
Imperial24
 90
        0
100
AcDbDetailViewStyle
 70
     0
 71
     0
 90
        3
 71
     1
340
55
 62
   256
 40
0.24
340
0
 62
   256
 40
0.24
300

 40
0.36
280
     3
 71
     2
340
5D
 90
       25
 62
   256
 71
     3
340
55
 62
   256
 40
0.24
 90
        1
 40
0.75
 90
        1
300
%<\AcVar ViewType \f "%tc1">% %<\AcVar ViewDetailId>%\PSCALE %<\AcVar ViewScale \f "%sn">%
 71
     4
340
5D
 90
       25
 62
   256
340
5D
 90
       25
 62
   256
280
     0
  0
LAYOUT
  5
6F
102
{ACAD_REACTORS
330
62
102
}
330
62
100
AcDbPlotSettings
  1

  2

  4

  6

 40
0.0
 41
0.0
 42
0.0
 43
0.0
 44
0.0
 45
0.0
 46
0.0
 47
0.0
 48
0.0
 49
0.0
140
0.0
141
0.0
142
1.0
143
1.0
 70
   688
 72
     0
 73
     0
 74
     5
  7

 75
    16
147
1.0
 76
     0
 77
     2
 78
   300
148
0.0
149
0.0
100
AcDbLayout
  1
Layout1
 70
     1
 71
     1
 10
0.0
 20
0.0
 11
12.0
 21
9.0
 12
0.0
 22
0.0
 32
0.0
 14
0.0
 24
0.0
 34
0.0
 15
0.0
 25
0.0
 35
0.0
146
0.0
 13
0.0
 23
0.0
 33
0.0
 16
1.0
 26
0.0
 36
0.0
 17
0.0
 27
1.0
 37
0.0
 76
     0
330
6C
  0
LAYOUT
  5
77
102
{ACAD_REACTORS
330
62
102
}
330
62
100
AcDbPlotSettings
  1

  2

  4

  6

 40
0.0
 41
0.0
 42
0.0
 43
0.0
 44
0.0
 45
0.0
 46
0.0
 47
0.0
 48
0.0
 49
0.0
140
0.0
141
0.0
142
1.0
143
1.0
 70
   688
 72
     0
 73
     0
 74
     5
  7

 75
    16
147
1.0
 76
     0
 77
     2
 78
   300
148
0.0
149
0.0
100
AcDbLayout
  1
Layout2
 70
     1
 71
     2
 10
0.0
 20
0.0
 11
12.0
 21
9.0
 12
0.0
 22
0.0
 32
0.0
 14
0.0
 24
0.0
 34
0.0
 15
0.0
 25
0.0
 35
0.0
146
0.0
 13
0.0
 23
0.0
 33
0.0
 16
1.0
 26
0.0
 36
0.0
 17
0.0
 27
1.0
 37
0.0
 76
     0
330
74
  0
LAYOUT
  5
73
102
{ACAD_REACTORS
330
62
102
}
330
62
100
AcDbPlotSettings
  1

  2

  4

  6

 40
0.0
 41
0.0
 42
0.0
 43
0.0
 44
0.0
 45
0.0
 46
0.0
 47
0.0
 48
0.0
 49
0.0
140
0.0
141
0.0
142
1.0
143
1.0
 70
  1712
 72
     0
 73
     0
 74
     0
  7

 75
     0
147
1.0
 76
     0
 77
     2
 78
   300
148
0.0
149
0.0
100
AcDbLayout
  1
Model
 70
     1
 71
     0
 10
0.0
 20
0.0
 11
12.0
 21
9.0
 12
0.0
 22
0.0
 32
0.0
 14
0.0
 24
0.0
 34
0.0
 15
0.0
 25
0.0
 35
0.0
146
0.0
 13
0.0
 23
0.0
 33
0.0
 16
1.0
 26
0.0
 36
0.0
 17
0.0
 27
1.0
 37
0.0
 76
     0
330
70
  0
MATERIAL
  5
19
102
{ACAD_XDICTIONARY
360
1A
102
}
102
{ACAD_REACTORS
330
10
102
}
330
10
100
AcDbMaterial
  1
ByBlock
 72
     0
 43
0.0208333333333333
 43
0.0
 43
0.0
 43
0.0
 43
0.0
 43
0.0208333333333333
 43
0.0
 43
0.0
 43
0.0
 43
0.0
 43
1.0
 43
0.0
 43
0.0
 43
0.0
 43
0.0
 43
1.0
 77
     0
 47
0.0208333333333333
 47
0.0
 47
0.0
 47
0.0
 47
0.0
 47
0.0208333333333333
 47
0.0
 47
0.0
 47
0.0
 47
0.0
 47
1.0
 47
0.0
 47
0.0
 47
0.0
 47
0.0
 47
1.0
171
     0
 49
0.0208333333333333
 49
0.0
 49
0.0
 49
0.0
 49
0.0
 49
0.0208333333333333
 49
0.0
 49
0.0
 49
0.0
 49
0.0
 49
1.0
 49
0.0
 49
0.0
 49
0.0
 49
0.0
 49
1.0
175
     0
142
0.0208333333333333
142
0.0
142
0.0
142
0.0
142
0.0
142
0.0208333333333333
142
0.0
142
0.0
142
0.0
142
0.0
142
1.0
142
0.0
142
0.0
142
0.0
142
0.0
142
1.0
179
     0
144
0.0208333333333333
144
0.0
144
0.0
144
0.0
144
0.0
144
0.0208333333333333
144
0.0
144
0.0
144
0.0
144
0.0
144
1.0
144
0.0
144
0.0
144
0.0
144
0.0
144
1.0
147
0.0208333333333333
147
0.0
147
0.0
147
0.0
147
0.0
147
0.0208333333333333
147
0.0
147
0.0
147
0.0
147
0.0
147
1.0
147
0.0
147
0.0
147
0.0
147
0.0
147
1.0
  0
MATERIAL
  5
11
102
{ACAD_XDICTIONARY
360
12
102
}
102
{ACAD_REACTORS
330
10
102
}
330
10
100
AcDbMaterial
  1
ByLayer
 72
     0
 43
0.0208333333333333
 43
0.0
 43
0.0
 43
0.0
 43
0.0
 43
0.0208333333333333
 43
0.0
 43
0.0
 43
0.0
 43
0.0
 43
1.0
 43
0.0
 43
0.0
 43
0.0
 43
0.0
 43
1.0
 77
     0
 47
0.0208333333333333
 47
0.0
 47
0.0
 47
0.0
 47
0.0
 47
0.0208333333333333
 47
0.0
 47
0.0
 47
0.0
 47
0.0
 47
1.0
 47
0.0
 47
0.0
 47
0.0
 47
0.0
 47
1.0
171
     0
 49
0.0208333333333333
 49
0.0
 49
0.0
 49
0.0
 49
0.0
 49
0.0208333333333333
 49
0.0
 49
0.0
 49
0.0
 49
0.0
 49
1.0
 49
0.0
 49
0.0
 49
0.0
 49
0.0
 49
1.0
175
     0
142
0.0208333333333333
142
0.0
142
0.0
142
0.0
142
0.0
142
0.0208333333333333
142
0.0
142
0.0
142
0.0
142
0.0
142
1.0
142
0.0
142
0.0
142
0.0
142
0.0
142
1.0
179
     0
144
0.0208333333333333
144
0.0
144
0.0
144
0.0
144
0.0
144
0.0208333333333333
144
0.0
144
0.0
144
0.0
144
0.0
144
1.0
144
0.0
144
0.0
144
0.0
144
0.0
144
1.0
147
0.0208333333333333
147
0.0
147
0.0
147
0.0
147
0.0
147
0.0208333333333333
147
0.0
147
0.0
147
0.0
147
0.0
147
1.0
147
0.0
147
0.0
147
0.0
147
0.0
147
1.0
  0
MATERIAL
  5
21
102
{ACAD_XDICTIONARY
360
22
102
}
102
{ACAD_REACTORS
330
10
102
}
330
10
100
AcDbMaterial
  1
Global
 72
     0
 43
0.0208333333333333
 43
0.0
 43
0.0
 43
0.0
 43
0.0
 43
0.0208333333333333
 43
0.0
 43
0.0
 43
0.0
 43
0.0
 43
1.0
 43
0.0
 43
0.0
 43
0.0
 43
0.0
 43
1.0
 77
     0
 47
0.0208333333333333
 47
0.0
 47
0.0
 47
0.0
 47
0.0
 47
0.0208333333333333
 47
0.0
 47
0.0
 47
0.0
 47
0.0
 47
1.0
 47
0.0
 47
0.0
 47
0.0
 47
0.0
 47
1.0
171
     0
 49
0.0208333333333333
 49
0.0
 49
0.0
 49
0.0
 49
0.0
 49
0.0208333333333333
 49
0.0
 49
0.0
 49
0.0
 49
0.0
 49
1.0
 49
0.0
 49
0.0
 49
0.0
 49
0.0
 49
1.0
175
     0
142
0.0208333333333333
142
0.0
142
0.0
142
0.0
142
0.0
142
0.0208333333333333
142
0.0
142
0.0
142
0.0
142
0.0
142
1.0
142
0.0
142
0.0
142
0.0
142
0.0
142
1.0
179
     0
144
0.0208333333333333
144
0.0
144
0.0
144
0.0
144
0.0
144
0.0208333333333333
144
0.0
144
0.0
144
0.0
144
0.0
144
1.0
144
0.0
144
0.0
144
0.0
144
0.0
144
1.0
147
0.0208333333333333
147
0.0
147
0.0
147
0.0
147
0.0
147
0.0208333333333333
147
0.0
147
0.0
147
0.0
147
0.0
147
1.0
147
0.0
147
0.0
147
0.0
147
0.0
147
1.0
  0
MLEADERSTYLE
  5
67
102
{ACAD_REACTORS
330
66
102
}
330
66
100
AcDbMLeaderStyle
179
     2
170
     2
171
     1
172
     0
 90
        2
 40
0.0
 41
0.0
173
     1
 91
-1056964608
340
5B
 92
       -2
290
     1
 42
0.09
291
     1
 43
0.36
  3
Standard
 44
0.18
300

342
55
174
     1
178
     6
175
     1
176
     0
 93
-1056964608
 45
0.18
292
     0
297
     0
 46
0.18
 94
-1056964608
 47
1.0
 49
1.0
140
1.0
293
     1
141
0.0
294
     1
177
     0
142
1.0
295
     1
296
     0
143
0.125
271
     0
272
     9
273
     9
298
     1
  0
MLINESTYLE
  5
60
102
{ACAD_REACTORS
330
5F
102
}
330
5F
100
AcDbMlineStyle
  2
STANDARD
 70
     0
  3

 62
   256
 51
90.0
 52
90.0
 71
     2
 49
0.5
 62
   256
  6
BYLAYER
 49
-0.5
 62
   256
  6
BYLAYER
  0
ACDBPLACEHOLDER
  5
F
102
{ACAD_REACTORS
330
E
102
}
330
E
  0
SCALE
  5
43
102
{ACAD_REACTORS
330
42
102
}
330
42
100
AcDbScale
 70
     0
300
1:1
140
1.0
141
1.0
290
     1
  0
SCALE
  5
44
102
{ACAD_REACTORS
330
42
102
}
330
42
100
AcDbScale
 70
     0
300
1/128" = 1'-0"
140
0.0078125
141
12.0
290
     0
  0
SCALE
  5
45
102
{ACAD_REACTORS
330
42
102
}
330
42
100
AcDbScale
 70
     0
300
1/64" = 1'-0"
140
0.015625
141
12.0
290
     0
  0
SCALE
  5
46
102
{ACAD_REACTORS
330
42
102
}
330
42
100
AcDbScale
 70
     0
300
1/32" = 1'-0"
140
0.03125
141
12.0
290
     0
  0
SCALE
  5
47
102
{ACAD_REACTORS
330
42
102
}
330
42
100
AcDbScale
 70
     0
300
1/16" = 1'-0"
140
0.0625
141
12.0
290
     0
  0
SCALE
  5
48
102
{ACAD_REACTORS
330
42
102
}
330
42
100
AcDbScale
 70
     0
300
3/32" = 1'-0"
140
0.09375
141
12.0
290
     0
  0
SCALE
  5
49
102
{ACAD_REACTORS
330
42
102
}
330
42
100
AcDbScale
 70
     0
300
1/8" = 1'-0"
140
0.125
141
12.0
290
     0
  0
SCALE
  5
4A
102
{ACAD_REACTORS
330
42
102
}
330
42
100
AcDbScale
 70
     0
300
3/16" = 1'-0"
140
0.1875
141
12.0
290
     0
  0
SCALE
  5
4B
102
{ACAD_REACTORS
330
42
102
}
330
42
100
AcDbScale
 70
     0
300
1/4" = 1'-0"
140
0.25
141
12.0
290
     0
  0
SCALE
  5
4C
102
{ACAD_REACTORS
330
42
102
}
330
42
100
AcDbScale
 70
     0
300
3/8" = 1'-0"
140
0.375
141
12.0
290
     0
  0
SCALE
  5
4D
102
{ACAD_REACTORS
330
42
102
}
330
42
100
AcDbScale
 70
     0
300
1/2" = 1'-0"
140
0.5
141
12.0
290
     0
  0
SCALE
  5
4E
102
{ACAD_REACTORS
330
42
102
}
330
42
100
AcDbScale
 70
     0
300
3/4" = 1'-0"
140
0.75
141
12.0
290
     0
  0
SCALE
  5
4F
102
{ACAD_REACTORS
330
42
102
}
330
42
100
AcDbScale
 70
     0
300
1" = 1'-0"
140
1.0
141
12.0
290
     0
  0
SCALE
  5
50
102
{ACAD_REACTORS
330
42
102
}
330
42
100
AcDbScale
 70
     0
300
1-1/2" = 1'-0"
140
1.5
141
12.0
290
     0
  0
SCALE
  5
51
102
{ACAD_REACTORS
330
42
102
}
330
42
100
AcDbScale
 70
     0
300
3" = 1'-0"
140
3.0
141
12.0
290
     0
  0
SCALE
  5
52
102
{ACAD_REACTORS
330
42
102
}
330
42
100
AcDbScale
 70
     0
300
6" = 1'-0"
140
6.0
141
12.0
290
     0
  0
SCALE
  5
53
102
{ACAD_REACTORS
330
42
102
}
330
42
100
AcDbScale
 70
     0
300
1'-0" = 1'-0"
140
12.0
141
12.0
290
     0
  0
ACDBSECTIONVIEWSTYLE
  5
69
102
{ACAD_REACTORS
330
68
102
}
330
68
100
AcDbModelDocViewStyle
 70
     0
  3
Imperial24
290
     1
300
Imperial24
 90
        0
100
AcDbSectionViewStyle
 70
     0
 71
     0
 90
       78
 71
     1
340
55
 62
   256
 40
0.24
340
0
340
0
 62
   256
 40
0.24
300
I, O, Q, S, X, Z
 40
0.48
 90
        3
 40
0.18
 90
        1
 71
     2
340
5D
 90
       25
 62
   256
340
5D
 90
       50
 62
   256
 40
0.24
 40
0.0
 40
0.24
 71
     3
340
55
 62
   256
 40
0.24
 90
        1
 40
0.75
 90
        1
300
%<\AcVar ViewType \f "%tc1">% %<\AcVar ViewSectionStartId>%-%<\AcVar ViewSectionEndId>%\PSCALE %<\AcVar ViewScale \f "%sn">%
 71
     4
 62
   256
 62
   257
300
ANSI31
 40
1.0
 90
        0
290
     0
290
     0
 90
        6
 40
0.0
 40
1.570796326794896
 40
0.2617993877991494
 40
1.308996938995747
 40
-0.2617993877991494
 40
1.832595714594046
  0
TABLESTYLE
  5
65
102
{ACAD_XDICTIONARY
360
AB
102
}
102
{ACAD_REACTORS
330
64
102
}
330
64
100
AcDbTableStyle
280
     0
  3
Standard
 70
     0
 71
     0
 40
0.06
 41
0.06
280
     0
281
     0
  7
Standard
140
0.18
170
     2
 62
     0
 63
     7
283
     0
 90
      512
 91
        0
  1

274
    -2
284
     1
 64
     0
275
    -2
285
     1
 65
     0
276
    -2
286
     1
 66
     0
277
    -2
287
     1
 67
     0
278
    -2
288
     1
 68
     0
279
    -2
289
     1
 69
     0
  7
Standard
140
0.25
170
     5
 62
     0
 63
     7
283
     0
 90
      512
 91
        0
  1

274
    -2
284
     1
 64
     0
275
    -2
285
     1
 65
     0
276
    -2
286
     1
 66
     0
277
    -2
287
     1
 67
     0
278
    -2
288
     1
 68
     0
279
    -2
289
     1
 69
     0
  7
Standard
140
0.18
170
     5
 62
     0
 63
     7
283
     0
 90
      512
 91
        0
  1

274
    -2
284
     1
 64
     0
275
    -2
285
     1
 65
     0
276
    -2
286
     1
 66
     0
277
    -2
287
     1
 67
     0
278
    -2
288
     1
 68
     0
279
    -2
289
     1
 69
     0
  0
VISUALSTYLE
  5
2F
102
{ACAD_REACTORS
330
29
102
}
330
29
100
AcDbVisualStyle
  2
2dWireframe
 70
     4
177
     3
291
     0
 70
    58
 90
        0
176
     1
 90
        2
176
     1
 90
        0
176
     1
 90
        0
176
     1
 40
0.6
176
     1
 40
30.0
176
     1
 62
     7
420
 16777215
176
     1
 90
        1
176
     1
 90
        4
176
     1
 62
     7
176
     1
 62
   257
176
     1
 90
        1
176
     1
 90
        1
176
     1
 40
1.0
176
     1
 90
        0
176
     1
 62
   257
176
     1
 40
1.0
176
     1
 90
        1
176
     1
 90
        6
176
     1
 90
        2
176
     1
 62
     7
176
     1
 90
        5
176
     1
 90
        0
176
     1
 90
        0
176
     1
290
     0
176
     1
 90
        1
176
     1
 40
0.0
176
     1
 90
        0
176
     1
290
     1
176
     1
290
     1
176
     1
290
     0
176
     1
290
     0
176
     1
290
     0
176
     1
290
     0
176
     1
290
     0
176
     1
290
     0
176
     1
290
     0
176
     1
 90
       50
176
     1
 40
0.0
176
     1
 40
1.0
176
     1
 90
        0
176
     1
 62
    18
420
        0
176
     1
 90
       50
176
     1
 90
        3
176
     1
 62
     5
420
      255
176
     1
290
     0
176
     1
 90
       50
176
     1
 90
       50
176
     1
 90
       50
176
     1
290
     0
176
     1
 90
       50
176
     1
 62
   256
176
     0
 40
1.0
176
     0
 90
        2
176
     1
  1
strokes_ogs.tif
176
     1
290
     0
176
     1
 40
1.0
176
     1
 40
1.0
176
     1
  0
VISUALSTYLE
  5
2E
102
{ACAD_REACTORS
330
29
102
}
330
29
100
AcDbVisualStyle
  2
Basic
 70
     7
177
     3
291
     1
 70
    58
 90
        1
176
     1
 90
        0
176
     1
 90
        1
176
     1
 90
        0
176
     1
 40
0.6
176
     1
 40
30.0
176
     1
 62
     7
420
 16777215
176
     1
 90
        0
176
     1
 90
        4
176
     1
 62
     7
176
     1
 62
   257
176
     1
 90
        1
176
     1
 90
        1
176
     1
 40
1.0
176
     1
 90
        8
176
     1
 62
     7
176
     1
 40
1.0
176
     1
 90
        1
176
     1
 90
        6
176
     1
 90
        2
176
     1
 62
     7
176
     1
 90
        5
176
     1
 90
        0
176
     1
 90
        0
176
     1
290
     0
176
     1
 90
        1
176
     1
 40
0.0
176
     1
 90
        0
176
     1
290
     0
176
     1
290
     1
176
     1
290
     1
176
     1
290
     0
176
     1
290
     0
176
     1
290
     0
176
     1
290
     0
176
     1
290
     0
176
     1
290
     0
176
     1
 90
       50
176
     1
 40
0.0
176
     1
 40
1.0
176
     1
 90
        0
176
     1
 62
    18
420
        0
176
     1
 90
       50
176
     1
 90
        3
176
     1
 62
     5
420
      255
176
     1
290
     0
176
     1
 90
       50
176
     1
 90
       50
176
     1
 90
       50
176
     1
290
     0
176
     1
 90
       50
176
     1
 62
   256
176
     0
 40
1.0
176
     0
 90
        2
176
     1
  1
strokes_ogs.tif
176
     1
290
     0
176
     1
 40
1.0
176
     1
 40
1.0
176
     1
  0
VISUALSTYLE
  5
35
102
{ACAD_REACTORS
330
29
102
}
330
29
100
AcDbVisualStyle
  2
Brighten
 70
    12
177
     3
291
     1
 70
    58
 90
        2
176
     1
 90
        2
176
     1
 90
        0
176
     1
 90
        0
176
     1
 40
0.6
176
     1
 40
30.0
176
     1
 62
     7
420
 16777215
176
     1
 90
        1
176
     1
 90
        4
176
     1
 62
     7
176
     1
 62
   257
176
     1
 90
        1
176
     1
 90
        1
176
     1
 40
1.0
176
     1
 90
        8
176
     1
 62
     7
176
     1
 40
1.0
176
     1
 90
        1
176
     1
 90
        6
176
     1
 90
        2
176
     1
 62
     7
176
     1
 90
        5
176
     1
 90
        0
176
     1
 90
        0
176
     1
290
     0
176
     1
 90
        1
176
     1
 40
50.0
176
     1
 90
        0
176
     1
290
     0
176
     1
290
     1
176
     1
290
     1
176
     1
290
     0
176
     1
290
     0
176
     1
290
     0
176
     1
290
     0
176
     1
290
     0
176
     1
290
     0
176
     1
 90
       50
176
     1
 40
0.0
176
     1
 40
1.0
176
     1
 90
        0
176
     1
 62
    18
420
        0
176
     1
 90
       50
176
     1
 90
        3
176
     1
 62
     5
420
      255
176
     1
290
     0
176
     1
 90
       50
176
     1
 90
       50
176
     1
 90
       50
176
     1
290
     0
176
     1
 90
       50
176
     1
 62
   256
176
     0
 40
1.0
176
     0
 90
        2
176
     1
  1
strokes_ogs.tif
176
     1
290
     0
176
     1
 40
1.0
176
     1
 40
1.0
176
     1
  0
VISUALSTYLE
  5
39
102
{ACAD_REACTORS
330
29
102
}
330
29
100
AcDbVisualStyle
  2
ColorChange
 70
    16
177
     3
291
     1
 70
    58
 90
        2
176
     1
 90
        2
176
     1
 90
        3
176
     1
 90
        0
176
     1
 40
0.6
176
     1
 40
30.0
176
     1
 62
     8
420
  8421504
176
     1
 90
        1
176
     1
 90
        4
176
     1
 62
     7
176
     1
 62
   257
176
     1
 90
        1
176
     1
 90
        1
176
     1
 40
1.0
176
     1
 90
        8
176
     1
 62
     8
420
  8421504
176
     1
 40
1.0
176
     1
 90
        1
176
     1
 90
        6
176
     1
 90
        2
176
     1
 62
     7
176
     1
 90
        5
176
     1
 90
        0
176
     1
 90
        0
176
     1
290
     0
176
     1
 90
        1
176
     1
 40
0.0
176
     1
 90
        0
176
     1
290
     0
176
     1
290
     1
176
     1
290
     1
176
     1
290
     0
176
     1
290
     0
176
     1
290
     0
176
     1
290
     0
176
     1
290
     0
176
     1
290
     0
176
     1
 90
       50
176
     1
 40
0.0
176
     1
 40
1.0
176
     1
 90
        0
176
     1
 62
    18
420
        0
176
     1
 90
       50
176
     1
 90
        3
176
     1
 62
     5
420
      255
176
     1
290
     0
176
     1
 90
       50
176
     1
 90
       50
176
     1
 90
       50
176
     1
290
     0
176
     1
 90
       50
176
     1
 62
   256
176
     0
 40
1.0
176
     0
 90
        2
176
     1
  1
strokes_ogs.tif
176
     1
290
     0
176
     1
 40
1.0
176
     1
 40
1.0
176
     1
  0
VISUALSTYLE
  5
32
102
{ACAD_REACTORS
330
29
102
}
330
29
100
AcDbVisualStyle
  2
Conceptual
 70
     9
177
     3
291
     0
 70
    58
 90
        3
176
     1
 90
        2
176
     1
 90
        0
176
     1
 90
        0
176
     1
 40
0.6
176
     1
 40
30.0
176
     1
 62
     7
420
 16777215
176
     1
 90
        2
176
     1
 90
        2
176
     1
 62
     7
176
     1
 62
   257
176
     1
 90
        1
176
     1
 90
        1
176
     1
 40
179.0
176
     1
 90
        8
176
     1
 62
     7
176
     1
 40
1.0
176
     1
 90
        1
176
     1
 90
        6
176
     1
 90
        2
176
     1
 62
     7
176
     1
 90
        3
176
     1
 90
        0
176
     1
 90
        0
176
     1
290
     0
176
     1
 90
        1
176
     1
 40
0.0
176
     1
 90
        0
176
     1
290
     0
176
     1
290
     1
176
     1
290
     1
176
     1
290
     0
176
     1
290
     0
176
     1
290
     0
176
     1
290
     0
176
     1
290
     0
176
     1
290
     0
176
     1
 90
       50
176
     1
 40
0.0
176
     1
 40
1.0
176
     1
 90
        0
176
     1
 62
    18
420
        0
176
     1
 90
       50
176
     1
 90
        3
176
     1
 62
     5
420
      255
176
     1
290
     0
176
     1
 90
       50
176
     1
 90
       50
176
     1
 90
       50
176
     1
290
     0
176
     1
 90
       50
176
     1
 62
   256
176
     0
 40
1.0
176
     0
 90
        2
176
     1
  1
strokes_ogs.tif
176
     1
290
     0
176
     1
 40
1.0
176
     1
 40
1.0
176
     1
  0
VISUALSTYLE
  5
34
102
{ACAD_REACTORS
330
29
102
}
330
29
100
AcDbVisualStyle
  2
Dim
 70
    11
177
     3
291
     1
 70
    58
 90
        2
176
     1
 90
        2
176
     1
 90
        0
176
     1
 90
        0
176
     1
 40
0.6
176
     1
 40
30.0
176
     1
 62
     7
420
 16777215
176
     1
 90
        1
176
     1
 90
        4
176
     1
 62
     7
176
     1
 62
   257
176
     1
 90
        1
176
     1
 90
        1
176
     1
 40
1.0
176
     1
 90
        8
176
     1
 62
     7
176
     1
 40
1.0
176
     1
 90
        1
176
     1
 90
        6
176
     1
 90
        2
176
     1
 62
     7
176
     1
 90
        5
176
     1
 90
        0
176
     1
 90
        0
176
     1
290
     0
176
     1
 90
        1
176
     1
 40
-50.0
176
     1
 90
        0
176
     1
290
     0
176
     1
290
     1
176
     1
290
     1
176
     1
290
     0
176
     1
290
     0
176
     1
290
     0
176
     1
290
     0
176
     1
290
     0
176
     1
290
     0
176
     1
 90
       50
176
     1
 40
0.0
176
     1
 40
1.0
176
     1
 90
        0
176
     1
 62
    18
420
        0
176
     1
 90
       50
176
     1
 90
        3
176
     1
 62
     5
420
      255
176
     1
290
     0
176
     1
 90
       50
176
     1
 90
       50
176
     1
 90
       50
176
     1
290
     0
176
     1
 90
       50
176
     1
 62
   256
176
     0
 40
1.0
176
     0
 90
        2
176
     1
  1
strokes_ogs.tif
176
     1
290
     0
176
     1
 40
1.0
176
     1
 40
1.0
176
     1
  0
VISUALSTYLE
  5
41
102
{ACAD_REACTORS
330
29
102
}
330
29
100
AcDbVisualStyle
  2
EdgeColorOff
 70
    22
177
     3
291
     1
 70
    58
 90
        2
176
     0
 90
        2
176
     0
 90
        0
176
     0
 90
        0
176
     0
 40
0.6
176
     0
 40
30.0
176
     0
 62
     7
420
 16777215
176
     0
 90
        1
176
     0
 90
        4
176
     0
 62
     7
176
     0
 62
   257
176
     0
 90
        1
176
     0
 90
        1
176
     0
 40
1.0
176
     0
 90
        8
176
     2
 62
     7
176
     0
 40
1.0
176
     0
 90
        1
176
     0
 90
        6
176
     0
 90
        2
176
     0
 62
     7
176
     0
 90
        5
176
     0
 90
        0
176
     0
 90
        0
176
     0
290
     0
176
     0
 90
        1
176
     0
 40
0.0
176
     0
 90
        0
176
     0
290
     0
176
     0
290
     1
176
     0
290
     1
176
     0
290
     0
176
     0
290
     0
176
     0
290
     0
176
     0
290
     0
176
     0
290
     0
176
     0
290
     0
176
     0
 90
       50
176
     0
 40
0.0
176
     0
 40
1.0
176
     0
 90
        0
176
     0
 62
    18
420
        0
176
     0
 90
       50
176
     0
 90
        3
176
     0
 62
     5
420
      255
176
     0
290
     0
176
     0
 90
       50
176
     0
 90
       50
176
     0
 90
       50
176
     0
290
     0
176
     0
 90
       50
176
     0
 62
   256
176
     0
 40
1.0
176
     0
 90
        2
176
     0
  1
strokes_ogs.tif
176
     0
290
     0
176
     0
 40
1.0
176
     0
 40
1.0
176
     0
  0
VISUALSTYLE
  5
38
102
{ACAD_REACTORS
330
29
102
}
330
29
100
AcDbVisualStyle
  2
Facepattern
 70
    15
177
     3
291
     1
 70
    58
 90
        2
176
     1
 90
        2
176
     1
 90
        0
176
     1
 90
        0
176
     1
 40
0.6
176
     1
 40
30.0
176
     1
 62
     7
420
 16777215
176
     1
 90
        1
176
     1
 90
        4
176
     1
 62
     7
176
     1
 62
   257
176
     1
 90
        1
176
     1
 90
        1
176
     1
 40
1.0
176
     1
 90
        8
176
     1
 62
     7
176
     1
 40
1.0
176
     1
 90
        1
176
     1
 90
        6
176
     1
 90
        2
176
     1
 62
     7
176
     1
 90
        5
176
     1
 90
        0
176
     1
 90
        0
176
     1
290
     0
176
     1
 90
        1
176
     1
 40
0.0
176
     1
 90
        0
176
     1
290
     0
176
     1
290
     1
176
     1
290
     1
176
     1
290
     0
176
     1
290
     0
176
     1
290
     0
176
     1
290
     0
176
     1
290
     0
176
     1
290
     0
176
     1
 90
       50
176
     1
 40
0.0
176
     1
 40
1.0
176
     1
 90
        0
176
     1
 62
    18
420
        0
176
     1
 90
       50
176
     1
 90
        3
176
     1
 62
     5
420
      255
176
     1
290
     0
176
     1
 90
       50
176
     1
 90
       50
176
     1
 90
       50
176
     1
290
     0
176
     1
 90
       50
176
     1
 62
   256
176
     0
 40
1.0
176
     0
 90
        2
176
     1
  1
strokes_ogs.tif
176
     1
290
     0
176
     1
 40
1.0
176
     1
 40
1.0
176
     1
  0
VISUALSTYLE
  5
2A
102
{ACAD_REACTORS
330
29
102
}
330
29
100
AcDbVisualStyle
  2
Flat
 70
     0
177
     3
291
     1
 70
    58
 90
        2
176
     1
 90
        1
176
     1
 90
        1
176
     1
 90
        2
176
     1
 40
0.6
176
     1
 40
30.0
176
     1
 62
     7
420
 16777215
176
     1
 90
        0
176
     1
 90
        0
176
     1
 62
     7
176
     1
 62
   257
176
     1
 90
        1
176
     1
 90
        1
176
     1
 40
1.0
176
     1
 90
        8
176
     1
 62
     7
176
     1
 40
1.0
176
     1
 90
        1
176
     1
 90
        6
176
     1
 90
        2
176
     1
 62
     7
176
     1
 90
        5
176
     1
 90
        0
176
     1
 90
        0
176
     1
290
     0
176
     1
 90
       13
176
     1
 40
0.0
176
     1
 90
        0
176
     1
290
     0
176
     1
290
     1
176
     1
290
     1
176
     1
290
     0
176
     1
290
     0
176
     1
290
     0
176
     1
290
     0
176
     1
290
     0
176
     1
290
     0
176
     1
 90
       50
176
     1
 40
0.0
176
     1
 40
1.0
176
     1
 90
        0
176
     1
 62
    18
420
        0
176
     1
 90
       50
176
     1
 90
        3
176
     1
 62
     5
420
      255
176
     1
290
     0
176
     1
 90
       50
176
     1
 90
       50
176
     1
 90
       50
176
     1
290
     0
176
     1
 90
       50
176
     1
 62
   256
176
     0
 40
1.0
176
     0
 90
        2
176
     1
  1
strokes_ogs.tif
176
     1
290
     0
176
     1
 40
1.0
176
     1
 40
1.0
176
     1
  0
VISUALSTYLE
  5
2B
102
{ACAD_REACTORS
330
29
102
}
330
29
100
AcDbVisualStyle
  2
FlatWithEdges
 70
     1
177
     3
291
     1
 70
    58
 90
        2
176
     1
 90
        1
176
     1
 90
        1
176
     1
 90
        2
176
     1
 40
0.6
176
     1
 40
30.0
176
     1
 62
     7
420
 16777215
176
     1
 90
        1
176
     1
 90
        0
176
     1
 62
     7
176
     1
 62
   257
176
     1
 90
        1
176
     1
 90
        1
176
     1
 40
1.0
176
     1
 90
        0
176
     1
 62
   257
176
     1
 40
1.0
176
     1
 90
        1
176
     1
 90
        6
176
     1
 90
        2
176
     1
 62
     7
176
     1
 90
        5
176
     1
 90
        0
176
     1
 90
        0
176
     1
290
     0
176
     1
 90
       13
176
     1
 40
0.0
176
     1
 90
        0
176
     1
290
     0
176
     1
290
     1
176
     1
290
     1
176
     1
290
     0
176
     1
290
     0
176
     1
290
     0
176
     1
290
     0
176
     1
290
     0
176
     1
290
     0
176
     1
 90
       50
176
     1
 40
0.0
176
     1
 40
1.0
176
     1
 90
        0
176
     1
 62
    18
420
        0
176
     1
 90
       50
176
     1
 90
        3
176
     1
 62
     5
420
      255
176
     1
290
     0
176
     1
 90
       50
176
     1
 90
       50
176
     1
 90
       50
176
     1
290
     0
176
     1
 90
       50
176
     1
 62
   256
176
     0
 40
1.0
176
     0
 90
        2
176
     1
  1
strokes_ogs.tif
176
     1
290
     0
176
     1
 40
1.0
176
     1
 40
1.0
176
     1
  0
VISUALSTYLE
  5
2C
102
{ACAD_REACTORS
330
29
102
}
330
29
100
AcDbVisualStyle
  2
Gouraud
 70
     2
177
     3
291
     1
 70
    58
 90
        2
176
     1
 90
        2
176
     1
 90
        1
176
     1
 90
        2
176
     1
 40
0.6
176
     1
 40
30.0
176
     1
 62
     7
420
 16777215
176
     1
 90
        0
176
     1
 90
        0
176
     1
 62
     7
176
     1
 62
   257
176
     1
 90
        1
176
     1
 90
        1
176
     1
 40
1.0
176
     1
 90
        0
176
     1
 62
     7
176
     1
 40
1.0
176
     1
 90
        1
176
     1
 90
        6
176
     1
 90
        2
176
     1
 62
     7
176
     1
 90
        5
176
     1
 90
        0
176
     1
 90
        0
176
     1
290
     0
176
     1
 90
       13
176
     1
 40
0.0
176
     1
 90
        0
176
     1
290
     0
176
     1
290
     1
176
     1
290
     1
176
     1
290
     0
176
     1
290
     0
176
     1
290
     0
176
     1
290
     0
176
     1
290
     0
176
     1
290
     0
176
     1
 90
       50
176
     1
 40
0.0
176
     1
 40
1.0
176
     1
 90
        0
176
     1
 62
    18
420
        0
176
     1
 90
       50
176
     1
 90
        3
176
     1
 62
     5
420
      255
176
     1
290
     0
176
     1
 90
       50
176
     1
 90
       50
176
     1
 90
       50
176
     1
290
     0
176
     1
 90
       50
176
     1
 62
   256
176
     0
 40
1.0
176
     0
 90
        2
176
     1
  1
strokes_ogs.tif
176
     1
290
     0
176
     1
 40
1.0
176
     1
 40
1.0
176
     1
  0
VISUALSTYLE
  5
2D
102
{ACAD_REACTORS
330
29
102
}
330
29
100
AcDbVisualStyle
  2
GouraudWithEdges
 70
     3
177
     3
291
     1
 70
    58
 90
        2
176
     1
 90
        2
176
     1
 90
        1
176
     1
 90
        2
176
     1
 40
0.6
176
     1
 40
30.0
176
     1
 62
     7
420
 16777215
176
     1
 90
        1
176
     1
 90
        0
176
     1
 62
     7
176
     1
 62
   257
176
     1
 90
        1
176
     1
 90
        1
176
     1
 40
1.0
176
     1
 90
        0
176
     1
 62
   257
176
     1
 40
1.0
176
     1
 90
        1
176
     1
 90
        6
176
     1
 90
        2
176
     1
 62
     7
176
     1
 90
        5
176
     1
 90
        0
176
     1
 90
        0
176
     1
290
     0
176
     1
 90
       13
176
     1
 40
0.0
176
     1
 90
        0
176
     1
290
     0
176
     1
290
     1
176
     1
290
     1
176
     1
290
     0
176
     1
290
     0
176
     1
290
     0
176
     1
290
     0
176
     1
290
     0
176
     1
290
     0
176
     1
 90
       50
176
     1
 40
0.0
176
     1
 40
1.0
176
     1
 90
        0
176
     1
 62
    18
420
        0
176
     1
 90
       50
176
     1
 90
        3
176
     1
 62
     5
420
      255
176
     1
290
     0
176
     1
 90
       50
176
     1
 90
       50
176
     1
 90
       50
176
     1
290
     0
176
     1
 90
       50
176
     1
 62
   256
176
     0
 40
1.0
176
     0
 90
        2
176
     1
  1
strokes_ogs.tif
176
     1
290
     0
176
     1
 40
1.0
176
     1
 40
1.0
176
     1
  0
VISUALSTYLE
  5
31
102
{ACAD_REACTORS
330
29
102
}
330
29
100
AcDbVisualStyle
  2
Hidden
 70
     6
177
     3
291
     0
 70
    58
 90
        1
176
     1
 90
        2
176
     1
 90
        2
176
     1
 90
        0
176
     1
 40
0.6
176
     1
 40
30.0
176
     1
 62
     7
420
 16777215
176
     1
 90
        2
176
     1
 90
        2
176
     1
 62
     7
176
     1
 62
   257
176
     1
 90
        2
176
     1
 90
        1
176
     1
 40
40.0
176
     1
 90
        0
176
     1
 62
   257
176
     1
 40
1.0
176
     1
 90
        1
176
     1
 90
        6
176
     1
 90
        2
176
     1
 62
     7
176
     1
 90
        3
176
     1
 90
        0
176
     1
 90
        0
176
     1
290
     0
176
     1
 90
        1
176
     1
 40
0.0
176
     1
 90
        0
176
     1
290
     0
176
     1
290
     1
176
     1
290
     1
176
     1
290
     0
176
     1
290
     0
176
     1
290
     0
176
     1
290
     0
176
     1
290
     0
176
     1
290
     0
176
     1
 90
       50
176
     1
 40
0.0
176
     1
 40
1.0
176
     1
 90
        0
176
     1
 62
    18
420
        0
176
     1
 90
       50
176
     1
 90
        3
176
     1
 62
     5
420
      255
176
     1
290
     0
176
     1
 90
       50
176
     1
 90
       50
176
     1
 90
       50
176
     1
290
     0
176
     1
 90
       50
176
     1
 62
   256
176
     0
 40
1.0
176
     0
 90
        2
176
     1
  1
strokes_ogs.tif
176
     1
290
     0
176
     1
 40
1.0
176
     1
 40
1.0
176
     1
  0
VISUALSTYLE
  5
3F
102
{ACAD_REACTORS
330
29
102
}
330
29
100
AcDbVisualStyle
  2
JitterOff
 70
    20
177
     3
291
     1
 70
    58
 90
        2
176
     0
 90
        2
176
     0
 90
        0
176
     0
 90
        0
176
     0
 40
0.6
176
     0
 40
30.0
176
     0
 62
     7
420
 16777215
176
     0
 90
        1
176
     0
 90
        4
176
     0
 62
     7
176
     0
 62
   257
176
     0
 90
        1
176
     0
 90
        1
176
     0
 40
1.0
176
     0
 90
       10
176
     2
 62
     7
176
     0
 40
1.0
176
     0
 90
        1
176
     0
 90
        6
176
     0
 90
        2
176
     0
 62
     7
176
     0
 90
        5
176
     0
 90
        0
176
     0
 90
        0
176
     0
290
     0
176
     0
 90
        1
176
     0
 40
0.0
176
     0
 90
        0
176
     0
290
     0
176
     0
290
     1
176
     0
290
     1
176
     0
290
     0
176
     0
290
     0
176
     0
290
     0
176
     0
290
     0
176
     0
290
     0
176
     0
290
     0
176
     0
 90
       50
176
     0
 40
0.0
176
     0
 40
1.0
176
     0
 90
        0
176
     0
 62
    18
420
        0
176
     0
 90
       50
176
     0
 90
        3
176
     0
 62
     5
420
      255
176
     0
290
     0
176
     0
 90
       50
176
     0
 90
       50
176
     0
 90
       50
176
     0
290
     0
176
     0
 90
       50
176
     0
 62
   256
176
     0
 40
1.0
176
     0
 90
        2
176
     0
  1
strokes_ogs.tif
176
     0
290
     0
176
     0
 40
1.0
176
     0
 40
1.0
176
     0
  0
VISUALSTYLE
  5
37
102
{ACAD_REACTORS
330
29
102
}
330
29
100
AcDbVisualStyle
  2
Linepattern
 70
    14
177
     3
291
     1
 70
    58
 90
        2
176
     1
 90
        2
176
     1
 90
        0
176
     1
 90
        0
176
     1
 40
0.6
176
     1
 40
30.0
176
     1
 62
     7
420
 16777215
176
     1
 90
        1
176
     1
 90
        4
176
     1
 62
     7
176
     1
 62
   257
176
     1
 90
        7
176
     1
 90
        7
176
     1
 40
1.0
176
     1
 90
        8
176
     1
 62
     7
176
     1
 40
1.0
176
     1
 90
        1
176
     1
 90
        6
176
     1
 90
        2
176
     1
 62
     7
176
     1
 90
        5
176
     1
 90
        0
176
     1
 90
        0
176
     1
290
     0
176
     1
 90
        1
176
     1
 40
0.0
176
     1
 90
        0
176
     1
290
     0
176
     1
290
     1
176
     1
290
     1
176
     1
290
     0
176
     1
290
     0
176
     1
290
     0
176
     1
290
     0
176
     1
290
     0
176
     1
290
     0
176
     1
 90
       50
176
     1
 40
0.0
176
     1
 40
1.0
176
     1
 90
        0
176
     1
 62
    18
420
        0
176
     1
 90
       50
176
     1
 90
        3
176
     1
 62
     5
420
      255
176
     1
290
     0
176
     1
 90
       50
176
     1
 90
       50
176
     1
 90
       50
176
     1
290
     0
176
     1
 90
       50
176
     1
 62
   256
176
     0
 40
1.0
176
     0
 90
        2
176
     1
  1
strokes_ogs.tif
176
     1
290
     0
176
     1
 40
1.0
176
     1
 40
1.0
176
     1
  0
VISUALSTYLE
  5
40
102
{ACAD_REACTORS
330
29
102
}
330
29
100
AcDbVisualStyle
  2
OverhangOff
 70
    21
177
     3
291
     1
 70
    58
 90
        2
176
     0
 90
        2
176
     0
 90
        0
176
     0
 90
        0
176
     0
 40
0.6
176
     0
 40
30.0
176
     0
 62
     7
420
 16777215
176
     0
 90
        1
176
     0
 90
        4
176
     0
 62
     7
176
     0
 62
   257
176
     0
 90
        1
176
     0
 90
        1
176
     0
 40
1.0
176
     0
 90
        9
176
     2
 62
     7
176
     0
 40
1.0
176
     0
 90
        1
176
     0
 90
        6
176
     0
 90
        2
176
     0
 62
     7
176
     0
 90
        5
176
     0
 90
        0
176
     0
 90
        0
176
     0
290
     0
176
     0
 90
        1
176
     0
 40
0.0
176
     0
 90
        0
176
     0
290
     0
176
     0
290
     1
176
     0
290
     1
176
     0
290
     0
176
     0
290
     0
176
     0
290
     0
176
     0
290
     0
176
     0
290
     0
176
     0
290
     0
176
     0
 90
       50
176
     0
 40
0.0
176
     0
 40
1.0
176
     0
 90
        0
176
     0
 62
    18
420
        0
176
     0
 90
       50
176
     0
 90
        3
176
     0
 62
     5
420
      255
176
     0
290
     0
176
     0
 90
       50
176
     0
 90
       50
176
     0
 90
       50
176
     0
290
     0
176
     0
 90
       50
176
     0
 62
   256
176
     0
 40
1.0
176
     0
 90
        2
176
     0
  1
strokes_ogs.tif
176
     0
290
     0
176
     0
 40
1.0
176
     0
 40
1.0
176
     0
  0
VISUALSTYLE
  5
33
102
{ACAD_REACTORS
330
29
102
}
330
29
100
AcDbVisualStyle
  2
Realistic
 70
     8
177
     3
291
     0
 70
    58
 90
        2
176
     1
 90
        3
176
     1
 90
        0
176
     1
 90
        2
176
     1
 40
0.6
176
     1
 40
30.0
176
     1
 62
     7
420
 16777215
176
     1
 90
        0
176
     1
 90
        0
176
     1
 62
     7
176
     1
 62
   257
176
     1
 90
        1
176
     1
 90
        1
176
     1
 40
1.0
176
     1
 90
        8
176
     1
 62
   257
176
     1
 40
1.0
176
     1
 90
        1
176
     1
 90
        6
176
     1
 90
        2
176
     1
 62
     7
176
     1
 90
        3
176
     1
 90
        0
176
     1
 90
        0
176
     1
290
     0
176
     1
 90
       13
176
     1
 40
0.0
176
     1
 90
        0
176
     1
290
     0
176
     1
290
     1
176
     1
290
     1
176
     1
290
     0
176
     1
290
     0
176
     1
290
     0
176
     1
290
     0
176
     1
290
     0
176
     1
290
     0
176
     1
 90
       50
176
     1
 40
0.0
176
     1
 40
1.0
176
     1
 90
        0
176
     1
 62
    18
420
        0
176
     1
 90
       50
176
     1
 90
        3
176
     1
 62
     5
420
      255
176
     1
290
     0
176
     1
 90
       50
176
     1
 90
       50
176
     1
 90
       50
176
     1
290
     0
176
     1
 90
       50
176
     1
 62
   256
176
     0
 40
1.0
176
     0
 90
        2
176
     1
  1
strokes_ogs.tif
176
     1
290
     0
176
     1
 40
1.0
176
     1
 40
1.0
176
     1
  0
VISUALSTYLE
  5
3E
102
{ACAD_REACTORS
330
29
102
}
330
29
100
AcDbVisualStyle
  2
Shaded
 70
    27
177
     3
291
     0
 70
    58
 90
        2
176
     1
 90
        2
176
     1
 90
        1
176
     1
 90
        2
176
     1
 40
0.6
176
     1
 40
30.0
176
     1
 62
     7
420
 16777215
176
     1
 90
        0
176
     1
 90
        4
176
     1
 62
     7
176
     1
 62
   257
176
     1
 90
        1
176
     1
 90
        1
176
     1
 40
1.0
176
     1
 90
        8
176
     1
 62
   257
176
     1
 40
1.0
176
     1
 90
        1
176
     1
 90
        6
176
     1
 90
        2
176
     1
 62
     8
420
  7895160
176
     1
 90
        3
176
     1
 90
        0
176
     1
 90
        0
176
     1
290
     0
176
     1
 90
        5
176
     1
 40
0.0
176
     1
 90
        0
176
     1
290
     0
176
     1
290
     1
176
     1
290
     1
176
     1
290
     0
176
     1
290
     0
176
     1
290
     0
176
     1
290
     0
176
     1
290
     0
176
     1
290
     0
176
     1
 90
       50
176
     1
 40
0.0
176
     1
 40
1.0
176
     1
 90
        0
176
     1
 62
    18
420
        0
176
     1
 90
       50
176
     1
 90
        3
176
     1
 62
     5
420
      255
176
     1
290
     0
176
     1
 90
       50
176
     1
 90
       50
176
     1
 90
       50
176
     1
290
     0
176
     1
 90
       50
176
     1
 62
   256
176
     0
 40
1.0
176
     0
 90
        2
176
     1
  1
strokes_ogs.tif
176
     1
290
     0
176
     1
 40
1.0
176
     1
 40
1.0
176
     1
  0
VISUALSTYLE
  5
3D
102
{ACAD_REACTORS
330
29
102
}
330
29
100
AcDbVisualStyle
  2
Shaded with edges
 70
    26
177
     3
291
     0
 70
    58
 90
        2
176
     1
 90
        2
176
     1
 90
        1
176
     1
 90
        2
176
     1
 40
0.6
176
     1
 40
30.0
176
     1
 62
     7
420
 16777215
176
     1
 90
        1
176
     1
 90
        2
176
     1
 62
     7
176
     1
 62
   257
176
     1
 90
        2
176
     1
 90
        1
176
     1
 40
1.0
176
     1
 90
        8
176
     1
 62
   257
176
     1
 40
1.0
176
     1
 90
        1
176
     1
 90
        6
176
     1
 90
        2
176
     1
 62
     7
176
     1
 90
        3
176
     1
 90
        0
176
     1
 90
        0
176
     1
290
     0
176
     1
 90
        5
176
     1
 40
0.0
176
     1
 90
        0
176
     1
290
     0
176
     1
290
     1
176
     1
290
     1
176
     1
290
     0
176
     1
290
     0
176
     1
290
     0
176
     1
290
     0
176
     1
290
     0
176
     1
290
     0
176
     1
 90
       50
176
     1
 40
0.0
176
     1
 40
1.0
176
     1
 90
        0
176
     1
 62
    18
420
        0
176
     1
 90
       50
176
     1
 90
        3
176
     1
 62
     5
420
      255
176
     1
290
     0
176
     1
 90
       50
176
     1
 90
       50
176
     1
 90
       50
176
     1
290
     0
176
     1
 90
       50
176
     1
 62
   256
176
     0
 40
1.0
176
     0
 90
        2
176
     1
  1
strokes_ogs.tif
176
     1
290
     0
176
     1
 40
1.0
176
     1
 40
1.0
176
     1
  0
VISUALSTYLE
  5
3A
102
{ACAD_REACTORS
330
29
102
}
330
29
100
AcDbVisualStyle
  2
Shades of Gray
 70
    23
177
     3
291
     0
 70
    58
 90
        2
176
     1
 90
        2
176
     1
 90
        3
176
     1
 90
        0
176
     1
 40
0.6
176
     1
 40
30.0
176
     1
 62
     7
420
 16777215
176
     1
 90
        2
176
     1
 90
        2
176
     1
 62
     7
176
     1
 62
     7
176
     1
 90
        1
176
     1
 90
        1
176
     1
 40
40.0
176
     1
 90
        8
176
     1
 62
     7
176
     1
 40
1.0
176
     1
 90
        1
176
     1
 90
        6
176
     1
 90
        2
176
     1
 62
     7
176
     1
 90
        3
176
     1
 90
        0
176
     1
 90
        0
176
     1
290
     0
176
     1
 90
        1
176
     1
 40
0.0
176
     1
 90
        0
176
     1
290
     0
176
     1
290
     1
176
     1
290
     1
176
     1
290
     0
176
     1
290
     0
176
     1
290
     0
176
     1
290
     0
176
     1
290
     0
176
     1
290
     0
176
     1
 90
       50
176
     1
 40
0.0
176
     1
 40
1.0
176
     1
 90
        0
176
     1
 62
    18
420
        0
176
     1
 90
       50
176
     1
 90
        3
176
     1
 62
     5
420
      255
176
     1
290
     0
176
     1
 90
       50
176
     1
 90
       50
176
     1
 90
       50
176
     1
290
     0
176
     1
 90
       50
176
     1
 62
   256
176
     0
 40
1.0
176
     0
 90
        2
176
     1
  1
strokes_ogs.tif
176
     1
290
     0
176
     1
 40
1.0
176
     1
 40
1.0
176
     1
  0
VISUALSTYLE
  5
3B
102
{ACAD_REACTORS
330
29
102
}
330
29
100
AcDbVisualStyle
  2
Sketchy
 70
    24
177
     3
291
     0
 70
    58
 90
        1
176
     1
 90
        2
176
     1
 90
        2
176
     1
 90
        0
176
     1
 40
0.6
176
     1
 40
30.0
176
     1
 62
     7
420
 16777215
176
     1
 90
        2
176
     1
 90
        2
176
     1
 62
     7
176
     1
 62
     7
176
     1
 90
        1
176
     1
 90
        1
176
     1
 40
40.0
176
     1
 90
       11
176
     1
 62
     7
176
     1
 40
1.0
176
     1
 90
        1
176
     1
 90
        6
176
     1
 90
        2
176
     1
 62
     7
176
     1
 90
        6
176
     1
 90
        0
176
     1
 90
        0
176
     1
290
     0
176
     1
 90
        1
176
     1
 40
0.0
176
     1
 90
        0
176
     1
290
     0
176
     1
290
     1
176
     1
290
     1
176
     1
290
     0
176
     1
290
     0
176
     1
290
     0
176
     1
290
     0
176
     1
290
     0
176
     1
290
     0
176
     1
 90
       50
176
     1
 40
0.0
176
     1
 40
1.0
176
     1
 90
        0
176
     1
 62
    18
420
        0
176
     1
 90
       50
176
     1
 90
        3
176
     1
 62
     5
420
      255
176
     1
290
     0
176
     1
 90
       50
176
     1
 90
       50
176
     1
 90
       50
176
     1
290
     0
176
     1
 90
       50
176
     1
 62
   256
176
     0
 40
1.0
176
     0
 90
        2
176
     1
  1
strokes_ogs.tif
176
     1
290
     0
176
     1
 40
1.0
176
     1
 40
1.0
176
     1
  0
VISUALSTYLE
  5
36
102
{ACAD_REACTORS
330
29
102
}
330
29
100
AcDbVisualStyle
  2
Thicken
 70
    13
177
     3
291
     1
 70
    58
 90
        2
176
     1
 90
        2
176
     1
 90
        0
176
     1
 90
        0
176
     1
 40
0.6
176
     1
 40
30.0
176
     1
 62
     7
420
 16777215
176
     1
 90
        1
176
     1
 90
        4
176
     1
 62
     7
176
     1
 62
   257
176
     1
 90
        1
176
     1
 90
        1
176
     1
 40
1.0
176
     1
 90
       12
176
     1
 62
     7
176
     1
 40
1.0
176
     1
 90
        1
176
     1
 90
        6
176
     1
 90
        2
176
     1
 62
     7
176
     1
 90
        5
176
     1
 90
        0
176
     1
 90
        0
176
     1
290
     0
176
     1
 90
        1
176
     1
 40
0.0
176
     1
 90
        0
176
     1
290
     0
176
     1
290
     1
176
     1
290
     1
176
     1
290
     0
176
     1
290
     0
176
     1
290
     0
176
     1
290
     0
176
     1
290
     0
176
     1
290
     0
176
     1
 90
       50
176
     1
 40
0.0
176
     1
 40
1.0
176
     1
 90
        0
176
     1
 62
    18
420
        0
176
     1
 90
       50
176
     1
 90
        3
176
     1
 62
     5
420
      255
176
     1
290
     0
176
     1
 90
       50
176
     1
 90
       50
176
     1
 90
       50
176
     1
290
     0
176
     1
 90
       50
176
     1
 62
   256
176
     0
 40
1.0
176
     0
 90
        2
176
     1
  1
strokes_ogs.tif
176
     1
290
     0
176
     1
 40
1.0
176
     1
 40
1.0
176
     1
  0
VISUALSTYLE
  5
30
102
{ACAD_REACTORS
330
29
102
}
330
29
100
AcDbVisualStyle
  2
Wireframe
 70
     5
177
     3
291
     0
 70
    58
 90
        0
176
     1
 90
        2
176
     1
 90
        0
176
     1
 90
        0
176
     1
 40
0.6
176
     1
 40
30.0
176
     1
 62
     7
420
 16777215
176
     1
 90
        1
176
     1
 90
        4
176
     1
 62
     7
176
     1
 62
   257
176
     1
 90
        1
176
     1
 90
        1
176
     1
 40
1.0
176
     1
 90
        0
176
     1
 62
   257
176
     1
 40
1.0
176
     1
 90
        1
176
     1
 90
        6
176
     1
 90
        2
176
     1
 62
     7
176
     1
 90
        3
176
     1
 90
        0
176
     1
 90
        0
176
     1
290
     0
176
     1
 90
        1
176
     1
 40
0.0
176
     1
 90
        0
176
     1
290
     0
176
     1
290
     1
176
     1
290
     1
176
     1
290
     0
176
     1
290
     0
176
     1
290
     0
176
     1
290
     0
176
     1
290
     0
176
     1
290
     0
176
     1
 90
       50
176
     1
 40
0.0
176
     1
 40
1.0
176
     1
 90
        0
176
     1
 62
    18
420
        0
176
     1
 90
       50
176
     1
 90
        3
176
     1
 62
     5
420
      255
176
     1
290
     0
176
     1
 90
       50
176
     1
 90
       50
176
     1
 90
       50
176
     1
290
     0
176
     1
 90
       50
176
     1
 62
   256
176
     0
 40
1.0
176
     0
 90
        2
176
     1
  1
strokes_ogs.tif
176
     1
290
     0
176
     1
 40
1.0
176
     1
 40
1.0
176
     1
  0
VISUALSTYLE
  5
3C
102
{ACAD_REACTORS
330
29
102
}
330
29
100
AcDbVisualStyle
  2
X-Ray
 70
    25
177
     3
291
     0
 70
    58
 90
        2
176
     1
 90
        2
176
     1
 90
        1
176
     1
 90
        1
176
     1
 40
0.5
176
     1
 40
30.0
176
     1
 62
     7
420
 16777215
176
     1
 90
        1
176
     1
 90
        0
176
     1
 62
     7
176
     1
 62
   257
176
     1
 90
        1
176
     1
 90
        1
176
     1
 40
1.0
176
     1
 90
        8
176
     1
 62
     7
176
     1
 40
1.0
176
     1
 90
        1
176
     1
 90
        6
176
     1
 90
        2
176
     1
 62
     7
176
     1
 90
        3
176
     1
 90
        0
176
     1
 90
        0
176
     1
290
     0
176
     1
 90
       13
176
     1
 40
0.0
176
     1
 90
        0
176
     1
290
     0
176
     1
290
     1
176
     1
290
     1
176
     1
290
     0
176
     1
290
     0
176
     1
290
     0
176
     1
290
     0
176
     1
290
     0
176
     1
290
     0
176
     1
 90
       50
176
     1
 40
0.0
176
     1
 40
1.0
176
     1
 90
        0
176
     1
 62
    18
420
        0
176
     1
 90
       50
176
     1
 90
        3
176
     1
 62
     5
420
      255
176
     1
290
     0
176
     1
 90
       50
176
     1
 90
       50
176
     1
 90
       50
176
     1
290
     0
176
     1
 90
       50
176
     1
 62
   256
176
     0
 40
1.0
176
     0
 90
        2
176
     1
  1
strokes_ogs.tif
176
     1
290
     0
176
     1
 40
1.0
176
     1
 40
1.0
176
     1
  0
DICTIONARYVAR
  5
AA
102
{ACAD_REACTORS
330
A5
102
}
330
A5
100
DictionaryVariables
280
     0
  1
1:1
  0
DICTIONARYVAR
  5
A7
102
{ACAD_REACTORS
330
A5
102
}
330
A5
100
DictionaryVariables
280
     0
  1
STANDARD
  0
DICTIONARYVAR
  5
A6
102
{ACAD_REACTORS
330
A5
102
}
330
A5
100
DictionaryVariables
280
     0
  1
STANDARD
  0
DICTIONARYVAR
  5
A8
102
{ACAD_REACTORS
330
A5
102
}
330
A5
100
DictionaryVariables
280
     0
  1
Imperial24
  0
DICTIONARYVAR
  5
A9
102
{ACAD_REACTORS
330
A5
102
}
330
A5
100
DictionaryVariables
280
     0
  1
Imperial24
  0
DICTIONARY
  5
1A
330
19
100
AcDbDictionary
280
     1
281
     1
  3
BUMPTILE
360
1C
  3
DIFFUSETILE
360
1B
  3
OPACITYTILE
360
1F
  3
REFLECTIONTILE
360
1E
  3
REFRACTIONTILE
360
20
  3
SPECULARTILE
360
1D
  0
DICTIONARY
  5
12
330
11
100
AcDbDictionary
280
     1
281
     1
  3
BUMPTILE
360
14
  3
DIFFUSETILE
360
13
  3
OPACITYTILE
360
17
  3
REFLECTIONTILE
360
16
  3
REFRACTIONTILE
360
18
  3
SPECULARTILE
360
15
  0
DICTIONARY
  5
22
330
21
100
AcDbDictionary
280
     1
281
     1
  3
BUMPTILE
360
24
  3
DIFFUSETILE
360
23
  3
OPACITYTILE
360
27
  3
REFLECTIONTILE
360
26
  3
REFRACTIONTILE
360
28
  3
SPECULARTILE
360
25
  0
DICTIONARY
  5
AB
330
65
100
AcDbDictionary
280
     1
281
     1
  3
ACAD_ROUNDTRIP_2008_TABLESTYLE_CELLSTYLEMAP
360
AC
  0
XRECORD
  5
1C
102
{ACAD_REACTORS
330
1A
102
}
330
1A
100
AcDbXrecord
280
     1
270
     1
271
     1
  0
XRECORD
  5
1B
102
{ACAD_REACTORS
330
1A
102
}
330
1A
100
AcDbXrecord
280
     1
270
     1
271
     1
  0
XRECORD
  5
1F
102
{ACAD_REACTORS
330
1A
102
}
330
1A
100
AcDbXrecord
280
     1
270
     1
271
     1
  0
XRECORD
  5
1E
102
{ACAD_REACTORS
330
1A
102
}
330
1A
100
AcDbXrecord
280
     1
270
     1
271
     1
  0
XRECORD
  5
20
102
{ACAD_REACTORS
330
1A
102
}
330
1A
100
AcDbXrecord
280
     1
270
     1
271
     1
  0
XRECORD
  5
1D
102
{ACAD_REACTORS
330
1A
102
}
330
1A
100
AcDbXrecord
280
     1
270
     1
271
     1
  0
XRECORD
  5
14
102
{ACAD_REACTORS
330
12
102
}
330
12
100
AcDbXrecord
280
     1
270
     1
271
     1
  0
XRECORD
  5
13
102
{ACAD_REACTORS
330
12
102
}
330
12
100
AcDbXrecord
280
     1
270
     1
271
     1
  0
XRECORD
  5
17
102
{ACAD_REACTORS
330
12
102
}
330
12
100
AcDbXrecord
280
     1
270
     1
271
     1
  0
XRECORD
  5
16
102
{ACAD_REACTORS
330
12
102
}
330
12
100
AcDbXrecord
280
     1
270
     1
271
     1
  0
XRECORD
  5
18
102
{ACAD_REACTORS
330
12
102
}
330
12
100
AcDbXrecord
280
     1
270
     1
271
     1
  0
XRECORD
  5
15
102
{ACAD_REACTORS
330
12
102
}
330
12
100
AcDbXrecord
280
     1
270
     1
271
     1
  0
XRECORD
  5
24
102
{ACAD_REACTORS
330
22
102
}
330
22
100
AcDbXrecord
280
     1
270
     1
271
     1
  0
XRECORD
  5
23
102
{ACAD_REACTORS
330
22
102
}
330
22
100
AcDbXrecord
280
     1
270
     1
271
     1
  0
XRECORD
  5
27
102
{ACAD_REACTORS
330
22
102
}
330
22
100
AcDbXrecord
280
     1
270
     1
271
     1
  0
XRECORD
  5
26
102
{ACAD_REACTORS
330
22
102
}
330
22
100
AcDbXrecord
280
     1
270
     1
271
     1
  0
XRECORD
  5
28
102
{ACAD_REACTORS
330
22
102
}
330
22
100
AcDbXrecord
280
     1
270
     1
271
     1
  0
XRECORD
  5
25
102
{ACAD_REACTORS
330
22
102
}
330
22
100
AcDbXrecord
280
     1
270
     1
271
     1
  0
CELLSTYLEMAP
  5
AC
102
{ACAD_REACTORS
330
AB
102
}
330
AB
100
AcDbCellStyleMap
 90
        3
300
CELLSTYLE
  1
TABLEFORMAT_BEGIN
 90
        5
170
     1
 91
        0
 92
    32768
 62
   257
 93
        1
300
CONTENTFORMAT
  1
CONTENTFORMAT_BEGIN
 90
        0
 91
        0
 92
      512
 93
        0
300

 40
0.0
140
1.0
 94
        5
 62
     0
340
55
144
0.25
309
CONTENTFORMAT_END
171
     0
 94
        0
309
TABLEFORMAT_END
  1
CELLSTYLE_BEGIN
 90
        1
 91
        1
300
_TITLE
309
CELLSTYLE_END
300
CELLSTYLE
  1
TABLEFORMAT_BEGIN
 90
        5
170
     1
 91
        0
 92
        0
 62
   257
 93
        1
300
CONTENTFORMAT
  1
CONTENTFORMAT_BEGIN
 90
        0
 91
        0
 92
      512
 93
        0
300

 40
0.0
140
1.0
 94
        5
 62
     0
340
55
144
0.18
309
CONTENTFORMAT_END
171
     0
 94
        0
309
TABLEFORMAT_END
  1
CELLSTYLE_BEGIN
 90
        2
 91
        1
300
_HEADER
309
CELLSTYLE_END
300
CELLSTYLE
  1
TABLEFORMAT_BEGIN
 90
        5
170
     1
 91
        0
 92
        0
 62
   257
 93
        1
300
CONTENTFORMAT
  1
CONTENTFORMAT_BEGIN
 90
        0
 91
        0
 92
      512
 93
        0
300

 40
0.0
140
1.0
 94
        2
 62
     0
340
55
144
0.18
309
CONTENTFORMAT_END
171
     0
 94
        0
309
TABLEFORMAT_END
  1
CELLSTYLE_BEGIN
 90
        3
 91
        2
300
_DATA
309
CELLSTYLE_END
  0
ENDSEC
  0
EOF
