  0
SECTION
  2
HEADER
  9
$ACADVER
  1
AC1032
  9
$ACADMAINTVER
 90
      228
  9
$DWGCODEPAGE
  3
ANSI_1252
  9
$REQUIREDVERSIONS
160
                 0
  9
$INSBASE
 10
0.0
 20
0.0
 30
0.0
  9
$EXTMIN
 10
1.000000000000000E+20
 20
1.000000000000000E+20
 30
1.000000000000000E+20
  9
$EXTMAX
 10
-1.000000000000000E+20
 20
-1.000000000000000E+20
 30
-1.000000000000000E+20
  9
$LIMMIN
 10
0.0
 20
0.0
  9
$LIMMAX
 10
12.0
 20
9.0
  9
$ORTHOMODE
 70
     0
  9
$REGENMODE
 70
     1
  9
$FILLMODE
 70
     1
  9
$QTEXTMODE
 70
     0
  9
$MIRRTEXT
 70
     0
  9
$LTSCALE
 40
1.0
  9
$ATTMODE
 70
     1
  9
$TEXTSIZE
 40
0.2
  9
$TRACEWID
 40
0.05
  9
$TEXTSTYLE
  7
Standard
  9
$CLAYER
  8
0
  9
$CELTYPE
  6
ByLayer
  9
$CECOLOR
 62
   256
  9
$CELTSCALE
 40
1.0
  9
$DISPSILH
 70
     0
  9
$DIMSCALE
 40
1.0
  9
$DIMASZ
 40
0.18
  9
$DIMEXO
 40
0.0625
  9
$DIMDLI
 40
0.38
  9
$DIMRND
 40
0.0
  9
$DIMDLE
 40
0.0
  9
$DIMEXE
 40
0.18
  9
$DIMTP
 40
0.0
  9
$DIMTM
 40
0.0
  9
$DIMTXT
 40
0.18
  9
$DIMCEN
 40
0.09
  9
$DIMTSZ
 40
0.0
  9
$DIMTOL
 70
     0
  9
$DIMLIM
 70
     0
  9
$DIMTIH
 70
     1
  9
$DIMTOH
 70
     1
  9
$DIMSE1
 70
     0
  9
$DIMSE2
 70
     0
  9
$DIMTAD
 70
     0
  9
$DIMZIN
 70
     0
  9
$DIMBLK
  1

  9
$DIMASO
 70
     1
  9
$DIMSHO
 70
     1
  9
$DIMPOST
  1

  9
$DIMAPOST
  1

  9
$DIMALT
 70
     0
  9
$DIMALTD
 70
     2
  9
$DIMALTF
 40
25.4
  9
$DIMLFAC
 40
1.0
  9
$DIMTOFL
 70
     0
  9
$DIMTVP
 40
0.0
  9
$DIMTIX
 70
     0
  9
$DIMSOXD
 70
     0
  9
$DIMSAH
 70
     0
  9
$DIMBLK1
  1

  9
$DIMBLK2
  1

  9
$DIMSTYLE
  2
Standard
  9
$DIMCLRD
 70
     0
  9
$DIMCLRE
 70
     0
  9
$DIMCLRT
 70
     0
  9
$DIMTFAC
 40
1.0
  9
$DIMGAP
 40
0.09
  9
$DIMJUST
 70
     0
  9
$DIMSD1
 70
     0
  9
$DIMSD2
 70
     0
  9
$DIMTOLJ
 70
     1
  9
$DIMTZIN
 70
     0
  9
$DIMALTZ
 70
     0
  9
$DIMALTTZ
 70
     0
  9
$DIMUPT
 70
     0
  9
$DIMDEC
 70
     4
  9
$DIMTDEC
 70
     4
  9
$DIMALTU
 70
     2
  9
$DIMALTTD
 70
     2
  9
$DIMTXSTY
  7
Standard
  9
$DIMAUNIT
 70
     0
  9
$DIMADEC
 70
     0
  9
$DIMALTRND
 40
0.0
  9
$DIMAZIN
 70
     0
  9
$DIMDSEP
 70
    46
  9
$DIMATFIT
 70
     3
  9
$DIMFRAC
 70
     0
  9
$DIMLDRBLK
  1

  9
$DIMLUNIT
 70
     2
  9
$DIMLWD
 70
    -2
  9
$DIMLWE
 70
    -2
  9
$DIMTMOVE
 70
     0
  9
$DIMFXL
 40
1.0
  9
$DIMFXLON
 70
     0
  9
$DIMJOGANG
 40
0.7853981633974483
  9
$DIMTFILL
 70
     0
  9
$DIMTFILLCLR
 70
     0
  9
$DIMARCSYM
 70
     0
  9
$DIMLTYPE
  6

  9
$DIMLTEX1
  6

  9
$DIMLTEX2
  6

  9
$DIMTXTDIRECTION
 70
     0
  9
$LUNITS
 70
     2
  9
$LUPREC
 70
     4
  9
$SKETCHINC
 40
0.1
  9
$FILLETRAD
 40
0.0
  9
$AUNITS
 70
     0
  9
$AUPREC
 70
     0
  9
$MENU
  1
.
  9
$ELEVATION
 40
0.0
  9
$PELEVATION
 40
0.0
  9
$THICKNESS
 40
0.0
  9
$LIMCHECK
 70
     0
  9
$CHAMFERA
 40
0.0
  9
$CHAMFERB
 40
0.0
  9
$CHAMFERC
 40
0.0
  9
$CHAMFERD
 40
0.0
  9
$SKPOLY
 70
     0
  9
$TDCREATE
 40
2460146.704722223
  9
$TDUCREATE
 40
2460146.663055556
  9
$TDUPDATE
 40
2460146.704722223
  9
$TDUUPDATE
 40
2460146.663055556
  9
$TDINDWG
 40
0.0000000000
  9
$TDUSRTIMER
 40
0.0000000000
  9
$USRTIMER
 70
     1
  9
$ANGBASE
 50
0.0
  9
$ANGDIR
 70
     0
  9
$PDMODE
 70
     0
  9
$PDSIZE
 40
0.0
  9
$PLINEWID
 40
0.0
  9
$SPLFRAME
 70
     0
  9
$SPLINETYPE
 70
     6
  9
$SPLINESEGS
 70
     8
  9
$HANDSEED
  5
A5
  9
$SURFTAB1
 70
     6
  9
$SURFTAB2
 70
     6
  9
$SURFTYPE
 70
     6
  9
$SURFU
 70
     6
  9
$SURFV
 70
     6
  9
$UCSBASE
  2

  9
$UCSNAME
  2

  9
$UCSORG
 10
0.0
 20
0.0
 30
0.0
  9
$UCSXDIR
 10
1.0
 20
0.0
 30
0.0
  9
$UCSYDIR
 10
0.0
 20
1.0
 30
0.0
  9
$UCSORTHOREF
  2

  9
$UCSORTHOVIEW
 70
     0
  9
$UCSORGTOP
 10
0.0
 20
0.0
 30
0.0
  9
$UCSORGBOTTOM
 10
0.0
 20
0.0
 30
0.0
  9
$UCSORGLEFT
 10
0.0
 20
0.0
 30
0.0
  9
$UCSORGRIGHT
 10
0.0
 20
0.0
 30
0.0
  9
$UCSORGFRONT
 10
0.0
 20
0.0
 30
0.0
  9
$UCSORGBACK
 10
0.0
 20
0.0
 30
0.0
  9
$PUCSBASE
  2

  9
$PUCSNAME
  2

  9
$PUCSORG
 10
0.0
 20
0.0
 30
0.0
  9
$PUCSXDIR
 10
1.0
 20
0.0
 30
0.0
  9
$PUCSYDIR
 10
0.0
 20
1.0
 30
0.0
  9
$PUCSORTHOREF
  2

  9
$PUCSORTHOVIEW
 70
     0
  9
$PUCSORGTOP
 10
0.0
 20
0.0
 30
0.0
  9
$PUCSORGBOTTOM
 10
0.0
 20
0.0
 30
0.0
  9
$PUCSORGLEFT
 10
0.0
 20
0.0
 30
0.0
  9
$PUCSORGRIGHT
 10
0.0
 20
0.0
 30
0.0
  9
$PUCSORGFRONT
 10
0.0
 20
0.0
 30
0.0
  9
$PUCSORGBACK
 10
0.0
 20
0.0
 30
0.0
  9
$USERI1
 70
     0
  9
$USERI2
 70
     0
  9
$USERI3
 70
     0
  9
$USERI4
 70
     0
  9
$USERI5
 70
     0
  9
$USERR1
 40
0.0
  9
$USERR2
 40
0.0
  9
$USERR3
 40
0.0
  9
$USERR4
 40
0.0
  9
$USERR5
 40
0.0
  9
$WORLDVIEW
 70
     1
  9
$SHADEDGE
 70
     3
  9
$SHADEDIF
 70
    70
  9
$TILEMODE
 70
     1
  9
$MAXACTVP
 70
    64
  9
$PINSBASE
 10
0.0
 20
0.0
 30
0.0
  9
$PLIMCHECK
 70
     0
  9
$PEXTMIN
 10
1.000000000000000E+20
 20
1.000000000000000E+20
 30
1.000000000000000E+20
  9
$PEXTMAX
 10
-1.000000000000000E+20
 20
-1.000000000000000E+20
 30
-1.000000000000000E+20
  9
$PLIMMIN
 10
0.0
 20
0.0
  9
$PLIMMAX
 10
12.0
 20
9.0
  9
$UNITMODE
 70
     0
  9
$VISRETAIN
 70
     1
  9
$PLINEGEN
 70
     0
  9
$PSLTSCALE
 70
     1
  9
$TREEDEPTH
 70
  3020
  9
$CMLSTYLE
  2
Standard
  9
$CMLJUST
 70
     0
  9
$CMLSCALE
 40
1.0
  9
$PROXYGRAPHICS
 70
     1
  9
$MEASUREMENT
 70
     0
  9
$CELWEIGHT
370
    -1
  9
$ENDCAPS
280
     0
  9
$JOINSTYLE
280
     0
  9
$LWDISPLAY
290
     1
  9
$INSUNITS
 70
     4
  9
$HYPERLINKBASE
  1

  9
$STYLESHEET
  1

  9
$XEDIT
290
     1
  9
$CEPSNTYPE
380
     0
  9
$PSTYLEMODE
290
     1
  9
$FINGERPRINTGUID
  2
{D16CE055-6DF5-364C-B905-B5F15EB81C99}
  9
$VERSIONGUID
  2
{F771E795-34F3-B540-A1DC-CD31226ED345}
  9
$EXTNAMES
290
     1
  9
$PSVPSCALE
 40
0.0
  9
$OLESTARTUP
290
     0
  9
$SORTENTS
280
   127
  9
$INDEXCTL
280
     0
  9
$HIDETEXT
280
     1
  9
$XCLIPFRAME
280
     2
  9
$HALOGAP
280
     0
  9
$OBSCOLOR
 70
   257
  9
$OBSLTYPE
280
     0
  9
$INTERSECTIONDISPLAY
280
     0
  9
$INTERSECTIONCOLOR
 70
   257
  9
$DIMASSOC
280
     2
  9
$PROJECTNAME
  1

  9
$CAMERADISPLAY
290
     0
  9
$LENSLENGTH
 40
50.0
  9
$CAMERAHEIGHT
 40
0.0
  9
$STEPSPERSEC
 40
2.0
  9
$STEPSIZE
 40
6.0
  9
$3DDWFPREC
 40
2.0
  9
$PSOLWIDTH
 40
0.25
  9
$PSOLHEIGHT
 40
4.0
  9
$LOFTANG1
 40
1.570796326794896
  9
$LOFTANG2
 40
1.570796326794896
  9
$LOFTMAG1
 40
0.0
  9
$LOFTMAG2
 40
0.0
  9
$LOFTPARAM
 70
     7
  9
$LOFTNORMALS
280
     1
  9
$LATITUDE
 40
37.795
  9
$LONGITUDE
 40
-122.394
  9
$NORTHDIRECTION
 40
0.0
  9
$TIMEZONE
 70
 -8000
  9
$LIGHTGLYPHDISPLAY
280
     1
  9
$TILEMODELIGHTSYNCH
280
     1
  9
$CMATERIAL
347
11
  9
$SOLIDHIST
280
     0
  9
$SHOWHIST
280
     1
  9
$DWFFRAME
280
     2
  9
$DGNFRAME
280
     0
  9
$REALWORLDSCALE
290
     1
  9
$INTERFERECOLOR
 62
     1
  9
$INTERFEREOBJVS
345
33
  9
$INTERFEREVPVS
346
30
  9
$CSHADOW
280
     0
  9
$SHADOWPLANELOCATION
 40
0.0
  0
ENDSEC
  0
SECTION
  2
CLASSES
  0
CLASS
  1
ACDBDICTIONARYWDFLT
  2
AcDbDictionaryWithDefault
  3
ObjectDBX Classes
 90
        0
 91
        1
280
     0
281
     0
  0
CLASS
  1
MATERIAL
  2
AcDbMaterial
  3
ObjectDBX Classes
 90
     1153
 91
        3
280
     0
281
     0
  0
CLASS
  1
VISUALSTYLE
  2
AcDbVisualStyle
  3
ObjectDBX Classes
 90
     4095
 91
       24
280
     0
281
     0
  0
CLASS
  1
SCALE
  2
AcDbScale
  3
ObjectDBX Classes
 90
     1153
 91
       17
280
     0
281
     0
  0
CLASS
  1
TABLESTYLE
  2
AcDbTableStyle
  3
ObjectDBX Classes
 90
     4095
 91
        1
280
     0
281
     0
  0
CLASS
  1
MLEADERSTYLE
  2
AcDbMLeaderStyle
  3
ACDB_MLEADERSTYLE_CLASS
 90
     4095
 91
        1
280
     0
281
     0
  0
CLASS
  1
ACDBSECTIONVIEWSTYLE
  2
AcDbSectionViewStyle
  3
ObjectDBX Classes
 90
     1025
 91
        1
280
     0
281
     0
  0
CLASS
  1
ACDBDETAILVIEWSTYLE
  2
AcDbDetailViewStyle
  3
ObjectDBX Classes
 90
     1025
 91
        1
280
     0
281
     0
  0
CLASS
  1
DICTIONARYVAR
  2
AcDbDictionaryVar
  3
ObjectDBX Classes
 90
        0
 91
        5
280
     0
281
     0
  0
CLASS
  1
CELLSTYLEMAP
  2
AcDbCellStyleMap
  3
ObjectDBX Classes
 90
     1152
 91
        1
280
     0
281
     0
  0
ENDSEC
  0
SECTION
  2
TABLES
  0
TABLE
  2
VPORT
  5
8
330
0
100
AcDbSymbolTable
 70
     1
  0
VPORT
  5
57
330
8
100
AcDbSymbolTableRecord
100
AcDbViewportTableRecord
  2
*Active
 70
     0
 10
0.0
 20
0.0
 11
1.0
 21
1.0
 12
0.0
 22
0.0
 13
0.0
 23
0.0
 14
1.0
 24
1.0
 15
0.0
 25
0.0
 16
0.0
 26
0.0
 36
1.0
 17
49.99999998749409
 27
-49.99999998749409
 37
0.0
 40
101.9999999744879
 41
1.0
 42
50.0
 43
0.0
 44
0.0
 50
0.0
 51
0.0
 71
     0
 72
   100
 73
     1
 74
     1
 75
     0
 76
     0
 77
     0
 78
     0
281
     0
 65
     1
110
0.0
120
0.0
130
0.0
111
1.0
121
0.0
131
0.0
112
0.0
122
1.0
132
0.0
 79
     0
146
0.0
 60
     3
 61
     5
292
     1
282
     1
141
0.0
142
0.0
 63
   250
421
  3355443
  0
ENDTAB
  0
TABLE
  2
LTYPE
  5
5
330
0
100
AcDbSymbolTable
 70
     1
  0
LTYPE
  5
5B
330
5
100
AcDbSymbolTableRecord
100
AcDbLinetypeTableRecord
  2
ByBlock
 70
     0
  3

 72
    65
 73
     0
 40
0.0
  0
LTYPE
  5
5C
330
5
100
AcDbSymbolTableRecord
100
AcDbLinetypeTableRecord
  2
ByLayer
 70
     0
  3

 72
    65
 73
     0
 40
0.0
  0
LTYPE
  5
5D
330
5
100
AcDbSymbolTableRecord
100
AcDbLinetypeTableRecord
  2
Continuous
 70
     0
  3
Solid line
 72
    65
 73
     0
 40
0.0
  0
ENDTAB
  0
TABLE
  2
LAYER
  5
2
330
0
100
AcDbSymbolTable
 70
     2
  0
LAYER
  5
54
330
2
100
AcDbSymbolTableRecord
100
AcDbLayerTableRecord
  2
0
 70
     0
 62
     7
  6
Continuous
370
    -3
390
F
347
21
348
0
  0
LAYER
  5
78
330
2
100
AcDbSymbolTableRecord
100
AcDbLayerTableRecord
  2
Camada 1
 70
     0
 62
     7
  6
Continuous
370
     0
390
F
347
21
348
0
  0
ENDTAB
  0
TABLE
  2
STYLE
  5
3
330
0
100
AcDbSymbolTable
 70
     2
  0
STYLE
  5
55
330
3
100
AcDbSymbolTableRecord
100
AcDbTextStyleTableRecord
  2
Standard
 70
     0
 40
0.0
 41
1.0
 50
0.0
 71
     0
 42
0.2
  3
txt
  4

  0
STYLE
  5
5A
330
3
100
AcDbSymbolTableRecord
100
AcDbTextStyleTableRecord
  2
Annotative
 70
     0
 40
0.0
 41
1.0
 50
0.0
 71
     0
 42
0.2
  3
txt
  4

1001
AcadAnnotative
1000
AnnotativeData
1002
{
1070
     1
1070
     1
1002
}
  0
ENDTAB
  0
TABLE
  2
VIEW
  5
6
330
0
100
AcDbSymbolTable
 70
     0
  0
ENDTAB
  0
TABLE
  2
UCS
  5
7
330
0
100
AcDbSymbolTable
 70
     0
  0
ENDTAB
  0
TABLE
  2
APPID
  5
9
330
0
100
AcDbSymbolTable
 70
     2
  0
APPID
  5
56
330
9
100
AcDbSymbolTableRecord
100
AcDbRegAppTableRecord
  2
ACAD
 70
     0
  0
APPID
  5
5E
330
9
100
AcDbSymbolTableRecord
100
AcDbRegAppTableRecord
  2
AcadAnnotative
 70
     0
  0
ENDTAB
  0
TABLE
  2
DIMSTYLE
  5
A
330
0
100
AcDbSymbolTable
 70
     2
100
AcDbDimStyleTable
 71
     0
  0
DIMSTYLE
105
58
330
A
100
AcDbSymbolTableRecord
100
AcDbDimStyleTableRecord
  2
Standard
 70
     0
340
55
  0
DIMSTYLE
105
59
330
A
100
AcDbSymbolTableRecord
100
AcDbDimStyleTableRecord
  2
Annotative
 70
     0
340
55
1001
AcadAnnotative
1000
AnnotativeData
1002
{
1070
     1
1070
     1
1002
}
  0
ENDTAB
  0
TABLE
  2
BLOCK_RECORD
  5
1
330
0
100
AcDbSymbolTable
 70
     2
  0
BLOCK_RECORD
  5
70
330
1
100
AcDbSymbolTableRecord
100
AcDbBlockTableRecord
  2
*Model_Space
340
73
 70
     0
280
     1
281
     0
  0
BLOCK_RECORD
  5
6C
330
1
100
AcDbSymbolTableRecord
100
AcDbBlockTableRecord
  2
*Paper_Space
340
6F
 70
     0
280
     1
281
     0
  0
BLOCK_RECORD
  5
74
330
1
100
AcDbSymbolTableRecord
100
AcDbBlockTableRecord
  2
*Paper_Space0
340
77
 70
     0
280
     1
281
     0
  0
BLOCK_RECORD
  5
79
330
1
100
AcDbSymbolTableRecord
100
AcDbBlockTableRecord
  2
Block_0
340
0
102
{BLKREFS
331
7A
102
}
 70
     0
280
     1
281
     0
  0
ENDTAB
  0
ENDSEC
  0
SECTION
  2
BLOCKS
  0
BLOCK
  5
71
330
70
100
AcDbEntity
  8
0
100
AcDbBlockBegin
  2
*Model_Space
 70
     0
 10
0.0
 20
0.0
 30
0.0
  3
*Model_Space
  1

  0
ENDBLK
  5
72
330
70
100
AcDbEntity
  8
0
100
AcDbBlockEnd
  0
BLOCK
  5
6D
330
6C
100
AcDbEntity
 67
     1
  8
0
100
AcDbBlockBegin
  2
*Paper_Space
 70
     0
 10
0.0
 20
0.0
 30
0.0
  3
*Paper_Space
  1

  0
ENDBLK
  5
6E
330
6C
100
AcDbEntity
 67
     1
  8
0
100
AcDbBlockEnd
  0
BLOCK
  5
75
330
74
100
AcDbEntity
 67
     1
  8
0
100
AcDbBlockBegin
  2
*Paper_Space0
 70
     0
 10
0.0
 20
0.0
 30
0.0
  3
*Paper_Space0
  1

  0
ENDBLK
  5
76
330
74
100
AcDbEntity
 67
     1
  8
0
100
AcDbBlockEnd
  0
BLOCK
  5
7B
330
79
100
AcDbEntity
  8
0
100
AcDbBlockBegin
  2
Block_0
 70
     0
 10
0.0
 20
0.0
 30
0.0
  3
Block_0
  1

  0
SPLINE
  5
7D
330
79
100
AcDbEntity
  8
Camada 1
 62
    28
420
  1184269
370
     9
100
AcDbSpline
210
0.0
220
0.0
230
1.0
 70
     9
 71
     3
 72
    23
 73
    19
 74
     0
 42
0.0000000001
 43
0.0000000001
 40
0.0
 40
0.0
 40
0.0
 40
0.0
 40
1.0
 40
1.0
 40
1.0
 40
2.0
 40
2.0
 40
2.0
 40
3.0
 40
3.0
 40
3.0
 40
4.0
 40
4.0
 40
4.0
 40
5.0
 40
5.0
 40
5.0
 40
6.0
 40
6.0
 40
6.0
 40
6.0
 10
58.78360197928316
 20
-62.58799400883543
 30
0.0
 10
59.66060621041088
 20
-62.58799400883543
 30
0.0
 10
60.37392399655526
 20
-63.30166437897087
 30
0.0
 10
60.37392399655526
 20
-64.17831737184795
 30
0.0
 10
60.37392399655526
 20
-65.0553229487161
 30
0.0
 10
59.66060621041088
 20
-65.7689913002409
 30
0.0
 10
58.77513458053581
 20
-65.76934388423197
 30
0.0
 10
58.77513458053581
 20
-65.76934388423197
 30
0.0
 10
50.22874087031076
 20
-66.69221094900709
 30
0.0
 10
50.22874087031076
 20
-66.69221094900709
 30
0.0
 10
48.85396609673884
 20
-66.69009409932025
 30
0.0
 10
47.73601309853848
 20
-65.57073009228606
 30
0.0
 10
47.73601309853848
 20
-64.19525082360221
 30
0.0
 10
47.73601309853848
 20
-62.81835920034346
 30
0.0
 10
48.85608160068525
 20
-61.69793609559562
 30
0.0
 10
50.22521233891922
 20
-61.69793609559562
 30
0.0
 10
50.22521233891922
 20
-61.69793609559562
 30
0.0
 10
58.78360197928316
 20
-62.58799400883543
 30
0.0
 10
58.78360197928316
 20
-62.58799400883543
 30
0.0
  0
SPLINE
  5
7E
330
79
100
AcDbEntity
  8
Camada 1
 62
    28
420
  1184269
370
     9
100
AcDbSpline
210
0.0
220
0.0
230
1.0
 70
     8
 71
     3
 72
    26
 73
    22
 74
     0
 42
0.0000000001
 43
0.0000000001
 40
0.0
 40
0.0
 40
0.0
 40
0.0
 40
1.0
 40
1.0
 40
1.0
 40
2.0
 40
2.0
 40
2.0
 40
3.0
 40
3.0
 40
3.0
 40
4.0
 40
4.0
 40
4.0
 40
5.0
 40
5.0
 40
5.0
 40
6.0
 40
6.0
 40
6.0
 40
7.0
 40
7.0
 40
7.0
 40
7.0
 10
51.98486887373389
 20
-61.12573130456368
 30
0.0
 10
52.72993536795952
 20
-62.03730895292248
 30
0.0
 10
54.82931599835169
 20
-62.02355010282826
 30
0.0
 10
54.82931599835169
 20
-62.02355010282826
 30
0.0
 10
57.20104084703583
 20
-62.19253069063935
 30
0.0
 10
61.26503831602784
 20
-62.51391099849832
 30
0.0
 10
61.31725035299531
 20
-62.51814469787198
 30
0.0
 10
61.31725035299531
 20
-62.51814469787198
 30
0.0
 10
61.32607033573371
 20
-62.51849728186305
 30
0.0
 10
61.32607033573371
 20
-62.51849728186305
 30
0.0
 10
61.39486189472395
 20
-62.51990896356776
 30
0.0
 10
63.01199509846192
 20
-62.57635335416847
 30
0.0
 10
63.01199509846192
 20
-64.24322781545559
 30
0.0
 10
63.01199509846192
 20
-65.28533286475222
 30
0.0
 10
62.16038902635495
 20
-65.67762225415846
 30
0.0
 10
61.46400603770526
 20
-65.82084940747688
 30
0.0
 10
61.46400603770526
 20
-65.82084940747688
 30
0.0
 10
53.37128430197277
 20
-66.51758565298784
 30
0.0
 10
53.37128430197277
 20
-66.51758565298784
 30
0.0
 10
53.36952138201742
 20
-66.51723306899679
 30
0.0
 10
53.34235761156048
 20
-66.51511621930994
 30
0.0
 10
53.29967072531356
 20
-66.51441105132781
 30
0.0
  0
SPLINE
  5
7F
330
79
100
AcDbEntity
  8
Camada 1
 62
    28
420
  1184269
370
     9
100
AcDbSpline
210
0.0
220
0.0
230
1.0
 70
    11
 71
     3
 72
   254
 73
   250
 74
     0
 42
0.0000000001
 43
0.0000000001
 40
0.0
 40
0.0
 40
0.0
 40
0.0
 40
1.0
 40
1.0
 40
1.0
 40
2.0
 40
2.0
 40
2.0
 40
3.0
 40
3.0
 40
3.0
 40
4.0
 40
4.0
 40
4.0
 40
5.0
 40
5.0
 40
5.0
 40
6.0
 40
6.0
 40
6.0
 40
7.0
 40
7.0
 40
7.0
 40
8.0
 40
8.0
 40
8.0
 40
9.0
 40
9.0
 40
9.0
 40
10.0
 40
10.0
 40
10.0
 40
11.0
 40
11.0
 40
11.0
 40
12.0
 40
12.0
 40
12.0
 40
13.0
 40
13.0
 40
13.0
 40
14.0
 40
14.0
 40
14.0
 40
15.0
 40
15.0
 40
15.0
 40
16.0
 40
16.0
 40
16.0
 40
17.0
 40
17.0
 40
17.0
 40
18.0
 40
18.0
 40
18.0
 40
19.0
 40
19.0
 40
19.0
 40
20.0
 40
20.0
 40
20.0
 40
21.0
 40
21.0
 40
21.0
 40
22.0
 40
22.0
 40
22.0
 40
23.0
 40
23.0
 40
23.0
 40
24.0
 40
24.0
 40
24.0
 40
25.0
 40
25.0
 40
25.0
 40
26.0
 40
26.0
 40
26.0
 40
27.0
 40
27.0
 40
27.0
 40
28.0
 40
28.0
 40
28.0
 40
29.0
 40
29.0
 40
29.0
 40
30.0
 40
30.0
 40
30.0
 40
31.0
 40
31.0
 40
31.0
 40
32.0
 40
32.0
 40
32.0
 40
33.0
 40
33.0
 40
33.0
 40
34.0
 40
34.0
 40
34.0
 40
35.0
 40
35.0
 40
35.0
 40
36.0
 40
36.0
 40
36.0
 40
37.0
 40
37.0
 40
37.0
 40
38.0
 40
38.0
 40
38.0
 40
39.0
 40
39.0
 40
39.0
 40
40.0
 40
40.0
 40
40.0
 40
41.0
 40
41.0
 40
41.0
 40
42.0
 40
42.0
 40
42.0
 40
43.0
 40
43.0
 40
43.0
 40
44.0
 40
44.0
 40
44.0
 40
45.0
 40
45.0
 40
45.0
 40
46.0
 40
46.0
 40
46.0
 40
47.0
 40
47.0
 40
47.0
 40
48.0
 40
48.0
 40
48.0
 40
49.0
 40
49.0
 40
49.0
 40
50.0
 40
50.0
 40
50.0
 40
51.0
 40
51.0
 40
51.0
 40
52.0
 40
52.0
 40
52.0
 40
53.0
 40
53.0
 40
53.0
 40
54.0
 40
54.0
 40
54.0
 40
55.0
 40
55.0
 40
55.0
 40
56.0
 40
56.0
 40
56.0
 40
57.0
 40
57.0
 40
57.0
 40
58.0
 40
58.0
 40
58.0
 40
59.0
 40
59.0
 40
59.0
 40
60.0
 40
60.0
 40
60.0
 40
61.0
 40
61.0
 40
61.0
 40
62.0
 40
62.0
 40
62.0
 40
63.0
 40
63.0
 40
63.0
 40
64.0
 40
64.0
 40
64.0
 40
65.0
 40
65.0
 40
65.0
 40
66.0
 40
66.0
 40
66.0
 40
67.0
 40
67.0
 40
67.0
 40
68.0
 40
68.0
 40
68.0
 40
69.0
 40
69.0
 40
69.0
 40
70.0
 40
70.0
 40
70.0
 40
71.0
 40
71.0
 40
71.0
 40
72.0
 40
72.0
 40
72.0
 40
73.0
 40
73.0
 40
73.0
 40
74.0
 40
74.0
 40
74.0
 40
75.0
 40
75.0
 40
75.0
 40
76.0
 40
76.0
 40
76.0
 40
77.0
 40
77.0
 40
77.0
 40
78.0
 40
78.0
 40
78.0
 40
79.0
 40
79.0
 40
79.0
 40
80.0
 40
80.0
 40
80.0
 40
81.0
 40
81.0
 40
81.0
 40
82.0
 40
82.0
 40
82.0
 40
83.0
 40
83.0
 40
83.0
 40
83.0
 10
45.25175137977377
 20
-76.65924159358124
 30
0.0
 10
45.25175137977377
 20
-76.65924159358124
 30
0.0
 10
46.71754396117747
 20
-74.78634369357407
 30
0.0
 10
46.71754396117747
 20
-74.78634369357407
 30
0.0
 10
46.71754396117747
 20
-74.78634369357407
 30
0.0
 10
49.34362047868633
 20
-74.75000735638764
 30
0.0
 10
49.34362047868633
 20
-74.75000735638764
 30
0.0
 10
50.28130414552887
 20
-74.70661664789901
 30
0.0
 10
50.89725492052137
 20
-74.24871097403277
 30
0.0
 10
51.03554320648398
 20
-73.17697204773108
 30
0.0
 10
51.03554320648398
 20
-73.17697204773108
 30
0.0
 10
52.1118677432802
 20
-67.85955262076488
 30
0.0
 10
52.1118677432802
 20
-67.85955262076488
 30
0.0
 10
52.20747048873629
 20
-67.18151341983372
 30
0.0
 10
52.65691010959561
 20
-66.80933275671198
 30
0.0
 10
53.53497343843697
 20
-66.80756916388642
 30
0.0
 10
53.53497343843697
 20
-66.80756916388642
 30
0.0
 10
61.01033271747226
 20
-66.16586630014168
 30
0.0
 10
61.01033271747226
 20
-66.16586630014168
 30
0.0
 10
62.38122772140201
 20
-66.10483562617623
 30
0.0
 10
63.21907494341477
 20
-65.51111110002529
 30
0.0
 10
63.31785229053092
 20
-64.17831737184795
 30
0.0
 10
63.28116471509385
 20
-62.87656651089951
 30
0.0
 10
62.47118777726059
 20
-62.27931345335704
 30
0.0
 10
61.09923502135765
 20
-62.19394237234404
 30
0.0
 10
61.09923502135765
 20
-62.19394237234404
 30
0.0
 10
53.51274853533584
 20
-61.62879195261432
 30
0.0
 10
53.51274853533584
 20
-61.62879195261432
 30
0.0
 10
52.64879664057977
 20
-61.60903648319109
 30
0.0
 10
52.21734822344791
 20
-61.2298001030267
 30
0.0
 10
52.14644116051126
 20
-60.55140831810447
 30
0.0
 10
52.14644116051126
 20
-60.55140831810447
 30
0.0
 10
51.01790458674758
 20
-55.02232208995048
 30
0.0
 10
51.01790458674758
 20
-55.02232208995048
 30
0.0
 10
50.80835396237642
 20
-54.17671398291294
 30
0.0
 10
50.3239910317758
 20
-53.71986606101991
 30
0.0
 10
49.58633283858389
 20
-53.62073612991269
 30
0.0
 10
49.58633283858389
 20
-53.62073612991269
 30
0.0
 10
46.7171913771864
 20
-53.56570342101668
 30
0.0
 10
46.7171913771864
 20
-53.56570342101668
 30
0.0
 10
46.67944335829528
 20
-53.46798382587373
 30
0.0
 10
46.54362450601058
 20
-53.29159493702894
 30
0.0
 10
46.54362450601058
 20
-53.29159493702894
 30
0.0
 10
46.54362450601058
 20
-53.29159493702894
 30
0.0
 10
45.25175137977377
 20
-51.69245428275885
 30
0.0
 10
45.25175137977377
 20
-51.69245428275885
 30
0.0
 10
45.25175137977377
 20
-51.69245428275885
 30
0.0
 10
44.04066574266606
 20
-51.69245428275885
 30
0.0
 10
44.04066574266606
 20
-51.69245428275885
 30
0.0
 10
44.04066574266606
 20
-51.69245428275885
 30
0.0
 10
44.04066574266606
 20
-54.26067472796166
 30
0.0
 10
44.04066574266606
 20
-54.26067472796166
 30
0.0
 10
44.04066574266606
 20
-54.26067472796166
 30
0.0
 10
43.86992088915921
 20
-54.10121929087113
 30
0.0
 10
43.86992088915921
 20
-54.10121929087113
 30
0.0
 10
43.86992088915921
 20
-54.10121929087113
 30
0.0
 10
43.69952996538385
 20
-54.2603221439706
 30
0.0
 10
43.69952996538385
 20
-54.2603221439706
 30
0.0
 10
43.69952996538385
 20
-54.2603221439706
 30
0.0
 10
43.52913769586807
 20
-54.10086670688006
 30
0.0
 10
43.52913769586807
 20
-54.10086670688006
 30
0.0
 10
43.52913769586807
 20
-54.10086670688006
 30
0.0
 10
43.35839418810165
 20
-54.26067472796166
 30
0.0
 10
43.35839418810165
 20
-54.26067472796166
 30
0.0
 10
43.35839418810165
 20
-54.26067472796166
 30
0.0
 10
43.18235788324793
 20
-54.05112544933092
 30
0.0
 10
43.18235788324793
 20
-54.05112544933092
 30
0.0
 10
43.18235788324793
 20
-54.05112544933092
 30
0.0
 10
43.01725706507902
 20
-54.2603221439706
 30
0.0
 10
43.01725706507902
 20
-54.2603221439706
 30
0.0
 10
43.01725706507902
 20
-54.2603221439706
 30
0.0
 10
42.8465135573126
 20
-54.10086670688006
 30
0.0
 10
42.8465135573126
 20
-54.10086670688006
 30
0.0
 10
42.8465135573126
 20
-54.10086670688006
 30
0.0
 10
42.67647387178789
 20
-54.2603221439706
 30
0.0
 10
42.67647387178789
 20
-54.2603221439706
 30
0.0
 10
42.67647387178789
 20
-54.2603221439706
 30
0.0
 10
42.50643553200361
 20
-54.10121929087113
 30
0.0
 10
42.50643553200361
 20
-54.10121929087113
 30
0.0
 10
42.50643553200361
 20
-54.10121929087113
 30
0.0
 10
42.33533809450569
 20
-54.26067472796166
 30
0.0
 10
42.33533809450569
 20
-54.26067472796166
 30
0.0
 10
42.33533809450569
 20
-54.26067472796166
 30
0.0
 10
42.17905725907519
 20
-54.11462555697428
 30
0.0
 10
42.17905725907519
 20
-54.11462555697428
 30
0.0
 10
42.17905725907519
 20
-54.11462555697428
 30
0.0
 10
41.78747371052129
 20
-54.37321092517203
 30
0.0
 10
41.78747371052129
 20
-54.37321092517203
 30
0.0
 10
41.78747371052129
 20
-54.37321092517203
 30
0.0
 10
41.78747371052129
 20
-56.76751326094837
 30
0.0
 10
41.78747371052129
 20
-56.76751326094837
 30
0.0
 10
41.78747371052129
 20
-56.76751326094837
 30
0.0
 10
42.17905725907519
 20
-57.02645255887762
 30
0.0
 10
42.17905725907519
 20
-57.02645255887762
 30
0.0
 10
42.17905725907519
 20
-57.02645255887762
 30
0.0
 10
42.33533809450569
 20
-56.8804020421498
 30
0.0
 10
42.33533809450569
 20
-56.8804020421498
 30
0.0
 10
42.33533809450569
 20
-56.8804020421498
 30
0.0
 10
42.50643553200361
 20
-57.04021140897183
 30
0.0
 10
42.50643553200361
 20
-57.04021140897183
 30
0.0
 10
42.50643553200361
 20
-57.04021140897183
 30
0.0
 10
42.67647387178789
 20
-56.8807559718813
 30
0.0
 10
42.67647387178789
 20
-56.8807559718813
 30
0.0
 10
42.67647387178789
 20
-56.8807559718813
 30
0.0
 10
42.8465135573126
 20
-57.04021140897183
 30
0.0
 10
42.8465135573126
 20
-57.04021140897183
 30
0.0
 10
42.8465135573126
 20
-57.04021140897183
 30
0.0
 10
43.01725706507902
 20
-56.8807559718813
 30
0.0
 10
43.01725706507902
 20
-56.8807559718813
 30
0.0
 10
43.01725706507902
 20
-56.8807559718813
 30
0.0
 10
43.18729675060374
 20
-57.04021140897183
 30
0.0
 10
43.18729675060374
 20
-57.04021140897183
 30
0.0
 10
43.18729675060374
 20
-57.04021140897183
 30
0.0
 10
43.35839418810165
 20
-56.8804020421498
 30
0.0
 10
43.35839418810165
 20
-56.8804020421498
 30
0.0
 10
43.35839418810165
 20
-56.8804020421498
 30
0.0
 10
43.52913769586807
 20
-57.04021140897183
 30
0.0
 10
43.52913769586807
 20
-57.04021140897183
 30
0.0
 10
43.52913769586807
 20
-57.04021140897183
 30
0.0
 10
43.69952996538385
 20
-56.8807559718813
 30
0.0
 10
43.69952996538385
 20
-56.8807559718813
 30
0.0
 10
43.69952996538385
 20
-56.8807559718813
 30
0.0
 10
43.86992088915921
 20
-57.04021140897183
 30
0.0
 10
43.86992088915921
 20
-57.04021140897183
 30
0.0
 10
43.86992088915921
 20
-57.04021140897183
 30
0.0
 10
44.04066574266606
 20
-56.8807559718813
 30
0.0
 10
44.04066574266606
 20
-56.8807559718813
 30
0.0
 10
44.04066574266606
 20
-56.8807559718813
 30
0.0
 10
44.06959377881876
 20
-59.68921934330374
 30
0.0
 10
44.06959377881876
 20
-59.68921934330374
 30
0.0
 10
44.06959377881876
 20
-59.68921934330374
 30
0.0
 10
45.26621539785011
 20
-59.68075329029684
 30
0.0
 10
45.26621539785011
 20
-59.68075329029684
 30
0.0
 10
45.26621539785011
 20
-59.68075329029684
 30
0.0
 10
46.54362450601058
 20
-58.09924991002272
 30
0.0
 10
46.54362450601058
 20
-58.09924991002272
 30
0.0
 10
46.54362450601058
 20
-58.09924991002272
 30
0.0
 10
46.6917905266848
 20
-57.92462528687369
 30
0.0
 10
46.71754396117747
 20
-57.82549401002605
 30
0.0
 10
46.71754396117747
 20
-57.82549401002605
 30
0.0
 10
48.03622692813974
 20
-57.82549401002605
 30
0.0
 10
48.03622692813974
 20
-57.82549401002605
 30
0.0
 10
48.0390489458087
 20
-58.70955530393684
 30
0.0
 10
47.93533273133675
 20
-59.56468856169493
 30
0.0
 10
47.73601309853848
 20
-60.39371714670971
 30
0.0
 10
47.73601309853848
 20
-60.39371714670971
 30
0.0
 10
46.9373235585109
 20
-62.93054146782233
 30
0.0
 10
46.96201924103036
 20
-64.37798891576708
 30
0.0
 10
46.98847649776474
 20
-65.94467502110356
 30
0.0
 10
47.80833251605003
 20
-68.06592729773559
 30
0.0
 10
47.80833251605003
 20
-68.06592729773559
 30
0.0
 10
47.80833251605003
 20
-68.06592729773559
 30
0.0
 10
48.03763726410402
 20
-70.52619984770341
 30
0.0
 10
48.03763726410402
 20
-70.52619984770341
 30
0.0
 10
48.03763726410402
 20
-70.52619984770341
 30
0.0
 10
46.7171913771864
 20
-70.52619984770341
 30
0.0
 10
46.7171913771864
 20
-70.52619984770341
 30
0.0
 10
46.70202084538749
 20
-70.42918542054259
 30
0.0
 10
46.54362450601058
 20
-70.25244394770673
 30
0.0
 10
46.54362450601058
 20
-70.25244394770673
 30
0.0
 10
46.54362450601058
 20
-70.25244394770673
 30
0.0
 10
45.25175137977377
 20
-68.65330262056644
 30
0.0
 10
45.25175137977377
 20
-68.65330262056644
 30
0.0
 10
45.25175137977377
 20
-68.65330262056644
 30
0.0
 10
44.04066574266606
 20
-68.66917764747729
 30
0.0
 10
44.04066574266606
 20
-68.66917764747729
 30
0.0
 10
44.04066574266606
 20
-68.66917764747729
 30
0.0
 10
44.04066574266606
 20
-71.22117182751861
 30
0.0
 10
44.04066574266606
 20
-71.22117182751861
 30
0.0
 10
44.04066574266606
 20
-71.22117182751861
 30
0.0
 10
43.86992088915921
 20
-71.06206897441914
 30
0.0
 10
43.86992088915921
 20
-71.06206897441914
 30
0.0
 10
43.86992088915921
 20
-71.06206897441914
 30
0.0
 10
43.69952996538385
 20
-71.22081924352754
 30
0.0
 10
43.69952996538385
 20
-71.22081924352754
 30
0.0
 10
43.69952996538385
 20
-71.22081924352754
 30
0.0
 10
43.52913769586807
 20
-71.06171639042807
 30
0.0
 10
43.52913769586807
 20
-71.06171639042807
 30
0.0
 10
43.52913769586807
 20
-71.06171639042807
 30
0.0
 10
43.35839418810165
 20
-71.22117182751861
 30
0.0
 10
43.35839418810165
 20
-71.22117182751861
 30
0.0
 10
43.35839418810165
 20
-71.22117182751861
 30
0.0
 10
43.18729675060374
 20
-71.06171639042807
 30
0.0
 10
43.18729675060374
 20
-71.06171639042807
 30
0.0
 10
43.18729675060374
 20
-71.06171639042807
 30
0.0
 10
43.02325503014846
 20
-71.21517453531938
 30
0.0
 10
43.01725706507902
 20
-71.22081924352754
 30
0.0
 10
43.01126044575001
 20
-71.22646327886548
 30
0.0
 10
42.8465135573126
 20
-71.06171639042807
 30
0.0
 10
42.8465135573126
 20
-71.06171639042807
 30
0.0
 10
42.8465135573126
 20
-71.06171639042807
 30
0.0
 10
42.67647387178789
 20
-71.22081924352754
 30
0.0
 10
42.67647387178789
 20
-71.22081924352754
 30
0.0
 10
42.67647387178789
 20
-71.22081924352754
 30
0.0
 10
42.50643553200361
 20
-71.06206897441914
 30
0.0
 10
42.50643553200361
 20
-71.06206897441914
 30
0.0
 10
42.50643553200361
 20
-71.06206897441914
 30
0.0
 10
42.34027696186149
 20
-71.21658554415387
 30
0.0
 10
42.34027696186149
 20
-71.21658554415387
 30
0.0
 10
42.34027696186149
 20
-71.21658554415387
 30
0.0
 10
42.17905725907519
 20
-71.07547456765208
 30
0.0
 10
42.17905725907519
 20
-71.07547456765208
 30
0.0
 10
42.17905725907519
 20
-71.07547456765208
 30
0.0
 10
41.78747371052129
 20
-71.33406060872004
 30
0.0
 10
41.78747371052129
 20
-71.33406060872004
 30
0.0
 10
41.78747371052129
 20
-71.33406060872004
 30
0.0
 10
41.78747371052129
 20
-73.72836361736659
 30
0.0
 10
41.78747371052129
 20
-73.72836361736659
 30
0.0
 10
41.78747371052129
 20
-73.72836361736659
 30
0.0
 10
42.17905725907519
 20
-73.98730224242562
 30
0.0
 10
42.17905725907519
 20
-73.98730224242562
 30
0.0
 10
42.17905725907519
 20
-73.98730224242562
 30
0.0
 10
42.33533809450569
 20
-73.84125239856803
 30
0.0
 10
42.33533809450569
 20
-73.84125239856803
 30
0.0
 10
42.33533809450569
 20
-73.84125239856803
 30
0.0
 10
42.50643553200361
 20
-74.00070850852877
 30
0.0
 10
42.50643553200361
 20
-74.00070850852877
 30
0.0
 10
42.50643553200361
 20
-74.00070850852877
 30
0.0
 10
42.67647387178789
 20
-73.84160498255909
 30
0.0
 10
42.67647387178789
 20
-73.84160498255909
 30
0.0
 10
42.67647387178789
 20
-73.84160498255909
 30
0.0
 10
42.8465135573126
 20
-74.00070850852877
 30
0.0
 10
42.8465135573126
 20
-74.00070850852877
 30
0.0
 10
42.8465135573126
 20
-74.00070850852877
 30
0.0
 10
43.01725706507902
 20
-73.84125239856803
 30
0.0
 10
43.01725706507902
 20
-73.84125239856803
 30
0.0
 10
43.01725706507902
 20
-73.84125239856803
 30
0.0
 10
43.19752706930642
 20
-73.9915359417993
 30
0.0
 10
43.19752706930642
 20
-73.9915359417993
 30
0.0
 10
43.19752706930642
 20
-73.9915359417993
 30
0.0
 10
43.35839418810165
 20
-73.84125239856803
 30
0.0
 10
43.35839418810165
 20
-73.84125239856803
 30
0.0
 10
43.35839418810165
 20
-73.84125239856803
 30
0.0
 10
43.52913769586807
 20
-74.00106109251985
 30
0.0
 10
43.52913769586807
 20
-74.00106109251985
 30
0.0
 10
43.52913769586807
 20
-74.00106109251985
 30
0.0
 10
43.69952996538385
 20
-73.84125239856803
 30
0.0
 10
43.69952996538385
 20
-73.84125239856803
 30
0.0
 10
43.69952996538385
 20
-73.84125239856803
 30
0.0
 10
43.86992088915921
 20
-74.00070850852877
 30
0.0
 10
43.86992088915921
 20
-74.00070850852877
 30
0.0
 10
43.86992088915921
 20
-74.00070850852877
 30
0.0
 10
44.06888861083662
 20
-73.86806358503389
 30
0.0
 10
44.06888861083662
 20
-73.86806358503389
 30
0.0
 10
44.06888861083662
 20
-73.86806358503389
 30
0.0
 10
44.06888861083662
 20
-76.67052966425713
 30
0.0
 10
44.06888861083662
 20
-76.67052966425713
 30
0.0
 10
44.06888861083662
 20
-76.67052966425713
 30
0.0
 10
45.25175137977377
 20
-76.65924159358124
 30
0.0
 10
45.25175137977377
 20
-76.65924159358124
 30
0.0
  0
SPLINE
  5
80
330
79
100
AcDbEntity
  8
Camada 1
 62
    28
420
  1184269
370
     9
100
AcDbSpline
210
0.0
220
0.0
230
1.0
 70
    24
 71
     3
 72
     8
 73
     4
 74
     0
 42
0.0000000001
 43
0.0000000001
 40
0.0
 40
0.0
 40
0.0
 40
0.0
 40
1.0
 40
1.0
 40
1.0
 40
1.0
 10
44.04066574266606
 20
-56.8807559718813
 30
0.0
 10
44.04066574266606
 20
-56.8807559718813
 30
0.0
 10
44.04066574266606
 20
-54.26067472796166
 30
0.0
 10
44.04066574266606
 20
-54.26067472796166
 30
0.0
  0
SPLINE
  5
81
330
79
100
AcDbEntity
  8
Camada 1
 62
    28
420
  1184269
370
     9
100
AcDbSpline
210
0.0
220
0.0
230
1.0
 70
    24
 71
     3
 72
     8
 73
     4
 74
     0
 42
0.0000000001
 43
0.0000000001
 40
0.0
 40
0.0
 40
0.0
 40
0.0
 40
1.0
 40
1.0
 40
1.0
 40
1.0
 10
44.04066574266606
 20
-71.22117182751861
 30
0.0
 10
44.04066574266606
 20
-71.22117182751861
 30
0.0
 10
44.06888861083662
 20
-73.86806358503389
 30
0.0
 10
44.06888861083662
 20
-73.86806358503389
 30
0.0
  0
SPLINE
  5
82
330
79
100
AcDbEntity
  8
Camada 1
 62
    28
420
  1184269
370
     9
100
AcDbSpline
210
0.0
220
0.0
230
1.0
 70
     8
 71
     3
 72
     8
 73
     4
 74
     0
 42
0.0000000001
 43
0.0000000001
 40
0.0
 40
0.0
 40
0.0
 40
0.0
 40
1.0
 40
1.0
 40
1.0
 40
1.0
 10
48.03622692813974
 20
-57.82549401002605
 30
0.0
 10
48.13500427525589
 20
-56.30325838376205
 30
0.0
 10
48.17663206378917
 20
-54.87062753788473
 30
0.0
 10
48.11983508919739
 20
-53.59251326174213
 30
0.0
  0
SPLINE
  5
83
330
79
100
AcDbEntity
  8
Camada 1
 62
    28
420
  1184269
370
     9
100
AcDbSpline
210
0.0
220
0.0
230
1.0
 70
    24
 71
     3
 72
     8
 73
     4
 74
     0
 42
0.0000000001
 43
0.0000000001
 40
0.0
 40
0.0
 40
0.0
 40
0.0
 40
1.0
 40
1.0
 40
1.0
 40
1.0
 10
46.71754396117747
 20
-56.76045888964615
 30
0.0
 10
46.71754396117747
 20
-56.76045888964615
 30
0.0
 10
48.09866793806946
 20
-56.76045888964615
 30
0.0
 10
48.09866793806946
 20
-56.76045888964615
 30
0.0
  0
SPLINE
  5
84
330
79
100
AcDbEntity
  8
Camada 1
 62
    28
420
  1184269
370
     9
100
AcDbSpline
210
0.0
220
0.0
230
1.0
 70
    24
 71
     3
 72
     8
 73
     4
 74
     0
 42
0.0000000001
 43
0.0000000001
 40
0.0
 40
0.0
 40
0.0
 40
0.0
 40
1.0
 40
1.0
 40
1.0
 40
1.0
 10
46.71754396117747
 20
-54.68259664863255
 30
0.0
 10
46.71754396117747
 20
-54.68259664863255
 30
0.0
 10
48.11983508919739
 20
-54.68259664863255
 30
0.0
 10
48.11983508919739
 20
-54.68259664863255
 30
0.0
  0
SPLINE
  5
85
330
79
100
AcDbEntity
  8
Camada 1
 62
    28
420
  1184269
370
     9
100
AcDbSpline
210
0.0
220
0.0
230
1.0
 70
    24
 71
     3
 72
     8
 73
     4
 74
     0
 42
0.0000000001
 43
0.0000000001
 40
0.0
 40
0.0
 40
0.0
 40
0.0
 40
1.0
 40
1.0
 40
1.0
 40
1.0
 10
46.7171913771864
 20
-53.83769370957715
 30
0.0
 10
46.7171913771864
 20
-53.83769370957715
 30
0.0
 10
48.14558717794963
 20
-53.83769370957715
 30
0.0
 10
48.14558717794963
 20
-53.83769370957715
 30
0.0
  0
SPLINE
  5
86
330
79
100
AcDbEntity
  8
Camada 1
 62
    28
420
  1184269
370
     9
100
AcDbSpline
210
0.0
220
0.0
230
1.0
 70
    24
 71
     3
 72
     8
 73
     4
 74
     0
 42
0.0000000001
 43
0.0000000001
 40
0.0
 40
0.0
 40
0.0
 40
0.0
 40
1.0
 40
1.0
 40
1.0
 40
1.0
 10
46.71754396117747
 20
-57.55314979173409
 30
0.0
 10
46.71754396117747
 20
-57.55314979173409
 30
0.0
 10
48.03622692813974
 20
-57.55314979173409
 30
0.0
 10
48.03622692813974
 20
-57.55314979173409
 30
0.0
  0
SPLINE
  5
87
330
79
100
AcDbEntity
  8
Camada 1
 62
    28
420
  1184269
370
     9
100
AcDbSpline
210
0.0
220
0.0
230
1.0
 70
     8
 71
     3
 72
     8
 73
     4
 74
     0
 42
0.0000000001
 43
0.0000000001
 40
0.0
 40
0.0
 40
0.0
 40
0.0
 40
1.0
 40
1.0
 40
1.0
 40
1.0
 10
53.37128430197277
 20
-66.51758565298784
 30
0.0
 10
53.32365989411046
 20
-66.52146609550024
 30
0.0
 10
52.42795659979229
 20
-66.4805441478193
 30
0.0
 10
51.90549306630948
 20
-67.44221631058852
 30
0.0
  0
SPLINE
  5
88
330
79
100
AcDbEntity
  8
Camada 1
 62
    28
420
  1184269
370
     9
100
AcDbSpline
210
0.0
220
0.0
230
1.0
 70
     8
 71
     3
 72
     8
 73
     4
 74
     0
 42
0.0000000001
 43
0.0000000001
 40
0.0
 40
0.0
 40
0.0
 40
0.0
 40
1.0
 40
1.0
 40
1.0
 40
1.0
 10
48.03763726410402
 20
-70.52619984770341
 30
0.0
 10
48.09619850439156
 20
-71.86746097462808
 30
0.0
 10
48.07503269900406
 20
-73.86806358503389
 30
0.0
 10
48.03763726410402
 20
-74.76799990585553
 30
0.0
  0
SPLINE
  5
89
330
79
100
AcDbEntity
  8
Camada 1
 62
    28
420
  1184269
370
     9
100
AcDbSpline
210
0.0
220
0.0
230
1.0
 70
    24
 71
     3
 72
     8
 73
     4
 74
     0
 42
0.0000000001
 43
0.0000000001
 40
0.0
 40
0.0
 40
0.0
 40
0.0
 40
1.0
 40
1.0
 40
1.0
 40
1.0
 10
48.05316037989399
 20
-70.79889664998645
 30
0.0
 10
48.05316037989399
 20
-70.79889664998645
 30
0.0
 10
46.71295767781272
 20
-70.79889664998645
 30
0.0
 10
46.71295767781272
 20
-70.79889664998645
 30
0.0
  0
SPLINE
  5
8A
330
79
100
AcDbEntity
  8
Camada 1
 62
    28
420
  1184269
370
     9
100
AcDbSpline
210
0.0
220
0.0
230
1.0
 70
     8
 71
     3
 72
    20
 73
    16
 74
     0
 42
0.0000000001
 43
0.0000000001
 40
0.0
 40
0.0
 40
0.0
 40
0.0
 40
1.0
 40
1.0
 40
1.0
 40
2.0
 40
2.0
 40
2.0
 40
3.0
 40
3.0
 40
3.0
 40
4.0
 40
4.0
 40
4.0
 40
5.0
 40
5.0
 40
5.0
 40
5.0
 10
54.17138485083484
 20
-66.44879409399762
 30
0.0
 10
53.25098721973763
 20
-66.52781664456075
 30
0.0
 10
52.37292389089627
 20
-66.69221094900709
 30
0.0
 10
52.37292389089627
 20
-66.69221094900709
 30
0.0
 10
52.37292389089627
 20
-66.69221094900709
 30
0.0
 10
49.07409827806334
 20
-68.7330303391117
 30
0.0
 10
47.38358857771017
 20
-65.36400350419448
 30
0.0
 10
47.38358857771017
 20
-65.36400350419448
 30
0.0
 10
47.06044400415544
 20
-64.0731894756713
 30
0.0
 10
47.45132103898678
 20
-63.01944242596729
 30
0.0
 10
48.63735975532438
 20
-59.82362785962417
 30
0.0
 10
52.27414654378012
 20
-61.48626996727804
 30
0.0
 10
52.29425459719442
 20
-61.50355600302336
 30
0.0
 10
52.29425459719442
 20
-61.50355600302336
 30
0.0
 10
53.16737905867997
 20
-61.79741995643433
 30
0.0
 10
53.16737905867997
 20
-61.79741995643433
 30
0.0
  0
SPLINE
  5
8B
330
79
100
AcDbEntity
  8
Camada 1
 62
    28
420
  1184269
370
     9
100
AcDbSpline
210
0.0
220
0.0
230
1.0
 70
    24
 71
     3
 72
     8
 73
     4
 74
     0
 42
0.0000000001
 43
0.0000000001
 40
0.0
 40
0.0
 40
0.0
 40
0.0
 40
1.0
 40
1.0
 40
1.0
 40
1.0
 10
46.71754396117747
 20
-73.64793005796897
 30
0.0
 10
46.71754396117747
 20
-73.64793005796897
 30
0.0
 10
48.09619850439156
 20
-73.64793005796897
 30
0.0
 10
48.09619850439156
 20
-73.64793005796897
 30
0.0
  0
SPLINE
  5
8C
330
79
100
AcDbEntity
  8
Camada 1
 62
    28
420
  1184269
370
     9
100
AcDbSpline
210
0.0
220
0.0
230
1.0
 70
    24
 71
     3
 72
     8
 73
     4
 74
     0
 42
0.0000000001
 43
0.0000000001
 40
0.0
 40
0.0
 40
0.0
 40
0.0
 40
1.0
 40
1.0
 40
1.0
 40
1.0
 10
46.71754396117747
 20
-71.66179146563952
 30
0.0
 10
46.71754396117747
 20
-71.66179146563952
 30
0.0
 10
48.05598239756297
 20
-71.66179146563952
 30
0.0
 10
48.05598239756297
 20
-71.66179146563952
 30
0.0
  0
SPLINE
  5
8D
330
79
100
AcDbEntity
  8
Camada 1
 62
    28
420
  1184269
370
     9
100
AcDbSpline
210
0.0
220
0.0
230
1.0
 70
    24
 71
     3
 72
     8
 73
     4
 74
     0
 42
0.0000000001
 43
0.0000000001
 40
0.0
 40
0.0
 40
0.0
 40
0.0
 40
1.0
 40
1.0
 40
1.0
 40
1.0
 10
38.99523862287097
 20
-33.15045245718803
 30
0.0
 10
38.99523862287097
 20
-33.15045245718803
 30
0.0
 10
38.94972971895506
 20
-35.72573131091368
 30
0.0
 10
38.94972971895506
 20
-35.72573131091368
 30
0.0
  0
SPLINE
  5
8E
330
79
100
AcDbEntity
  8
Camada 1
 62
    28
420
  1184269
370
     9
100
AcDbSpline
210
0.0
220
0.0
230
1.0
 70
    24
 71
     3
 72
     8
 73
     4
 74
     0
 42
0.0000000001
 43
0.0000000001
 40
0.0
 40
0.0
 40
0.0
 40
0.0
 40
1.0
 40
1.0
 40
1.0
 40
1.0
 10
41.439988729919
 20
-33.70219795655503
 30
0.0
 10
41.439988729919
 20
-33.70219795655503
 30
0.0
 10
41.439988729919
 20
-37.82228723215668
 30
0.0
 10
41.439988729919
 20
-37.82228723215668
 30
0.0
  0
SPLINE
  5
8F
330
79
100
AcDbEntity
  8
Camada 1
 62
    28
420
  1184269
370
     9
100
AcDbSpline
210
0.0
220
0.0
230
1.0
 70
     8
 71
     3
 72
   251
 73
   247
 74
     0
 42
0.0000000001
 43
0.0000000001
 40
0.0
 40
0.0
 40
0.0
 40
0.0
 40
1.0
 40
1.0
 40
1.0
 40
2.0
 40
2.0
 40
2.0
 40
3.0
 40
3.0
 40
3.0
 40
4.0
 40
4.0
 40
4.0
 40
5.0
 40
5.0
 40
5.0
 40
6.0
 40
6.0
 40
6.0
 40
7.0
 40
7.0
 40
7.0
 40
8.0
 40
8.0
 40
8.0
 40
9.0
 40
9.0
 40
9.0
 40
10.0
 40
10.0
 40
10.0
 40
11.0
 40
11.0
 40
11.0
 40
12.0
 40
12.0
 40
12.0
 40
13.0
 40
13.0
 40
13.0
 40
14.0
 40
14.0
 40
14.0
 40
15.0
 40
15.0
 40
15.0
 40
16.0
 40
16.0
 40
16.0
 40
17.0
 40
17.0
 40
17.0
 40
18.0
 40
18.0
 40
18.0
 40
19.0
 40
19.0
 40
19.0
 40
20.0
 40
20.0
 40
20.0
 40
21.0
 40
21.0
 40
21.0
 40
22.0
 40
22.0
 40
22.0
 40
23.0
 40
23.0
 40
23.0
 40
24.0
 40
24.0
 40
24.0
 40
25.0
 40
25.0
 40
25.0
 40
26.0
 40
26.0
 40
26.0
 40
27.0
 40
27.0
 40
27.0
 40
28.0
 40
28.0
 40
28.0
 40
29.0
 40
29.0
 40
29.0
 40
30.0
 40
30.0
 40
30.0
 40
31.0
 40
31.0
 40
31.0
 40
32.0
 40
32.0
 40
32.0
 40
33.0
 40
33.0
 40
33.0
 40
34.0
 40
34.0
 40
34.0
 40
35.0
 40
35.0
 40
35.0
 40
36.0
 40
36.0
 40
36.0
 40
37.0
 40
37.0
 40
37.0
 40
38.0
 40
38.0
 40
38.0
 40
39.0
 40
39.0
 40
39.0
 40
40.0
 40
40.0
 40
40.0
 40
41.0
 40
41.0
 40
41.0
 40
42.0
 40
42.0
 40
42.0
 40
43.0
 40
43.0
 40
43.0
 40
44.0
 40
44.0
 40
44.0
 40
45.0
 40
45.0
 40
45.0
 40
46.0
 40
46.0
 40
46.0
 40
47.0
 40
47.0
 40
47.0
 40
48.0
 40
48.0
 40
48.0
 40
49.0
 40
49.0
 40
49.0
 40
50.0
 40
50.0
 40
50.0
 40
51.0
 40
51.0
 40
51.0
 40
52.0
 40
52.0
 40
52.0
 40
53.0
 40
53.0
 40
53.0
 40
54.0
 40
54.0
 40
54.0
 40
55.0
 40
55.0
 40
55.0
 40
56.0
 40
56.0
 40
56.0
 40
57.0
 40
57.0
 40
57.0
 40
58.0
 40
58.0
 40
58.0
 40
59.0
 40
59.0
 40
59.0
 40
60.0
 40
60.0
 40
60.0
 40
61.0
 40
61.0
 40
61.0
 40
62.0
 40
62.0
 40
62.0
 40
63.0
 40
63.0
 40
63.0
 40
64.0
 40
64.0
 40
64.0
 40
65.0
 40
65.0
 40
65.0
 40
66.0
 40
66.0
 40
66.0
 40
67.0
 40
67.0
 40
67.0
 40
68.0
 40
68.0
 40
68.0
 40
69.0
 40
69.0
 40
69.0
 40
70.0
 40
70.0
 40
70.0
 40
71.0
 40
71.0
 40
71.0
 40
72.0
 40
72.0
 40
72.0
 40
73.0
 40
73.0
 40
73.0
 40
74.0
 40
74.0
 40
74.0
 40
75.0
 40
75.0
 40
75.0
 40
76.0
 40
76.0
 40
76.0
 40
77.0
 40
77.0
 40
77.0
 40
78.0
 40
78.0
 40
78.0
 40
79.0
 40
79.0
 40
79.0
 40
80.0
 40
80.0
 40
80.0
 40
81.0
 40
81.0
 40
81.0
 40
82.0
 40
82.0
 40
82.0
 40
82.0
 10
42.07675138056751
 20
-33.70219795655503
 30
0.0
 10
42.07675138056751
 20
-33.70219795655503
 30
0.0
 10
43.01267078171428
 20
-33.70219795655503
 30
0.0
 10
43.01267078171428
 20
-33.70219795655503
 30
0.0
 10
43.01267078171428
 20
-33.70219795655503
 30
0.0
 10
43.05253565029223
 20
-37.81452769287232
 30
0.0
 10
43.05253565029223
 20
-37.81452769287232
 30
0.0
 10
43.05253565029223
 20
-37.81452769287232
 30
0.0
 10
41.439988729919
 20
-37.82228723215668
 30
0.0
 10
41.439988729919
 20
-37.82228723215668
 30
0.0
 10
41.439988729919
 20
-37.82228723215668
 30
0.0
 10
39.96925728115949
 20
-39.61051787339256
 30
0.0
 10
39.96925728115949
 20
-39.61051787339256
 30
0.0
 10
39.96925728115949
 20
-39.61051787339256
 30
0.0
 10
38.98747639210576
 20
-39.61051787339256
 30
0.0
 10
38.98747639210576
 20
-39.61051787339256
 30
0.0
 10
38.98747639210576
 20
-39.61051787339256
 30
0.0
 10
38.98747639210576
 20
-35.68939362798748
 30
0.0
 10
38.98747639210576
 20
-35.68939362798748
 30
0.0
 10
38.98747639210576
 20
-35.68939362798748
 30
0.0
 10
38.82766837102415
 20
-35.4939544377016
 30
0.0
 10
38.82766837102415
 20
-35.4939544377016
 30
0.0
 10
38.82766837102415
 20
-35.4939544377016
 30
0.0
 10
38.67562123496733
 20
-35.76171371836924
 30
0.0
 10
38.67562123496733
 20
-35.76171371836924
 30
0.0
 10
38.67562123496733
 20
-35.76171371836924
 30
0.0
 10
38.47771261100354
 20
-35.4939544377016
 30
0.0
 10
38.47771261100354
 20
-35.4939544377016
 30
0.0
 10
38.47771261100354
 20
-35.4939544377016
 30
0.0
 10
38.3334263599715
 20
-35.76171371836924
 30
0.0
 10
38.3334263599715
 20
-35.76171371836924
 30
0.0
 10
38.3334263599715
 20
-35.76171371836924
 30
0.0
 10
38.15068826780663
 20
-35.47878525164311
 30
0.0
 10
38.15068826780663
 20
-35.47878525164311
 30
0.0
 10
38.15068826780663
 20
-35.47878525164311
 30
0.0
 10
37.96794882990133
 20
-35.76171371836924
 30
0.0
 10
37.96794882990133
 20
-35.76171371836924
 30
0.0
 10
37.96794882990133
 20
-35.76171371836924
 30
0.0
 10
37.79297162276124
 20
-35.48619489841724
 30
0.0
 10
37.79297162276124
 20
-35.48619489841724
 30
0.0
 10
37.79297162276124
 20
-35.48619489841724
 30
0.0
 10
37.64092448670441
 20
-35.76171371836924
 30
0.0
 10
37.64092448670441
 20
-35.76171371836924
 30
0.0
 10
37.64092448670441
 20
-35.76171371836924
 30
0.0
 10
37.45818504879912
 20
-35.46361606558461
 30
0.0
 10
37.45818504879912
 20
-35.46361606558461
 30
0.0
 10
37.45818504879912
 20
-35.46361606558461
 30
0.0
 10
37.29837702771752
 20
-35.76171371836924
 30
0.0
 10
37.29837702771752
 20
-35.76171371836924
 30
0.0
 10
37.29837702771752
 20
-35.76171371836924
 30
0.0
 10
37.1082292887785
 20
-35.47878525164311
 30
0.0
 10
37.1082292887785
 20
-35.47878525164311
 30
0.0
 10
37.1082292887785
 20
-35.47878525164311
 30
0.0
 10
36.96359045375539
 20
-35.76171371836924
 30
0.0
 10
36.96359045375539
 20
-35.76171371836924
 30
0.0
 10
36.96359045375539
 20
-35.76171371836924
 30
0.0
 10
36.68207366873395
 20
-35.54722422664227
 30
0.0
 10
36.68207366873395
 20
-35.54722422664227
 30
0.0
 10
36.68207366873395
 20
-35.54722422664227
 30
0.0
 10
36.68207366873395
 20
-33.29967622983545
 30
0.0
 10
36.68207366873395
 20
-33.29967622983545
 30
0.0
 10
36.68207366873395
 20
-33.29967622983545
 30
0.0
 10
36.94066038267212
 20
-33.15045245718803
 30
0.0
 10
36.94066038267212
 20
-33.15045245718803
 30
0.0
 10
36.94066038267212
 20
-33.15045245718803
 30
0.0
 10
37.12339982057742
 20
-33.29967622983545
 30
0.0
 10
37.12339982057742
 20
-33.29967622983545
 30
0.0
 10
37.12339982057742
 20
-33.29967622983545
 30
0.0
 10
37.27544695663424
 20
-33.15045245718803
 30
0.0
 10
37.27544695663424
 20
-33.15045245718803
 30
0.0
 10
37.27544695663424
 20
-33.15045245718803
 30
0.0
 10
37.42784667668214
 20
-33.29967622983545
 30
0.0
 10
37.42784667668214
 20
-33.29967622983545
 30
0.0
 10
37.42784667668214
 20
-33.29967622983545
 30
0.0
 10
37.64092448670441
 20
-33.15045245718803
 30
0.0
 10
37.64092448670441
 20
-33.15045245718803
 30
0.0
 10
37.64092448670441
 20
-33.15045245718803
 30
0.0
 10
37.76263190490383
 20
-33.29967622983545
 30
0.0
 10
37.76263190490383
 20
-33.29967622983545
 30
0.0
 10
37.76263190490383
 20
-33.29967622983545
 30
0.0
 10
37.94501875881806
 20
-33.15045245718803
 30
0.0
 10
37.94501875881806
 20
-33.15045245718803
 30
0.0
 10
37.94501875881806
 20
-33.15045245718803
 30
0.0
 10
38.11258766492444
 20
-33.36352892146988
 30
0.0
 10
38.11258766492444
 20
-33.36352892146988
 30
0.0
 10
38.11258766492444
 20
-33.36352892146988
 30
0.0
 10
38.31049628888823
 20
-33.15045245718803
 30
0.0
 10
38.31049628888823
 20
-33.15045245718803
 30
0.0
 10
38.31049628888823
 20
-33.15045245718803
 30
0.0
 10
38.46254342494506
 20
-33.36352892146988
 30
0.0
 10
38.46254342494506
 20
-33.36352892146988
 30
0.0
 10
38.46254342494506
 20
-33.36352892146988
 30
0.0
 10
38.66045204890884
 20
-33.15045245718803
 30
0.0
 10
38.66045204890884
 20
-33.15045245718803
 30
0.0
 10
38.66045204890884
 20
-33.15045245718803
 30
0.0
 10
38.81708546833041
 20
-33.36352892146988
 30
0.0
 10
38.81708546833041
 20
-33.36352892146988
 30
0.0
 10
38.81708546833041
 20
-33.36352892146988
 30
0.0
 10
38.99523862287097
 20
-33.15045245718803
 30
0.0
 10
38.99523862287097
 20
-33.15045245718803
 30
0.0
 10
38.99523862287097
 20
-33.15045245718803
 30
0.0
 10
38.99523862287097
 20
-31.9026765531624
 30
0.0
 10
38.99523862287097
 20
-31.9026765531624
 30
0.0
 10
38.99523862287097
 20
-31.9026765531624
 30
0.0
 10
39.96925728115949
 20
-31.9026765531624
 30
0.0
 10
39.96925728115949
 20
-31.9026765531624
 30
0.0
 10
39.96925728115949
 20
-31.9026765531624
 30
0.0
 10
41.439988729919
 20
-33.70219795655503
 30
0.0
 10
41.439988729919
 20
-33.70219795655503
 30
0.0
 10
41.439988729919
 20
-33.70219795655503
 30
0.0
 10
42.07675138056751
 20
-33.70219795655503
 30
0.0
 10
42.07675138056751
 20
-33.70219795655503
 30
0.0
 10
42.07675138056751
 20
-33.70219795655503
 30
0.0
 10
42.22774076465113
 20
-30.17512803912218
 30
0.0
 10
42.50996271765472
 20
-29.34362732894865
 30
0.0
 10
42.50996271765472
 20
-29.34362732894865
 30
0.0
 10
41.95222194469912
 20
-29.34362732894865
 30
0.0
 10
41.95222194469912
 20
-29.34362732894865
 30
0.0
 10
41.95222194469912
 20
-29.34362732894865
 30
0.0
 10
42.41929883955442
 20
-27.27634933636922
 30
0.0
 10
42.41929883955442
 20
-27.27634933636922
 30
0.0
 10
42.52372156774892
 20
-26.99659681704355
 30
0.0
 10
42.72621647507746
 20
-26.78916438809963
 30
0.0
 10
43.07617088935765
 20
-26.69179737694776
 30
0.0
 10
43.07617088935765
 20
-26.69179737694776
 30
0.0
 10
47.93921250097893
 20
-25.12228723533168
 30
0.0
 10
49.22896877752956
 20
-24.76492855723905
 30
0.0
 10
50.51872370833912
 20
-24.40756449618473
 30
0.0
 10
54.89846014133299
 20
-23.32312379889182
 30
0.0
 10
55.22654358224354
 20
-23.32912041822083
 30
0.0
 10
55.5542730934226
 20
-23.33547231302176
 30
0.0
 10
55.62482891810859
 20
-23.40708185245969
 30
0.0
 10
55.63999810416709
 20
-23.63321469033448
 30
0.0
 10
55.65516863596601
 20
-23.85969742071948
 30
0.0
 10
55.77475920447859
 20
-24.18107638283803
 30
0.0
 10
55.52463988928775
 20
-24.21776664975594
 30
0.0
 10
55.27487315808799
 20
-24.25410164120193
 30
0.0
 10
53.99146877633893
 20
-24.49822433706375
 30
0.0
 10
53.1405678722141
 20
-24.75610588301979
 30
0.0
 10
52.28966831382968
 20
-25.01398742897583
 30
0.0
 10
50.6411376402611
 20
-25.60242050377989
 30
0.0
 10
49.6840510879864
 20
-26.16545138234194
 30
0.0
 10
48.72696588145212
 20
-26.72848764386567
 30
0.0
 10
48.49765978765709
 20
-27.11583480156506
 30
0.0
 10
48.49060407061444
 20
-27.64888258348204
 30
0.0
 10
48.48390228330329
 20
-28.18193036539901
 30
0.0
 10
48.45109313176799
 20
-29.65089754846276
 30
0.0
 10
48.45109313176799
 20
-29.65089754846276
 30
0.0
 10
48.45109313176799
 20
-29.65089754846276
 30
0.0
 10
48.24895215417095
 20
-29.64101981375115
 30
0.0
 10
48.24895215417095
 20
-29.64101981375115
 30
0.0
 10
48.24895215417095
 20
-29.64101981375115
 30
0.0
 10
48.44156798104743
 20
-31.19006931796187
 30
0.0
 10
48.42251767960634
 20
-31.73510764705602
 30
0.0
 10
48.40346872390568
 20
-32.28014866763103
 30
0.0
 10
48.75166021823116
 20
-33.15433357257063
 30
0.0
 10
49.48790672971838
 20
-33.32543101006854
 30
0.0
 10
50.22415458694602
 20
-33.49652844756646
 30
0.0
 10
50.97909881588326
 20
-33.48523768540972
 30
0.0
 10
50.97909881588326
 20
-33.48523768540972
 30
0.0
 10
50.97909881588326
 20
-33.48523768540972
 30
0.0
 10
50.97909881588326
 20
-32.80755241421006
 30
0.0
 10
50.97909881588326
 20
-32.80755241421006
 30
0.0
 10
50.97909881588326
 20
-32.80755241421006
 30
0.0
 10
50.53883176175342
 20
-32.80755241421006
 30
0.0
 10
50.53883176175342
 20
-32.80755241421006
 30
0.0
 10
50.53883176175342
 20
-32.80755241421006
 30
0.0
 10
50.53883176175342
 20
-30.38220519259417
 30
0.0
 10
50.53883176175342
 20
-30.38220519259417
 30
0.0
 10
50.53883176175342
 20
-30.38220519259417
 30
0.0
 10
52.95818236404029
 20
-30.38220519259417
 30
0.0
 10
52.95818236404029
 20
-30.38220519259417
 30
0.0
 10
52.95818236404029
 20
-30.38220519259417
 30
0.0
 10
52.95818236404029
 20
-32.80755241421006
 30
0.0
 10
52.95818236404029
 20
-32.80755241421006
 30
0.0
 10
52.95818236404029
 20
-32.80755241421006
 30
0.0
 10
52.65867437529138
 20
-32.80755241421006
 30
0.0
 10
52.65867437529138
 20
-32.80755241421006
 30
0.0
 10
52.65867437529138
 20
-32.80755241421006
 30
0.0
 10
52.65867437529138
 20
-33.70219795655503
 30
0.0
 10
52.65867437529138
 20
-33.70219795655503
 30
0.0
 10
52.65867437529138
 20
-33.70219795655503
 30
0.0
 10
54.70372611902925
 20
-34.00629222866867
 30
0.0
 10
55.79169265623285
 20
-34.15092971795136
 30
0.0
 10
56.88001312316793
 20
-34.29556989871489
 30
0.0
 10
58.06358240582763
 20
-34.47477945948823
 30
0.0
 10
58.26078451606885
 20
-35.63083238769993
 30
0.0
 10
58.45834055604158
 20
-36.78688531591162
 30
0.0
 10
58.40330650140514
 20
-37.37249771878714
 30
0.0
 10
58.40330650140514
 20
-37.37249771878714
 30
0.0
 10
58.40330650140514
 20
-37.37249771878714
 30
0.0
 10
57.83286463032854
 20
-37.37249771878714
 30
0.0
 10
57.83286463032854
 20
-37.37249771878714
 30
0.0
 10
57.83286463032854
 20
-37.37249771878714
 30
0.0
 10
57.8536791974654
 20
-38.41178075041479
 30
0.0
 10
57.8536791974654
 20
-38.41178075041479
 30
0.0
 10
57.8536791974654
 20
-38.41178075041479
 30
0.0
 10
55.06955757883091
 20
-38.39308303296477
 30
0.0
 10
55.06955757883091
 20
-38.39308303296477
 30
0.0
 10
55.06955757883091
 20
-38.39308303296477
 30
0.0
 10
55.05368187904986
 20
-37.35450516931925
 30
0.0
 10
55.05368187904986
 20
-37.35450516931925
 30
0.0
 10
55.05368187904986
 20
-37.35450516931925
 30
0.0
 10
53.22241311331641
 20
-37.37249771878714
 30
0.0
 10
53.22241311331641
 20
-37.37249771878714
 30
0.0
 10
53.22241311331641
 20
-37.37249771878714
 30
0.0
 10
53.41397118821969
 20
-37.6395491399918
 30
0.0
 10
53.41397118821969
 20
-37.6395491399918
 30
0.0
 10
53.41397118821969
 20
-37.6395491399918
 30
0.0
 10
53.14762358925674
 20
-37.83004946292188
 30
0.0
 10
53.14762358925674
 20
-37.83004946292188
 30
0.0
 10
53.14762358925674
 20
-37.83004946292188
 30
0.0
 10
53.38363147036229
 20
-37.98950624575283
 30
0.0
 10
53.38363147036229
 20
-37.98950624575283
 30
0.0
 10
53.38363147036229
 20
-37.98950624575283
 30
0.0
 10
53.13245440319825
 20
-38.17224433791771
 30
0.0
 10
53.13245440319825
 20
-38.17224433791771
 30
0.0
 10
53.13245440319825
 20
-38.17224433791771
 30
0.0
 10
53.37587058533751
 20
-38.3091222879154
 30
0.0
 10
53.37587058533751
 20
-38.3091222879154
 30
0.0
 10
53.37587058533751
 20
-38.3091222879154
 30
0.0
 10
53.17055366034001
 20
-38.60615949724662
 30
0.0
 10
53.17055366034001
 20
-38.60615949724662
 30
0.0
 10
53.17055366034001
 20
-38.60615949724662
 30
0.0
 10
50.94135214273257
 20
-38.60615949724662
 30
0.0
 10
50.94135214273257
 20
-38.60615949724662
 30
0.0
 10
50.94135214273257
 20
-38.60615949724662
 30
0.0
 10
50.76002438653197
 20
-38.35498243008259
 30
0.0
 10
50.76002438653197
 20
-38.35498243008259
 30
0.0
 10
50.76002438653197
 20
-38.35498243008259
 30
0.0
 10
50.98685970090804
 20
-38.18000387720207
 30
0.0
 10
50.98685970090804
 20
-38.18000387720207
 30
0.0
 10
50.98685970090804
 20
-38.18000387720207
 30
0.0
 10
50.69758203086181
 20
-38.0050280158024
 30
0.0
 10
50.69758203086181
 20
-38.0050280158024
 30
0.0
 10
50.69758203086181
 20
-38.0050280158024
 30
0.0
 10
51.00202888696653
 20
-37.83004946292188
 30
0.0
 10
51.00202888696653
 20
-37.83004946292188
 30
0.0
 10
51.00202888696653
 20
-37.83004946292188
 30
0.0
 10
50.72827433271029
 20
-37.67024009609985
 30
0.0
 10
50.72827433271029
 20
-37.67024009609985
 30
0.0
 10
50.72827433271029
 20
-37.67024009609985
 30
0.0
 10
50.99426800194175
 20
-37.37249771878714
 30
0.0
 10
50.99426800194175
 20
-37.37249771878714
 30
0.0
 10
50.99426800194175
 20
-37.37249771878714
 30
0.0
 10
43.05253565029223
 20
-37.44199444575951
 30
0.0
 10
43.05253565029223
 20
-37.44199444575951
 30
0.0
  0
SPLINE
  5
90
330
79
100
AcDbEntity
  8
Camada 1
 62
    28
420
  1184269
370
     9
100
AcDbSpline
210
0.0
220
0.0
230
1.0
 70
     8
 71
     3
 72
    17
 73
    13
 74
     0
 42
0.0000000001
 43
0.0000000001
 40
0.0
 40
0.0
 40
0.0
 40
0.0
 40
1.0
 40
1.0
 40
1.0
 40
2.0
 40
2.0
 40
2.0
 40
3.0
 40
3.0
 40
3.0
 40
4.0
 40
4.0
 40
4.0
 40
4.0
 10
50.74520778446455
 20
-30.38220519259417
 30
0.0
 10
50.26401810978355
 20
-30.36103938720667
 30
0.0
 10
50.32010991639319
 20
-30.01919978768275
 30
0.0
 10
50.32010991639319
 20
-30.01919978768275
 30
0.0
 10
50.32010991639319
 20
-29.75637668289006
 30
0.0
 10
50.97063276287634
 20
-29.54330291008905
 30
0.0
 10
51.77320139967589
 20
-29.54330291008905
 30
0.0
 10
52.57541879822479
 20
-29.54330291008905
 30
0.0
 10
53.22594029896752
 20
-29.75637668289006
 30
0.0
 10
53.22594029896752
 20
-30.01919978768275
 30
0.0
 10
53.22594029896752
 20
-30.01919978768275
 30
0.0
 10
53.30319925670509
 20
-30.42207140691254
 30
0.0
 10
52.65867437529138
 20
-30.38220519259417
 30
0.0
  0
SPLINE
  5
91
330
79
100
AcDbEntity
  8
Camada 1
 62
    28
420
  1184269
370
     9
100
AcDbSpline
210
0.0
220
0.0
230
1.0
 70
    24
 71
     3
 72
     8
 73
     4
 74
     0
 42
0.0000000001
 43
0.0000000001
 40
0.0
 40
0.0
 40
0.0
 40
0.0
 40
1.0
 40
1.0
 40
1.0
 40
1.0
 10
50.97909881588326
 20
-32.80755241421006
 30
0.0
 10
50.97909881588326
 20
-32.80755241421006
 30
0.0
 10
52.65867437529138
 20
-32.80755241421006
 30
0.0
 10
52.65867437529138
 20
-32.80755241421006
 30
0.0
  0
SPLINE
  5
92
330
79
100
AcDbEntity
  8
Camada 1
 62
    28
420
  1184269
370
     9
100
AcDbSpline
210
0.0
220
0.0
230
1.0
 70
    24
 71
     3
 72
     8
 73
     4
 74
     0
 42
0.0000000001
 43
0.0000000001
 40
0.0
 40
0.0
 40
0.0
 40
0.0
 40
1.0
 40
1.0
 40
1.0
 40
1.0
 10
55.03886527698244
 20
-37.42294414431841
 30
0.0
 10
55.03886527698244
 20
-37.42294414431841
 30
0.0
 10
57.81628510830577
 20
-37.42294414431841
 30
0.0
 10
57.81628510830577
 20
-37.42294414431841
 30
0.0
  0
SPLINE
  5
93
330
79
100
AcDbEntity
  8
Camada 1
 62
    28
420
  1184269
370
     9
100
AcDbSpline
210
0.0
220
0.0
230
1.0
 70
     8
 71
     3
 72
    17
 73
    13
 74
     0
 42
0.0000000001
 43
0.0000000001
 40
0.0
 40
0.0
 40
0.0
 40
0.0
 40
1.0
 40
1.0
 40
1.0
 40
2.0
 40
2.0
 40
2.0
 40
3.0
 40
3.0
 40
3.0
 40
4.0
 40
4.0
 40
4.0
 40
4.0
 10
43.01796357880158
 20
-34.22713092371573
 30
0.0
 10
43.01796357880158
 20
-34.22713092371573
 30
0.0
 10
44.85769974328237
 20
-34.22713092371573
 30
0.0
 10
44.85769974328237
 20
-34.22713092371573
 30
0.0
 10
45.53679669618674
 20
-34.26664186256219
 30
0.0
 10
45.82113549887716
 20
-34.66527978241831
 30
0.0
 10
45.89663019091896
 20
-35.25441802520452
 30
0.0
 10
45.89663019091896
 20
-35.25441802520452
 30
0.0
 10
45.89663019091896
 20
-36.62390269316997
 30
0.0
 10
45.89663019091896
 20
-36.62390269316997
 30
0.0
 10
45.81266810012982
 20
-37.09627103937214
 30
0.0
 10
45.58195167037115
 20
-37.36932177138668
 30
0.0
 10
45.18895778585297
 20
-37.42329672830948
 30
0.0
  0
SPLINE
  5
94
330
79
100
AcDbEntity
  8
Camada 1
 62
    28
420
  1184269
370
     9
100
AcDbSpline
210
0.0
220
0.0
230
1.0
 70
    24
 71
     3
 72
     8
 73
     4
 74
     0
 42
0.0000000001
 43
0.0000000001
 40
0.0
 40
0.0
 40
0.0
 40
0.0
 40
1.0
 40
1.0
 40
1.0
 40
1.0
 10
50.99426800194175
 20
-37.37249771878714
 30
0.0
 10
50.99426800194175
 20
-37.37249771878714
 30
0.0
 10
53.22241311331641
 20
-37.37249771878714
 30
0.0
 10
53.22241311331641
 20
-37.37249771878714
 30
0.0
  0
SPLINE
  5
95
330
79
100
AcDbEntity
  8
Camada 1
 62
    28
420
  1184269
370
     9
100
AcDbSpline
210
0.0
220
0.0
230
1.0
 70
     8
 71
     3
 72
    11
 73
     7
 74
     0
 42
0.0000000001
 43
0.0000000001
 40
0.0
 40
0.0
 40
0.0
 40
0.0
 40
1.0
 40
1.0
 40
1.0
 40
2.0
 40
2.0
 40
2.0
 40
2.0
 10
42.50996271765472
 20
-29.34362732894865
 30
0.0
 10
42.50996271765472
 20
-29.34362732894865
 30
0.0
 10
45.50469405837399
 20
-29.67312379730432
 30
0.0
 10
45.50469405837399
 20
-29.67312379730432
 30
0.0
 10
45.50469405837399
 20
-29.67312379730432
 30
0.0
 10
48.24895215417095
 20
-29.64101981375115
 30
0.0
 10
48.24895215417095
 20
-29.64101981375115
 30
0.0
  0
SPLINE
  5
96
330
79
100
AcDbEntity
  8
Camada 1
 62
    28
420
  1184269
370
     9
100
AcDbSpline
210
0.0
220
0.0
230
1.0
 70
    24
 71
     3
 72
     8
 73
     4
 74
     0
 42
0.0000000001
 43
0.0000000001
 40
0.0
 40
0.0
 40
0.0
 40
0.0
 40
1.0
 40
1.0
 40
1.0
 40
1.0
 10
43.01796357880158
 20
-34.71466845597639
 30
0.0
 10
43.01796357880158
 20
-34.71466845597639
 30
0.0
 10
41.46185970328864
 20
-34.71466845597639
 30
0.0
 10
41.46185970328864
 20
-34.71466845597639
 30
0.0
  0
SPLINE
  5
97
330
79
100
AcDbEntity
  8
Camada 1
 62
    28
420
  1184269
370
     9
100
AcDbSpline
210
0.0
220
0.0
230
1.0
 70
    24
 71
     3
 72
     8
 73
     4
 74
     0
 42
0.0000000001
 43
0.0000000001
 40
0.0
 40
0.0
 40
0.0
 40
0.0
 40
1.0
 40
1.0
 40
1.0
 40
1.0
 10
43.04230533158955
 20
-36.73714405836248
 30
0.0
 10
43.04230533158955
 20
-36.73714405836248
 30
0.0
 10
41.46185970328864
 20
-36.73714405836248
 30
0.0
 10
41.46185970328864
 20
-36.73714405836248
 30
0.0
  0
SPLINE
  5
98
330
79
100
AcDbEntity
  8
Camada 1
 62
    28
420
  1184269
370
     9
100
AcDbSpline
210
0.0
220
0.0
230
1.0
 70
    24
 71
     3
 72
     8
 73
     4
 74
     0
 42
0.0000000001
 43
0.0000000001
 40
0.0
 40
0.0
 40
0.0
 40
0.0
 40
1.0
 40
1.0
 40
1.0
 40
1.0
 10
46.7171913771864
 20
-53.56570342101668
 30
0.0
 10
46.7171913771864
 20
-53.56570342101668
 30
0.0
 10
46.71754396117747
 20
-57.82549401002605
 30
0.0
 10
46.71754396117747
 20
-57.82549401002605
 30
0.0
  0
SPLINE
  5
99
330
79
100
AcDbEntity
  8
Camada 1
 62
    28
420
  1184269
370
     9
100
AcDbSpline
210
0.0
220
0.0
230
1.0
 70
    24
 71
     3
 72
     8
 73
     4
 74
     0
 42
0.0000000001
 43
0.0000000001
 40
0.0
 40
0.0
 40
0.0
 40
0.0
 40
1.0
 40
1.0
 40
1.0
 40
1.0
 10
46.7171913771864
 20
-70.52619984770341
 30
0.0
 10
46.7171913771864
 20
-70.52619984770341
 30
0.0
 10
46.71754396117747
 20
-74.78634369357407
 30
0.0
 10
46.71754396117747
 20
-74.78634369357407
 30
0.0
  0
SPLINE
  5
9A
330
79
100
AcDbEntity
  8
Camada 1
 62
    28
420
  1184269
370
     9
100
AcDbSpline
210
0.0
220
0.0
230
1.0
 70
    24
 71
     3
 72
     8
 73
     4
 74
     0
 42
0.0000000001
 43
0.0000000001
 40
0.0
 40
0.0
 40
0.0
 40
0.0
 40
1.0
 40
1.0
 40
1.0
 40
1.0
 10
48.03763726410402
 20
-74.51364689129103
 30
0.0
 10
48.03763726410402
 20
-74.51364689129103
 30
0.0
 10
46.71295767781272
 20
-74.51364689129103
 30
0.0
 10
46.71295767781272
 20
-74.51364689129103
 30
0.0
  0
LWPOLYLINE
  5
9B
330
79
100
AcDbEntity
  8
Camada 1
100
AcDbPolyline
 90
        4
 70
     1
 43
0.0
 10
36.62919279877578
 20
-76.7237994531978
 10
63.37080717621239
 20
-76.7237994531978
 10
63.37080717621239
 20
-23.27620052179038
 10
36.62919279877578
 20
-23.27620052179038
  0
ENDBLK
  5
7C
330
79
100
AcDbEntity
  8
0
100
AcDbBlockEnd
  0
ENDSEC
  0
SECTION
  2
ENTITIES
  0
INSERT
  5
7A
330
70
100
AcDbEntity
  8
Camada 1
100
AcDbBlockReference
  2
Block_0
 10
0.0
 20
0.0
 30
0.0
  0
ENDSEC
  0
SECTION
  2
OBJECTS
  0
DICTIONARY
  5
C
330
0
100
AcDbDictionary
281
     1
  3
ACAD_COLOR
350
63
  3
ACAD_DETAILVIEWSTYLE
350
6A
  3
ACAD_GROUP
350
D
  3
ACAD_LAYOUT
350
62
  3
ACAD_MATERIAL
350
10
  3
ACAD_MLEADERSTYLE
350
66
  3
ACAD_MLINESTYLE
350
5F
  3
ACAD_PLOTSETTINGS
350
61
  3
ACAD_PLOTSTYLENAME
350
E
  3
ACAD_SCALELIST
350
42
  3
ACAD_SECTIONVIEWSTYLE
350
68
  3
ACAD_TABLESTYLE
350
64
  3
ACAD_VISUALSTYLE
350
29
  3
ACDB_RECOMPOSE_DATA
350
A4
  3
AcDbVariableDictionary
350
9C
  0
DICTIONARY
  5
63
102
{ACAD_REACTORS
330
C
102
}
330
C
100
AcDbDictionary
281
     1
  0
DICTIONARY
  5
6A
102
{ACAD_REACTORS
330
C
102
}
330
C
100
AcDbDictionary
281
     1
  3
Imperial24
350
6B
  0
DICTIONARY
  5
D
102
{ACAD_REACTORS
330
C
102
}
330
C
100
AcDbDictionary
281
     1
  0
DICTIONARY
  5
62
102
{ACAD_REACTORS
330
C
102
}
330
C
100
AcDbDictionary
281
     1
  3
Layout1
350
6F
  3
Layout2
350
77
  3
Model
350
73
  0
DICTIONARY
  5
10
102
{ACAD_REACTORS
330
C
102
}
330
C
100
AcDbDictionary
281
     1
  3
ByBlock
350
19
  3
ByLayer
350
11
  3
Global
350
21
  0
DICTIONARY
  5
66
102
{ACAD_REACTORS
330
C
102
}
330
C
100
AcDbDictionary
281
     1
  3
Standard
350
67
  0
DICTIONARY
  5
5F
102
{ACAD_REACTORS
330
C
102
}
330
C
100
AcDbDictionary
281
     1
  3
Standard
350
60
  0
DICTIONARY
  5
61
102
{ACAD_REACTORS
330
C
102
}
330
C
100
AcDbDictionary
281
     1
  0
ACDBDICTIONARYWDFLT
  5
E
102
{ACAD_REACTORS
330
C
102
}
330
C
100
AcDbDictionary
281
     1
  3
Normal
350
F
100
AcDbDictionaryWithDefault
340
F
  0
DICTIONARY
  5
42
102
{ACAD_REACTORS
330
C
102
}
330
C
100
AcDbDictionary
281
     1
  3
A0
350
43
  3
A1
350
44
  3
A2
350
45
  3
A3
350
46
  3
A4
350
47
  3
A5
350
48
  3
A6
350
49
  3
A7
350
4A
  3
A8
350
4B
  3
A9
350
4C
  3
B0
350
4D
  3
B1
350
4E
  3
B2
350
4F
  3
B3
350
50
  3
B4
350
51
  3
B5
350
52
  3
B6
350
53
  0
DICTIONARY
  5
68
102
{ACAD_REACTORS
330
C
102
}
330
C
100
AcDbDictionary
281
     1
  3
Imperial24
350
69
  0
DICTIONARY
  5
64
102
{ACAD_REACTORS
330
C
102
}
330
C
100
AcDbDictionary
281
     1
  3
Standard
350
65
  0
DICTIONARY
  5
29
102
{ACAD_REACTORS
330
C
102
}
330
C
100
AcDbDictionary
281
     1
  3
2dWireframe
350
2F
  3
Basic
350
2E
  3
Brighten
350
35
  3
ColorChange
350
39
  3
Conceptual
350
32
  3
Dim
350
34
  3
EdgeColorOff
350
41
  3
Facepattern
350
38
  3
Flat
350
2A
  3
FlatWithEdges
350
2B
  3
Gouraud
350
2C
  3
GouraudWithEdges
350
2D
  3
Hidden
350
31
  3
JitterOff
350
3F
  3
Linepattern
350
37
  3
OverhangOff
350
40
  3
Realistic
350
33
  3
Shaded
350
3E
  3
Shaded with edges
350
3D
  3
Shades of Gray
350
3A
  3
Sketchy
350
3B
  3
Thicken
350
36
  3
Wireframe
350
30
  3
X-Ray
350
3C
  0
XRECORD
  5
A4
102
{ACAD_REACTORS
330
C
102
}
330
C
100
AcDbXrecord
280
     1
 90
        1
330
65
  0
DICTIONARY
  5
9C
102
{ACAD_REACTORS
330
C
102
}
330
C
100
AcDbDictionary
281
     1
  3
CANNOSCALE
350
A1
  3
CMLEADERSTYLE
350
9E
  3
CTABLESTYLE
350
9D
  3
CVIEWDETAILSTYLE
350
9F
  3
CVIEWSECTIONSTYLE
350
A0
  0
ACDBDETAILVIEWSTYLE
  5
6B
102
{ACAD_REACTORS
330
6A
102
}
330
6A
100
AcDbModelDocViewStyle
 70
     0
  3
Imperial24
290
     1
300
Imperial24
 90
        0
100
AcDbDetailViewStyle
 70
     0
 71
     0
 90
        3
 71
     1
340
55
 62
   256
 40
0.24
340
0
 62
   256
 40
0.24
300

 40
0.36
280
     3
 71
     2
340
5D
 90
       25
 62
   256
 71
     3
340
55
 62
   256
 40
0.24
 90
        1
 40
0.75
 90
        1
300
%<\AcVar ViewType \f "%tc1">% %<\AcVar ViewDetailId>%\PSCALE %<\AcVar ViewScale \f "%sn">%
 71
     4
340
5D
 90
       25
 62
   256
340
5D
 90
       25
 62
   256
280
     0
  0
LAYOUT
  5
6F
102
{ACAD_REACTORS
330
62
102
}
330
62
100
AcDbPlotSettings
  1

  2

  4

  6

 40
0.0
 41
0.0
 42
0.0
 43
0.0
 44
0.0
 45
0.0
 46
0.0
 47
0.0
 48
0.0
 49
0.0
140
0.0
141
0.0
142
1.0
143
1.0
 70
   688
 72
     0
 73
     0
 74
     5
  7

 75
    16
147
1.0
 76
     0
 77
     2
 78
   300
148
0.0
149
0.0
100
AcDbLayout
  1
Layout1
 70
     1
 71
     1
 10
0.0
 20
0.0
 11
12.0
 21
9.0
 12
0.0
 22
0.0
 32
0.0
 14
0.0
 24
0.0
 34
0.0
 15
0.0
 25
0.0
 35
0.0
146
0.0
 13
0.0
 23
0.0
 33
0.0
 16
1.0
 26
0.0
 36
0.0
 17
0.0
 27
1.0
 37
0.0
 76
     0
330
6C
  0
LAYOUT
  5
77
102
{ACAD_REACTORS
330
62
102
}
330
62
100
AcDbPlotSettings
  1

  2

  4

  6

 40
0.0
 41
0.0
 42
0.0
 43
0.0
 44
0.0
 45
0.0
 46
0.0
 47
0.0
 48
0.0
 49
0.0
140
0.0
141
0.0
142
1.0
143
1.0
 70
   688
 72
     0
 73
     0
 74
     5
  7

 75
    16
147
1.0
 76
     0
 77
     2
 78
   300
148
0.0
149
0.0
100
AcDbLayout
  1
Layout2
 70
     1
 71
     2
 10
0.0
 20
0.0
 11
12.0
 21
9.0
 12
0.0
 22
0.0
 32
0.0
 14
0.0
 24
0.0
 34
0.0
 15
0.0
 25
0.0
 35
0.0
146
0.0
 13
0.0
 23
0.0
 33
0.0
 16
1.0
 26
0.0
 36
0.0
 17
0.0
 27
1.0
 37
0.0
 76
     0
330
74
  0
LAYOUT
  5
73
102
{ACAD_REACTORS
330
62
102
}
330
62
100
AcDbPlotSettings
  1

  2

  4

  6

 40
0.0
 41
0.0
 42
0.0
 43
0.0
 44
0.0
 45
0.0
 46
0.0
 47
0.0
 48
0.0
 49
0.0
140
0.0
141
0.0
142
1.0
143
1.0
 70
  1712
 72
     0
 73
     0
 74
     0
  7

 75
     0
147
1.0
 76
     0
 77
     2
 78
   300
148
0.0
149
0.0
100
AcDbLayout
  1
Model
 70
     1
 71
     0
 10
0.0
 20
0.0
 11
12.0
 21
9.0
 12
0.0
 22
0.0
 32
0.0
 14
0.0
 24
0.0
 34
0.0
 15
0.0
 25
0.0
 35
0.0
146
0.0
 13
0.0
 23
0.0
 33
0.0
 16
1.0
 26
0.0
 36
0.0
 17
0.0
 27
1.0
 37
0.0
 76
     0
330
70
  0
MATERIAL
  5
19
102
{ACAD_XDICTIONARY
360
1A
102
}
102
{ACAD_REACTORS
330
10
102
}
330
10
100
AcDbMaterial
  1
ByBlock
 72
     0
 43
0.0208333333333333
 43
0.0
 43
0.0
 43
0.0
 43
0.0
 43
0.0208333333333333
 43
0.0
 43
0.0
 43
0.0
 43
0.0
 43
1.0
 43
0.0
 43
0.0
 43
0.0
 43
0.0
 43
1.0
 77
     0
 47
0.0208333333333333
 47
0.0
 47
0.0
 47
0.0
 47
0.0
 47
0.0208333333333333
 47
0.0
 47
0.0
 47
0.0
 47
0.0
 47
1.0
 47
0.0
 47
0.0
 47
0.0
 47
0.0
 47
1.0
171
     0
 49
0.0208333333333333
 49
0.0
 49
0.0
 49
0.0
 49
0.0
 49
0.0208333333333333
 49
0.0
 49
0.0
 49
0.0
 49
0.0
 49
1.0
 49
0.0
 49
0.0
 49
0.0
 49
0.0
 49
1.0
175
     0
142
0.0208333333333333
142
0.0
142
0.0
142
0.0
142
0.0
142
0.0208333333333333
142
0.0
142
0.0
142
0.0
142
0.0
142
1.0
142
0.0
142
0.0
142
0.0
142
0.0
142
1.0
179
     0
144
0.0208333333333333
144
0.0
144
0.0
144
0.0
144
0.0
144
0.0208333333333333
144
0.0
144
0.0
144
0.0
144
0.0
144
1.0
144
0.0
144
0.0
144
0.0
144
0.0
144
1.0
147
0.0208333333333333
147
0.0
147
0.0
147
0.0
147
0.0
147
0.0208333333333333
147
0.0
147
0.0
147
0.0
147
0.0
147
1.0
147
0.0
147
0.0
147
0.0
147
0.0
147
1.0
  0
MATERIAL
  5
11
102
{ACAD_XDICTIONARY
360
12
102
}
102
{ACAD_REACTORS
330
10
102
}
330
10
100
AcDbMaterial
  1
ByLayer
 72
     0
 43
0.0208333333333333
 43
0.0
 43
0.0
 43
0.0
 43
0.0
 43
0.0208333333333333
 43
0.0
 43
0.0
 43
0.0
 43
0.0
 43
1.0
 43
0.0
 43
0.0
 43
0.0
 43
0.0
 43
1.0
 77
     0
 47
0.0208333333333333
 47
0.0
 47
0.0
 47
0.0
 47
0.0
 47
0.0208333333333333
 47
0.0
 47
0.0
 47
0.0
 47
0.0
 47
1.0
 47
0.0
 47
0.0
 47
0.0
 47
0.0
 47
1.0
171
     0
 49
0.0208333333333333
 49
0.0
 49
0.0
 49
0.0
 49
0.0
 49
0.0208333333333333
 49
0.0
 49
0.0
 49
0.0
 49
0.0
 49
1.0
 49
0.0
 49
0.0
 49
0.0
 49
0.0
 49
1.0
175
     0
142
0.0208333333333333
142
0.0
142
0.0
142
0.0
142
0.0
142
0.0208333333333333
142
0.0
142
0.0
142
0.0
142
0.0
142
1.0
142
0.0
142
0.0
142
0.0
142
0.0
142
1.0
179
     0
144
0.0208333333333333
144
0.0
144
0.0
144
0.0
144
0.0
144
0.0208333333333333
144
0.0
144
0.0
144
0.0
144
0.0
144
1.0
144
0.0
144
0.0
144
0.0
144
0.0
144
1.0
147
0.0208333333333333
147
0.0
147
0.0
147
0.0
147
0.0
147
0.0208333333333333
147
0.0
147
0.0
147
0.0
147
0.0
147
1.0
147
0.0
147
0.0
147
0.0
147
0.0
147
1.0
  0
MATERIAL
  5
21
102
{ACAD_XDICTIONARY
360
22
102
}
102
{ACAD_REACTORS
330
10
102
}
330
10
100
AcDbMaterial
  1
Global
 72
     0
 43
0.0208333333333333
 43
0.0
 43
0.0
 43
0.0
 43
0.0
 43
0.0208333333333333
 43
0.0
 43
0.0
 43
0.0
 43
0.0
 43
1.0
 43
0.0
 43
0.0
 43
0.0
 43
0.0
 43
1.0
 77
     0
 47
0.0208333333333333
 47
0.0
 47
0.0
 47
0.0
 47
0.0
 47
0.0208333333333333
 47
0.0
 47
0.0
 47
0.0
 47
0.0
 47
1.0
 47
0.0
 47
0.0
 47
0.0
 47
0.0
 47
1.0
171
     0
 49
0.0208333333333333
 49
0.0
 49
0.0
 49
0.0
 49
0.0
 49
0.0208333333333333
 49
0.0
 49
0.0
 49
0.0
 49
0.0
 49
1.0
 49
0.0
 49
0.0
 49
0.0
 49
0.0
 49
1.0
175
     0
142
0.0208333333333333
142
0.0
142
0.0
142
0.0
142
0.0
142
0.0208333333333333
142
0.0
142
0.0
142
0.0
142
0.0
142
1.0
142
0.0
142
0.0
142
0.0
142
0.0
142
1.0
179
     0
144
0.0208333333333333
144
0.0
144
0.0
144
0.0
144
0.0
144
0.0208333333333333
144
0.0
144
0.0
144
0.0
144
0.0
144
1.0
144
0.0
144
0.0
144
0.0
144
0.0
144
1.0
147
0.0208333333333333
147
0.0
147
0.0
147
0.0
147
0.0
147
0.0208333333333333
147
0.0
147
0.0
147
0.0
147
0.0
147
1.0
147
0.0
147
0.0
147
0.0
147
0.0
147
1.0
  0
MLEADERSTYLE
  5
67
102
{ACAD_REACTORS
330
66
102
}
330
66
100
AcDbMLeaderStyle
179
     2
170
     2
171
     1
172
     0
 90
        2
 40
0.0
 41
0.0
173
     1
 91
-1056964608
340
5B
 92
       -2
290
     1
 42
0.09
291
     1
 43
0.36
  3
Standard
 44
0.18
300

342
55
174
     1
178
     6
175
     1
176
     0
 93
-1056964608
 45
0.18
292
     0
297
     0
 46
0.18
 94
-1056964608
 47
1.0
 49
1.0
140
1.0
293
     1
141
0.0
294
     1
177
     0
142
1.0
295
     1
296
     0
143
0.125
271
     0
272
     9
273
     9
298
     1
  0
MLINESTYLE
  5
60
102
{ACAD_REACTORS
330
5F
102
}
330
5F
100
AcDbMlineStyle
  2
STANDARD
 70
     0
  3

 62
   256
 51
90.0
 52
90.0
 71
     2
 49
0.5
 62
   256
  6
BYLAYER
 49
-0.5
 62
   256
  6
BYLAYER
  0
ACDBPLACEHOLDER
  5
F
102
{ACAD_REACTORS
330
E
102
}
330
E
  0
SCALE
  5
43
102
{ACAD_REACTORS
330
42
102
}
330
42
100
AcDbScale
 70
     0
300
1:1
140
1.0
141
1.0
290
     1
  0
SCALE
  5
44
102
{ACAD_REACTORS
330
42
102
}
330
42
100
AcDbScale
 70
     0
300
1/128" = 1'-0"
140
0.0078125
141
12.0
290
     0
  0
SCALE
  5
45
102
{ACAD_REACTORS
330
42
102
}
330
42
100
AcDbScale
 70
     0
300
1/64" = 1'-0"
140
0.015625
141
12.0
290
     0
  0
SCALE
  5
46
102
{ACAD_REACTORS
330
42
102
}
330
42
100
AcDbScale
 70
     0
300
1/32" = 1'-0"
140
0.03125
141
12.0
290
     0
  0
SCALE
  5
47
102
{ACAD_REACTORS
330
42
102
}
330
42
100
AcDbScale
 70
     0
300
1/16" = 1'-0"
140
0.0625
141
12.0
290
     0
  0
SCALE
  5
48
102
{ACAD_REACTORS
330
42
102
}
330
42
100
AcDbScale
 70
     0
300
3/32" = 1'-0"
140
0.09375
141
12.0
290
     0
  0
SCALE
  5
49
102
{ACAD_REACTORS
330
42
102
}
330
42
100
AcDbScale
 70
     0
300
1/8" = 1'-0"
140
0.125
141
12.0
290
     0
  0
SCALE
  5
4A
102
{ACAD_REACTORS
330
42
102
}
330
42
100
AcDbScale
 70
     0
300
3/16" = 1'-0"
140
0.1875
141
12.0
290
     0
  0
SCALE
  5
4B
102
{ACAD_REACTORS
330
42
102
}
330
42
100
AcDbScale
 70
     0
300
1/4" = 1'-0"
140
0.25
141
12.0
290
     0
  0
SCALE
  5
4C
102
{ACAD_REACTORS
330
42
102
}
330
42
100
AcDbScale
 70
     0
300
3/8" = 1'-0"
140
0.375
141
12.0
290
     0
  0
SCALE
  5
4D
102
{ACAD_REACTORS
330
42
102
}
330
42
100
AcDbScale
 70
     0
300
1/2" = 1'-0"
140
0.5
141
12.0
290
     0
  0
SCALE
  5
4E
102
{ACAD_REACTORS
330
42
102
}
330
42
100
AcDbScale
 70
     0
300
3/4" = 1'-0"
140
0.75
141
12.0
290
     0
  0
SCALE
  5
4F
102
{ACAD_REACTORS
330
42
102
}
330
42
100
AcDbScale
 70
     0
300
1" = 1'-0"
140
1.0
141
12.0
290
     0
  0
SCALE
  5
50
102
{ACAD_REACTORS
330
42
102
}
330
42
100
AcDbScale
 70
     0
300
1-1/2" = 1'-0"
140
1.5
141
12.0
290
     0
  0
SCALE
  5
51
102
{ACAD_REACTORS
330
42
102
}
330
42
100
AcDbScale
 70
     0
300
3" = 1'-0"
140
3.0
141
12.0
290
     0
  0
SCALE
  5
52
102
{ACAD_REACTORS
330
42
102
}
330
42
100
AcDbScale
 70
     0
300
6" = 1'-0"
140
6.0
141
12.0
290
     0
  0
SCALE
  5
53
102
{ACAD_REACTORS
330
42
102
}
330
42
100
AcDbScale
 70
     0
300
1'-0" = 1'-0"
140
12.0
141
12.0
290
     0
  0
ACDBSECTIONVIEWSTYLE
  5
69
102
{ACAD_REACTORS
330
68
102
}
330
68
100
AcDbModelDocViewStyle
 70
     0
  3
Imperial24
290
     1
300
Imperial24
 90
        0
100
AcDbSectionViewStyle
 70
     0
 71
     0
 90
       78
 71
     1
340
55
 62
   256
 40
0.24
340
0
340
0
 62
   256
 40
0.24
300
I, O, Q, S, X, Z
 40
0.48
 90
        3
 40
0.18
 90
        1
 71
     2
340
5D
 90
       25
 62
   256
340
5D
 90
       50
 62
   256
 40
0.24
 40
0.0
 40
0.24
 71
     3
340
55
 62
   256
 40
0.24
 90
        1
 40
0.75
 90
        1
300
%<\AcVar ViewType \f "%tc1">% %<\AcVar ViewSectionStartId>%-%<\AcVar ViewSectionEndId>%\PSCALE %<\AcVar ViewScale \f "%sn">%
 71
     4
 62
   256
 62
   257
300
ANSI31
 40
1.0
 90
        0
290
     0
290
     0
 90
        6
 40
0.0
 40
1.570796326794896
 40
0.2617993877991494
 40
1.308996938995747
 40
-0.2617993877991494
 40
1.832595714594046
  0
TABLESTYLE
  5
65
102
{ACAD_XDICTIONARY
360
A2
102
}
102
{ACAD_REACTORS
330
64
102
}
330
64
100
AcDbTableStyle
280
     0
  3
Standard
 70
     0
 71
     0
 40
0.06
 41
0.06
280
     0
281
     0
  7
Standard
140
0.18
170
     2
 62
     0
 63
     7
283
     0
 90
      512
 91
        0
  1

274
    -2
284
     1
 64
     0
275
    -2
285
     1
 65
     0
276
    -2
286
     1
 66
     0
277
    -2
287
     1
 67
     0
278
    -2
288
     1
 68
     0
279
    -2
289
     1
 69
     0
  7
Standard
140
0.25
170
     5
 62
     0
 63
     7
283
     0
 90
      512
 91
        0
  1

274
    -2
284
     1
 64
     0
275
    -2
285
     1
 65
     0
276
    -2
286
     1
 66
     0
277
    -2
287
     1
 67
     0
278
    -2
288
     1
 68
     0
279
    -2
289
     1
 69
     0
  7
Standard
140
0.18
170
     5
 62
     0
 63
     7
283
     0
 90
      512
 91
        0
  1

274
    -2
284
     1
 64
     0
275
    -2
285
     1
 65
     0
276
    -2
286
     1
 66
     0
277
    -2
287
     1
 67
     0
278
    -2
288
     1
 68
     0
279
    -2
289
     1
 69
     0
  0
VISUALSTYLE
  5
2F
102
{ACAD_REACTORS
330
29
102
}
330
29
100
AcDbVisualStyle
  2
2dWireframe
 70
     4
177
     3
291
     0
 70
    58
 90
        0
176
     1
 90
        2
176
     1
 90
        0
176
     1
 90
        0
176
     1
 40
0.6
176
     1
 40
30.0
176
     1
 62
     7
420
 16777215
176
     1
 90
        1
176
     1
 90
        4
176
     1
 62
     7
176
     1
 62
   257
176
     1
 90
        1
176
     1
 90
        1
176
     1
 40
1.0
176
     1
 90
        0
176
     1
 62
   257
176
     1
 40
1.0
176
     1
 90
        1
176
     1
 90
        6
176
     1
 90
        2
176
     1
 62
     7
176
     1
 90
        5
176
     1
 90
        0
176
     1
 90
        0
176
     1
290
     0
176
     1
 90
        1
176
     1
 40
0.0
176
     1
 90
        0
176
     1
290
     1
176
     1
290
     1
176
     1
290
     0
176
     1
290
     0
176
     1
290
     0
176
     1
290
     0
176
     1
290
     0
176
     1
290
     0
176
     1
290
     0
176
     1
 90
       50
176
     1
 40
0.0
176
     1
 40
1.0
176
     1
 90
        0
176
     1
 62
    18
420
        0
176
     1
 90
       50
176
     1
 90
        3
176
     1
 62
     5
420
      255
176
     1
290
     0
176
     1
 90
       50
176
     1
 90
       50
176
     1
 90
       50
176
     1
290
     0
176
     1
 90
       50
176
     1
 62
   256
176
     0
 40
1.0
176
     0
 90
        2
176
     1
  1
strokes_ogs.tif
176
     1
290
     0
176
     1
 40
1.0
176
     1
 40
1.0
176
     1
  0
VISUALSTYLE
  5
2E
102
{ACAD_REACTORS
330
29
102
}
330
29
100
AcDbVisualStyle
  2
Basic
 70
     7
177
     3
291
     1
 70
    58
 90
        1
176
     1
 90
        0
176
     1
 90
        1
176
     1
 90
        0
176
     1
 40
0.6
176
     1
 40
30.0
176
     1
 62
     7
420
 16777215
176
     1
 90
        0
176
     1
 90
        4
176
     1
 62
     7
176
     1
 62
   257
176
     1
 90
        1
176
     1
 90
        1
176
     1
 40
1.0
176
     1
 90
        8
176
     1
 62
     7
176
     1
 40
1.0
176
     1
 90
        1
176
     1
 90
        6
176
     1
 90
        2
176
     1
 62
     7
176
     1
 90
        5
176
     1
 90
        0
176
     1
 90
        0
176
     1
290
     0
176
     1
 90
        1
176
     1
 40
0.0
176
     1
 90
        0
176
     1
290
     0
176
     1
290
     1
176
     1
290
     1
176
     1
290
     0
176
     1
290
     0
176
     1
290
     0
176
     1
290
     0
176
     1
290
     0
176
     1
290
     0
176
     1
 90
       50
176
     1
 40
0.0
176
     1
 40
1.0
176
     1
 90
        0
176
     1
 62
    18
420
        0
176
     1
 90
       50
176
     1
 90
        3
176
     1
 62
     5
420
      255
176
     1
290
     0
176
     1
 90
       50
176
     1
 90
       50
176
     1
 90
       50
176
     1
290
     0
176
     1
 90
       50
176
     1
 62
   256
176
     0
 40
1.0
176
     0
 90
        2
176
     1
  1
strokes_ogs.tif
176
     1
290
     0
176
     1
 40
1.0
176
     1
 40
1.0
176
     1
  0
VISUALSTYLE
  5
35
102
{ACAD_REACTORS
330
29
102
}
330
29
100
AcDbVisualStyle
  2
Brighten
 70
    12
177
     3
291
     1
 70
    58
 90
        2
176
     1
 90
        2
176
     1
 90
        0
176
     1
 90
        0
176
     1
 40
0.6
176
     1
 40
30.0
176
     1
 62
     7
420
 16777215
176
     1
 90
        1
176
     1
 90
        4
176
     1
 62
     7
176
     1
 62
   257
176
     1
 90
        1
176
     1
 90
        1
176
     1
 40
1.0
176
     1
 90
        8
176
     1
 62
     7
176
     1
 40
1.0
176
     1
 90
        1
176
     1
 90
        6
176
     1
 90
        2
176
     1
 62
     7
176
     1
 90
        5
176
     1
 90
        0
176
     1
 90
        0
176
     1
290
     0
176
     1
 90
        1
176
     1
 40
50.0
176
     1
 90
        0
176
     1
290
     0
176
     1
290
     1
176
     1
290
     1
176
     1
290
     0
176
     1
290
     0
176
     1
290
     0
176
     1
290
     0
176
     1
290
     0
176
     1
290
     0
176
     1
 90
       50
176
     1
 40
0.0
176
     1
 40
1.0
176
     1
 90
        0
176
     1
 62
    18
420
        0
176
     1
 90
       50
176
     1
 90
        3
176
     1
 62
     5
420
      255
176
     1
290
     0
176
     1
 90
       50
176
     1
 90
       50
176
     1
 90
       50
176
     1
290
     0
176
     1
 90
       50
176
     1
 62
   256
176
     0
 40
1.0
176
     0
 90
        2
176
     1
  1
strokes_ogs.tif
176
     1
290
     0
176
     1
 40
1.0
176
     1
 40
1.0
176
     1
  0
VISUALSTYLE
  5
39
102
{ACAD_REACTORS
330
29
102
}
330
29
100
AcDbVisualStyle
  2
ColorChange
 70
    16
177
     3
291
     1
 70
    58
 90
        2
176
     1
 90
        2
176
     1
 90
        3
176
     1
 90
        0
176
     1
 40
0.6
176
     1
 40
30.0
176
     1
 62
     8
420
  8421504
176
     1
 90
        1
176
     1
 90
        4
176
     1
 62
     7
176
     1
 62
   257
176
     1
 90
        1
176
     1
 90
        1
176
     1
 40
1.0
176
     1
 90
        8
176
     1
 62
     8
420
  8421504
176
     1
 40
1.0
176
     1
 90
        1
176
     1
 90
        6
176
     1
 90
        2
176
     1
 62
     7
176
     1
 90
        5
176
     1
 90
        0
176
     1
 90
        0
176
     1
290
     0
176
     1
 90
        1
176
     1
 40
0.0
176
     1
 90
        0
176
     1
290
     0
176
     1
290
     1
176
     1
290
     1
176
     1
290
     0
176
     1
290
     0
176
     1
290
     0
176
     1
290
     0
176
     1
290
     0
176
     1
290
     0
176
     1
 90
       50
176
     1
 40
0.0
176
     1
 40
1.0
176
     1
 90
        0
176
     1
 62
    18
420
        0
176
     1
 90
       50
176
     1
 90
        3
176
     1
 62
     5
420
      255
176
     1
290
     0
176
     1
 90
       50
176
     1
 90
       50
176
     1
 90
       50
176
     1
290
     0
176
     1
 90
       50
176
     1
 62
   256
176
     0
 40
1.0
176
     0
 90
        2
176
     1
  1
strokes_ogs.tif
176
     1
290
     0
176
     1
 40
1.0
176
     1
 40
1.0
176
     1
  0
VISUALSTYLE
  5
32
102
{ACAD_REACTORS
330
29
102
}
330
29
100
AcDbVisualStyle
  2
Conceptual
 70
     9
177
     3
291
     0
 70
    58
 90
        3
176
     1
 90
        2
176
     1
 90
        0
176
     1
 90
        0
176
     1
 40
0.6
176
     1
 40
30.0
176
     1
 62
     7
420
 16777215
176
     1
 90
        2
176
     1
 90
        2
176
     1
 62
     7
176
     1
 62
   257
176
     1
 90
        1
176
     1
 90
        1
176
     1
 40
179.0
176
     1
 90
        8
176
     1
 62
     7
176
     1
 40
1.0
176
     1
 90
        1
176
     1
 90
        6
176
     1
 90
        2
176
     1
 62
     7
176
     1
 90
        3
176
     1
 90
        0
176
     1
 90
        0
176
     1
290
     0
176
     1
 90
        1
176
     1
 40
0.0
176
     1
 90
        0
176
     1
290
     0
176
     1
290
     1
176
     1
290
     1
176
     1
290
     0
176
     1
290
     0
176
     1
290
     0
176
     1
290
     0
176
     1
290
     0
176
     1
290
     0
176
     1
 90
       50
176
     1
 40
0.0
176
     1
 40
1.0
176
     1
 90
        0
176
     1
 62
    18
420
        0
176
     1
 90
       50
176
     1
 90
        3
176
     1
 62
     5
420
      255
176
     1
290
     0
176
     1
 90
       50
176
     1
 90
       50
176
     1
 90
       50
176
     1
290
     0
176
     1
 90
       50
176
     1
 62
   256
176
     0
 40
1.0
176
     0
 90
        2
176
     1
  1
strokes_ogs.tif
176
     1
290
     0
176
     1
 40
1.0
176
     1
 40
1.0
176
     1
  0
VISUALSTYLE
  5
34
102
{ACAD_REACTORS
330
29
102
}
330
29
100
AcDbVisualStyle
  2
Dim
 70
    11
177
     3
291
     1
 70
    58
 90
        2
176
     1
 90
        2
176
     1
 90
        0
176
     1
 90
        0
176
     1
 40
0.6
176
     1
 40
30.0
176
     1
 62
     7
420
 16777215
176
     1
 90
        1
176
     1
 90
        4
176
     1
 62
     7
176
     1
 62
   257
176
     1
 90
        1
176
     1
 90
        1
176
     1
 40
1.0
176
     1
 90
        8
176
     1
 62
     7
176
     1
 40
1.0
176
     1
 90
        1
176
     1
 90
        6
176
     1
 90
        2
176
     1
 62
     7
176
     1
 90
        5
176
     1
 90
        0
176
     1
 90
        0
176
     1
290
     0
176
     1
 90
        1
176
     1
 40
-50.0
176
     1
 90
        0
176
     1
290
     0
176
     1
290
     1
176
     1
290
     1
176
     1
290
     0
176
     1
290
     0
176
     1
290
     0
176
     1
290
     0
176
     1
290
     0
176
     1
290
     0
176
     1
 90
       50
176
     1
 40
0.0
176
     1
 40
1.0
176
     1
 90
        0
176
     1
 62
    18
420
        0
176
     1
 90
       50
176
     1
 90
        3
176
     1
 62
     5
420
      255
176
     1
290
     0
176
     1
 90
       50
176
     1
 90
       50
176
     1
 90
       50
176
     1
290
     0
176
     1
 90
       50
176
     1
 62
   256
176
     0
 40
1.0
176
     0
 90
        2
176
     1
  1
strokes_ogs.tif
176
     1
290
     0
176
     1
 40
1.0
176
     1
 40
1.0
176
     1
  0
VISUALSTYLE
  5
41
102
{ACAD_REACTORS
330
29
102
}
330
29
100
AcDbVisualStyle
  2
EdgeColorOff
 70
    22
177
     3
291
     1
 70
    58
 90
        2
176
     0
 90
        2
176
     0
 90
        0
176
     0
 90
        0
176
     0
 40
0.6
176
     0
 40
30.0
176
     0
 62
     7
420
 16777215
176
     0
 90
        1
176
     0
 90
        4
176
     0
 62
     7
176
     0
 62
   257
176
     0
 90
        1
176
     0
 90
        1
176
     0
 40
1.0
176
     0
 90
        8
176
     2
 62
     7
176
     0
 40
1.0
176
     0
 90
        1
176
     0
 90
        6
176
     0
 90
        2
176
     0
 62
     7
176
     0
 90
        5
176
     0
 90
        0
176
     0
 90
        0
176
     0
290
     0
176
     0
 90
        1
176
     0
 40
0.0
176
     0
 90
        0
176
     0
290
     0
176
     0
290
     1
176
     0
290
     1
176
     0
290
     0
176
     0
290
     0
176
     0
290
     0
176
     0
290
     0
176
     0
290
     0
176
     0
290
     0
176
     0
 90
       50
176
     0
 40
0.0
176
     0
 40
1.0
176
     0
 90
        0
176
     0
 62
    18
420
        0
176
     0
 90
       50
176
     0
 90
        3
176
     0
 62
     5
420
      255
176
     0
290
     0
176
     0
 90
       50
176
     0
 90
       50
176
     0
 90
       50
176
     0
290
     0
176
     0
 90
       50
176
     0
 62
   256
176
     0
 40
1.0
176
     0
 90
        2
176
     0
  1
strokes_ogs.tif
176
     0
290
     0
176
     0
 40
1.0
176
     0
 40
1.0
176
     0
  0
VISUALSTYLE
  5
38
102
{ACAD_REACTORS
330
29
102
}
330
29
100
AcDbVisualStyle
  2
Facepattern
 70
    15
177
     3
291
     1
 70
    58
 90
        2
176
     1
 90
        2
176
     1
 90
        0
176
     1
 90
        0
176
     1
 40
0.6
176
     1
 40
30.0
176
     1
 62
     7
420
 16777215
176
     1
 90
        1
176
     1
 90
        4
176
     1
 62
     7
176
     1
 62
   257
176
     1
 90
        1
176
     1
 90
        1
176
     1
 40
1.0
176
     1
 90
        8
176
     1
 62
     7
176
     1
 40
1.0
176
     1
 90
        1
176
     1
 90
        6
176
     1
 90
        2
176
     1
 62
     7
176
     1
 90
        5
176
     1
 90
        0
176
     1
 90
        0
176
     1
290
     0
176
     1
 90
        1
176
     1
 40
0.0
176
     1
 90
        0
176
     1
290
     0
176
     1
290
     1
176
     1
290
     1
176
     1
290
     0
176
     1
290
     0
176
     1
290
     0
176
     1
290
     0
176
     1
290
     0
176
     1
290
     0
176
     1
 90
       50
176
     1
 40
0.0
176
     1
 40
1.0
176
     1
 90
        0
176
     1
 62
    18
420
        0
176
     1
 90
       50
176
     1
 90
        3
176
     1
 62
     5
420
      255
176
     1
290
     0
176
     1
 90
       50
176
     1
 90
       50
176
     1
 90
       50
176
     1
290
     0
176
     1
 90
       50
176
     1
 62
   256
176
     0
 40
1.0
176
     0
 90
        2
176
     1
  1
strokes_ogs.tif
176
     1
290
     0
176
     1
 40
1.0
176
     1
 40
1.0
176
     1
  0
VISUALSTYLE
  5
2A
102
{ACAD_REACTORS
330
29
102
}
330
29
100
AcDbVisualStyle
  2
Flat
 70
     0
177
     3
291
     1
 70
    58
 90
        2
176
     1
 90
        1
176
     1
 90
        1
176
     1
 90
        2
176
     1
 40
0.6
176
     1
 40
30.0
176
     1
 62
     7
420
 16777215
176
     1
 90
        0
176
     1
 90
        0
176
     1
 62
     7
176
     1
 62
   257
176
     1
 90
        1
176
     1
 90
        1
176
     1
 40
1.0
176
     1
 90
        8
176
     1
 62
     7
176
     1
 40
1.0
176
     1
 90
        1
176
     1
 90
        6
176
     1
 90
        2
176
     1
 62
     7
176
     1
 90
        5
176
     1
 90
        0
176
     1
 90
        0
176
     1
290
     0
176
     1
 90
       13
176
     1
 40
0.0
176
     1
 90
        0
176
     1
290
     0
176
     1
290
     1
176
     1
290
     1
176
     1
290
     0
176
     1
290
     0
176
     1
290
     0
176
     1
290
     0
176
     1
290
     0
176
     1
290
     0
176
     1
 90
       50
176
     1
 40
0.0
176
     1
 40
1.0
176
     1
 90
        0
176
     1
 62
    18
420
        0
176
     1
 90
       50
176
     1
 90
        3
176
     1
 62
     5
420
      255
176
     1
290
     0
176
     1
 90
       50
176
     1
 90
       50
176
     1
 90
       50
176
     1
290
     0
176
     1
 90
       50
176
     1
 62
   256
176
     0
 40
1.0
176
     0
 90
        2
176
     1
  1
strokes_ogs.tif
176
     1
290
     0
176
     1
 40
1.0
176
     1
 40
1.0
176
     1
  0
VISUALSTYLE
  5
2B
102
{ACAD_REACTORS
330
29
102
}
330
29
100
AcDbVisualStyle
  2
FlatWithEdges
 70
     1
177
     3
291
     1
 70
    58
 90
        2
176
     1
 90
        1
176
     1
 90
        1
176
     1
 90
        2
176
     1
 40
0.6
176
     1
 40
30.0
176
     1
 62
     7
420
 16777215
176
     1
 90
        1
176
     1
 90
        0
176
     1
 62
     7
176
     1
 62
   257
176
     1
 90
        1
176
     1
 90
        1
176
     1
 40
1.0
176
     1
 90
        0
176
     1
 62
   257
176
     1
 40
1.0
176
     1
 90
        1
176
     1
 90
        6
176
     1
 90
        2
176
     1
 62
     7
176
     1
 90
        5
176
     1
 90
        0
176
     1
 90
        0
176
     1
290
     0
176
     1
 90
       13
176
     1
 40
0.0
176
     1
 90
        0
176
     1
290
     0
176
     1
290
     1
176
     1
290
     1
176
     1
290
     0
176
     1
290
     0
176
     1
290
     0
176
     1
290
     0
176
     1
290
     0
176
     1
290
     0
176
     1
 90
       50
176
     1
 40
0.0
176
     1
 40
1.0
176
     1
 90
        0
176
     1
 62
    18
420
        0
176
     1
 90
       50
176
     1
 90
        3
176
     1
 62
     5
420
      255
176
     1
290
     0
176
     1
 90
       50
176
     1
 90
       50
176
     1
 90
       50
176
     1
290
     0
176
     1
 90
       50
176
     1
 62
   256
176
     0
 40
1.0
176
     0
 90
        2
176
     1
  1
strokes_ogs.tif
176
     1
290
     0
176
     1
 40
1.0
176
     1
 40
1.0
176
     1
  0
VISUALSTYLE
  5
2C
102
{ACAD_REACTORS
330
29
102
}
330
29
100
AcDbVisualStyle
  2
Gouraud
 70
     2
177
     3
291
     1
 70
    58
 90
        2
176
     1
 90
        2
176
     1
 90
        1
176
     1
 90
        2
176
     1
 40
0.6
176
     1
 40
30.0
176
     1
 62
     7
420
 16777215
176
     1
 90
        0
176
     1
 90
        0
176
     1
 62
     7
176
     1
 62
   257
176
     1
 90
        1
176
     1
 90
        1
176
     1
 40
1.0
176
     1
 90
        0
176
     1
 62
     7
176
     1
 40
1.0
176
     1
 90
        1
176
     1
 90
        6
176
     1
 90
        2
176
     1
 62
     7
176
     1
 90
        5
176
     1
 90
        0
176
     1
 90
        0
176
     1
290
     0
176
     1
 90
       13
176
     1
 40
0.0
176
     1
 90
        0
176
     1
290
     0
176
     1
290
     1
176
     1
290
     1
176
     1
290
     0
176
     1
290
     0
176
     1
290
     0
176
     1
290
     0
176
     1
290
     0
176
     1
290
     0
176
     1
 90
       50
176
     1
 40
0.0
176
     1
 40
1.0
176
     1
 90
        0
176
     1
 62
    18
420
        0
176
     1
 90
       50
176
     1
 90
        3
176
     1
 62
     5
420
      255
176
     1
290
     0
176
     1
 90
       50
176
     1
 90
       50
176
     1
 90
       50
176
     1
290
     0
176
     1
 90
       50
176
     1
 62
   256
176
     0
 40
1.0
176
     0
 90
        2
176
     1
  1
strokes_ogs.tif
176
     1
290
     0
176
     1
 40
1.0
176
     1
 40
1.0
176
     1
  0
VISUALSTYLE
  5
2D
102
{ACAD_REACTORS
330
29
102
}
330
29
100
AcDbVisualStyle
  2
GouraudWithEdges
 70
     3
177
     3
291
     1
 70
    58
 90
        2
176
     1
 90
        2
176
     1
 90
        1
176
     1
 90
        2
176
     1
 40
0.6
176
     1
 40
30.0
176
     1
 62
     7
420
 16777215
176
     1
 90
        1
176
     1
 90
        0
176
     1
 62
     7
176
     1
 62
   257
176
     1
 90
        1
176
     1
 90
        1
176
     1
 40
1.0
176
     1
 90
        0
176
     1
 62
   257
176
     1
 40
1.0
176
     1
 90
        1
176
     1
 90
        6
176
     1
 90
        2
176
     1
 62
     7
176
     1
 90
        5
176
     1
 90
        0
176
     1
 90
        0
176
     1
290
     0
176
     1
 90
       13
176
     1
 40
0.0
176
     1
 90
        0
176
     1
290
     0
176
     1
290
     1
176
     1
290
     1
176
     1
290
     0
176
     1
290
     0
176
     1
290
     0
176
     1
290
     0
176
     1
290
     0
176
     1
290
     0
176
     1
 90
       50
176
     1
 40
0.0
176
     1
 40
1.0
176
     1
 90
        0
176
     1
 62
    18
420
        0
176
     1
 90
       50
176
     1
 90
        3
176
     1
 62
     5
420
      255
176
     1
290
     0
176
     1
 90
       50
176
     1
 90
       50
176
     1
 90
       50
176
     1
290
     0
176
     1
 90
       50
176
     1
 62
   256
176
     0
 40
1.0
176
     0
 90
        2
176
     1
  1
strokes_ogs.tif
176
     1
290
     0
176
     1
 40
1.0
176
     1
 40
1.0
176
     1
  0
VISUALSTYLE
  5
31
102
{ACAD_REACTORS
330
29
102
}
330
29
100
AcDbVisualStyle
  2
Hidden
 70
     6
177
     3
291
     0
 70
    58
 90
        1
176
     1
 90
        2
176
     1
 90
        2
176
     1
 90
        0
176
     1
 40
0.6
176
     1
 40
30.0
176
     1
 62
     7
420
 16777215
176
     1
 90
        2
176
     1
 90
        2
176
     1
 62
     7
176
     1
 62
   257
176
     1
 90
        2
176
     1
 90
        1
176
     1
 40
40.0
176
     1
 90
        0
176
     1
 62
   257
176
     1
 40
1.0
176
     1
 90
        1
176
     1
 90
        6
176
     1
 90
        2
176
     1
 62
     7
176
     1
 90
        3
176
     1
 90
        0
176
     1
 90
        0
176
     1
290
     0
176
     1
 90
        1
176
     1
 40
0.0
176
     1
 90
        0
176
     1
290
     0
176
     1
290
     1
176
     1
290
     1
176
     1
290
     0
176
     1
290
     0
176
     1
290
     0
176
     1
290
     0
176
     1
290
     0
176
     1
290
     0
176
     1
 90
       50
176
     1
 40
0.0
176
     1
 40
1.0
176
     1
 90
        0
176
     1
 62
    18
420
        0
176
     1
 90
       50
176
     1
 90
        3
176
     1
 62
     5
420
      255
176
     1
290
     0
176
     1
 90
       50
176
     1
 90
       50
176
     1
 90
       50
176
     1
290
     0
176
     1
 90
       50
176
     1
 62
   256
176
     0
 40
1.0
176
     0
 90
        2
176
     1
  1
strokes_ogs.tif
176
     1
290
     0
176
     1
 40
1.0
176
     1
 40
1.0
176
     1
  0
VISUALSTYLE
  5
3F
102
{ACAD_REACTORS
330
29
102
}
330
29
100
AcDbVisualStyle
  2
JitterOff
 70
    20
177
     3
291
     1
 70
    58
 90
        2
176
     0
 90
        2
176
     0
 90
        0
176
     0
 90
        0
176
     0
 40
0.6
176
     0
 40
30.0
176
     0
 62
     7
420
 16777215
176
     0
 90
        1
176
     0
 90
        4
176
     0
 62
     7
176
     0
 62
   257
176
     0
 90
        1
176
     0
 90
        1
176
     0
 40
1.0
176
     0
 90
       10
176
     2
 62
     7
176
     0
 40
1.0
176
     0
 90
        1
176
     0
 90
        6
176
     0
 90
        2
176
     0
 62
     7
176
     0
 90
        5
176
     0
 90
        0
176
     0
 90
        0
176
     0
290
     0
176
     0
 90
        1
176
     0
 40
0.0
176
     0
 90
        0
176
     0
290
     0
176
     0
290
     1
176
     0
290
     1
176
     0
290
     0
176
     0
290
     0
176
     0
290
     0
176
     0
290
     0
176
     0
290
     0
176
     0
290
     0
176
     0
 90
       50
176
     0
 40
0.0
176
     0
 40
1.0
176
     0
 90
        0
176
     0
 62
    18
420
        0
176
     0
 90
       50
176
     0
 90
        3
176
     0
 62
     5
420
      255
176
     0
290
     0
176
     0
 90
       50
176
     0
 90
       50
176
     0
 90
       50
176
     0
290
     0
176
     0
 90
       50
176
     0
 62
   256
176
     0
 40
1.0
176
     0
 90
        2
176
     0
  1
strokes_ogs.tif
176
     0
290
     0
176
     0
 40
1.0
176
     0
 40
1.0
176
     0
  0
VISUALSTYLE
  5
37
102
{ACAD_REACTORS
330
29
102
}
330
29
100
AcDbVisualStyle
  2
Linepattern
 70
    14
177
     3
291
     1
 70
    58
 90
        2
176
     1
 90
        2
176
     1
 90
        0
176
     1
 90
        0
176
     1
 40
0.6
176
     1
 40
30.0
176
     1
 62
     7
420
 16777215
176
     1
 90
        1
176
     1
 90
        4
176
     1
 62
     7
176
     1
 62
   257
176
     1
 90
        7
176
     1
 90
        7
176
     1
 40
1.0
176
     1
 90
        8
176
     1
 62
     7
176
     1
 40
1.0
176
     1
 90
        1
176
     1
 90
        6
176
     1
 90
        2
176
     1
 62
     7
176
     1
 90
        5
176
     1
 90
        0
176
     1
 90
        0
176
     1
290
     0
176
     1
 90
        1
176
     1
 40
0.0
176
     1
 90
        0
176
     1
290
     0
176
     1
290
     1
176
     1
290
     1
176
     1
290
     0
176
     1
290
     0
176
     1
290
     0
176
     1
290
     0
176
     1
290
     0
176
     1
290
     0
176
     1
 90
       50
176
     1
 40
0.0
176
     1
 40
1.0
176
     1
 90
        0
176
     1
 62
    18
420
        0
176
     1
 90
       50
176
     1
 90
        3
176
     1
 62
     5
420
      255
176
     1
290
     0
176
     1
 90
       50
176
     1
 90
       50
176
     1
 90
       50
176
     1
290
     0
176
     1
 90
       50
176
     1
 62
   256
176
     0
 40
1.0
176
     0
 90
        2
176
     1
  1
strokes_ogs.tif
176
     1
290
     0
176
     1
 40
1.0
176
     1
 40
1.0
176
     1
  0
VISUALSTYLE
  5
40
102
{ACAD_REACTORS
330
29
102
}
330
29
100
AcDbVisualStyle
  2
OverhangOff
 70
    21
177
     3
291
     1
 70
    58
 90
        2
176
     0
 90
        2
176
     0
 90
        0
176
     0
 90
        0
176
     0
 40
0.6
176
     0
 40
30.0
176
     0
 62
     7
420
 16777215
176
     0
 90
        1
176
     0
 90
        4
176
     0
 62
     7
176
     0
 62
   257
176
     0
 90
        1
176
     0
 90
        1
176
     0
 40
1.0
176
     0
 90
        9
176
     2
 62
     7
176
     0
 40
1.0
176
     0
 90
        1
176
     0
 90
        6
176
     0
 90
        2
176
     0
 62
     7
176
     0
 90
        5
176
     0
 90
        0
176
     0
 90
        0
176
     0
290
     0
176
     0
 90
        1
176
     0
 40
0.0
176
     0
 90
        0
176
     0
290
     0
176
     0
290
     1
176
     0
290
     1
176
     0
290
     0
176
     0
290
     0
176
     0
290
     0
176
     0
290
     0
176
     0
290
     0
176
     0
290
     0
176
     0
 90
       50
176
     0
 40
0.0
176
     0
 40
1.0
176
     0
 90
        0
176
     0
 62
    18
420
        0
176
     0
 90
       50
176
     0
 90
        3
176
     0
 62
     5
420
      255
176
     0
290
     0
176
     0
 90
       50
176
     0
 90
       50
176
     0
 90
       50
176
     0
290
     0
176
     0
 90
       50
176
     0
 62
   256
176
     0
 40
1.0
176
     0
 90
        2
176
     0
  1
strokes_ogs.tif
176
     0
290
     0
176
     0
 40
1.0
176
     0
 40
1.0
176
     0
  0
VISUALSTYLE
  5
33
102
{ACAD_REACTORS
330
29
102
}
330
29
100
AcDbVisualStyle
  2
Realistic
 70
     8
177
     3
291
     0
 70
    58
 90
        2
176
     1
 90
        3
176
     1
 90
        0
176
     1
 90
        2
176
     1
 40
0.6
176
     1
 40
30.0
176
     1
 62
     7
420
 16777215
176
     1
 90
        0
176
     1
 90
        0
176
     1
 62
     7
176
     1
 62
   257
176
     1
 90
        1
176
     1
 90
        1
176
     1
 40
1.0
176
     1
 90
        8
176
     1
 62
   257
176
     1
 40
1.0
176
     1
 90
        1
176
     1
 90
        6
176
     1
 90
        2
176
     1
 62
     7
176
     1
 90
        3
176
     1
 90
        0
176
     1
 90
        0
176
     1
290
     0
176
     1
 90
       13
176
     1
 40
0.0
176
     1
 90
        0
176
     1
290
     0
176
     1
290
     1
176
     1
290
     1
176
     1
290
     0
176
     1
290
     0
176
     1
290
     0
176
     1
290
     0
176
     1
290
     0
176
     1
290
     0
176
     1
 90
       50
176
     1
 40
0.0
176
     1
 40
1.0
176
     1
 90
        0
176
     1
 62
    18
420
        0
176
     1
 90
       50
176
     1
 90
        3
176
     1
 62
     5
420
      255
176
     1
290
     0
176
     1
 90
       50
176
     1
 90
       50
176
     1
 90
       50
176
     1
290
     0
176
     1
 90
       50
176
     1
 62
   256
176
     0
 40
1.0
176
     0
 90
        2
176
     1
  1
strokes_ogs.tif
176
     1
290
     0
176
     1
 40
1.0
176
     1
 40
1.0
176
     1
  0
VISUALSTYLE
  5
3E
102
{ACAD_REACTORS
330
29
102
}
330
29
100
AcDbVisualStyle
  2
Shaded
 70
    27
177
     3
291
     0
 70
    58
 90
        2
176
     1
 90
        2
176
     1
 90
        1
176
     1
 90
        2
176
     1
 40
0.6
176
     1
 40
30.0
176
     1
 62
     7
420
 16777215
176
     1
 90
        0
176
     1
 90
        4
176
     1
 62
     7
176
     1
 62
   257
176
     1
 90
        1
176
     1
 90
        1
176
     1
 40
1.0
176
     1
 90
        8
176
     1
 62
   257
176
     1
 40
1.0
176
     1
 90
        1
176
     1
 90
        6
176
     1
 90
        2
176
     1
 62
     8
420
  7895160
176
     1
 90
        3
176
     1
 90
        0
176
     1
 90
        0
176
     1
290
     0
176
     1
 90
        5
176
     1
 40
0.0
176
     1
 90
        0
176
     1
290
     0
176
     1
290
     1
176
     1
290
     1
176
     1
290
     0
176
     1
290
     0
176
     1
290
     0
176
     1
290
     0
176
     1
290
     0
176
     1
290
     0
176
     1
 90
       50
176
     1
 40
0.0
176
     1
 40
1.0
176
     1
 90
        0
176
     1
 62
    18
420
        0
176
     1
 90
       50
176
     1
 90
        3
176
     1
 62
     5
420
      255
176
     1
290
     0
176
     1
 90
       50
176
     1
 90
       50
176
     1
 90
       50
176
     1
290
     0
176
     1
 90
       50
176
     1
 62
   256
176
     0
 40
1.0
176
     0
 90
        2
176
     1
  1
strokes_ogs.tif
176
     1
290
     0
176
     1
 40
1.0
176
     1
 40
1.0
176
     1
  0
VISUALSTYLE
  5
3D
102
{ACAD_REACTORS
330
29
102
}
330
29
100
AcDbVisualStyle
  2
Shaded with edges
 70
    26
177
     3
291
     0
 70
    58
 90
        2
176
     1
 90
        2
176
     1
 90
        1
176
     1
 90
        2
176
     1
 40
0.6
176
     1
 40
30.0
176
     1
 62
     7
420
 16777215
176
     1
 90
        1
176
     1
 90
        2
176
     1
 62
     7
176
     1
 62
   257
176
     1
 90
        2
176
     1
 90
        1
176
     1
 40
1.0
176
     1
 90
        8
176
     1
 62
   257
176
     1
 40
1.0
176
     1
 90
        1
176
     1
 90
        6
176
     1
 90
        2
176
     1
 62
     7
176
     1
 90
        3
176
     1
 90
        0
176
     1
 90
        0
176
     1
290
     0
176
     1
 90
        5
176
     1
 40
0.0
176
     1
 90
        0
176
     1
290
     0
176
     1
290
     1
176
     1
290
     1
176
     1
290
     0
176
     1
290
     0
176
     1
290
     0
176
     1
290
     0
176
     1
290
     0
176
     1
290
     0
176
     1
 90
       50
176
     1
 40
0.0
176
     1
 40
1.0
176
     1
 90
        0
176
     1
 62
    18
420
        0
176
     1
 90
       50
176
     1
 90
        3
176
     1
 62
     5
420
      255
176
     1
290
     0
176
     1
 90
       50
176
     1
 90
       50
176
     1
 90
       50
176
     1
290
     0
176
     1
 90
       50
176
     1
 62
   256
176
     0
 40
1.0
176
     0
 90
        2
176
     1
  1
strokes_ogs.tif
176
     1
290
     0
176
     1
 40
1.0
176
     1
 40
1.0
176
     1
  0
VISUALSTYLE
  5
3A
102
{ACAD_REACTORS
330
29
102
}
330
29
100
AcDbVisualStyle
  2
Shades of Gray
 70
    23
177
     3
291
     0
 70
    58
 90
        2
176
     1
 90
        2
176
     1
 90
        3
176
     1
 90
        0
176
     1
 40
0.6
176
     1
 40
30.0
176
     1
 62
     7
420
 16777215
176
     1
 90
        2
176
     1
 90
        2
176
     1
 62
     7
176
     1
 62
     7
176
     1
 90
        1
176
     1
 90
        1
176
     1
 40
40.0
176
     1
 90
        8
176
     1
 62
     7
176
     1
 40
1.0
176
     1
 90
        1
176
     1
 90
        6
176
     1
 90
        2
176
     1
 62
     7
176
     1
 90
        3
176
     1
 90
        0
176
     1
 90
        0
176
     1
290
     0
176
     1
 90
        1
176
     1
 40
0.0
176
     1
 90
        0
176
     1
290
     0
176
     1
290
     1
176
     1
290
     1
176
     1
290
     0
176
     1
290
     0
176
     1
290
     0
176
     1
290
     0
176
     1
290
     0
176
     1
290
     0
176
     1
 90
       50
176
     1
 40
0.0
176
     1
 40
1.0
176
     1
 90
        0
176
     1
 62
    18
420
        0
176
     1
 90
       50
176
     1
 90
        3
176
     1
 62
     5
420
      255
176
     1
290
     0
176
     1
 90
       50
176
     1
 90
       50
176
     1
 90
       50
176
     1
290
     0
176
     1
 90
       50
176
     1
 62
   256
176
     0
 40
1.0
176
     0
 90
        2
176
     1
  1
strokes_ogs.tif
176
     1
290
     0
176
     1
 40
1.0
176
     1
 40
1.0
176
     1
  0
VISUALSTYLE
  5
3B
102
{ACAD_REACTORS
330
29
102
}
330
29
100
AcDbVisualStyle
  2
Sketchy
 70
    24
177
     3
291
     0
 70
    58
 90
        1
176
     1
 90
        2
176
     1
 90
        2
176
     1
 90
        0
176
     1
 40
0.6
176
     1
 40
30.0
176
     1
 62
     7
420
 16777215
176
     1
 90
        2
176
     1
 90
        2
176
     1
 62
     7
176
     1
 62
     7
176
     1
 90
        1
176
     1
 90
        1
176
     1
 40
40.0
176
     1
 90
       11
176
     1
 62
     7
176
     1
 40
1.0
176
     1
 90
        1
176
     1
 90
        6
176
     1
 90
        2
176
     1
 62
     7
176
     1
 90
        6
176
     1
 90
        0
176
     1
 90
        0
176
     1
290
     0
176
     1
 90
        1
176
     1
 40
0.0
176
     1
 90
        0
176
     1
290
     0
176
     1
290
     1
176
     1
290
     1
176
     1
290
     0
176
     1
290
     0
176
     1
290
     0
176
     1
290
     0
176
     1
290
     0
176
     1
290
     0
176
     1
 90
       50
176
     1
 40
0.0
176
     1
 40
1.0
176
     1
 90
        0
176
     1
 62
    18
420
        0
176
     1
 90
       50
176
     1
 90
        3
176
     1
 62
     5
420
      255
176
     1
290
     0
176
     1
 90
       50
176
     1
 90
       50
176
     1
 90
       50
176
     1
290
     0
176
     1
 90
       50
176
     1
 62
   256
176
     0
 40
1.0
176
     0
 90
        2
176
     1
  1
strokes_ogs.tif
176
     1
290
     0
176
     1
 40
1.0
176
     1
 40
1.0
176
     1
  0
VISUALSTYLE
  5
36
102
{ACAD_REACTORS
330
29
102
}
330
29
100
AcDbVisualStyle
  2
Thicken
 70
    13
177
     3
291
     1
 70
    58
 90
        2
176
     1
 90
        2
176
     1
 90
        0
176
     1
 90
        0
176
     1
 40
0.6
176
     1
 40
30.0
176
     1
 62
     7
420
 16777215
176
     1
 90
        1
176
     1
 90
        4
176
     1
 62
     7
176
     1
 62
   257
176
     1
 90
        1
176
     1
 90
        1
176
     1
 40
1.0
176
     1
 90
       12
176
     1
 62
     7
176
     1
 40
1.0
176
     1
 90
        1
176
     1
 90
        6
176
     1
 90
        2
176
     1
 62
     7
176
     1
 90
        5
176
     1
 90
        0
176
     1
 90
        0
176
     1
290
     0
176
     1
 90
        1
176
     1
 40
0.0
176
     1
 90
        0
176
     1
290
     0
176
     1
290
     1
176
     1
290
     1
176
     1
290
     0
176
     1
290
     0
176
     1
290
     0
176
     1
290
     0
176
     1
290
     0
176
     1
290
     0
176
     1
 90
       50
176
     1
 40
0.0
176
     1
 40
1.0
176
     1
 90
        0
176
     1
 62
    18
420
        0
176
     1
 90
       50
176
     1
 90
        3
176
     1
 62
     5
420
      255
176
     1
290
     0
176
     1
 90
       50
176
     1
 90
       50
176
     1
 90
       50
176
     1
290
     0
176
     1
 90
       50
176
     1
 62
   256
176
     0
 40
1.0
176
     0
 90
        2
176
     1
  1
strokes_ogs.tif
176
     1
290
     0
176
     1
 40
1.0
176
     1
 40
1.0
176
     1
  0
VISUALSTYLE
  5
30
102
{ACAD_REACTORS
330
29
102
}
330
29
100
AcDbVisualStyle
  2
Wireframe
 70
     5
177
     3
291
     0
 70
    58
 90
        0
176
     1
 90
        2
176
     1
 90
        0
176
     1
 90
        0
176
     1
 40
0.6
176
     1
 40
30.0
176
     1
 62
     7
420
 16777215
176
     1
 90
        1
176
     1
 90
        4
176
     1
 62
     7
176
     1
 62
   257
176
     1
 90
        1
176
     1
 90
        1
176
     1
 40
1.0
176
     1
 90
        0
176
     1
 62
   257
176
     1
 40
1.0
176
     1
 90
        1
176
     1
 90
        6
176
     1
 90
        2
176
     1
 62
     7
176
     1
 90
        3
176
     1
 90
        0
176
     1
 90
        0
176
     1
290
     0
176
     1
 90
        1
176
     1
 40
0.0
176
     1
 90
        0
176
     1
290
     0
176
     1
290
     1
176
     1
290
     1
176
     1
290
     0
176
     1
290
     0
176
     1
290
     0
176
     1
290
     0
176
     1
290
     0
176
     1
290
     0
176
     1
 90
       50
176
     1
 40
0.0
176
     1
 40
1.0
176
     1
 90
        0
176
     1
 62
    18
420
        0
176
     1
 90
       50
176
     1
 90
        3
176
     1
 62
     5
420
      255
176
     1
290
     0
176
     1
 90
       50
176
     1
 90
       50
176
     1
 90
       50
176
     1
290
     0
176
     1
 90
       50
176
     1
 62
   256
176
     0
 40
1.0
176
     0
 90
        2
176
     1
  1
strokes_ogs.tif
176
     1
290
     0
176
     1
 40
1.0
176
     1
 40
1.0
176
     1
  0
VISUALSTYLE
  5
3C
102
{ACAD_REACTORS
330
29
102
}
330
29
100
AcDbVisualStyle
  2
X-Ray
 70
    25
177
     3
291
     0
 70
    58
 90
        2
176
     1
 90
        2
176
     1
 90
        1
176
     1
 90
        1
176
     1
 40
0.5
176
     1
 40
30.0
176
     1
 62
     7
420
 16777215
176
     1
 90
        1
176
     1
 90
        0
176
     1
 62
     7
176
     1
 62
   257
176
     1
 90
        1
176
     1
 90
        1
176
     1
 40
1.0
176
     1
 90
        8
176
     1
 62
     7
176
     1
 40
1.0
176
     1
 90
        1
176
     1
 90
        6
176
     1
 90
        2
176
     1
 62
     7
176
     1
 90
        3
176
     1
 90
        0
176
     1
 90
        0
176
     1
290
     0
176
     1
 90
       13
176
     1
 40
0.0
176
     1
 90
        0
176
     1
290
     0
176
     1
290
     1
176
     1
290
     1
176
     1
290
     0
176
     1
290
     0
176
     1
290
     0
176
     1
290
     0
176
     1
290
     0
176
     1
290
     0
176
     1
 90
       50
176
     1
 40
0.0
176
     1
 40
1.0
176
     1
 90
        0
176
     1
 62
    18
420
        0
176
     1
 90
       50
176
     1
 90
        3
176
     1
 62
     5
420
      255
176
     1
290
     0
176
     1
 90
       50
176
     1
 90
       50
176
     1
 90
       50
176
     1
290
     0
176
     1
 90
       50
176
     1
 62
   256
176
     0
 40
1.0
176
     0
 90
        2
176
     1
  1
strokes_ogs.tif
176
     1
290
     0
176
     1
 40
1.0
176
     1
 40
1.0
176
     1
  0
DICTIONARYVAR
  5
A1
102
{ACAD_REACTORS
330
9C
102
}
330
9C
100
DictionaryVariables
280
     0
  1
1:1
  0
DICTIONARYVAR
  5
9E
102
{ACAD_REACTORS
330
9C
102
}
330
9C
100
DictionaryVariables
280
     0
  1
STANDARD
  0
DICTIONARYVAR
  5
9D
102
{ACAD_REACTORS
330
9C
102
}
330
9C
100
DictionaryVariables
280
     0
  1
STANDARD
  0
DICTIONARYVAR
  5
9F
102
{ACAD_REACTORS
330
9C
102
}
330
9C
100
DictionaryVariables
280
     0
  1
Imperial24
  0
DICTIONARYVAR
  5
A0
102
{ACAD_REACTORS
330
9C
102
}
330
9C
100
DictionaryVariables
280
     0
  1
Imperial24
  0
DICTIONARY
  5
1A
330
19
100
AcDbDictionary
280
     1
281
     1
  3
BUMPTILE
360
1C
  3
DIFFUSETILE
360
1B
  3
OPACITYTILE
360
1F
  3
REFLECTIONTILE
360
1E
  3
REFRACTIONTILE
360
20
  3
SPECULARTILE
360
1D
  0
DICTIONARY
  5
12
330
11
100
AcDbDictionary
280
     1
281
     1
  3
BUMPTILE
360
14
  3
DIFFUSETILE
360
13
  3
OPACITYTILE
360
17
  3
REFLECTIONTILE
360
16
  3
REFRACTIONTILE
360
18
  3
SPECULARTILE
360
15
  0
DICTIONARY
  5
22
330
21
100
AcDbDictionary
280
     1
281
     1
  3
BUMPTILE
360
24
  3
DIFFUSETILE
360
23
  3
OPACITYTILE
360
27
  3
REFLECTIONTILE
360
26
  3
REFRACTIONTILE
360
28
  3
SPECULARTILE
360
25
  0
DICTIONARY
  5
A2
330
65
100
AcDbDictionary
280
     1
281
     1
  3
ACAD_ROUNDTRIP_2008_TABLESTYLE_CELLSTYLEMAP
360
A3
  0
XRECORD
  5
1C
102
{ACAD_REACTORS
330
1A
102
}
330
1A
100
AcDbXrecord
280
     1
270
     1
271
     1
  0
XRECORD
  5
1B
102
{ACAD_REACTORS
330
1A
102
}
330
1A
100
AcDbXrecord
280
     1
270
     1
271
     1
  0
XRECORD
  5
1F
102
{ACAD_REACTORS
330
1A
102
}
330
1A
100
AcDbXrecord
280
     1
270
     1
271
     1
  0
XRECORD
  5
1E
102
{ACAD_REACTORS
330
1A
102
}
330
1A
100
AcDbXrecord
280
     1
270
     1
271
     1
  0
XRECORD
  5
20
102
{ACAD_REACTORS
330
1A
102
}
330
1A
100
AcDbXrecord
280
     1
270
     1
271
     1
  0
XRECORD
  5
1D
102
{ACAD_REACTORS
330
1A
102
}
330
1A
100
AcDbXrecord
280
     1
270
     1
271
     1
  0
XRECORD
  5
14
102
{ACAD_REACTORS
330
12
102
}
330
12
100
AcDbXrecord
280
     1
270
     1
271
     1
  0
XRECORD
  5
13
102
{ACAD_REACTORS
330
12
102
}
330
12
100
AcDbXrecord
280
     1
270
     1
271
     1
  0
XRECORD
  5
17
102
{ACAD_REACTORS
330
12
102
}
330
12
100
AcDbXrecord
280
     1
270
     1
271
     1
  0
XRECORD
  5
16
102
{ACAD_REACTORS
330
12
102
}
330
12
100
AcDbXrecord
280
     1
270
     1
271
     1
  0
XRECORD
  5
18
102
{ACAD_REACTORS
330
12
102
}
330
12
100
AcDbXrecord
280
     1
270
     1
271
     1
  0
XRECORD
  5
15
102
{ACAD_REACTORS
330
12
102
}
330
12
100
AcDbXrecord
280
     1
270
     1
271
     1
  0
XRECORD
  5
24
102
{ACAD_REACTORS
330
22
102
}
330
22
100
AcDbXrecord
280
     1
270
     1
271
     1
  0
XRECORD
  5
23
102
{ACAD_REACTORS
330
22
102
}
330
22
100
AcDbXrecord
280
     1
270
     1
271
     1
  0
XRECORD
  5
27
102
{ACAD_REACTORS
330
22
102
}
330
22
100
AcDbXrecord
280
     1
270
     1
271
     1
  0
XRECORD
  5
26
102
{ACAD_REACTORS
330
22
102
}
330
22
100
AcDbXrecord
280
     1
270
     1
271
     1
  0
XRECORD
  5
28
102
{ACAD_REACTORS
330
22
102
}
330
22
100
AcDbXrecord
280
     1
270
     1
271
     1
  0
XRECORD
  5
25
102
{ACAD_REACTORS
330
22
102
}
330
22
100
AcDbXrecord
280
     1
270
     1
271
     1
  0
CELLSTYLEMAP
  5
A3
102
{ACAD_REACTORS
330
A2
102
}
330
A2
100
AcDbCellStyleMap
 90
        3
300
CELLSTYLE
  1
TABLEFORMAT_BEGIN
 90
        5
170
     1
 91
        0
 92
    32768
 62
   257
 93
        1
300
CONTENTFORMAT
  1
CONTENTFORMAT_BEGIN
 90
        0
 91
        0
 92
      512
 93
        0
300

 40
0.0
140
1.0
 94
        5
 62
     0
340
55
144
0.25
309
CONTENTFORMAT_END
171
     0
 94
        0
309
TABLEFORMAT_END
  1
CELLSTYLE_BEGIN
 90
        1
 91
        1
300
_TITLE
309
CELLSTYLE_END
300
CELLSTYLE
  1
TABLEFORMAT_BEGIN
 90
        5
170
     1
 91
        0
 92
        0
 62
   257
 93
        1
300
CONTENTFORMAT
  1
CONTENTFORMAT_BEGIN
 90
        0
 91
        0
 92
      512
 93
        0
300

 40
0.0
140
1.0
 94
        5
 62
     0
340
55
144
0.18
309
CONTENTFORMAT_END
171
     0
 94
        0
309
TABLEFORMAT_END
  1
CELLSTYLE_BEGIN
 90
        2
 91
        1
300
_HEADER
309
CELLSTYLE_END
300
CELLSTYLE
  1
TABLEFORMAT_BEGIN
 90
        5
170
     1
 91
        0
 92
        0
 62
   257
 93
        1
300
CONTENTFORMAT
  1
CONTENTFORMAT_BEGIN
 90
        0
 91
        0
 92
      512
 93
        0
300

 40
0.0
140
1.0
 94
        2
 62
     0
340
55
144
0.18
309
CONTENTFORMAT_END
171
     0
 94
        0
309
TABLEFORMAT_END
  1
CELLSTYLE_BEGIN
 90
        3
 91
        2
300
_DATA
309
CELLSTYLE_END
  0
ENDSEC
  0
EOF
