  0
SECTION
  2
HEADER
  9
$ACADVER
  1
AC1014
  9
$ACADMAINTVER
 70
     9
  9
$DWGCODEPAGE
  3
ANSI_1252
  9
$INSBASE
 10
0.0
 20
0.0
 30
0.0
  9
$EXTMIN
 10
1.000000000000000E+20
 20
1.000000000000000E+20
 30
1.000000000000000E+20
  9
$EXTMAX
 10
-1.000000000000000E+20
 20
-1.000000000000000E+20
 30
-1.000000000000000E+20
  9
$LIMMIN
 10
0.0
 20
0.0
  9
$LIMMAX
 10
12.0
 20
9.0
  9
$ORTHOMODE
 70
     0
  9
$REGENMODE
 70
     1
  9
$FILLMODE
 70
     1
  9
$QTEXTMODE
 70
     0
  9
$MIRRTEXT
 70
     1
  9
$DRAGMODE
 70
     2
  9
$LTSCALE
 40
1.0
  9
$OSMODE
 70
    37
  9
$ATTMODE
 70
     1
  9
$TEXTSIZE
 40
0.2
  9
$TRACEWID
 40
0.05
  9
$TEXTSTYLE
  7
STANDARD
  9
$CLAYER
  8
0
  9
$CELTYPE
  6
BYLAYER
  9
$CECOLOR
 62
   256
  9
$CELTSCALE
 40
1.0
  9
$DELOBJ
 70
     1
  9
$DISPSILH
 70
     0
  9
$DIMSCALE
 40
1.0
  9
$DIMASZ
 40
0.18
  9
$DIMEXO
 40
0.0625
  9
$DIMDLI
 40
0.38
  9
$DIMRND
 40
0.0
  9
$DIMDLE
 40
0.0
  9
$DIMEXE
 40
0.18
  9
$DIMTP
 40
0.0
  9
$DIMTM
 40
0.0
  9
$DIMTXT
 40
0.18
  9
$DIMCEN
 40
0.09
  9
$DIMTSZ
 40
0.0
  9
$DIMTOL
 70
     0
  9
$DIMLIM
 70
     0
  9
$DIMTIH
 70
     1
  9
$DIMTOH
 70
     1
  9
$DIMSE1
 70
     0
  9
$DIMSE2
 70
     0
  9
$DIMTAD
 70
     0
  9
$DIMZIN
 70
     0
  9
$DIMBLK
  1

  9
$DIMASO
 70
     1
  9
$DIMSHO
 70
     1
  9
$DIMPOST
  1

  9
$DIMAPOST
  1

  9
$DIMALT
 70
     0
  9
$DIMALTD
 70
     2
  9
$DIMALTF
 40
25.4
  9
$DIMLFAC
 40
1.0
  9
$DIMTOFL
 70
     0
  9
$DIMTVP
 40
0.0
  9
$DIMTIX
 70
     0
  9
$DIMSOXD
 70
     0
  9
$DIMSAH
 70
     0
  9
$DIMBLK1
  1

  9
$DIMBLK2
  1

  9
$DIMSTYLE
  2
STANDARD
  9
$DIMCLRD
 70
     0
  9
$DIMCLRE
 70
     0
  9
$DIMCLRT
 70
     0
  9
$DIMTFAC
 40
1.0
  9
$DIMGAP
 40
0.09
  9
$DIMJUST
 70
     0
  9
$DIMSD1
 70
     0
  9
$DIMSD2
 70
     0
  9
$DIMTOLJ
 70
     1
  9
$DIMTZIN
 70
     0
  9
$DIMALTZ
 70
     0
  9
$DIMALTTZ
 70
     0
  9
$DIMFIT
 70
     3
  9
$DIMUPT
 70
     0
  9
$DIMUNIT
 70
     2
  9
$DIMDEC
 70
     4
  9
$DIMTDEC
 70
     4
  9
$DIMALTU
 70
     2
  9
$DIMALTTD
 70
     2
  9
$DIMTXSTY
  7
STANDARD
  9
$DIMAUNIT
 70
     0
  9
$LUNITS
 70
     2
  9
$LUPREC
 70
     4
  9
$SKETCHINC
 40
0.1
  9
$FILLETRAD
 40
0.0
  9
$AUNITS
 70
     0
  9
$AUPREC
 70
     0
  9
$MENU
  1
.
  9
$ELEVATION
 40
0.0
  9
$PELEVATION
 40
0.0
  9
$THICKNESS
 40
0.0
  9
$LIMCHECK
 70
     0
  9
$CHAMFERA
 40
0.0
  9
$CHAMFERB
 40
0.0
  9
$CHAMFERC
 40
0.0
  9
$CHAMFERD
 40
0.0
  9
$SKPOLY
 70
     0
  9
$TDCREATE
 40
2460501.633528114
  9
$TDUPDATE
 40
2460501.633548021
  9
$TDINDWG
 40
0.0000000116
  9
$TDUSRTIMER
 40
0.0000000116
  9
$USRTIMER
 70
     1
  9
$ANGBASE
 50
0.0
  9
$ANGDIR
 70
     0
  9
$PDMODE
 70
     0
  9
$PDSIZE
 40
0.0
  9
$PLINEWID
 40
0.0
  9
$COORDS
 70
     1
  9
$SPLFRAME
 70
     0
  9
$SPLINETYPE
 70
     6
  9
$SPLINESEGS
 70
     8
  9
$ATTDIA
 70
     0
  9
$ATTREQ
 70
     1
  9
$HANDLING
 70
     1
  9
$HANDSEED
  5
5D2
  9
$SURFTAB1
 70
     6
  9
$SURFTAB2
 70
     6
  9
$SURFTYPE
 70
     6
  9
$SURFU
 70
     6
  9
$SURFV
 70
     6
  9
$UCSNAME
  2

  9
$UCSORG
 10
0.0
 20
0.0
 30
0.0
  9
$UCSXDIR
 10
1.0
 20
0.0
 30
0.0
  9
$UCSYDIR
 10
0.0
 20
1.0
 30
0.0
  9
$PUCSNAME
  2

  9
$PUCSORG
 10
0.0
 20
0.0
 30
0.0
  9
$PUCSXDIR
 10
1.0
 20
0.0
 30
0.0
  9
$PUCSYDIR
 10
0.0
 20
1.0
 30
0.0
  9
$USERI1
 70
     0
  9
$USERI2
 70
     0
  9
$USERI3
 70
     0
  9
$USERI4
 70
     0
  9
$USERI5
 70
     0
  9
$USERR1
 40
0.0
  9
$USERR2
 40
0.0
  9
$USERR3
 40
0.0
  9
$USERR4
 40
0.0
  9
$USERR5
 40
0.0
  9
$WORLDVIEW
 70
     1
  9
$SHADEDGE
 70
     3
  9
$SHADEDIF
 70
    70
  9
$TILEMODE
 70
     1
  9
$MAXACTVP
 70
    64
  9
$PINSBASE
 10
0.0
 20
0.0
 30
0.0
  9
$PLIMCHECK
 70
     0
  9
$PEXTMIN
 10
1.000000000000000E+20
 20
1.000000000000000E+20
 30
1.000000000000000E+20
  9
$PEXTMAX
 10
-1.000000000000000E+20
 20
-1.000000000000000E+20
 30
-1.000000000000000E+20
  9
$PLIMMIN
 10
0.0
 20
0.0
  9
$PLIMMAX
 10
12.0
 20
9.0
  9
$UNITMODE
 70
     0
  9
$VISRETAIN
 70
     1
  9
$PLINEGEN
 70
     0
  9
$PSLTSCALE
 70
     1
  9
$TREEDEPTH
 70
  3020
  9
$PICKSTYLE
 70
     1
  9
$CMLSTYLE
  2
STANDARD
  9
$CMLJUST
 70
     0
  9
$CMLSCALE
 40
1.0
  9
$PROXYGRAPHICS
 70
     1
  9
$MEASUREMENT
 70
     1
  0
ENDSEC
  0
SECTION
  2
CLASSES
  0
CLASS
  1
ACDBDICTIONARYWDFLT
  2
AcDbDictionaryWithDefault
  3
ObjectDBX Classes
 90
        0
280
     0
281
     0
  0
CLASS
  1
VISUALSTYLE
  2
AcDbVisualStyle
  3
ObjectDBX Classes
 90
     4095
280
     0
281
     0
  0
CLASS
  1
MATERIAL
  2
AcDbMaterial
  3
ObjectDBX Classes
 90
     1153
280
     0
281
     0
  0
CLASS
  1
SCALE
  2
AcDbScale
  3
ObjectDBX Classes
 90
     1153
280
     0
281
     0
  0
CLASS
  1
TABLESTYLE
  2
AcDbTableStyle
  3
ObjectDBX Classes
 90
     4095
280
     0
281
     0
  0
CLASS
  1
MLEADERSTYLE
  2
AcDbMLeaderStyle
  3
ACDB_MLEADERSTYLE_CLASS
 90
     4095
280
     0
281
     0
  0
CLASS
  1
SUN
  2
AcDbSun
  3
SCENEOE
 90
     1153
280
     0
281
     0
  0
CLASS
  1
DICTIONARYVAR
  2
AcDbDictionaryVar
  3
ObjectDBX Classes
 90
        0
280
     0
281
     0
  0
CLASS
  1
XRECORD
  2
AcDbXrecord
  3
ObjectDBX Classes
 90
        0
280
     0
281
     0
  0
CLASS
  1
LWPOLYLINE
  2
AcDbPolyline
  3
ObjectDBX Classes
 90
        0
280
     0
281
     1
  0
CLASS
  1
HATCH
  2
AcDbHatch
  3
ObjectDBX Classes
 90
        0
280
     0
281
     1
  0
CLASS
  1
ACDBPLACEHOLDER
  2
AcDbPlaceHolder
  3
ObjectDBX Classes
 90
        0
280
     0
281
     0
  0
CLASS
  1
LAYOUT
  2
AcDbLayout
  3
ObjectDBX Classes
 90
        0
280
     0
281
     0
  0
ENDSEC
  0
SECTION
  2
TABLES
  0
TABLE
  2
VPORT
  5
8
102
{ACAD_XDICTIONARY
360
5C7
102
}
330
0
100
AcDbSymbolTable
 70
     1
  0
VPORT
  5
29
330
8
100
AcDbSymbolTableRecord
100
AcDbViewportTableRecord
  2
*ACTIVE
 70
     0
 10
0.0
 20
0.0
 11
1.0
 21
1.0
 12
0.0
 22
0.0
 13
0.0
 23
0.0
 14
0.5
 24
0.5
 15
0.5
 25
0.5
 16
0.0
 26
0.0
 36
1.0
 17
0.0
 27
0.0
 37
-1000.0
 40
0.2140649107185739
 41
1.894193548387097
 42
50.0
 43
0.5306522799566228
 44
0.8437542367355675
 50
0.0
 51
0.0
 71
     0
 72
   100
 73
     1
 74
     3
 75
     0
 76
     0
 77
     0
 78
     0
  0
ENDTAB
  0
TABLE
  2
LTYPE
  5
5
330
0
100
AcDbSymbolTable
 70
     1
  0
LTYPE
  5
14
330
5
100
AcDbSymbolTableRecord
100
AcDbLinetypeTableRecord
  2
BYBLOCK
 70
     0
  3

 72
    65
 73
     0
 40
0.0
  0
LTYPE
  5
15
330
5
100
AcDbSymbolTableRecord
100
AcDbLinetypeTableRecord
  2
BYLAYER
 70
     0
  3

 72
    65
 73
     0
 40
0.0
  0
LTYPE
  5
16
330
5
100
AcDbSymbolTableRecord
100
AcDbLinetypeTableRecord
  2
CONTINUOUS
 70
     0
  3
Solid line
 72
    65
 73
     0
 40
0.0
  0
ENDTAB
  0
TABLE
  2
LAYER
  5
2
330
0
100
AcDbSymbolTable
 70
     3
  0
LAYER
  5
10
330
2
100
AcDbSymbolTableRecord
100
AcDbLayerTableRecord
  2
0
 70
     0
 62
     7
  6
CONTINUOUS
  0
LAYER
  5
5E
330
2
100
AcDbSymbolTableRecord
100
AcDbLayerTableRecord
  2
PROFILEEDGES
 70
     0
 62
     7
  6
CONTINUOUS
  0
LAYER
  5
5F
330
2
100
AcDbSymbolTableRecord
100
AcDbLayerTableRecord
  2
SECTIONCUTEDGES
 70
     0
 62
     7
  6
CONTINUOUS
  0
ENDTAB
  0
TABLE
  2
STYLE
  5
3
330
0
100
AcDbSymbolTable
 70
     1
  0
STYLE
  5
11
330
3
100
AcDbSymbolTableRecord
100
AcDbTextStyleTableRecord
  2
STANDARD
 70
     0
 40
0.0
 41
1.0
 50
0.0
 71
     0
 42
0.2
  3
txt
  4

  0
ENDTAB
  0
TABLE
  2
VIEW
  5
6
330
0
100
AcDbSymbolTable
 70
     0
  0
ENDTAB
  0
TABLE
  2
UCS
  5
7
330
0
100
AcDbSymbolTable
 70
     0
  0
ENDTAB
  0
TABLE
  2
APPID
  5
9
330
0
100
AcDbSymbolTable
 70
     2
  0
APPID
  5
12
330
9
100
AcDbSymbolTableRecord
100
AcDbRegAppTableRecord
  2
ACAD
 70
     0
  0
APPID
  5
5D1
330
9
100
AcDbSymbolTableRecord
100
AcDbRegAppTableRecord
  2
ACAD_MLEADERVER
 70
     0
  0
ENDTAB
  0
TABLE
  2
DIMSTYLE
  5
A
330
0
100
AcDbSymbolTable
 70
     1
  0
DIMSTYLE
105
27
330
A
100
AcDbSymbolTableRecord
100
AcDbDimStyleTableRecord
  2
STANDARD
 70
     0
  3

  4

  5

  6

  7

 40
1.0
 41
0.18
 42
0.0625
 43
0.38
 44
0.18
 45
0.0
 46
0.0
 47
0.0
 48
0.0
140
0.18
141
0.09
142
0.0
143
25.4
144
1.0
145
0.0
146
1.0
147
0.09
 71
     0
 72
     0
 73
     1
 74
     1
 75
     0
 76
     0
 77
     0
 78
     0
170
     0
171
     2
172
     0
173
     0
174
     0
175
     0
176
     0
177
     0
178
     0
270
     2
271
     4
272
     4
273
     2
274
     2
340
11
275
     0
280
     0
281
     0
282
     0
283
     1
284
     0
285
     0
286
     0
287
     3
288
     0
  0
ENDTAB
  0
TABLE
  2
BLOCK_RECORD
  5
1
330
0
100
AcDbSymbolTable
 70
     0
  0
BLOCK_RECORD
  5
1F
330
1
100
AcDbSymbolTableRecord
100
AcDbBlockTableRecord
  2
*MODEL_SPACE
  0
BLOCK_RECORD
  5
1B
330
1
100
AcDbSymbolTableRecord
100
AcDbBlockTableRecord
  2
*PAPER_SPACE
  0
ENDTAB
  0
ENDSEC
  0
SECTION
  2
BLOCKS
  0
BLOCK
  5
20
330
1F
100
AcDbEntity
  8
0
100
AcDbBlockBegin
  2
*MODEL_SPACE
 70
     0
 10
0.0
 20
0.0
 30
0.0
  3
*MODEL_SPACE
  1

  0
ENDBLK
  5
21
330
1F
100
AcDbEntity
  8
0
100
AcDbBlockEnd
  0
BLOCK
  5
1C
330
1B
100
AcDbEntity
 67
     1
  8
0
100
AcDbBlockBegin
  2
*PAPER_SPACE
 70
     0
 10
0.0
 20
0.0
 30
0.0
  3
*PAPER_SPACE
  1

  0
ENDBLK
  5
1D
330
1B
100
AcDbEntity
 67
     1
  8
0
100
AcDbBlockEnd
  0
ENDSEC
  0
SECTION
  2
ENTITIES
  0
LINE
  5
60
330
1F
100
AcDbEntity
  8
0
100
AcDbLine
 10
-0.1547455486951435
 20
0.010934763406704
 30
0.0
 11
-0.1546455541808521
 21
0.010952177991705
 31
0.0
  0
LINE
  5
61
330
1F
100
AcDbEntity
  8
0
100
AcDbLine
 10
-0.1534767986358692
 20
0.010952179265317
 30
0.0
 11
-0.1530060623909276
 21
0.0133143606978523
 31
0.0
  0
LINE
  5
62
330
1F
100
AcDbEntity
  8
0
100
AcDbLine
 10
0.0363624922595163
 20
-0.0065035418485137
 30
0.0
 11
0.0364639095626017
 21
-0.0064357527409525
 31
0.0
  0
LINE
  5
63
330
1F
100
AcDbEntity
  8
0
100
AcDbLine
 10
0.0364639095626017
 20
-0.0064357527409525
 30
0.0
 11
0.0368722584039978
 21
-0.0061192590826074
 31
0.0
  0
LINE
  5
64
330
1F
100
AcDbEntity
  8
0
100
AcDbLine
 10
0.0414103342311081
 20
-0.0014677990857182
 30
0.0
 11
0.0414586810059091
 21
-0.00140610351389
 31
0.0
  0
LINE
  5
65
330
1F
100
AcDbEntity
  8
0
100
AcDbLine
 10
0.024173205777807
 20
0.0299340049748929
 30
0.0
 11
0.0242253525771418
 21
0.0299364916448895
 31
0.0
  0
LINE
  5
66
330
1F
100
AcDbEntity
  8
0
100
AcDbLine
 10
0.0229391215302479
 20
0.0298452337739164
 30
0.0
 11
0.0229874692757412
 21
0.0298501230659954
 31
0.0
  0
LINE
  5
67
330
1F
100
AcDbEntity
  8
0
100
AcDbLine
 10
0.0224295687777696
 20
0.0300787471128319
 30
0.0
 11
0.0224776884085313
 21
0.0301172613209268
 31
0.0
  0
LINE
  5
68
330
1F
100
AcDbEntity
  8
0
100
AcDbLine
 10
0.0226560766983681
 20
0.0302325138633081
 30
0.0
 11
0.0227051942202435
 21
0.0302672448261795
 31
0.0
  0
LINE
  5
69
330
1F
100
AcDbEntity
  8
0
100
AcDbLine
 10
0.1915037324427804
 20
0.0298521789844303
 30
0.0
 11
0.1914903344362272
 21
0.0299021798307965
 31
0.0
  0
LINE
  5
6A
330
1F
100
AcDbEntity
  8
0
100
AcDbLine
 10
0.1779433153677003
 20
0.029863629586456
 30
0.0
 11
0.1779798304779019
 21
0.0298657088252367
 31
0.0
  0
LINE
  5
6B
330
1F
100
AcDbEntity
  8
0
100
AcDbLine
 10
0.178426221883818
 20
0.0298918168249843
 30
0.0
 11
0.1785406778311876
 21
0.0299012114400057
 31
0.0
  0
LINE
  5
6C
330
1F
100
AcDbEntity
  8
0
100
AcDbLine
 10
0.1781966693857552
 20
0.0298770197969998
 30
0.0
 11
0.178268196754445
 21
0.0298820788282227
 31
0.0
  0
LINE
  5
6D
330
1F
100
AcDbEntity
  8
0
100
AcDbLine
 10
0.1763548269025774
 20
0.0298524208391855
 30
0.0
 11
0.1765120666903709
 21
0.0298472756665313
 31
0.0
  0
LINE
  5
6E
330
1F
100
AcDbEntity
  8
0
100
AcDbLine
 10
0.176242699286502
 20
0.0298558193198024
 30
0.0
 11
0.1763548269025774
 21
0.0298524208391855
 31
0.0
  0
LINE
  5
6F
330
1F
100
AcDbEntity
  8
0
100
AcDbLine
 10
0.1760692438044838
 20
0.0298637078924731
 30
0.0
 11
0.176242699286502
 21
0.0298558193198024
 31
0.0
  0
LINE
  5
70
330
1F
100
AcDbEntity
  8
0
100
AcDbLine
 10
0.1759758152464804
 20
0.02986762520541
 30
0.0
 11
0.1760692438044838
 21
0.0298637078924731
 31
0.0
  0
LINE
  5
71
330
1F
100
AcDbEntity
  8
0
100
AcDbLine
 10
0.1757673796497654
 20
0.0298797944467836
 30
0.0
 11
0.1759758152464804
 21
0.02986762520541
 31
0.0
  0
LINE
  5
72
330
1F
100
AcDbEntity
  8
0
100
AcDbLine
 10
0.1757290000256576
 20
0.0298817283149235
 30
0.0
 11
0.1757673796497654
 21
0.0298797944467836
 31
0.0
  0
LINE
  5
73
330
1F
100
AcDbEntity
  8
0
100
AcDbLine
 10
0.1755024344233278
 20
0.0298985278219186
 30
0.0
 11
0.1757290000256576
 21
0.0298817283149235
 31
0.0
  0
LINE
  5
74
330
1F
100
AcDbEntity
  8
0
100
AcDbLine
 10
0.1753152891241198
 20
0.0299113925345116
 30
0.0
 11
0.1755024344233278
 21
0.0298985278219186
 31
0.0
  0
LINE
  5
75
330
1F
100
AcDbEntity
  8
0
100
AcDbLine
 10
0.1752555068775433
 20
0.0299174405806184
 30
0.0
 11
0.1753152891241198
 21
0.0299113925345116
 31
0.0
  0
LINE
  5
76
330
1F
100
AcDbEntity
  8
0
100
AcDbLine
 10
0.1775739184427249
 20
0.0298501230659953
 30
0.0
 11
0.1776606253964624
 21
0.029852397738147
 31
0.0
  0
LINE
  5
77
330
1F
100
AcDbEntity
  8
0
100
AcDbLine
 10
0.17930227025181
 20
0.0302672448261795
 30
0.0
 11
0.1795259461932381
 21
0.0301172613209273
 31
0.0
  0
LINE
  5
78
330
1F
100
AcDbEntity
  8
0
100
AcDbLine
 10
-0.1449962668829421
 20
0.0363521793435481
 30
0.0
 11
-0.1449962668829421
 21
0.0413521792317894
 31
0.0
  0
LINE
  5
79
330
1F
100
AcDbEntity
  8
0
100
AcDbLine
 10
-0.1249962673299769
 20
0.0413521792317894
 30
0.0
 11
-0.1249962673299769
 21
0.0363521793435481
 31
0.0
  0
LINE
  5
7A
330
1F
100
AcDbEntity
  8
0
100
AcDbLine
 10
-0.1208763804204208
 20
0.0109209772162118
 30
0.0
 11
-0.1208763804204208
 21
0.010952179265317
 31
0.0
  0
LINE
  5
7B
330
1F
100
AcDbEntity
  8
0
100
AcDbLine
 10
-0.1205323904469979
 20
0.010934763406704
 30
0.0
 11
-0.1205323904469979
 21
0.0108871797154532
 31
0.0
  0
LINE
  5
7C
330
1F
100
AcDbEntity
  8
0
100
AcDbLine
 10
-0.1270771823708772
 20
0.010914493468817
 30
0.0
 11
-0.1270793450462482
 21
0.010952179265317
 31
0.0
  0
LINE
  5
7D
330
1F
100
AcDbEntity
  8
0
100
AcDbLine
 10
-0.1450962667130688
 20
0.0413907557028499
 30
0.0
 11
-0.1450962667130688
 21
0.041417441819903
 31
0.0
  0
LINE
  5
7E
330
1F
100
AcDbEntity
  8
0
100
AcDbLine
 10
-0.1450962667130688
 20
0.0413521784591642
 30
0.0
 11
-0.1450962667130688
 21
0.0413907557028499
 31
0.0
  0
LINE
  5
7F
330
1F
100
AcDbEntity
  8
0
100
AcDbLine
 10
-0.1549828705155114
 20
0.0414021793055502
 30
0.0
 11
-0.1549962666594247
 21
0.0413521784591642
 31
0.0
  0
LINE
  5
80
330
1F
100
AcDbEntity
  8
0
100
AcDbLine
 10
-0.1549462676756839
 20
0.0414387821453777
 30
0.0
 11
-0.1549828705155114
 21
0.0414021793055502
 31
0.0
  0
LINE
  5
81
330
1F
100
AcDbEntity
  8
0
100
AcDbLine
 10
-0.1548962668292979
 20
0.0414521801519361
 30
0.0
 11
-0.1549462676756839
 21
0.0414387821453777
 31
0.0
  0
LINE
  5
82
330
1F
100
AcDbEntity
  8
0
100
AcDbLine
 10
-0.1150038783215741
 20
0.0413904483664003
 30
0.0
 11
-0.1149962675534943
 21
0.0413521784591642
 31
0.0
  0
LINE
  5
83
330
1F
100
AcDbEntity
  8
0
100
AcDbLine
 10
-0.1150255557858208
 20
0.0414228900569645
 30
0.0
 11
-0.1150038783215741
 21
0.0413904483664003
 31
0.0
  0
LINE
  5
84
330
1F
100
AcDbEntity
  8
0
100
AcDbLine
 10
-0.1150579993390301
 20
0.0414445675212112
 30
0.0
 11
-0.1150255557858208
 21
0.0414228900569645
 31
0.0
  0
LINE
  5
85
330
1F
100
AcDbEntity
  8
0
100
AcDbLine
 10
-0.1151325740628699
 20
0.0414521801519361
 30
0.0
 11
-0.1150962673836211
 21
0.0414521801519361
 31
0.0
  0
LINE
  5
86
330
1F
100
AcDbEntity
  8
0
100
AcDbLine
 10
-0.1150962673836211
 20
0.0414521801519361
 30
0.0
 11
-0.1150579993390301
 21
0.0414445675212112
 31
0.0
  0
LINE
  5
87
330
1F
100
AcDbEntity
  8
0
100
AcDbLine
 10
-0.1162034758143882
 20
0.0413521784591642
 30
0.0
 11
-0.1162959431075314
 21
0.0413521784591642
 31
0.0
  0
LINE
  5
88
330
1F
100
AcDbEntity
  8
0
100
AcDbLine
 10
-0.1185413189940909
 20
0.0413521784591642
 30
0.0
 11
-0.1186163407527665
 21
0.0413521784591642
 31
0.0
  0
LINE
  5
89
330
1F
100
AcDbEntity
  8
0
100
AcDbLine
 10
-0.1235317271911362
 20
0.0413521784591642
 30
0.0
 11
-0.123634971749113
 21
0.0413521784591642
 31
0.0
  0
LINE
  5
8A
330
1F
100
AcDbEntity
  8
0
100
AcDbLine
 10
-0.1449962668829421
 20
0.0363521793435481
 30
0.0
 11
-0.1450962667130688
 21
0.0363521795022455
 31
0.0
  0
LINE
  5
8B
330
1F
100
AcDbEntity
  8
0
100
AcDbLine
 10
-0.1248962674998501
 20
0.0363521795022455
 30
0.0
 11
-0.1249962673299769
 21
0.0363521793435481
 31
0.0
  0
LINE
  5
8C
330
1F
100
AcDbEntity
  8
0
100
AcDbLine
 10
-0.1549962666594247
 20
0.0413521784591642
 30
0.0
 11
-0.1549962666594247
 21
0.0134521792876688
 31
0.0
  0
LINE
  5
8D
330
1F
100
AcDbEntity
  8
0
100
AcDbLine
 10
-0.1450962667130688
 20
0.0363521795022455
 30
0.0
 11
-0.1450962667130688
 21
0.0413521784591642
 31
0.0
  0
LINE
  5
8E
330
1F
100
AcDbEntity
  8
0
100
AcDbLine
 10
-0.1248962674998501
 20
0.0413521784591642
 30
0.0
 11
-0.1248962674998501
 21
0.0363521795022455
 31
0.0
  0
LINE
  5
8F
330
1F
100
AcDbEntity
  8
0
100
AcDbLine
 10
-0.123634971749113
 20
0.0413521784591642
 30
0.0
 11
-0.1248962674998501
 21
0.0413521784591642
 31
0.0
  0
LINE
  5
90
330
1F
100
AcDbEntity
  8
0
100
AcDbLine
 10
-0.1149962675534943
 20
0.0134521792876688
 30
0.0
 11
-0.1149962675534943
 21
0.0413521784591642
 31
0.0
  0
LINE
  5
91
330
1F
100
AcDbEntity
  8
0
100
AcDbLine
 10
-0.123634971749113
 20
0.0413521784591642
 30
0.0
 11
-0.1235360904373983
 21
0.0413904483664003
 31
0.0
  0
LINE
  5
92
330
1F
100
AcDbEntity
  8
0
100
AcDbLine
 10
-0.1235317271911362
 20
0.0413521784591642
 30
0.0
 11
-0.1235360904373983
 21
0.0413904483664003
 31
0.0
  0
LINE
  5
93
330
1F
100
AcDbEntity
  8
0
100
AcDbLine
 10
-0.1186163407527665
 20
0.0413521784591642
 30
0.0
 11
-0.118622575026081
 21
0.0413904483664003
 31
0.0
  0
LINE
  5
94
330
1F
100
AcDbEntity
  8
0
100
AcDbLine
 10
-0.1185413189940909
 20
0.0413521784591642
 30
0.0
 11
-0.118622575026081
 21
0.0413904483664003
 31
0.0
  0
LINE
  5
95
330
1F
100
AcDbEntity
  8
0
100
AcDbLine
 10
-0.1162959431075314
 20
0.0413521784591642
 30
0.0
 11
-0.1162106283717612
 21
0.0413904483664003
 31
0.0
  0
LINE
  5
96
330
1F
100
AcDbEntity
  8
0
100
AcDbLine
 10
-0.1162034758143882
 20
0.0413521784591642
 30
0.0
 11
-0.1162106283717612
 21
0.0413904483664003
 31
0.0
  0
LINE
  5
97
330
1F
100
AcDbEntity
  8
0
100
AcDbLine
 10
-0.074996268447564
 20
-0.0120478207123312
 30
0.0
 11
-0.1151469894174521
 21
-0.0120478207123312
 31
0.0
  0
LINE
  5
98
330
1F
100
AcDbEntity
  8
0
100
AcDbLine
 10
-0.1548455447954669
 20
-0.0120478207123312
 30
0.0
 11
-0.194996265765355
 21
-0.0120478207123312
 31
0.0
  0
LINE
  5
99
330
1F
100
AcDbEntity
  8
0
100
AcDbLine
 10
-0.074996268447564
 20
-0.0120478207123312
 30
0.0
 11
-0.074996268447564
 21
-0.0150478207384082
 31
0.0
  0
LINE
  5
9A
330
1F
100
AcDbEntity
  8
0
100
AcDbLine
 10
-0.194996265765355
 20
-0.0120478207123312
 30
0.0
 11
-0.194996265765355
 21
-0.0150478207384082
 31
0.0
  0
LINE
  5
9B
330
1F
100
AcDbEntity
  8
0
100
AcDbLine
 10
-0.1533792780212996
 20
0.010874775887432
 30
0.0
 11
-0.1534033734797849
 21
0.0108908188044245
 31
0.0
  0
LINE
  5
9C
330
1F
100
AcDbEntity
  8
0
100
AcDbLine
 10
-0.1151469894174521
 20
0.0108221786158686
 30
0.0
 11
-0.1151737822282722
 21
0.0108871797154532
 31
0.0
  0
LINE
  5
9D
330
1F
100
AcDbEntity
  8
0
100
AcDbLine
 10
-0.1151737822282722
 20
0.0108871797154532
 30
0.0
 11
-0.1152469855177755
 21
0.010934763406704
 31
0.0
  0
LINE
  5
9E
330
1F
100
AcDbEntity
  8
0
100
AcDbLine
 10
-0.1152469855177755
 20
0.010934763406704
 30
0.0
 11
-0.1153469816180989
 21
0.0109521783935991
 31
0.0
  0
LINE
  5
9F
330
1F
100
AcDbEntity
  8
0
100
AcDbLine
 10
-0.1151469894174521
 20
0.0108221786158686
 30
0.0
 11
-0.1151469894174521
 21
-0.0120478207123312
 31
0.0
  0
LINE
  5
A0
330
1F
100
AcDbEntity
  8
0
100
AcDbLine
 10
-0.1548455447954669
 20
0.0108221786158686
 30
0.0
 11
-0.1548455447954669
 21
-0.0120478207123312
 31
0.0
  0
LINE
  5
A1
330
1F
100
AcDbEntity
  8
0
100
AcDbLine
 10
-0.1535023082231671
 20
0.0109521783935991
 30
0.0
 11
-0.1535489103761503
 21
0.0109521783935991
 31
0.0
  0
LINE
  5
A2
330
1F
100
AcDbEntity
  8
0
100
AcDbLine
 10
-0.1548455447954669
 20
0.0108221786158686
 30
0.0
 11
-0.1548187519846468
 21
0.0108871797154532
 31
0.0
  0
LINE
  5
A3
330
1F
100
AcDbEntity
  8
0
100
AcDbLine
 10
-0.1548187519846468
 20
0.0108871797154532
 30
0.0
 11
-0.1547455486951435
 21
0.010934763406704
 31
0.0
  0
LINE
  5
A4
330
1F
100
AcDbEntity
  8
0
100
AcDbLine
 10
-0.1226437748674779
 20
0.0109138345626079
 30
0.0
 11
-0.1226469292954494
 21
0.0109521783935991
 31
0.0
  0
LINE
  5
A5
330
1F
100
AcDbEntity
  8
0
100
AcDbLine
 10
-0.1209465500834288
 20
0.0109245063164941
 30
0.0
 11
-0.1209458576925089
 21
0.0109521783935991
 31
0.0
  0
LINE
  5
A6
330
1F
100
AcDbEntity
  8
0
100
AcDbLine
 10
-0.119568809144552
 20
0.0108871797154532
 30
0.0
 11
-0.1195094370232897
 21
0.0109521783935991
 31
0.0
  0
LINE
  5
A7
330
1F
100
AcDbEntity
  8
0
100
AcDbLine
 10
-0.1194980434738365
 20
0.0108871797154532
 30
0.0
 11
-0.1195094370232897
 21
0.0109521783935991
 31
0.0
  0
LINE
  5
A8
330
1F
100
AcDbEntity
  8
0
100
AcDbLine
 10
-0.1183140566883682
 20
0.010934763406704
 30
0.0
 11
-0.1182899271128276
 21
0.0109521783935991
 31
0.0
  0
LINE
  5
A9
330
1F
100
AcDbEntity
  8
0
100
AcDbLine
 10
-0.1174291814352855
 20
0.0108871797154532
 30
0.0
 11
-0.1173805102643232
 21
0.0109521783935991
 31
0.0
  0
LINE
  5
AA
330
1F
100
AcDbEntity
  8
0
100
AcDbLine
 10
-0.1168707444000461
 20
0.0108871797154532
 30
0.0
 11
-0.1168342190092646
 21
0.0109521783935991
 31
0.0
  0
LINE
  5
AB
330
1F
100
AcDbEntity
  8
0
100
AcDbLine
 10
-0.117475472488552
 20
0.0108871797154532
 30
0.0
 11
-0.117482193811998
 21
0.0109521783935991
 31
0.0
  0
LINE
  5
AC
330
1F
100
AcDbEntity
  8
0
100
AcDbLine
 10
-0.1175505697516093
 20
0.0109051053463403
 30
0.0
 11
-0.1175074899455949
 21
0.010934763406704
 31
0.0
  0
LINE
  5
AD
330
1F
100
AcDbEntity
  8
0
100
AcDbLine
 10
-0.1196603012930356
 20
0.0108871797154532
 30
0.0
 11
-0.1196609409331607
 21
0.0109521783935991
 31
0.0
  0
LINE
  5
AE
330
1F
100
AcDbEntity
  8
0
100
AcDbLine
 10
-0.1197199108132873
 20
0.0109058132150012
 30
0.0
 11
-0.1196609409331607
 21
0.0109521783935991
 31
0.0
  0
LINE
  5
AF
330
1F
100
AcDbEntity
  8
0
100
AcDbLine
 10
-0.1211406292368833
 20
0.0108871797154532
 30
0.0
 11
-0.1211544335584309
 21
0.0109521783935991
 31
0.0
  0
LINE
  5
B0
330
1F
100
AcDbEntity
  8
0
100
AcDbLine
 10
-0.1228751029839091
 20
0.0109242801165059
 30
0.0
 11
-0.1228847641376947
 21
0.0109521783935991
 31
0.0
  0
LINE
  5
B1
330
1F
100
AcDbEntity
  8
0
100
AcDbLine
 10
-0.1229111524119285
 20
0.0109259079179559
 30
0.0
 11
-0.1228847641376947
 21
0.0109521783935991
 31
0.0
  0
LINE
  5
B2
330
1F
100
AcDbEntity
  8
0
100
AcDbLine
 10
-0.1169068122368159
 20
0.0109521783935991
 30
0.0
 11
-0.116932126183918
 21
0.0108871797154532
 31
0.0
  0
LINE
  5
B3
330
1F
100
AcDbEntity
  8
0
100
AcDbLine
 10
-0.1164970024657618
 20
0.0109521783935991
 30
0.0
 11
-0.11654475740799
 21
0.010952179265317
 31
0.0
  0
LINE
  5
B4
330
1F
100
AcDbEntity
  8
0
100
AcDbLine
 10
-0.1168342190092646
 20
0.0109521783935991
 30
0.0
 11
-0.1168173205947197
 21
0.0108871797154532
 31
0.0
  0
LINE
  5
B5
330
1F
100
AcDbEntity
  8
0
100
AcDbLine
 10
-0.1168342190092646
 20
0.0109521783935991
 30
0.0
 11
-0.1169068122368159
 21
0.0109521783935991
 31
0.0
  0
LINE
  5
B6
330
1F
100
AcDbEntity
  8
0
100
AcDbLine
 10
-0.1169068122368159
 20
0.0109521783935991
 30
0.0
 11
-0.1168707444000461
 21
0.0108871797154532
 31
0.0
  0
LINE
  5
B7
330
1F
100
AcDbEntity
  8
0
100
AcDbLine
 10
-0.1173483139224785
 20
0.0109276000822056
 30
0.0
 11
-0.1173480542478083
 21
0.0108871797154532
 31
0.0
  0
LINE
  5
B8
330
1F
100
AcDbEntity
  8
0
100
AcDbLine
 10
-0.1210532619238015
 20
0.0109298732624056
 30
0.0
 11
-0.1210670213052632
 21
0.010952179265317
 31
0.0
  0
LINE
  5
B9
330
1F
100
AcDbEntity
  8
0
100
AcDbLine
 10
-0.1439741383186494
 20
0.010934763406704
 30
0.0
 11
-0.1440016338970593
 21
0.0108909165411674
 31
0.0
  0
LINE
  5
BA
330
1F
100
AcDbEntity
  8
0
100
AcDbLine
 10
-0.1464230222578129
 20
0.010934763406704
 30
0.0
 11
-0.1464231616395954
 21
0.0109001599560923
 31
0.0
  0
LINE
  5
BB
330
1F
100
AcDbEntity
  8
0
100
AcDbLine
 10
-0.1465664656554329
 20
0.010934763406704
 30
0.0
 11
-0.1465624918784909
 21
0.010906770756696
 31
0.0
  0
LINE
  5
BC
330
1F
100
AcDbEntity
  8
0
100
AcDbLine
 10
-0.1507162204530696
 20
0.010952179265317
 30
0.0
 11
-0.150311342532582
 21
0.0133143606978622
 31
0.0
  0
LINE
  5
BD
330
1F
100
AcDbEntity
  8
0
100
AcDbLine
 10
-0.1425586198491665
 20
0.010952179265317
 30
0.0
 11
-0.142363845727282
 21
0.0133143606978622
 31
0.0
  0
LINE
  5
BE
330
1F
100
AcDbEntity
  8
0
100
AcDbLine
 10
-0.142363845727282
 20
0.0133143606978622
 30
0.0
 11
-0.1426126135967506
 21
0.010952179265317
 31
0.0
  0
LINE
  5
BF
330
1F
100
AcDbEntity
  8
0
100
AcDbLine
 10
-0.1380602713214992
 20
0.010952179265317
 30
0.0
 11
-0.1379813556293193
 21
0.0133143606978622
 31
0.0
  0
LINE
  5
C0
330
1F
100
AcDbEntity
  8
0
100
AcDbLine
 10
-0.1379813556293193
 20
0.0133143606978622
 30
0.0
 11
-0.1383556067475953
 21
0.010952179265317
 31
0.0
  0
LINE
  5
C1
330
1F
100
AcDbEntity
  8
0
100
AcDbLine
 10
-0.1273183628057628
 20
0.010952179265317
 30
0.0
 11
-0.1275161123203837
 21
0.0133143606978622
 31
0.0
  0
LINE
  5
C2
330
1F
100
AcDbEntity
  8
0
100
AcDbLine
 10
-0.1275161123203837
 20
0.0133143606978622
 30
0.0
 11
-0.1274302390637979
 21
0.010952179265317
 31
0.0
  0
LINE
  5
C3
330
1F
100
AcDbEntity
  8
0
100
AcDbLine
 10
-0.1233249342997555
 20
0.010952179265317
 30
0.0
 11
-0.1236255375140217
 21
0.0133143606978622
 31
0.0
  0
LINE
  5
C4
330
1F
100
AcDbEntity
  8
0
100
AcDbLine
 10
-0.1236255375140217
 20
0.0133143606978622
 30
0.0
 11
-0.1236154764976703
 21
0.010952179265317
 31
0.0
  0
LINE
  5
C5
330
1F
100
AcDbEntity
  8
0
100
AcDbLine
 10
-0.1172887203089826
 20
0.010952179265317
 30
0.0
 11
-0.1177447898637792
 21
0.0133143606978622
 31
0.0
  0
LINE
  5
C6
330
1F
100
AcDbEntity
  8
0
100
AcDbLine
 10
-0.1164970024657618
 20
0.0109521783935991
 30
0.0
 11
-0.1169864718219933
 21
0.0133143606978622
 31
0.0
  0
LINE
  5
C7
330
1F
100
AcDbEntity
  8
0
100
AcDbLine
 10
-0.1170212314370286
 20
0.0134521792876688
 30
0.0
 11
-0.1169864718219933
 21
0.0133143606978622
 31
0.0
  0
LINE
  5
C8
330
1F
100
AcDbEntity
  8
0
100
AcDbLine
 10
-0.1191805682843191
 20
0.010952179265317
 30
0.0
 11
-0.1196164180731049
 21
0.0133143606978622
 31
0.0
  0
LINE
  5
C9
330
1F
100
AcDbEntity
  8
0
100
AcDbLine
 10
-0.1196164180731049
 20
0.0133143606978622
 30
0.0
 11
-0.1192098266571495
 21
0.010952179265317
 31
0.0
  0
LINE
  5
CA
330
1F
100
AcDbEntity
  8
0
100
AcDbLine
 10
-0.1219415529304061
 20
0.010952179265317
 30
0.0
 11
-0.1224805701363579
 21
0.0133143606978622
 31
0.0
  0
LINE
  5
CB
330
1F
100
AcDbEntity
  8
0
100
AcDbLine
 10
-0.1224805701363579
 20
0.0133143606978622
 30
0.0
 11
-0.1221665619327999
 21
0.0109521783935991
 31
0.0
  0
LINE
  5
CC
330
1F
100
AcDbEntity
  8
0
100
AcDbLine
 10
-0.1316893383022207
 20
0.010952179265317
 30
0.0
 11
-0.1318894123534244
 21
0.0133143606978622
 31
0.0
  0
LINE
  5
CD
330
1F
100
AcDbEntity
  8
0
100
AcDbLine
 10
-0.1318894123534244
 20
0.0133143606978622
 30
0.0
 11
-0.1318072780334669
 21
0.010952179265317
 31
0.0
  0
LINE
  5
CE
330
1F
100
AcDbEntity
  8
0
100
AcDbLine
 10
-0.136139974667698
 20
0.010952179265317
 30
0.0
 11
-0.1364632105409184
 21
0.0133143606978622
 31
0.0
  0
LINE
  5
CF
330
1F
100
AcDbEntity
  8
0
100
AcDbLine
 10
-0.1364632105409184
 20
0.0133143606978622
 30
0.0
 11
-0.1365019912832325
 21
0.010952179265317
 31
0.0
  0
LINE
  5
D0
330
1F
100
AcDbEntity
  8
0
100
AcDbLine
 10
-0.1464230222578129
 20
0.010934763406704
 30
0.0
 11
-0.1462708761109323
 21
0.0133143606978622
 31
0.0
  0
LINE
  5
D1
330
1F
100
AcDbEntity
  8
0
100
AcDbLine
 10
-0.1462708761109323
 20
0.0133143606978622
 30
0.0
 11
-0.1465664656554329
 21
0.010934763406704
 31
0.0
  0
LINE
  5
D2
330
1F
100
AcDbEntity
  8
0
100
AcDbLine
 10
-0.1529713027758904
 20
0.0134521792876688
 30
0.0
 11
-0.1530060623909276
 21
0.0133143606978523
 31
0.0
  0
LINE
  5
D3
330
1F
100
AcDbEntity
  8
0
100
AcDbLine
 10
-0.1463771808555613
 20
0.010934763406704
 30
0.0
 11
-0.1463774408605231
 21
0.010897990642695
 31
0.0
  0
LINE
  5
D4
330
1F
100
AcDbEntity
  8
0
100
AcDbLine
 10
-0.1440821054119404
 20
0.010934763406704
 30
0.0
 11
-0.1441006940844171
 21
0.0108951953537031
 31
0.0
  0
LINE
  5
D5
330
1F
100
AcDbEntity
  8
0
100
AcDbLine
 10
-0.1204266033239767
 20
0.010934763406704
 30
0.0
 11
-0.1204261190058322
 21
0.0108871797154532
 31
0.0
  0
LINE
  5
D6
330
1F
100
AcDbEntity
  8
0
100
AcDbLine
 10
-0.1219055059800604
 20
0.0109254677020253
 30
0.0
 11
-0.1219057789416959
 21
0.010952179265317
 31
0.0
  0
LINE
  5
D7
330
1F
100
AcDbEntity
  8
0
100
AcDbLine
 10
-0.1178607173091518
 20
0.0109266716165722
 30
0.0
 11
-0.1178540622505609
 21
0.010952179265317
 31
0.0
  0
LINE
  5
D8
330
1F
100
AcDbEntity
  8
0
100
AcDbLine
 10
0.0200037330052992
 20
-0.0550478207384083
 30
0.0
 11
0.0300037327817818
 21
-0.0550478207384083
 31
0.0
  0
LINE
  5
D9
330
1F
100
AcDbEntity
  8
0
100
AcDbLine
 10
0.0300037327817818
 20
-0.0550478207384083
 30
0.0
 11
0.0309791846796116
 21
-0.0549517471387014
 31
0.0
  0
LINE
  5
DA
330
1F
100
AcDbEntity
  8
0
100
AcDbLine
 10
0.0190282811074695
 20
-0.0549517471387014
 30
0.0
 11
0.0200037330052992
 21
-0.0550478207384083
 31
0.0
  0
LINE
  5
DB
330
1F
100
AcDbEntity
  8
0
100
AcDbLine
 10
0.0150037331170579
 20
-0.050047820850167
 30
0.0
 11
0.0150998064912101
 21
-0.0510232722823355
 31
0.0
  0
LINE
  5
DC
330
1F
100
AcDbEntity
  8
0
100
AcDbLine
 10
0.0150998064912101
 20
-0.0510232722823355
 30
0.0
 11
0.0153843348509809
 21
-0.0519612379808757
 31
0.0
  0
LINE
  5
DD
330
1F
100
AcDbEntity
  8
0
100
AcDbLine
 10
0.0153843348509809
 20
-0.0519612379808757
 30
0.0
 11
0.0158463844693443
 21
-0.0528256718040291
 31
0.0
  0
LINE
  5
DE
330
1F
100
AcDbEntity
  8
0
100
AcDbLine
 10
0.0158463844693443
 20
-0.0528256718040291
 30
0.0
 11
0.0164681987500926
 21
-0.0535833546397123
 31
0.0
  0
LINE
  5
DF
330
1F
100
AcDbEntity
  8
0
100
AcDbLine
 10
0.0164681987500926
 20
-0.0535833546397123
 30
0.0
 11
0.0190282811074695
 21
-0.0549517471387014
 31
0.0
  0
LINE
  5
E0
330
1F
100
AcDbEntity
  8
0
100
AcDbLine
 10
0.0164681987500926
 20
-0.0535833546397123
 30
0.0
 11
0.0172258818186065
 21
-0.0542051688040453
 31
0.0
  0
LINE
  5
E1
330
1F
100
AcDbEntity
  8
0
100
AcDbLine
 10
0.0172258818186065
 20
-0.0542051688040453
 30
0.0
 11
0.0180903158745905
 21
-0.0546672183933049
 31
0.0
  0
LINE
  5
E2
330
1F
100
AcDbEntity
  8
0
100
AcDbLine
 10
0.0180903158745905
 20
-0.0546672183933049
 30
0.0
 11
0.0190282811074695
 21
-0.0549517471387014
 31
0.0
  0
LINE
  5
E3
330
1F
100
AcDbEntity
  8
0
100
AcDbLine
 10
0.0150998064912101
 20
0.010927629240897
 30
0.0
 11
0.0150037331170579
 21
0.0099521768774059
 31
0.0
  0
LINE
  5
E4
330
1F
100
AcDbEntity
  8
0
100
AcDbLine
 10
0.0153843348509809
 20
0.0118655977334049
 30
0.0
 11
0.0150998064912101
 21
0.010927629240897
 31
0.0
  0
LINE
  5
E5
330
1F
100
AcDbEntity
  8
0
100
AcDbLine
 10
0.0309791846796116
 20
-0.0549517471387014
 30
0.0
 11
0.0319171499124905
 21
-0.0546672183933049
 31
0.0
  0
LINE
  5
E6
330
1F
100
AcDbEntity
  8
0
100
AcDbLine
 10
0.0319171499124905
 20
-0.0546672183933049
 30
0.0
 11
0.0327815839684745
 21
-0.0542051688040453
 31
0.0
  0
LINE
  5
E7
330
1F
100
AcDbEntity
  8
0
100
AcDbLine
 10
0.0327815839684745
 20
-0.0542051688040453
 30
0.0
 11
0.0335392670369884
 21
-0.0535833546397123
 31
0.0
  0
LINE
  5
E8
330
1F
100
AcDbEntity
  8
0
100
AcDbLine
 10
0.0335392670369884
 20
-0.0535833546397123
 30
0.0
 11
0.0341610813177368
 21
-0.0528256718040291
 31
0.0
  0
LINE
  5
E9
330
1F
100
AcDbEntity
  8
0
100
AcDbLine
 10
0.0341610813177368
 20
-0.0528256718040291
 30
0.0
 11
0.0350037326700231
 21
-0.050047820850167
 31
0.0
  0
LINE
  5
EA
330
1F
100
AcDbEntity
  8
0
100
AcDbLine
 10
0.0341610813177368
 20
-0.0528256718040291
 30
0.0
 11
0.0346231309361001
 21
-0.0519612379808757
 31
0.0
  0
LINE
  5
EB
330
1F
100
AcDbEntity
  8
0
100
AcDbLine
 10
0.0346231309361001
 20
-0.0519612379808757
 30
0.0
 11
0.0349076592958709
 21
-0.0510232722823355
 31
0.0
  0
LINE
  5
EC
330
1F
100
AcDbEntity
  8
0
100
AcDbLine
 10
0.0349076592958709
 20
-0.0510232722823355
 30
0.0
 11
0.0350037326700231
 21
-0.050047820850167
 31
0.0
  0
LINE
  5
ED
330
1F
100
AcDbEntity
  8
0
100
AcDbLine
 10
0.0341610813177367
 20
0.0127300289954212
 30
0.0
 11
0.0335392670369884
 21
0.0134877157892254
 31
0.0
  0
LINE
  5
EE
330
1F
100
AcDbEntity
  8
0
100
AcDbLine
 10
0.0346231309361001
 20
0.0118655977334049
 30
0.0
 11
0.0341610813177367
 21
0.0127300289954212
 31
0.0
  0
LINE
  5
EF
330
1F
100
AcDbEntity
  8
0
100
AcDbLine
 10
0.0335392670369884
 20
0.0134877157892254
 30
0.0
 11
0.0349076592958709
 21
0.010927629240897
 31
0.0
  0
LINE
  5
F0
330
1F
100
AcDbEntity
  8
0
100
AcDbLine
 10
0.0349076592958709
 20
0.010927629240897
 30
0.0
 11
0.0346231309361001
 21
0.0118655977334049
 31
0.0
  0
LINE
  5
F1
330
1F
100
AcDbEntity
  8
0
100
AcDbLine
 10
0.0350037326700231
 20
0.0099521768774059
 30
0.0
 11
0.0349076592958709
 21
0.010927629240897
 31
0.0
  0
LINE
  5
F2
330
1F
100
AcDbEntity
  8
0
100
AcDbLine
 10
0.0335392670369884
 20
0.0134877157892254
 30
0.0
 11
0.0327815839684745
 21
0.0141095263446835
 31
0.0
  0
LINE
  5
F3
330
1F
100
AcDbEntity
  8
0
100
AcDbLine
 10
0.0327815839684745
 20
0.0141095263446835
 30
0.0
 11
0.0319171499124905
 21
0.0145715741004017
 31
0.0
  0
LINE
  5
F4
330
1F
100
AcDbEntity
  8
0
100
AcDbLine
 10
0.0180903158745905
 20
0.0145715741004017
 30
0.0
 11
0.0172258818186065
 21
0.0141095263446835
 31
0.0
  0
LINE
  5
F5
330
1F
100
AcDbEntity
  8
0
100
AcDbLine
 10
0.0172258818186065
 20
0.0141095263446835
 30
0.0
 11
0.0164681987500926
 21
0.0134877157892254
 31
0.0
  0
LINE
  5
F6
330
1F
100
AcDbEntity
  8
0
100
AcDbLine
 10
0.0164681987500926
 20
0.0134877157892254
 30
0.0
 11
0.0190148304527791
 21
0.0148520240886719
 31
0.0
  0
LINE
  5
F7
330
1F
100
AcDbEntity
  8
0
100
AcDbLine
 10
0.0164681987500926
 20
0.0134877157892254
 30
0.0
 11
0.0158463844693443
 21
0.0127300289954212
 31
0.0
  0
LINE
  5
F8
330
1F
100
AcDbEntity
  8
0
100
AcDbLine
 10
0.0158463844693443
 20
0.0127300289954212
 30
0.0
 11
0.0153843348509809
 21
0.0118655977334049
 31
0.0
  0
LINE
  5
F9
330
1F
100
AcDbEntity
  8
0
100
AcDbLine
 10
0.0254505608280862
 20
0.029946745651819
 30
0.0
 11
0.0253950746102901
 21
0.0299483510787754
 31
0.0
  0
LINE
  5
FA
330
1F
100
AcDbEntity
  8
0
100
AcDbLine
 10
0.0149037332869311
 20
-0.0071942497853966
 30
0.0
 11
0.0136992444879552
 21
-0.006425198993537
 31
0.0
  0
LINE
  5
FB
330
1F
100
AcDbEntity
  8
0
100
AcDbLine
 10
0.0117412794045349
 20
-0.0050180357758732
 30
0.0
 11
0.0126693553886553
 21
-0.0057914898608656
 31
0.0
  0
LINE
  5
FC
330
1F
100
AcDbEntity
  8
0
100
AcDbLine
 10
0.008544055525138
 20
-0.0014091160957547
 30
0.0
 11
0.009260063771083
 21
-0.0023821982432933
 31
0.0
  0
LINE
  5
FD
330
1F
100
AcDbEntity
  8
0
100
AcDbLine
 10
0.0063034088946124
 20
0.0028600814874439
 30
0.0
 11
0.006765736047103
 21
0.0017439230467348
 31
0.0
  0
LINE
  5
FE
330
1F
100
AcDbEntity
  8
0
100
AcDbLine
 10
0.0053313353694221
 20
0.0063470784696905
 30
0.0
 11
0.0055848972535869
 21
0.0051658657501606
 31
0.0
  0
LINE
  5
FF
330
1F
100
AcDbEntity
  8
0
100
AcDbLine
 10
0.0136992444879552
 20
-0.006425198993537
 30
0.0
 11
0.0127310275695463
 21
-0.005712772614214
 31
0.0
  0
LINE
  5
100
330
1F
100
AcDbEntity
  8
0
100
AcDbLine
 10
0.0127310275695463
 20
-0.005712772614214
 30
0.0
 11
0.0118075923658153
 21
-0.0049431844492288
 31
0.0
  0
LINE
  5
101
330
1F
100
AcDbEntity
  8
0
100
AcDbLine
 10
0.0118075923658153
 20
-0.0049431844492288
 30
0.0
 11
0.010932308401837
 21
-0.0041192452301116
 31
0.0
  0
LINE
  5
102
330
1F
100
AcDbEntity
  8
0
100
AcDbLine
 10
0.010932308401837
 20
-0.0041192452301116
 30
0.0
 11
0.0101083691827198
 21
-0.0032439612661334
 31
0.0
  0
LINE
  5
103
330
1F
100
AcDbEntity
  8
0
100
AcDbLine
 10
0.0101083691827198
 20
-0.0032439612661334
 30
0.0
 11
0.0093387810177346
 21
-0.0023205260624023
 31
0.0
  0
LINE
  5
104
330
1F
100
AcDbEntity
  8
0
100
AcDbLine
 10
0.0093387810177346
 20
-0.0023205260624023
 30
0.0
 11
0.0086263546384116
 21
-0.0013523091439934
 31
0.0
  0
LINE
  5
105
330
1F
100
AcDbEntity
  8
0
100
AcDbLine
 10
0.0086263546384116
 20
-0.0013523091439934
 30
0.0
 11
0.0079736856407663
 21
-0.0003428430174323
 31
0.0
  0
LINE
  5
106
330
1F
100
AcDbEntity
  8
0
100
AcDbLine
 10
0.0079736856407663
 20
-0.0003428430174323
 30
0.0
 11
0.0073831582105895
 21
0.000704188005176
 31
0.0
  0
LINE
  5
107
330
1F
100
AcDbEntity
  8
0
100
AcDbLine
 10
0.0073831582105895
 20
0.000704188005176
 30
0.0
 11
0.0068569255656739
 21
0.0017849645699529
 31
0.0
  0
LINE
  5
108
330
1F
100
AcDbEntity
  8
0
100
AcDbLine
 10
0.0068569255656739
 20
0.0017849645699529
 30
0.0
 11
0.0063969099558135
 21
0.0028955420601336
 31
0.0
  0
LINE
  5
109
330
1F
100
AcDbEntity
  8
0
100
AcDbLine
 10
0.0063969099558135
 20
0.0028955420601336
 30
0.0
 11
0.0060047877616426
 21
0.0040318682911961
 31
0.0
  0
LINE
  5
10A
330
1F
100
AcDbEntity
  8
0
100
AcDbLine
 10
0.0060047877616426
 20
0.0040318682911961
 30
0.0
 11
0.0056819913572808
 21
0.0051897974806992
 31
0.0
  0
LINE
  5
10B
330
1F
100
AcDbEntity
  8
0
100
AcDbLine
 10
0.0056819913572808
 20
0.0051897974806992
 30
0.0
 11
0.0054296960718175
 21
0.0063651039852915
 31
0.0
  0
LINE
  5
10C
330
1F
100
AcDbEntity
  8
0
100
AcDbLine
 10
0.0054296960718175
 20
0.0063651039852915
 30
0.0
 11
0.0052488257772466
 21
0.0075534992973475
 31
0.0
  0
LINE
  5
10D
330
1F
100
AcDbEntity
  8
0
100
AcDbLine
 10
0.0052488257772466
 20
0.0075534992973475
 30
0.0
 11
0.0051400398499509
 21
0.0087506471789597
 31
0.0
  0
LINE
  5
10E
330
1F
100
AcDbEntity
  8
0
100
AcDbLine
 10
0.0051400398499509
 20
0.0087506471789597
 30
0.0
 11
0.0051037331707021
 21
0.0099521792615919
 31
0.0
  0
LINE
  5
10F
330
1F
100
AcDbEntity
  8
0
100
AcDbLine
 10
0.0448674259371301
 20
0.011153711344224
 30
0.0
 11
0.0449037326163789
 21
0.0099521792615919
 31
0.0
  0
LINE
  5
110
330
1F
100
AcDbEntity
  8
0
100
AcDbLine
 10
0.0446761304176589
 20
0.0135572800534932
 30
0.0
 11
0.0444225685334941
 21
0.0147384927730231
 31
0.0
  0
LINE
  5
111
330
1F
100
AcDbEntity
  8
0
100
AcDbLine
 10
0.0437040568924686
 20
0.0170442770357399
 30
0.0
 11
0.0432417297399779
 21
0.018160435476449
 31
0.0
  0
LINE
  5
112
330
1F
100
AcDbEntity
  8
0
100
AcDbLine
 10
0.041463410261943
 20
0.0213134746189384
 30
0.0
 11
0.040747402015998
 21
0.0222865567664771
 31
0.0
  0
LINE
  5
113
330
1F
100
AcDbEntity
  8
0
100
AcDbLine
 10
0.0382661863825461
 20
0.024922394299057
 30
0.0
 11
0.0373381103984257
 21
0.0256958483840494
 31
0.0
  0
LINE
  5
114
330
1F
100
AcDbEntity
  8
0
100
AcDbLine
 10
0.0353504892102619
 20
0.0270678038831024
 30
0.0
 11
0.0342981962151071
 21
0.027661300369647
 31
0.0
  0
LINE
  5
115
330
1F
100
AcDbEntity
  8
0
100
AcDbLine
 10
0.0309537940322598
 20
0.0290465961332588
 30
0.0
 11
0.0297900464049717
 21
0.0293710149015455
 31
0.0
  0
LINE
  5
116
330
1F
100
AcDbEntity
  8
0
100
AcDbLine
 10
0.0213986321016391
 20
0.0296245767857103
 30
0.0
 11
0.0202174193821093
 21
0.0293710149015455
 31
0.0
  0
LINE
  5
117
330
1F
100
AcDbEntity
  8
0
100
AcDbLine
 10
0.0179116351193925
 20
0.0286525032605199
 30
0.0
 11
0.0167954766786834
 21
0.0281901761080293
 31
0.0
  0
LINE
  5
118
330
1F
100
AcDbEntity
  8
0
100
AcDbLine
 10
0.013642437536194
 20
0.0264118566299943
 30
0.0
 11
0.0126693553886553
 21
0.0256958483840494
 31
0.0
  0
LINE
  5
119
330
1F
100
AcDbEntity
  8
0
100
AcDbLine
 10
0.0100335178560754
 20
0.0232146327505974
 30
0.0
 11
0.009260063771083
 21
0.0222865567664771
 31
0.0
  0
LINE
  5
11A
330
1F
100
AcDbEntity
  8
0
100
AcDbLine
 10
0.00788810827203
 20
0.0202989355783133
 30
0.0
 11
0.0072946117854854
 21
0.0192466425831584
 31
0.0
  0
LINE
  5
11B
330
1F
100
AcDbEntity
  8
0
100
AcDbLine
 10
0.0072946117854854
 20
0.0192466425831584
 30
0.0
 11
0.006765736047103
 21
0.018160435476449
 31
0.0
  0
LINE
  5
11C
330
1F
100
AcDbEntity
  8
0
100
AcDbLine
 10
0.0059093160218736
 20
0.0159022404003112
 30
0.0
 11
0.0055848972535869
 21
0.0147384927730231
 31
0.0
  0
LINE
  5
11D
330
1F
100
AcDbEntity
  8
0
100
AcDbLine
 10
0.0050402225590488
 20
0.0111597492248906
 30
0.0
 11
0.0050037333405753
 21
0.0099521792615919
 31
0.0
  0
LINE
  5
11E
330
1F
100
AcDbEntity
  8
0
100
AcDbLine
 10
0.0447586400098344
 20
0.0123508592258362
 30
0.0
 11
0.0448674259371301
 21
0.011153711344224
 31
0.0
  0
LINE
  5
11F
330
1F
100
AcDbEntity
  8
0
100
AcDbLine
 10
0.0445777697152635
 20
0.0135392545378922
 30
0.0
 11
0.0447586400098344
 21
0.0123508592258362
 31
0.0
  0
LINE
  5
120
330
1F
100
AcDbEntity
  8
0
100
AcDbLine
 10
0.0443254744298001
 20
0.0147145610424845
 30
0.0
 11
0.0445777697152635
 21
0.0135392545378922
 31
0.0
  0
LINE
  5
121
330
1F
100
AcDbEntity
  8
0
100
AcDbLine
 10
0.0440026780254384
 20
0.0158724902319877
 30
0.0
 11
0.0443254744298001
 21
0.0147145610424845
 31
0.0
  0
LINE
  5
122
330
1F
100
AcDbEntity
  8
0
100
AcDbLine
 10
0.0436105558312675
 20
0.0170088164630501
 30
0.0
 11
0.0440026780254384
 21
0.0158724902319877
 31
0.0
  0
LINE
  5
123
330
1F
100
AcDbEntity
  8
0
100
AcDbLine
 10
0.043150540221407
 20
0.0181193939532308
 30
0.0
 11
0.0436105558312675
 21
0.0170088164630501
 31
0.0
  0
LINE
  5
124
330
1F
100
AcDbEntity
  8
0
100
AcDbLine
 10
0.0426243075764915
 20
0.0192001705180077
 30
0.0
 11
0.043150540221407
 21
0.0181193939532308
 31
0.0
  0
LINE
  5
125
330
1F
100
AcDbEntity
  8
0
100
AcDbLine
 10
0.0420337801463147
 20
0.020247201540616
 30
0.0
 11
0.0426243075764915
 21
0.0192001705180077
 31
0.0
  0
LINE
  5
126
330
1F
100
AcDbEntity
  8
0
100
AcDbLine
 10
0.0413811111486694
 20
0.0212566676671772
 30
0.0
 11
0.0420337801463147
 21
0.020247201540616
 31
0.0
  0
LINE
  5
127
330
1F
100
AcDbEntity
  8
0
100
AcDbLine
 10
0.0406686847693463
 20
0.022224884585586
 30
0.0
 11
0.0413811111486694
 21
0.0212566676671772
 31
0.0
  0
LINE
  5
128
330
1F
100
AcDbEntity
  8
0
100
AcDbLine
 10
0.0398990966043612
 20
0.0231483197893171
 30
0.0
 11
0.0406686847693463
 21
0.022224884585586
 31
0.0
  0
LINE
  5
129
330
1F
100
AcDbEntity
  8
0
100
AcDbLine
 10
0.039075157385244
 20
0.0240236037532954
 30
0.0
 11
0.0398990966043612
 21
0.0231483197893171
 31
0.0
  0
LINE
  5
12A
330
1F
100
AcDbEntity
  8
0
100
AcDbLine
 10
0.0381998734212657
 20
0.0248475429724125
 30
0.0
 11
0.039075157385244
 21
0.0240236037532954
 31
0.0
  0
LINE
  5
12B
330
1F
100
AcDbEntity
  8
0
100
AcDbLine
 10
0.0372764382175347
 20
0.0256171311373977
 30
0.0
 11
0.0381998734212657
 21
0.0248475429724125
 31
0.0
  0
LINE
  5
12C
330
1F
100
AcDbEntity
  8
0
100
AcDbLine
 10
0.0363082212991258
 20
0.0263295575167207
 30
0.0
 11
0.0372764382175347
 21
0.0256171311373977
 31
0.0
  0
LINE
  5
12D
330
1F
100
AcDbEntity
  8
0
100
AcDbLine
 10
0.0352987551725646
 20
0.0269822265143661
 30
0.0
 11
0.0363082212991258
 21
0.0263295575167207
 31
0.0
  0
LINE
  5
12E
330
1F
100
AcDbEntity
  8
0
100
AcDbLine
 10
0.0342517241499563
 20
0.0275727539445428
 30
0.0
 11
0.0352987551725646
 21
0.0269822265143661
 31
0.0
  0
LINE
  5
12F
330
1F
100
AcDbEntity
  8
0
100
AcDbLine
 10
0.0331709475851794
 20
0.0280989865894584
 30
0.0
 11
0.0342517241499563
 21
0.0275727539445428
 31
0.0
  0
LINE
  5
130
330
1F
100
AcDbEntity
  8
0
100
AcDbLine
 10
0.0320603700949987
 20
0.0285590021993188
 30
0.0
 11
0.0331709475851794
 21
0.0280989865894584
 31
0.0
  0
LINE
  5
131
330
1F
100
AcDbEntity
  8
0
100
AcDbLine
 10
0.0309240438639363
 20
0.0289511243934898
 30
0.0
 11
0.0320603700949987
 21
0.0285590021993188
 31
0.0
  0
LINE
  5
132
330
1F
100
AcDbEntity
  8
0
100
AcDbLine
 10
0.0297661146744331
 20
0.0292739207978515
 30
0.0
 11
0.0309240438639363
 21
0.0289511243934898
 31
0.0
  0
LINE
  5
133
330
1F
100
AcDbEntity
  8
0
100
AcDbLine
 10
0.0285908081698408
 20
0.0295262160833148
 30
0.0
 11
0.0297661146744331
 21
0.0292739207978515
 31
0.0
  0
LINE
  5
134
330
1F
100
AcDbEntity
  8
0
100
AcDbLine
 10
0.0274024128577849
 20
0.0297070863778858
 30
0.0
 11
0.0285908081698408
 21
0.0295262160833148
 31
0.0
  0
LINE
  5
135
330
1F
100
AcDbEntity
  8
0
100
AcDbLine
 10
0.0262052649761727
 20
0.0298158723051815
 30
0.0
 11
0.0274024128577849
 21
0.0297070863778858
 31
0.0
  0
LINE
  5
136
330
1F
100
AcDbEntity
  8
0
100
AcDbLine
 10
0.0250037328935405
 20
0.0298521789844303
 30
0.0
 11
0.0262052649761727
 21
0.0298158723051815
 31
0.0
  0
LINE
  5
137
330
1F
100
AcDbEntity
  8
0
100
AcDbLine
 10
0.0238022008109083
 20
0.0298158723051815
 30
0.0
 11
0.0250037328935405
 21
0.0298521789844303
 31
0.0
  0
LINE
  5
138
330
1F
100
AcDbEntity
  8
0
100
AcDbLine
 10
0.0226050529292961
 20
0.0297070863778858
 30
0.0
 11
0.0238022008109083
 21
0.0298158723051815
 31
0.0
  0
LINE
  5
139
330
1F
100
AcDbEntity
  8
0
100
AcDbLine
 10
0.0214166576172402
 20
0.0295262160833148
 30
0.0
 11
0.0226050529292961
 21
0.0297070863778858
 31
0.0
  0
LINE
  5
13A
330
1F
100
AcDbEntity
  8
0
100
AcDbLine
 10
0.0202413511126479
 20
0.0292739207978515
 30
0.0
 11
0.0214166576172402
 21
0.0295262160833148
 31
0.0
  0
LINE
  5
13B
330
1F
100
AcDbEntity
  8
0
100
AcDbLine
 10
0.0190834219231447
 20
0.0289511243934898
 30
0.0
 11
0.0202413511126479
 21
0.0292739207978515
 31
0.0
  0
LINE
  5
13C
330
1F
100
AcDbEntity
  8
0
100
AcDbLine
 10
0.0179470956920823
 20
0.0285590021993188
 30
0.0
 11
0.0190834219231447
 21
0.0289511243934898
 31
0.0
  0
LINE
  5
13D
330
1F
100
AcDbEntity
  8
0
100
AcDbLine
 10
0.0168365182019015
 20
0.0280989865894584
 30
0.0
 11
0.0179470956920823
 21
0.0285590021993188
 31
0.0
  0
LINE
  5
13E
330
1F
100
AcDbEntity
  8
0
100
AcDbLine
 10
0.0157557416371246
 20
0.0275727539445428
 30
0.0
 11
0.0168365182019015
 21
0.0280989865894584
 31
0.0
  0
LINE
  5
13F
330
1F
100
AcDbEntity
  8
0
100
AcDbLine
 10
0.0147087106145164
 20
0.0269822265143661
 30
0.0
 11
0.0157557416371246
 21
0.0275727539445428
 31
0.0
  0
LINE
  5
140
330
1F
100
AcDbEntity
  8
0
100
AcDbLine
 10
0.0136992444879552
 20
0.0263295575167207
 30
0.0
 11
0.0147087106145164
 21
0.0269822265143661
 31
0.0
  0
LINE
  5
141
330
1F
100
AcDbEntity
  8
0
100
AcDbLine
 10
0.0127310275695463
 20
0.0256171311373977
 30
0.0
 11
0.0136992444879552
 21
0.0263295575167207
 31
0.0
  0
LINE
  5
142
330
1F
100
AcDbEntity
  8
0
100
AcDbLine
 10
0.0118075923658153
 20
0.0248475429724125
 30
0.0
 11
0.0127310275695463
 21
0.0256171311373977
 31
0.0
  0
LINE
  5
143
330
1F
100
AcDbEntity
  8
0
100
AcDbLine
 10
0.010932308401837
 20
0.0240236037532954
 30
0.0
 11
0.0118075923658153
 21
0.0248475429724125
 31
0.0
  0
LINE
  5
144
330
1F
100
AcDbEntity
  8
0
100
AcDbLine
 10
0.0101083691827198
 20
0.0231483197893171
 30
0.0
 11
0.010932308401837
 21
0.0240236037532954
 31
0.0
  0
LINE
  5
145
330
1F
100
AcDbEntity
  8
0
100
AcDbLine
 10
0.0093387810177346
 20
0.022224884585586
 30
0.0
 11
0.0101083691827198
 21
0.0231483197893171
 31
0.0
  0
LINE
  5
146
330
1F
100
AcDbEntity
  8
0
100
AcDbLine
 10
0.0086263546384116
 20
0.0212566676671772
 30
0.0
 11
0.0093387810177346
 21
0.022224884585586
 31
0.0
  0
LINE
  5
147
330
1F
100
AcDbEntity
  8
0
100
AcDbLine
 10
0.0079736856407663
 20
0.020247201540616
 30
0.0
 11
0.0086263546384116
 21
0.0212566676671772
 31
0.0
  0
LINE
  5
148
330
1F
100
AcDbEntity
  8
0
100
AcDbLine
 10
0.0073831582105895
 20
0.0192001705180077
 30
0.0
 11
0.0079736856407663
 21
0.020247201540616
 31
0.0
  0
LINE
  5
149
330
1F
100
AcDbEntity
  8
0
100
AcDbLine
 10
0.0068569255656739
 20
0.0181193939532308
 30
0.0
 11
0.0073831582105895
 21
0.0192001705180077
 31
0.0
  0
LINE
  5
14A
330
1F
100
AcDbEntity
  8
0
100
AcDbLine
 10
0.0063969099558135
 20
0.0170088164630501
 30
0.0
 11
0.0068569255656739
 21
0.0181193939532308
 31
0.0
  0
LINE
  5
14B
330
1F
100
AcDbEntity
  8
0
100
AcDbLine
 10
0.0060047877616426
 20
0.0158724902319877
 30
0.0
 11
0.0063969099558135
 21
0.0170088164630501
 31
0.0
  0
LINE
  5
14C
330
1F
100
AcDbEntity
  8
0
100
AcDbLine
 10
0.0056819913572808
 20
0.0147145610424845
 30
0.0
 11
0.0060047877616426
 21
0.0158724902319877
 31
0.0
  0
LINE
  5
14D
330
1F
100
AcDbEntity
  8
0
100
AcDbLine
 10
0.0054296960718175
 20
0.0135392545378922
 30
0.0
 11
0.0056819913572808
 21
0.0147145610424845
 31
0.0
  0
LINE
  5
14E
330
1F
100
AcDbEntity
  8
0
100
AcDbLine
 10
0.0052488257772466
 20
0.0123508592258362
 30
0.0
 11
0.0054296960718175
 21
0.0135392545378922
 31
0.0
  0
LINE
  5
14F
330
1F
100
AcDbEntity
  8
0
100
AcDbLine
 10
0.0051400398499509
 20
0.011153711344224
 30
0.0
 11
0.0052488257772466
 21
0.0123508592258362
 31
0.0
  0
LINE
  5
150
330
1F
100
AcDbEntity
  8
0
100
AcDbLine
 10
0.0051037331707021
 20
0.0099521792615919
 30
0.0
 11
0.0051400398499509
 21
0.011153711344224
 31
0.0
  0
LINE
  5
151
330
1F
100
AcDbEntity
  8
0
100
AcDbLine
 10
0.0150037331170579
 20
-0.0073656648813846
 30
0.0
 11
0.0149037332869311
 21
-0.0073102068965168
 31
0.0
  0
LINE
  5
152
330
1F
100
AcDbEntity
  8
0
100
AcDbLine
 10
0.0351037325001498
 20
-0.0073102068965168
 30
0.0
 11
0.0350037326700231
 21
-0.0073656648813846
 31
0.0
  0
LINE
  5
153
330
1F
100
AcDbEntity
  8
0
100
AcDbLine
 10
0.0414586810059091
 20
-0.00140610351389
 30
0.0
 11
0.0415856027046144
 21
-0.0012069851417721
 31
0.0
  0
LINE
  5
154
330
1F
100
AcDbEntity
  8
0
100
AcDbLine
 10
0.0436949839479467
 20
0.0028638421680001
 30
0.0
 11
0.0437511224960835
 21
0.0030111202764268
 31
0.0
  0
LINE
  5
155
330
1F
100
AcDbEntity
  8
0
100
AcDbLine
 10
0.0229057488829046
 20
0.0298407519719065
 30
0.0
 11
0.0225929992868742
 21
0.029806356051114
 31
0.0
  0
LINE
  5
156
330
1F
100
AcDbEntity
  8
0
100
AcDbLine
 10
0.0271030088494929
 20
0.0298409127272071
 30
0.0
 11
0.0274144665002068
 21
0.029806356051114
 31
0.0
  0
LINE
  5
157
330
1F
100
AcDbEntity
  8
0
100
AcDbLine
 10
0.0150290930307647
 20
0.0110647838917716
 30
0.0
 11
0.0153988886288544
 21
0.0121215978759496
 31
0.0
  0
LINE
  5
158
330
1F
100
AcDbEntity
  8
0
100
AcDbLine
 10
0.0349783727563163
 20
0.0110647838917716
 30
0.0
 11
0.0351037325001498
 21
0.0099521792615919
 31
0.0
  0
LINE
  5
159
330
1F
100
AcDbEntity
  8
0
100
AcDbLine
 10
0.0346085771582266
 20
0.0121215978759496
 30
0.0
 11
0.0349783727563163
 21
0.0110647838917716
 31
0.0
  0
LINE
  5
15A
330
1F
100
AcDbEntity
  8
0
100
AcDbLine
 10
0.0149037332869311
 20
0.0099521792615919
 30
0.0
 11
0.0150290930307647
 21
0.0110647838917716
 31
0.0
  0
LINE
  5
15B
330
1F
100
AcDbEntity
  8
0
100
AcDbLine
 10
0.0153988886288544
 20
0.0121215978759496
 30
0.0
 11
0.0159945755860945
 21
0.0130696283775537
 31
0.0
  0
LINE
  5
15C
330
1F
100
AcDbEntity
  8
0
100
AcDbLine
 10
0.0340128902009865
 20
0.0130696283775537
 30
0.0
 11
0.0346085771582266
 21
0.0121215978759496
 31
0.0
  0
LINE
  5
15D
330
1F
100
AcDbEntity
  8
0
100
AcDbLine
 10
0.04422505736716
 20
0.0047994443337588
 30
0.0
 11
0.0446011384613057
 21
0.0064950607373534
 31
0.0
  0
LINE
  5
15E
330
1F
100
AcDbEntity
  8
0
100
AcDbLine
 10
0.0446011384613057
 20
0.0064950607373534
 30
0.0
 11
0.0448279397226115
 21
0.0082170113344832
 31
0.0
  0
LINE
  5
15F
330
1F
100
AcDbEntity
  8
0
100
AcDbLine
 10
0.0448279397226115
 20
0.0082170113344832
 30
0.0
 11
0.0449037326163789
 21
0.0099521792615919
 31
0.0
  0
LINE
  5
160
330
1F
100
AcDbEntity
  8
0
100
AcDbLine
 10
0.0149037332869311
 20
-0.0071942497853966
 30
0.0
 11
0.0149037332869311
 21
0.0099521792615919
 31
0.0
  0
LINE
  5
161
330
1F
100
AcDbEntity
  8
0
100
AcDbLine
 10
0.0351037325001498
 20
-0.0071942497853966
 30
0.0
 11
0.0364109499043962
 21
-0.0063538131181927
 31
0.0
  0
LINE
  5
162
330
1F
100
AcDbEntity
  8
0
100
AcDbLine
 10
0.0351037325001498
 20
0.0099521792615919
 30
0.0
 11
0.0351037325001498
 21
-0.0071942497853966
 31
0.0
  0
LINE
  5
163
330
1F
100
AcDbEntity
  8
0
100
AcDbLine
 10
0.0364109499043962
 20
-0.0063538131181927
 30
0.0
 11
0.037789294276311
 21
-0.0052970637445183
 31
0.0
  0
LINE
  5
164
330
1F
100
AcDbEntity
  8
0
100
AcDbLine
 10
0.037789294276311
 20
-0.0052970637445183
 30
0.0
 11
0.0390702465213081
 21
-0.004124155162725
 31
0.0
  0
LINE
  5
165
330
1F
100
AcDbEntity
  8
0
100
AcDbLine
 10
0.042235323939397
 20
-0.0000018299435111
 30
0.0
 11
0.0430376266724607
 21
0.0015385794575481
 31
0.0
  0
LINE
  5
166
330
1F
100
AcDbEntity
  8
0
100
AcDbLine
 10
0.0430376266724607
 20
0.0015385794575481
 30
0.0
 11
0.0437025593257686
 21
0.0031430782872407
 31
0.0
  0
LINE
  5
167
330
1F
100
AcDbEntity
  8
0
100
AcDbLine
 10
0.0437025593257686
 20
0.0031430782872407
 30
0.0
 11
0.04422505736716
 21
0.0047994443337588
 31
0.0
  0
LINE
  5
168
330
1F
100
AcDbEntity
  8
0
100
AcDbLine
 10
0.0390702465213081
 20
-0.004124155162725
 30
0.0
 11
0.0402440482414504
 21
-0.0028440224815937
 31
0.0
  0
LINE
  5
169
330
1F
100
AcDbEntity
  8
0
100
AcDbLine
 10
0.0402440482414504
 20
-0.0028440224815937
 30
0.0
 11
0.041301760602667
 21
-0.0014664157171579
 31
0.0
  0
LINE
  5
16A
330
1F
100
AcDbEntity
  8
0
100
AcDbLine
 10
0.041301760602667
 20
-0.0014664157171579
 30
0.0
 11
0.042235323939397
 21
-0.0000018299435111
 31
0.0
  0
LINE
  5
16B
330
1F
100
AcDbEntity
  8
0
100
AcDbLine
 10
0.0145650515843685
 20
-0.0070946644439233
 30
0.0
 11
0.0142773035151661
 21
-0.0069280963279745
 31
0.0
  0
LINE
  5
16C
330
1F
100
AcDbEntity
  8
0
100
AcDbLine
 10
0.0142773035151661
 20
-0.0069280963279745
 30
0.0
 11
0.0139949811310624
 21
-0.0067318624893832
 31
0.0
  0
LINE
  5
16D
330
1F
100
AcDbEntity
  8
0
100
AcDbLine
 10
0.0131349334639054
 20
-0.0061340690992716
 30
0.0
 11
0.012919977544485
 21
-0.0059846596738387
 31
0.0
  0
LINE
  5
16E
330
1F
100
AcDbEntity
  8
0
100
AcDbLine
 10
0.012919977544485
 20
-0.0059846596738387
 30
0.0
 11
0.0128222942838913
 21
-0.0059040245635027
 31
0.0
  0
LINE
  5
16F
330
1F
100
AcDbEntity
  8
0
100
AcDbLine
 10
0.0116863690284185
 20
-0.0049663464213952
 30
0.0
 11
0.0116451954807867
 21
-0.0049323586783976
 31
0.0
  0
LINE
  5
170
330
1F
100
AcDbEntity
  8
0
100
AcDbLine
 10
0.0116451954807867
 20
-0.0049323586783976
 30
0.0
 11
0.0115035990964579
 21
-0.0047942977036624
 31
0.0
  0
LINE
  5
171
330
1F
100
AcDbEntity
  8
0
100
AcDbLine
 10
0.0106137846317177
 20
-0.0039267003217243
 30
0.0
 11
0.0104616671531086
 21
-0.0037783809456993
 31
0.0
  0
LINE
  5
172
330
1F
100
AcDbEntity
  8
0
100
AcDbLine
 10
0.0104616671531086
 20
-0.0037783809456993
 30
0.0
 11
0.0103117414900779
 21
-0.0036058353645531
 31
0.0
  0
LINE
  5
173
330
1F
100
AcDbEntity
  8
0
100
AcDbLine
 10
0.0095310516201233
 20
-0.0027073595160342
 30
0.0
 11
0.0093774742714766
 21
-0.0025306113040372
 31
0.0
  0
LINE
  5
174
330
1F
100
AcDbEntity
  8
0
100
AcDbLine
 10
0.0093774742714766
 20
-0.0025306113040372
 30
0.0
 11
0.0093315217630527
 21
-0.0024679414664625
 31
0.0
  0
LINE
  5
175
330
1F
100
AcDbEntity
  8
0
100
AcDbLine
 10
0.0084613914515377
 20
-0.0012812614099896
 30
0.0
 11
0.0084000246950475
 21
-0.0011975696857804
 31
0.0
  0
LINE
  5
176
330
1F
100
AcDbEntity
  8
0
100
AcDbLine
 10
0.0084000246950475
 20
-0.0011975696857804
 30
0.0
 11
0.0082668842064161
 21
-0.0009804213760916
 31
0.0
  0
LINE
  5
177
330
1F
100
AcDbEntity
  8
0
100
AcDbLine
 10
0.0076633695706421
 20
0.0000038936461674
 30
0.0
 11
0.007535996301309
 21
0.0002116357869656
 31
0.0
  0
LINE
  5
178
330
1F
100
AcDbEntity
  8
0
100
AcDbLine
 10
0.007535996301309
 20
0.0002116357869656
 30
0.0
 11
0.0074492493578575
 21
0.0003835373427057
 31
0.0
  0
LINE
  5
179
330
1F
100
AcDbEntity
  8
0
100
AcDbLine
 10
0.0068475775452438
 20
0.0015758366505312
 30
0.0
 11
0.0067912896033851
 21
0.0016873793100176
 31
0.0
  0
LINE
  5
17A
330
1F
100
AcDbEntity
  8
0
100
AcDbLine
 10
0.0067912896033851
 20
0.0016873793100176
 30
0.0
 11
0.0067815328647793
 21
0.0017114794794124
 31
0.0
  0
LINE
  5
17B
330
1F
100
AcDbEntity
  8
0
100
AcDbLine
 10
0.0062276356505184
 20
0.0030796637908213
 30
0.0
 11
0.0061709921803394
 21
0.0032195791131002
 31
0.0
  0
LINE
  5
17C
330
1F
100
AcDbEntity
  8
0
100
AcDbLine
 10
0.0061709921803394
 20
0.0032195791131002
 30
0.0
 11
0.0060933535091129
 21
0.0034687982704761
 31
0.0
  0
LINE
  5
17D
330
1F
100
AcDbEntity
  8
0
100
AcDbLine
 10
0.0057570368287807
 20
0.0045483705810244
 30
0.0
 11
0.0056793418880566
 21
0.0047977703627795
 31
0.0
  0
LINE
  5
17E
330
1F
100
AcDbEntity
  8
0
100
AcDbLine
 10
0.0056793418880566
 20
0.0047977703627795
 30
0.0
 11
0.0056467412503297
 21
0.0049440203715729
 31
0.0
  0
LINE
  5
17F
330
1F
100
AcDbEntity
  8
0
100
AcDbLine
 10
0.0053256322976973
 20
0.0063845500796014
 30
0.0
 11
0.0053196983446683
 21
0.0064111704386857
 31
0.0
  0
LINE
  5
180
330
1F
100
AcDbEntity
  8
0
100
AcDbLine
 10
0.0053196983446683
 20
0.0064111704386857
 30
0.0
 11
0.005302074717076
 21
0.0065393334163871
 31
0.0
  0
LINE
  5
181
330
1F
100
AcDbEntity
  8
0
100
AcDbLine
 10
0.0051208774399271
 20
0.007857040708434
 30
0.0
 11
0.0050945143615194
 21
0.0080487589351381
 31
0.0
  0
LINE
  5
182
330
1F
100
AcDbEntity
  8
0
100
AcDbLine
 10
0.0050945143615194
 20
0.0080487589351381
 30
0.0
 11
0.0050814010445591
 21
0.0082914596572679
 31
0.0
  0
LINE
  5
183
330
1F
100
AcDbEntity
  8
0
100
AcDbLine
 10
0.0050190391215574
 20
0.0094456515212899
 30
0.0
 11
0.0050053315499335
 21
0.0096993506838909
 31
0.0
  0
LINE
  5
184
330
1F
100
AcDbEntity
  8
0
100
AcDbLine
 10
0.0050053315499335
 20
0.0096993506838909
 30
0.0
 11
0.0050082746724807
 21
0.0098018889503239
 31
0.0
  0
LINE
  5
185
330
1F
100
AcDbEntity
  8
0
100
AcDbLine
 10
0.0050499980176355
 20
0.0112555285502348
 30
0.0
 11
0.0050527575185043
 21
0.011351669445074
 31
0.0
  0
LINE
  5
186
330
1F
100
AcDbEntity
  8
0
100
AcDbLine
 10
0.0050527575185043
 20
0.011351669445074
 30
0.0
 11
0.0050789297458337
 21
0.0115857033992445
 31
0.0
  0
LINE
  5
187
330
1F
100
AcDbEntity
  8
0
100
AcDbLine
 10
0.005210974804177
 20
0.0127664598837353
 30
0.0
 11
0.0052364686697122
 21
0.0129944278775637
 31
0.0
  0
LINE
  5
188
330
1F
100
AcDbEntity
  8
0
100
AcDbLine
 10
0.0052364686697122
 20
0.0129944278775637
 30
0.0
 11
0.0052772738315049
 21
0.0132020727270243
 31
0.0
  0
LINE
  5
189
330
1F
100
AcDbEntity
  8
0
100
AcDbLine
 10
0.0055175341031601
 20
0.0144246829495405
 30
0.0
 11
0.0055552102079736
 21
0.0146164049956872
 31
0.0
  0
LINE
  5
18A
330
1F
100
AcDbEntity
  8
0
100
AcDbLine
 10
0.0055552102079736
 20
0.0146164049956872
 30
0.0
 11
0.0055694610904677
 21
0.0146665837308687
 31
0.0
  0
LINE
  5
18B
330
1F
100
AcDbEntity
  8
0
100
AcDbLine
 10
0.0059718866133902
 20
0.0160835629076577
 30
0.0
 11
0.0060068067630493
 21
0.0162065201310414
 31
0.0
  0
LINE
  5
18C
330
1F
100
AcDbEntity
  8
0
100
AcDbLine
 10
0.0060068067630493
 20
0.0162065201310414
 30
0.0
 11
0.0060989349967604
 21
0.0164517347735239
 31
0.0
  0
LINE
  5
18D
330
1F
100
AcDbEntity
  8
0
100
AcDbLine
 10
0.0064986044990046
 20
0.0175155217382368
 30
0.0
 11
0.0065881690163559
 21
0.017753912622515
 31
0.0
  0
LINE
  5
18E
330
1F
100
AcDbEntity
  8
0
100
AcDbLine
 10
0.0065881690163559
 20
0.017753912622515
 30
0.0
 11
0.006661699769763
 21
0.0179092692439068
 31
0.0
  0
LINE
  5
18F
330
1F
100
AcDbEntity
  8
0
100
AcDbLine
 10
0.0080368358364894
 20
0.0205289691973981
 30
0.0
 11
0.0081234573039741
 21
0.0206786086399662
 31
0.0
  0
LINE
  5
190
330
1F
100
AcDbEntity
  8
0
100
AcDbLine
 10
0.0081234573039741
 20
0.0206786086399662
 30
0.0
 11
0.008268528873254
 21
0.0208873236689274
 31
0.0
  0
LINE
  5
191
330
1F
100
AcDbEntity
  8
0
100
AcDbLine
 10
0.0089174845326769
 20
0.0218209786912268
 30
0.0
 11
0.00906689395811
 21
0.0220359346106474
 31
0.0
  0
LINE
  5
192
330
1F
100
AcDbEntity
  8
0
100
AcDbLine
 10
0.00906689395811
 20
0.0220359346106474
 30
0.0
 11
0.009147529068446
 21
0.0221336178712411
 31
0.0
  0
LINE
  5
193
330
1F
100
AcDbEntity
  8
0
100
AcDbLine
 10
0.0100852072105534
 20
0.0232695431267138
 30
0.0
 11
0.010119194953551
 21
0.0233107166743457
 31
0.0
  0
LINE
  5
194
330
1F
100
AcDbEntity
  8
0
100
AcDbLine
 10
0.010119194953551
 20
0.0233107166743457
 30
0.0
 11
0.0102572559282864
 21
0.0234523130586746
 31
0.0
  0
LINE
  5
195
330
1F
100
AcDbEntity
  8
0
100
AcDbLine
 10
0.0111248533102242
 20
0.0243421275234146
 30
0.0
 11
0.0112731726862493
 21
0.0244942450020238
 31
0.0
  0
LINE
  5
196
330
1F
100
AcDbEntity
  8
0
100
AcDbLine
 10
0.0112731726862493
 20
0.0244942450020238
 30
0.0
 11
0.0114457182673956
 21
0.0246441706650545
 31
0.0
  0
LINE
  5
197
330
1F
100
AcDbEntity
  8
0
100
AcDbLine
 10
0.0123441941159142
 20
0.0254248605350089
 30
0.0
 11
0.0125209423279114
 21
0.0255784378836558
 31
0.0
  0
LINE
  5
198
330
1F
100
AcDbEntity
  8
0
100
AcDbLine
 10
0.0125209423279114
 20
0.0255784378836558
 30
0.0
 11
0.0125836121654862
 21
0.0256243903920797
 31
0.0
  0
LINE
  5
199
330
1F
100
AcDbEntity
  8
0
100
AcDbLine
 10
0.013770292221959
 20
0.0264945207035946
 30
0.0
 11
0.0138539839461682
 21
0.0265558874600848
 31
0.0
  0
LINE
  5
19A
330
1F
100
AcDbEntity
  8
0
100
AcDbLine
 10
0.0138539839461682
 20
0.0265558874600848
 30
0.0
 11
0.014071132255857
 21
0.0266890279487162
 31
0.0
  0
LINE
  5
19B
330
1F
100
AcDbEntity
  8
0
100
AcDbLine
 10
0.0150554472781159
 20
0.0272925425844902
 30
0.0
 11
0.0152631894189142
 21
0.0274199158538233
 31
0.0
  0
LINE
  5
19C
330
1F
100
AcDbEntity
  8
0
100
AcDbLine
 10
0.0152631894189142
 20
0.0274199158538233
 30
0.0
 11
0.0154350909746544
 21
0.0275066627972749
 31
0.0
  0
LINE
  5
19D
330
1F
100
AcDbEntity
  8
0
100
AcDbLine
 10
0.0166273902824798
 20
0.0281083346098886
 30
0.0
 11
0.0167389329419663
 21
0.0281646225517472
 31
0.0
  0
LINE
  5
19E
330
1F
100
AcDbEntity
  8
0
100
AcDbLine
 10
0.0167389329419663
 20
0.0281646225517472
 30
0.0
 11
0.0167630331113611
 21
0.0281743792903531
 31
0.0
  0
LINE
  5
19F
330
1F
100
AcDbEntity
  8
0
100
AcDbLine
 10
0.0181312174227698
 20
0.0287282765046139
 30
0.0
 11
0.0182711327450489
 21
0.028784919974793
 31
0.0
  0
LINE
  5
1A0
330
1F
100
AcDbEntity
  8
0
100
AcDbLine
 10
0.0182711327450489
 20
0.028784919974793
 30
0.0
 11
0.0185203519024249
 21
0.0288625586460195
 31
0.0
  0
LINE
  5
1A1
330
1F
100
AcDbEntity
  8
0
100
AcDbLine
 10
0.0195999242129729
 20
0.0291988753263516
 30
0.0
 11
0.0198493239947281
 21
0.0292765702670758
 31
0.0
  0
LINE
  5
1A2
330
1F
100
AcDbEntity
  8
0
100
AcDbLine
 10
0.0198493239947281
 20
0.0292765702670758
 30
0.0
 11
0.0199955740035217
 21
0.0293091709048026
 31
0.0
  0
LINE
  5
1A3
330
1F
100
AcDbEntity
  8
0
100
AcDbLine
 10
0.021430930736956
 20
0.0296291267479611
 30
0.0
 11
0.0214627240706343
 21
0.029636213810464
 31
0.0
  0
LINE
  5
1A4
330
1F
100
AcDbEntity
  8
0
100
AcDbLine
 10
0.0214627240706343
 20
0.029636213810464
 30
0.0
 11
0.0215908870483363
 21
0.0296538374380565
 31
0.0
  0
LINE
  5
1A5
330
1F
100
AcDbEntity
  8
0
100
AcDbLine
 10
0.0278180135156839
 20
0.0297449373509554
 30
0.0
 11
0.0280459815095124
 21
0.0297194434854201
 31
0.0
  0
LINE
  5
1A6
330
1F
100
AcDbEntity
  8
0
100
AcDbLine
 10
0.0280459815095124
 20
0.0297194434854201
 30
0.0
 11
0.028253626358973
 21
0.0296786383236274
 31
0.0
  0
LINE
  5
1A7
330
1F
100
AcDbEntity
  8
0
100
AcDbLine
 10
0.0294762365814889
 20
0.0294383780519723
 30
0.0
 11
0.0296679586276358
 21
0.0294007019471588
 31
0.0
  0
LINE
  5
1A8
330
1F
100
AcDbEntity
  8
0
100
AcDbLine
 10
0.0296679586276358
 20
0.0294007019471588
 30
0.0
 11
0.0297181373628173
 21
0.0293864510646647
 31
0.0
  0
LINE
  5
1A9
330
1F
100
AcDbEntity
  8
0
100
AcDbLine
 10
0.0311351165396064
 20
0.0289840255417422
 30
0.0
 11
0.03125807376299
 21
0.0289491053920831
 31
0.0
  0
LINE
  5
1AA
330
1F
100
AcDbEntity
  8
0
100
AcDbLine
 10
0.03125807376299
 20
0.0289491053920831
 30
0.0
 11
0.0315032884054725
 21
0.0288569771583719
 31
0.0
  0
LINE
  5
1AB
330
1F
100
AcDbEntity
  8
0
100
AcDbLine
 10
0.0325670753701853
 20
0.0284573076561277
 30
0.0
 11
0.0328054662544637
 21
0.0283677431387765
 31
0.0
  0
LINE
  5
1AC
330
1F
100
AcDbEntity
  8
0
100
AcDbLine
 10
0.0328054662544637
 20
0.0283677431387765
 30
0.0
 11
0.0329608228758554
 21
0.0282942123853693
 31
0.0
  0
LINE
  5
1AD
330
1F
100
AcDbEntity
  8
0
100
AcDbLine
 10
0.0332119891083976
 20
0.0281901761080293
 30
0.0
 11
0.0337538474820956
 21
0.0279188714681631
 31
0.0
  0
LINE
  5
1AE
330
1F
100
AcDbEntity
  8
0
100
AcDbLine
 10
0.0355805228293468
 20
0.0269190763186429
 30
0.0
 11
0.0357301622719149
 21
0.0268324548511582
 31
0.0
  0
LINE
  5
1AF
330
1F
100
AcDbEntity
  8
0
100
AcDbLine
 10
0.0357301622719149
 20
0.0268324548511582
 30
0.0
 11
0.035938877300876
 21
0.0266873832818784
 31
0.0
  0
LINE
  5
1B0
330
1F
100
AcDbEntity
  8
0
100
AcDbLine
 10
0.0368725323231755
 20
0.0260384276224554
 30
0.0
 11
0.037087488242596
 21
0.0258890181970224
 31
0.0
  0
LINE
  5
1B1
330
1F
100
AcDbEntity
  8
0
100
AcDbLine
 10
0.037087488242596
 20
0.0258890181970224
 30
0.0
 11
0.0371851715031897
 21
0.0258083830866864
 31
0.0
  0
LINE
  5
1B2
330
1F
100
AcDbEntity
  8
0
100
AcDbLine
 10
0.0383126260265113
 20
0.0248776973240048
 30
0.0
 11
0.0383622703062943
 21
0.0248367172015814
 31
0.0
  0
LINE
  5
1B3
330
1F
100
AcDbEntity
  8
0
100
AcDbLine
 10
0.0383622703062943
 20
0.0248367172015814
 30
0.0
 11
0.0385038666906232
 21
0.024698656226846
 31
0.0
  0
LINE
  5
1B4
330
1F
100
AcDbEntity
  8
0
100
AcDbLine
 10
0.0393936811553632
 20
0.0238310588449081
 30
0.0
 11
0.0395457986339724
 21
0.023682739468883
 31
0.0
  0
LINE
  5
1B5
330
1F
100
AcDbEntity
  8
0
100
AcDbLine
 10
0.0395457986339724
 20
0.023682739468883
 30
0.0
 11
0.0396957242970031
 21
0.0235101938877368
 31
0.0
  0
LINE
  5
1B6
330
1F
100
AcDbEntity
  8
0
100
AcDbLine
 10
0.0404764141669576
 20
0.022611718039218
 30
0.0
 11
0.0406299915156044
 21
0.0224349698272209
 31
0.0
  0
LINE
  5
1B7
330
1F
100
AcDbEntity
  8
0
100
AcDbLine
 10
0.0406299915156044
 20
0.0224349698272209
 30
0.0
 11
0.0406759440240283
 21
0.0223722999896462
 31
0.0
  0
LINE
  5
1B8
330
1F
100
AcDbEntity
  8
0
100
AcDbLine
 10
0.0415317701381037
 20
0.0212051279374351
 30
0.0
 11
0.0416074410920335
 21
0.0211019282089642
 31
0.0
  0
LINE
  5
1B9
330
1F
100
AcDbEntity
  8
0
100
AcDbLine
 10
0.0416074410920335
 20
0.0211019282089642
 30
0.0
 11
0.0417405815806649
 21
0.0208847798992753
 31
0.0
  0
LINE
  5
1BA
330
1F
100
AcDbEntity
  8
0
100
AcDbLine
 10
0.0423440962164389
 20
0.0199004648770164
 30
0.0
 11
0.0424714694857719
 21
0.0196927227362182
 31
0.0
  0
LINE
  5
1BB
330
1F
100
AcDbEntity
  8
0
100
AcDbLine
 10
0.0424714694857719
 20
0.0196927227362182
 30
0.0
 11
0.0425582164292235
 21
0.019520821180478
 31
0.0
  0
LINE
  5
1BC
330
1F
100
AcDbEntity
  8
0
100
AcDbLine
 10
0.0431598882418372
 20
0.0183285218726527
 30
0.0
 11
0.0432161761836959
 21
0.0182169792131661
 31
0.0
  0
LINE
  5
1BD
330
1F
100
AcDbEntity
  8
0
100
AcDbLine
 10
0.0432161761836959
 20
0.0182169792131661
 30
0.0
 11
0.0432259329223017
 21
0.0181928790437713
 31
0.0
  0
LINE
  5
1BE
330
1F
100
AcDbEntity
  8
0
100
AcDbLine
 10
0.0437798301365625
 20
0.0168246947323625
 30
0.0
 11
0.0438364736067416
 21
0.0166847794100835
 31
0.0
  0
LINE
  5
1BF
330
1F
100
AcDbEntity
  8
0
100
AcDbLine
 10
0.0438364736067416
 20
0.0166847794100835
 30
0.0
 11
0.0439141122779681
 21
0.0164355602527076
 31
0.0
  0
LINE
  5
1C0
330
1F
100
AcDbEntity
  8
0
100
AcDbLine
 10
0.0442504289583003
 20
0.0153559879421593
 30
0.0
 11
0.0443281238990244
 21
0.0151065881604042
 31
0.0
  0
LINE
  5
1C1
330
1F
100
AcDbEntity
  8
0
100
AcDbLine
 10
0.0443281238990244
 20
0.0151065881604042
 30
0.0
 11
0.0443607245367512
 21
0.0149603381516108
 31
0.0
  0
LINE
  5
1C2
330
1F
100
AcDbEntity
  8
0
100
AcDbLine
 10
0.0446806803799097
 20
0.0135249814181763
 30
0.0
 11
0.0446877674424126
 21
0.013493188084498
 31
0.0
  0
LINE
  5
1C3
330
1F
100
AcDbEntity
  8
0
100
AcDbLine
 10
0.0446877674424126
 20
0.013493188084498
 30
0.0
 11
0.044705391070005
 21
0.0133650251067964
 31
0.0
  0
LINE
  5
1C4
330
1F
100
AcDbEntity
  8
0
100
AcDbLine
 10
0.0448579096830627
 20
0.0123629128682582
 30
0.0
 11
0.0448469433275078
 21
0.0123356253009492
 31
0.0
  0
LINE
  5
1C5
330
1F
100
AcDbEntity
  8
0
100
AcDbLine
 10
0.0449129514255616
 20
0.0118555995880456
 30
0.0
 11
0.0449260647425219
 21
0.0116128988659159
 31
0.0
  0
LINE
  5
1C6
330
1F
100
AcDbEntity
  8
0
100
AcDbLine
 10
0.0450021342371475
 20
0.0102050078392928
 30
0.0
 11
0.0450037324465056
 21
0.0099521792615919
 31
0.0
  0
LINE
  5
1C7
330
1F
100
AcDbEntity
  8
0
100
AcDbLine
 10
0.0449779073713879
 20
0.0093609448496387
 30
0.0
 11
0.0449547082685767
 21
0.0085526890781097
 31
0.0
  0
LINE
  5
1C8
330
1F
100
AcDbEntity
  8
0
100
AcDbLine
 10
0.0449547082685767
 20
0.0085526890781097
 30
0.0
 11
0.0449348440876556
 21
0.0083750621322331
 31
0.0
  0
LINE
  5
1C9
330
1F
100
AcDbEntity
  8
0
100
AcDbLine
 10
0.0447923493049233
 20
0.0071008634546889
 30
0.0
 11
0.0447709971173687
 21
0.00690993064562
 31
0.0
  0
LINE
  5
1CA
330
1F
100
AcDbEntity
  8
0
100
AcDbLine
 10
0.0447709971173687
 20
0.00690993064562
 30
0.0
 11
0.0447419201974764
 21
0.0067619671922587
 31
0.0
  0
LINE
  5
1CB
330
1F
100
AcDbEntity
  8
0
100
AcDbLine
 10
0.0440006590240317
 20
0.0036978383921423
 30
0.0
 11
0.0438862865947519
 21
0.0033934171172959
 31
0.0
  0
LINE
  5
1CC
330
1F
100
AcDbEntity
  8
0
100
AcDbLine
 10
0.0436129747888084
 20
0.0026659522123377
 30
0.0
 11
0.0435942208327278
 21
0.0026160354338411
 31
0.0
  0
LINE
  5
1CD
330
1F
100
AcDbEntity
  8
0
100
AcDbLine
 10
0.043539318071479
 20
0.002469902588039
 30
0.0
 11
0.0434192967707251
 21
0.0021504459006687
 31
0.0
  0
LINE
  5
1CE
330
1F
100
AcDbEntity
  8
0
100
AcDbLine
 10
0.0434192967707251
 20
0.0021504459006687
 30
0.0
 11
0.0432816525122487
 21
0.0018596295284704
 31
0.0
  0
LINE
  5
1CF
330
1F
100
AcDbEntity
  8
0
100
AcDbLine
 10
0.0420893068017059
 20
-0.0004195952391015
 30
0.0
 11
0.0418840084831068
 21
-0.0007742501167825
 31
0.0
  0
LINE
  5
1D0
330
1F
100
AcDbEntity
  8
0
100
AcDbLine
 10
0.0418840084831068
 20
-0.0007742501167825
 30
0.0
 11
0.0416725297719864
 21
-0.0010785053580767
 31
0.0
  0
LINE
  5
1D1
330
1F
100
AcDbEntity
  8
0
100
AcDbLine
 10
0.0411657647453983
 20
-0.0018075901658439
 30
0.0
 11
0.040940571828971
 21
-0.0021315760874637
 31
0.0
  0
LINE
  5
1D2
330
1F
100
AcDbEntity
  8
0
100
AcDbLine
 10
0.040940571828971
 20
-0.0021315760874637
 30
0.0
 11
0.0406034344282088
 21
-0.0025399922282404
 31
0.0
  0
LINE
  5
1D3
330
1F
100
AcDbEntity
  8
0
100
AcDbLine
 10
0.03988827083353
 20
-0.0034063581511619
 30
0.0
 11
0.0397479294186518
 21
-0.0035502933722223
 31
0.0
  0
LINE
  5
1D4
330
1F
100
AcDbEntity
  8
0
100
AcDbLine
 10
0.0388802083380688
 20
-0.0044402347032324
 30
0.0
 11
0.0387342931008316
 21
-0.0045898864788401
 31
0.0
  0
LINE
  5
1D5
330
1F
100
AcDbEntity
  8
0
100
AcDbLine
 10
0.0387342931008316
 20
-0.0045898864788401
 30
0.0
 11
0.0385630999397798
 21
-0.004738637017721
 31
0.0
  0
LINE
  5
1D6
330
1F
100
AcDbEntity
  8
0
100
AcDbLine
 10
0.0384294963975059
 20
-0.0048547257609134
 30
0.0
 11
0.038255139034166
 21
-0.0050059704919191
 31
0.0
  0
LINE
  5
1D7
330
1F
100
AcDbEntity
  8
0
100
AcDbLine
 10
0.0376723832790415
 20
-0.0055125848930973
 30
0.0
 11
0.0374865234591695
 21
-0.005674079360472
 31
0.0
  0
LINE
  5
1D8
330
1F
100
AcDbEntity
  8
0
100
AcDbLine
 10
0.0374865234591695
 20
-0.005674079360472
 30
0.0
 11
0.0369182365984051
 21
-0.0060907743411365
 31
0.0
  0
LINE
  5
1D9
330
1F
100
AcDbEntity
  8
0
100
AcDbLine
 10
0.0361534818409128
 20
-0.0066515289369011
 30
0.0
 11
0.0357498077168037
 21
-0.0068990342949154
 31
0.0
  0
LINE
  5
1DA
330
1F
100
AcDbEntity
  8
0
100
AcDbLine
 10
0.0051428300923844
 20
0.0060016001696853
 30
0.0
 11
0.0047537328339358
 21
0.0099521792615919
 31
0.0
  0
LINE
  5
1DB
330
1F
100
AcDbEntity
  8
0
100
AcDbLine
 10
0.0062951722777625
 20
0.0022028396959571
 30
0.0
 11
0.0051428300923844
 21
0.0060016001696853
 31
0.0
  0
LINE
  5
1DC
330
1F
100
AcDbEntity
  8
0
100
AcDbLine
 10
0.008166473139002
 20
-0.0012981182773443
 30
0.0
 11
0.0062951722777625
 21
0.0022028396959571
 31
0.0
  0
LINE
  5
1DD
330
1F
100
AcDbEntity
  8
0
100
AcDbLine
 10
0.0106848206035038
 20
-0.0043667330284448
 30
0.0
 11
0.008166473139002
 21
-0.0012981182773443
 31
0.0
  0
LINE
  5
1DE
330
1F
100
AcDbEntity
  8
0
100
AcDbLine
 10
0.0137534353546044
 20
-0.0068850804929467
 30
0.0
 11
0.0106848206035038
 21
-0.0043667330284448
 31
0.0
  0
LINE
  5
1DF
330
1F
100
AcDbEntity
  8
0
100
AcDbLine
 10
0.0150037331170579
 20
-0.0075533785123824
 30
0.0
 11
0.0137534353546044
 21
-0.0068850804929467
 31
0.0
  0
LINE
  5
1E0
330
1F
100
AcDbEntity
  8
0
100
AcDbLine
 10
0.0362540304324766
 20
-0.0068850804929467
 30
0.0
 11
0.0350037326700231
 21
-0.0075533785123824
 31
0.0
  0
LINE
  5
1E1
330
1F
100
AcDbEntity
  8
0
100
AcDbLine
 10
0.0393226451835772
 20
-0.0043667330284448
 30
0.0
 11
0.0362540304324766
 21
-0.0068850804929467
 31
0.0
  0
LINE
  5
1E2
330
1F
100
AcDbEntity
  8
0
100
AcDbLine
 10
0.041840992648079
 20
-0.0012981182773443
 30
0.0
 11
0.0393226451835772
 21
-0.0043667330284448
 31
0.0
  0
LINE
  5
1E3
330
1F
100
AcDbEntity
  8
0
100
AcDbLine
 10
0.0437122935093185
 20
0.0022028396959571
 30
0.0
 11
0.041840992648079
 21
-0.0012981182773443
 31
0.0
  0
LINE
  5
1E4
330
1F
100
AcDbEntity
  8
0
100
AcDbLine
 10
0.0448646356946965
 20
0.0060016001696853
 30
0.0
 11
0.0437122935093185
 21
0.0022028396959571
 31
0.0
  0
LINE
  5
1E5
330
1F
100
AcDbEntity
  8
0
100
AcDbLine
 10
0.0452537329531451
 20
0.0099521792615919
 30
0.0
 11
0.0448646356946965
 21
0.0060016001696853
 31
0.0
  0
LINE
  5
1E6
330
1F
100
AcDbEntity
  8
0
100
AcDbLine
 10
-0.034996265765355
 20
-0.0500478193973036
 30
0.0
 11
0.0150037331170579
 21
-0.050047820850167
 31
0.0
  0
LINE
  5
1E7
330
1F
100
AcDbEntity
  8
0
100
AcDbLine
 10
0.0350037326700231
 20
-0.050047820850167
 30
0.0
 11
0.085003731552436
 21
-0.0500478193973036
 31
0.0
  0
LINE
  5
1E8
330
1F
100
AcDbEntity
  8
0
100
AcDbLine
 10
0.028954311985447
 20
0.0298130820627479
 30
0.0
 11
0.0327530724591752
 21
0.0286607398773698
 31
0.0
  0
LINE
  5
1E9
330
1F
100
AcDbEntity
  8
0
100
AcDbLine
 10
0.0327530724591752
 20
0.0286607398773698
 30
0.0
 11
0.0362540304324766
 21
0.0267894390161304
 31
0.0
  0
LINE
  5
1EA
330
1F
100
AcDbEntity
  8
0
100
AcDbLine
 10
0.0362540304324766
 20
0.0267894390161304
 30
0.0
 11
0.0393226451835772
 21
0.0242710915516285
 31
0.0
  0
LINE
  5
1EB
330
1F
100
AcDbEntity
  8
0
100
AcDbLine
 10
0.0393226451835772
 20
0.0242710915516285
 30
0.0
 11
0.041840992648079
 21
0.021202476800528
 31
0.0
  0
LINE
  5
1EC
330
1F
100
AcDbEntity
  8
0
100
AcDbLine
 10
-0.034996265765355
 20
0.0699521779204873
 30
0.0
 11
-0.034996265765355
 21
-0.0500478193973036
 31
0.0
  0
LINE
  5
1ED
330
1F
100
AcDbEntity
  8
0
100
AcDbLine
 10
0.0047537328339358
 20
0.0099521792615919
 30
0.0
 11
0.0051428300923844
 21
0.0139027583534984
 31
0.0
  0
LINE
  5
1EE
330
1F
100
AcDbEntity
  8
0
100
AcDbLine
 10
0.0051428300923844
 20
0.0139027583534984
 30
0.0
 11
0.0062951722777625
 21
0.0177015188272266
 31
0.0
  0
LINE
  5
1EF
330
1F
100
AcDbEntity
  8
0
100
AcDbLine
 10
0.0062951722777625
 20
0.0177015188272266
 30
0.0
 11
0.008166473139002
 21
0.021202476800528
 31
0.0
  0
LINE
  5
1F0
330
1F
100
AcDbEntity
  8
0
100
AcDbLine
 10
0.008166473139002
 20
0.021202476800528
 30
0.0
 11
0.0106848206035038
 21
0.0242710915516285
 31
0.0
  0
LINE
  5
1F1
330
1F
100
AcDbEntity
  8
0
100
AcDbLine
 10
0.0106848206035038
 20
0.0242710915516285
 30
0.0
 11
0.0137534353546043
 21
0.0267894390161304
 31
0.0
  0
LINE
  5
1F2
330
1F
100
AcDbEntity
  8
0
100
AcDbLine
 10
0.041840992648079
 20
0.021202476800528
 30
0.0
 11
0.0437122935093185
 21
0.0177015188272266
 31
0.0
  0
LINE
  5
1F3
330
1F
100
AcDbEntity
  8
0
100
AcDbLine
 10
0.0437122935093185
 20
0.0177015188272266
 30
0.0
 11
0.0448646356946965
 21
0.0139027583534984
 31
0.0
  0
LINE
  5
1F4
330
1F
100
AcDbEntity
  8
0
100
AcDbLine
 10
0.085003731552436
 20
-0.0500478193973036
 30
0.0
 11
0.085003731552436
 21
0.0699521779204874
 31
0.0
  0
LINE
  5
1F5
330
1F
100
AcDbEntity
  8
0
100
AcDbLine
 10
0.0448646356946965
 20
0.0139027583534984
 30
0.0
 11
0.0452537329531451
 21
0.0099521792615919
 31
0.0
  0
LINE
  5
1F6
330
1F
100
AcDbEntity
  8
0
100
AcDbLine
 10
0.0137534353546043
 20
0.0267894390161304
 30
0.0
 11
0.0172543933279058
 21
0.0286607398773698
 31
0.0
  0
LINE
  5
1F7
330
1F
100
AcDbEntity
  8
0
100
AcDbLine
 10
0.0172543933279058
 20
0.0286607398773698
 30
0.0
 11
0.0210531538016339
 21
0.0298130820627479
 31
0.0
  0
LINE
  5
1F8
330
1F
100
AcDbEntity
  8
0
100
AcDbLine
 10
0.085003731552436
 20
0.0699521779204874
 30
0.0
 11
-0.034996265765355
 21
0.0699521779204873
 31
0.0
  0
LINE
  5
1F9
330
1F
100
AcDbEntity
  8
0
100
AcDbLine
 10
0.0243974639578713
 20
0.0308971805126269
 30
0.0
 11
0.0241426452386689
 21
0.0308500367419832
 31
0.0
  0
LINE
  5
1FA
330
1F
100
AcDbEntity
  8
0
100
AcDbLine
 10
0.0241426452386689
 20
0.0308500367419832
 30
0.0
 11
0.0238928364131209
 21
0.0307888929775139
 31
0.0
  0
LINE
  5
1FB
330
1F
100
AcDbEntity
  8
0
100
AcDbLine
 10
0.0238928364131209
 20
0.0307888929775139
 30
0.0
 11
0.023647613177292
 21
0.0307136733709989
 31
0.0
  0
LINE
  5
1FC
330
1F
100
AcDbEntity
  8
0
100
AcDbLine
 10
0.023647613177292
 20
0.0307136733709989
 30
0.0
 11
0.0234065810774825
 21
0.0306242078469289
 31
0.0
  0
LINE
  5
1FD
330
1F
100
AcDbEntity
  8
0
100
AcDbLine
 10
0.0234065810774825
 20
0.0306242078469289
 30
0.0
 11
0.0231693779541074
 21
0.0305202329574307
 31
0.0
  0
LINE
  5
1FE
330
1F
100
AcDbEntity
  8
0
100
AcDbLine
 10
0.0231693779541074
 20
0.0305202329574307
 30
0.0
 11
0.0229356780730157
 21
0.0304013935193574
 31
0.0
  0
LINE
  5
1FF
330
1F
100
AcDbEntity
  8
0
100
AcDbLine
 10
0.0229356780730157
 20
0.0304013935193574
 30
0.0
 11
0.0227051942202435
 21
0.0302672448261795
 31
0.0
  0
LINE
  5
200
330
1F
100
AcDbEntity
  8
0
100
AcDbLine
 10
0.0251713994180001
 20
0.0299521792140943
 30
0.0
 11
0.0253950746102901
 21
0.0299483510787754
 31
0.0
  0
LINE
  5
201
330
1F
100
AcDbEntity
  8
0
100
AcDbLine
 10
0.0275297773785497
 20
0.0301172613209268
 30
0.0
 11
0.0273022715668375
 21
0.0302672448261795
 31
0.0
  0
LINE
  5
202
330
1F
100
AcDbEntity
  8
0
100
AcDbLine
 10
0.0273022715668375
 20
0.0302672448261795
 30
0.0
 11
0.0270717877140653
 21
0.0304013935193574
 31
0.0
  0
LINE
  5
203
330
1F
100
AcDbEntity
  8
0
100
AcDbLine
 10
0.0270717877140653
 20
0.0304013935193574
 30
0.0
 11
0.0268380878329736
 21
0.0305202329574307
 31
0.0
  0
LINE
  5
204
330
1F
100
AcDbEntity
  8
0
100
AcDbLine
 10
0.0268380878329736
 20
0.0305202329574307
 30
0.0
 11
0.0266008847095985
 21
0.0306242078469289
 31
0.0
  0
LINE
  5
205
330
1F
100
AcDbEntity
  8
0
100
AcDbLine
 10
0.0266008847095985
 20
0.0306242078469289
 30
0.0
 11
0.026359852609789
 21
0.0307136733709989
 31
0.0
  0
LINE
  5
206
330
1F
100
AcDbEntity
  8
0
100
AcDbLine
 10
0.026359852609789
 20
0.0307136733709989
 30
0.0
 11
0.02611462937396
 21
0.0307888929775139
 31
0.0
  0
LINE
  5
207
330
1F
100
AcDbEntity
  8
0
100
AcDbLine
 10
0.02611462937396
 20
0.0307888929775139
 30
0.0
 11
0.025864820548412
 21
0.0308500367419832
 31
0.0
  0
LINE
  5
208
330
1F
100
AcDbEntity
  8
0
100
AcDbLine
 10
0.025864820548412
 20
0.0308500367419832
 30
0.0
 11
0.0256100018292097
 21
0.0308971805126269
 31
0.0
  0
LINE
  5
209
330
1F
100
AcDbEntity
  8
0
100
AcDbLine
 10
0.0247330808391613
 20
0.0308971805126269
 30
0.0
 11
0.0247978367678428
 21
0.0309303058921863
 31
0.0
  0
LINE
  5
20A
330
1F
100
AcDbEntity
  8
0
100
AcDbLine
 10
0.0247814133528594
 20
0.0308971805126269
 30
0.0
 11
0.0248492748740083
 21
0.0309303058921863
 31
0.0
  0
LINE
  5
20B
330
1F
100
AcDbEntity
  8
0
100
AcDbLine
 10
0.0248314378679828
 20
0.0308971805126269
 30
0.0
 11
0.0248768576922881
 21
0.0309303058921863
 31
0.0
  0
LINE
  5
20C
330
1F
100
AcDbEntity
  8
0
100
AcDbLine
 10
0.0248827736473919
 20
0.0308971805126269
 30
0.0
 11
0.0249054061056809
 21
0.0309303058921863
 31
0.0
  0
LINE
  5
20D
330
1F
100
AcDbEntity
  8
0
100
AcDbLine
 10
0.0248827736473919
 20
0.0308971805126269
 30
0.0
 11
0.0249347028454759
 21
0.0309303058921863
 31
0.0
  0
LINE
  5
20E
330
1F
100
AcDbEntity
  8
0
100
AcDbLine
 10
0.024935030003288
 20
0.0308971805126269
 30
0.0
 11
0.0249347028454759
 21
0.0309303058921863
 31
0.0
  0
LINE
  5
20F
330
1F
100
AcDbEntity
  8
0
100
AcDbLine
 10
0.024935030003288
 20
0.0308971805126269
 30
0.0
 11
0.0249645249451973
 21
0.0309303058921863
 31
0.0
  0
LINE
  5
210
330
1F
100
AcDbEntity
  8
0
100
AcDbLine
 10
0.0249878092288377
 20
0.0308971805126269
 30
0.0
 11
0.0249645249451973
 21
0.0309303058921863
 31
0.0
  0
LINE
  5
211
330
1F
100
AcDbEntity
  8
0
100
AcDbLine
 10
0.0249878092288377
 20
0.0308971805126269
 30
0.0
 11
0.024994645441275
 21
0.0309303058921863
 31
0.0
  0
LINE
  5
212
330
1F
100
AcDbEntity
  8
0
100
AcDbLine
 10
0.0250407096423231
 20
0.0308971805126269
 30
0.0
 11
0.024994645441275
 21
0.0309303058921863
 31
0.0
  0
LINE
  5
213
330
1F
100
AcDbEntity
  8
0
100
AcDbLine
 10
0.0250407096423231
 20
0.0308971805126269
 30
0.0
 11
0.0250248350989605
 21
0.0309303058921863
 31
0.0
  0
LINE
  5
214
330
1F
100
AcDbEntity
  8
0
100
AcDbLine
 10
0.0250933286419911
 20
0.0308971805126269
 30
0.0
 11
0.0250248350989605
 21
0.0309303058921863
 31
0.0
  0
LINE
  5
215
330
1F
100
AcDbEntity
  8
0
100
AcDbLine
 10
0.0250933286419911
 20
0.0308971805126269
 30
0.0
 11
0.0250548641547139
 21
0.0309303058921863
 31
0.0
  0
LINE
  5
216
330
1F
100
AcDbEntity
  8
0
100
AcDbLine
 10
0.0251452657609017
 20
0.0308971805126269
 30
0.0
 11
0.0250845040723464
 21
0.0309303058921863
 31
0.0
  0
LINE
  5
217
330
1F
100
AcDbEntity
  8
0
100
AcDbLine
 10
0.0245339852273633
 20
0.0299022334852002
 30
0.0
 11
0.0245339852273633
 21
0.0299521792140943
 31
0.0
  0
LINE
  5
218
330
1F
100
AcDbEntity
  8
0
100
AcDbLine
 10
0.0271030088494929
 20
0.0298409127272071
 30
0.0
 11
0.0271030088494929
 21
0.0299521792140943
 31
0.0
  0
LINE
  5
219
330
1F
100
AcDbEntity
  8
0
100
AcDbLine
 10
0.0244503533741715
 20
0.0299022430375958
 30
0.0
 11
0.0244494993211972
 21
0.0299436289262485
 31
0.0
  0
LINE
  5
21A
330
1F
100
AcDbEntity
  8
0
100
AcDbLine
 10
0.0229057433432459
 20
0.0299521792140943
 30
0.0
 11
0.0229057488829046
 21
0.0298407519719065
 31
0.0
  0
LINE
  5
21B
330
1F
100
AcDbEntity
  8
0
100
AcDbLine
 10
0.0244494993211972
 20
0.0299436289262485
 30
0.0
 11
0.0245339852273633
 21
0.0299521792140943
 31
0.0
  0
LINE
  5
21C
330
1F
100
AcDbEntity
  8
0
100
AcDbLine
 10
0.0245574571126641
 20
0.0299302482749604
 30
0.0
 11
0.0245339852273633
 21
0.0299022334852002
 31
0.0
  0
LINE
  5
21D
330
1F
100
AcDbEntity
  8
0
100
AcDbLine
 10
0.0244503533741715
 20
0.0299022430375958
 30
0.0
 11
0.0244738252594723
 21
0.0299521792140943
 31
0.0
  0
LINE
  5
21E
330
1F
100
AcDbEntity
  8
0
100
AcDbLine
 10
0.1914037315226337
 20
-0.0550478207384083
 30
0.0
 11
0.1864037316343924
 21
-0.0550478207384083
 31
0.0
  0
LINE
  5
21F
330
1F
100
AcDbEntity
  8
0
100
AcDbLine
 10
0.1610037315561613
 20
0.0089293011220798
 30
0.0
 11
0.1609425833524779
 21
0.0089293011220798
 31
0.0
  0
LINE
  5
220
330
1F
100
AcDbEntity
  8
0
100
AcDbLine
 10
0.1609512806894649
 20
0.0091662184766598
 30
0.0
 11
0.1610037315561613
 21
0.009169822927366
 31
0.0
  0
LINE
  5
221
330
1F
100
AcDbEntity
  8
0
100
AcDbLine
 10
0.1609387320062974
 20
0.006653878433655
 30
0.0
 11
0.1610206476675081
 21
0.006653878433655
 31
0.0
  0
LINE
  5
222
330
1F
100
AcDbEntity
  8
0
100
AcDbLine
 10
0.1610037315561613
 20
0.0068890160677951
 30
0.0
 11
0.1609387320062974
 21
0.0068846492561468
 31
0.0
  0
LINE
  5
223
330
1F
100
AcDbEntity
  8
0
100
AcDbLine
 10
0.1610037315561613
 20
0.0206944635037139
 30
0.0
 11
0.1609695547103319
 21
0.020692869362497
 31
0.0
  0
LINE
  5
224
330
1F
100
AcDbEntity
  8
0
100
AcDbLine
 10
0.1914934171139439
 20
-0.0072455656592579
 30
0.0
 11
0.1915037324427804
 21
-0.0071942497853966
 31
0.0
  0
LINE
  5
225
330
1F
100
AcDbEntity
  8
0
100
AcDbLine
 10
0.1914689941107472
 20
-0.0072821275208922
 30
0.0
 11
0.1914934171139439
 21
-0.0072455656592579
 31
0.0
  0
LINE
  5
226
330
1F
100
AcDbEntity
  8
0
100
AcDbLine
 10
0.1914423079936942
 20
-0.0073012401227685
 30
0.0
 11
0.1914689941107472
 21
-0.0072821275208922
 31
0.0
  0
LINE
  5
227
330
1F
100
AcDbEntity
  8
0
100
AcDbLine
 10
0.1914037315226337
 20
-0.0073102068965169
 30
0.0
 11
0.1914423079936942
 21
-0.0073012401227685
 31
0.0
  0
LINE
  5
228
330
1F
100
AcDbEntity
  8
0
100
AcDbLine
 10
0.1914037307500085
 20
0.029952178814557
 30
0.0
 11
0.1914537315963944
 21
0.0299387826706438
 31
0.0
  0
LINE
  5
229
330
1F
100
AcDbEntity
  8
0
100
AcDbLine
 10
0.1914537315963944
 20
0.0299387826706438
 30
0.0
 11
0.1914903344362272
 21
0.0299021798307965
 31
0.0
  0
LINE
  5
22A
330
1F
100
AcDbEntity
  8
0
100
AcDbLine
 10
0.1864037316343924
 20
-0.0100478202913733
 30
0.0
 11
0.163503731578513
 21
-0.0100478202913733
 31
0.0
  0
LINE
  5
22B
330
1F
100
AcDbEntity
  8
0
100
AcDbLine
 10
0.1864037317930897
 20
-0.0073102068965168
 30
0.0
 11
0.1914037315226337
 21
-0.0073102068965169
 31
0.0
  0
LINE
  5
22C
330
1F
100
AcDbEntity
  8
0
100
AcDbLine
 10
0.1728128697498878
 20
0.0299156895960836
 30
0.0
 11
0.1727618863581857
 21
0.029806356051114
 31
0.0
  0
LINE
  5
22D
330
1F
100
AcDbEntity
  8
0
100
AcDbLine
 10
0.1728298850133261
 20
0.029952178814557
 30
0.0
 11
0.1728128697498878
 21
0.0299156895960836
 31
0.0
  0
LINE
  5
22E
330
1F
100
AcDbEntity
  8
0
100
AcDbLine
 10
0.17424123797854
 20
0.029952178814557
 30
0.0
 11
0.1728298850133261
 21
0.029952178814557
 31
0.0
  0
LINE
  5
22F
330
1F
100
AcDbEntity
  8
0
100
AcDbLine
 10
0.138003731578513
 20
0.0699521779204873
 30
0.0
 11
0.135003731552436
 21
0.0699521779204873
 31
0.0
  0
LINE
  5
230
330
1F
100
AcDbEntity
  8
0
100
AcDbLine
 10
0.138003731578513
 20
-0.0500478193973036
 30
0.0
 11
0.135003731552436
 21
-0.0500478193973036
 31
0.0
  0
LINE
  5
231
330
1F
100
AcDbEntity
  8
0
100
AcDbLine
 10
0.17930227025181
 20
0.0302672448261795
 30
0.0
 11
0.1790717863990378
 21
0.0304013935193574
 31
0.0
  0
LINE
  5
232
330
1F
100
AcDbEntity
  8
0
100
AcDbLine
 10
0.1790717863990378
 20
0.0304013935193574
 30
0.0
 11
0.1788380865179461
 21
0.0305202329574307
 31
0.0
  0
LINE
  5
233
330
1F
100
AcDbEntity
  8
0
100
AcDbLine
 10
0.1788380865179461
 20
0.0305202329574307
 30
0.0
 11
0.178600883394571
 21
0.0306242078469289
 31
0.0
  0
LINE
  5
234
330
1F
100
AcDbEntity
  8
0
100
AcDbLine
 10
0.178600883394571
 20
0.0306242078469289
 30
0.0
 11
0.1783598512947615
 21
0.0307136733709989
 31
0.0
  0
LINE
  5
235
330
1F
100
AcDbEntity
  8
0
100
AcDbLine
 10
0.1783598512947615
 20
0.0307136733709989
 30
0.0
 11
0.1781146280589326
 21
0.0307888929775139
 31
0.0
  0
LINE
  5
236
330
1F
100
AcDbEntity
  8
0
100
AcDbLine
 10
0.1781146280589326
 20
0.0307888929775139
 30
0.0
 11
0.1778648192333846
 21
0.0308500367419832
 31
0.0
  0
LINE
  5
237
330
1F
100
AcDbEntity
  8
0
100
AcDbLine
 10
0.1778648192333846
 20
0.0308500367419832
 30
0.0
 11
0.1776100005141822
 21
0.0308971805126269
 31
0.0
  0
LINE
  5
238
330
1F
100
AcDbEntity
  8
0
100
AcDbLine
 10
0.1770196552432158
 20
0.0308971805126269
 30
0.0
 11
0.1770128190307785
 21
0.0309303058921863
 31
0.0
  0
LINE
  5
239
330
1F
100
AcDbEntity
  8
0
100
AcDbLine
 10
0.1770128190307785
 20
0.0309303058921863
 30
0.0
 11
0.1770724344687655
 21
0.0308971805126269
 31
0.0
  0
LINE
  5
23A
330
1F
100
AcDbEntity
  8
0
100
AcDbLine
 10
0.1770128190307785
 20
0.0309303058921863
 30
0.0
 11
0.1769878079138102
 21
0.0308971805126269
 31
0.0
  0
LINE
  5
23B
330
1F
100
AcDbEntity
  8
0
100
AcDbLine
 10
0.1770724344687655
 20
0.0308971805126269
 30
0.0
 11
0.1770548628396865
 21
0.0309303058921863
 31
0.0
  0
LINE
  5
23C
330
1F
100
AcDbEntity
  8
0
100
AcDbLine
 10
0.1771452644458742
 20
0.0308971805126269
 30
0.0
 11
0.177084502757319
 21
0.0309303058921863
 31
0.0
  0
LINE
  5
23D
330
1F
100
AcDbEntity
  8
0
100
AcDbLine
 10
0.1790295082940673
 20
0.0298455165810143
 30
0.0
 11
0.1790295082940673
 21
0.029952178814557
 31
0.0
  0
LINE
  5
23E
330
1F
100
AcDbEntity
  8
0
100
AcDbLine
 10
0.1750088024093153
 20
0.0299521792140943
 30
0.0
 11
0.1751813636147894
 21
0.0299521792140943
 31
0.0
  0
LINE
  5
23F
330
1F
100
AcDbEntity
  8
0
100
AcDbLine
 10
0.1744776870935038
 20
0.0301172613209268
 30
0.0
 11
0.174705192905216
 21
0.0302672448261795
 31
0.0
  0
LINE
  5
240
330
1F
100
AcDbEntity
  8
0
100
AcDbLine
 10
0.174705192905216
 20
0.0302672448261795
 30
0.0
 11
0.1749356767579882
 21
0.0304013935193574
 31
0.0
  0
LINE
  5
241
330
1F
100
AcDbEntity
  8
0
100
AcDbLine
 10
0.1749356767579882
 20
0.0304013935193574
 30
0.0
 11
0.1751693766390799
 21
0.0305202329574307
 31
0.0
  0
LINE
  5
242
330
1F
100
AcDbEntity
  8
0
100
AcDbLine
 10
0.1751693766390799
 20
0.0305202329574307
 30
0.0
 11
0.175406579762455
 21
0.0306242078469289
 31
0.0
  0
LINE
  5
243
330
1F
100
AcDbEntity
  8
0
100
AcDbLine
 10
0.175406579762455
 20
0.0306242078469289
 30
0.0
 11
0.1756476118622645
 21
0.0307136733709989
 31
0.0
  0
LINE
  5
244
330
1F
100
AcDbEntity
  8
0
100
AcDbLine
 10
0.1756476118622645
 20
0.0307136733709989
 30
0.0
 11
0.1758928350980934
 21
0.0307888929775139
 31
0.0
  0
LINE
  5
245
330
1F
100
AcDbEntity
  8
0
100
AcDbLine
 10
0.1758928350980934
 20
0.0307888929775139
 30
0.0
 11
0.1761426439236415
 21
0.0308500367419832
 31
0.0
  0
LINE
  5
246
330
1F
100
AcDbEntity
  8
0
100
AcDbLine
 10
0.1761426439236415
 20
0.0308500367419832
 30
0.0
 11
0.1763974626428438
 21
0.0308971805126269
 31
0.0
  0
LINE
  5
247
330
1F
100
AcDbEntity
  8
0
100
AcDbLine
 10
0.176982629373093
 20
0.0309303058921863
 30
0.0
 11
0.1770196552432158
 21
0.0308971805126269
 31
0.0
  0
LINE
  5
248
330
1F
100
AcDbEntity
  8
0
100
AcDbLine
 10
0.1769350286882606
 20
0.0308971805126269
 30
0.0
 11
0.176982629373093
 21
0.0309303058921863
 31
0.0
  0
LINE
  5
249
330
1F
100
AcDbEntity
  8
0
100
AcDbLine
 10
0.1769350286882606
 20
0.0308971805126269
 30
0.0
 11
0.1769526003173396
 21
0.0309303058921863
 31
0.0
  0
LINE
  5
24A
330
1F
100
AcDbEntity
  8
0
100
AcDbLine
 10
0.1768621987111518
 20
0.0308971805126269
 30
0.0
 11
0.1769229603997071
 21
0.0309303058921863
 31
0.0
  0
LINE
  5
24B
330
1F
100
AcDbEntity
  8
0
100
AcDbLine
 10
0.1609566576371846
 20
-0.0074935180932584
 30
0.0
 11
0.1609898762776536
 21
-0.0075417698187562
 31
0.0
  0
LINE
  5
24C
330
1F
100
AcDbEntity
  8
0
100
AcDbLine
 10
0.1609679081500713
 20
0.0019138327110252
 30
0.0
 11
0.160993859853835
 21
0.0018964799316754
 31
0.0
  0
LINE
  5
24D
330
1F
100
AcDbEntity
  8
0
100
AcDbLine
 10
0.1609700493617341
 20
0.0019912840296386
 30
0.0
 11
0.160993859853835
 21
0.0018964799316754
 31
0.0
  0
LINE
  5
24E
330
1F
100
AcDbEntity
  8
0
100
AcDbLine
 10
0.1609387320062974
 20
0.0065071866856694
 30
0.0
 11
0.160989398308852
 21
0.0064926320629152
 31
0.0
  0
LINE
  5
24F
330
1F
100
AcDbEntity
  8
0
100
AcDbLine
 10
0.1609485997399907
 20
0.0090931888288331
 30
0.0
 11
0.1609879925769997
 21
0.0089528807448214
 31
0.0
  0
LINE
  5
250
330
1F
100
AcDbEntity
  8
0
100
AcDbLine
 10
0.1609482297881297
 20
0.0202202836235486
 30
0.0
 11
0.1609927594348168
 21
0.0203557644921056
 31
0.0
  0
LINE
  5
251
330
1F
100
AcDbEntity
  8
0
100
AcDbLine
 10
0.1609656506955107
 20
0.0203561822270098
 30
0.0
 11
0.1609927594348168
 21
0.0203557644921056
 31
0.0
  0
LINE
  5
252
330
1F
100
AcDbEntity
  8
0
100
AcDbLine
 10
0.1609714404082489
 20
0.0253910351943964
 30
0.0
 11
0.1609863156975483
 21
0.025424304316197
 31
0.0
  0
LINE
  5
253
330
1F
100
AcDbEntity
  8
0
100
AcDbLine
 10
0.1609863156975483
 20
0.025424304316197
 30
0.0
 11
0.1609993161212026
 21
0.0254575745306741
 31
0.0
  0
LINE
  5
254
330
1F
100
AcDbEntity
  8
0
100
AcDbLine
 10
0.1609687488324639
 20
0.0275044158460749
 30
0.0
 11
0.1609863156975483
 21
0.0275363138655673
 31
0.0
  0
LINE
  5
255
330
1F
100
AcDbEntity
  8
0
100
AcDbLine
 10
0.1609863156975483
 20
0.0284453847500416
 30
0.0
 11
0.160945283001938
 21
0.0283823594184388
 31
0.0
  0
LINE
  5
256
330
1F
100
AcDbEntity
  8
0
100
AcDbLine
 10
0.1608737309067128
 20
-0.0098970984274156
 30
0.0
 11
0.1609387320062974
 21
-0.0098703056165955
 31
0.0
  0
LINE
  5
257
330
1F
100
AcDbEntity
  8
0
100
AcDbLine
 10
0.1609387320062974
 20
-0.0098703056165955
 30
0.0
 11
0.1609863156975483
 21
-0.0097971023270921
 31
0.0
  0
LINE
  5
258
330
1F
100
AcDbEntity
  8
0
100
AcDbLine
 10
0.1609863156975483
 20
-0.0097971023270921
 30
0.0
 11
0.1610037306844434
 21
-0.0096971062267687
 31
0.0
  0
LINE
  5
259
330
1F
100
AcDbEntity
  8
0
100
AcDbLine
 10
0.1608737309067128
 20
-0.0098970984274156
 30
0.0
 11
0.138003731578513
 21
-0.0099087235395642
 31
0.0
  0
LINE
  5
25A
330
1F
100
AcDbEntity
  8
0
100
AcDbLine
 10
0.1608737309067128
 20
0.0298014569505993
 30
0.0
 11
0.138003731578513
 21
0.0297979526006232
 31
0.0
  0
LINE
  5
25B
330
1F
100
AcDbEntity
  8
0
100
AcDbLine
 10
0.1610037306844434
 20
0.0230338229117015
 30
0.0
 11
0.1610037306844434
 21
0.0220468309232243
 31
0.0
  0
LINE
  5
25C
330
1F
100
AcDbEntity
  8
0
100
AcDbLine
 10
0.1610037306844434
 20
0.0281698698773206
 30
0.0
 11
0.1610037306844434
 21
0.0276491931761751
 31
0.0
  0
LINE
  5
25D
330
1F
100
AcDbEntity
  8
0
100
AcDbLine
 10
0.1608737309067128
 20
0.0298014569505993
 30
0.0
 11
0.1609387320062974
 21
0.0297746641397792
 31
0.0
  0
LINE
  5
25E
330
1F
100
AcDbEntity
  8
0
100
AcDbLine
 10
0.1609387320062974
 20
0.0297746641397792
 30
0.0
 11
0.1609863156975483
 21
0.0297014608502758
 31
0.0
  0
LINE
  5
25F
330
1F
100
AcDbEntity
  8
0
100
AcDbLine
 10
0.1609863156975483
 20
0.0297014608502758
 30
0.0
 11
0.1610037306844434
 21
0.0296014647499524
 31
0.0
  0
LINE
  5
260
330
1F
100
AcDbEntity
  8
0
100
AcDbLine
 10
0.1609558999928143
 20
0.0273967761003564
 30
0.0
 11
0.160997150099874
 21
0.0274566939300598
 31
0.0
  0
LINE
  5
261
330
1F
100
AcDbEntity
  8
0
100
AcDbLine
 10
0.1609550097279128
 20
0.0252255393419488
 30
0.0
 11
0.1609950029306186
 21
0.0252764049794975
 31
0.0
  0
LINE
  5
262
330
1F
100
AcDbEntity
  8
0
100
AcDbLine
 10
0.1609416157342143
 20
0.0200737082912963
 30
0.0
 11
0.1609886833173576
 21
0.0201134234026492
 31
0.0
  0
LINE
  5
263
330
1F
100
AcDbEntity
  8
0
100
AcDbLine
 10
0.160956643554282
 20
0.0199958202693481
 30
0.0
 11
0.160988172749419
 21
0.0200830681462733
 31
0.0
  0
LINE
  5
264
330
1F
100
AcDbEntity
  8
0
100
AcDbLine
 10
0.1609582155721494
 20
0.0157429478630667
 30
0.0
 11
0.1609863156975483
 21
0.0157564945096658
 31
0.0
  0
LINE
  5
265
330
1F
100
AcDbEntity
  8
0
100
AcDbLine
 10
0.1609525941456338
 20
0.0155995333924359
 30
0.0
 11
0.1609863156975483
 21
0.0157085763970345
 31
0.0
  0
LINE
  5
266
330
1F
100
AcDbEntity
  8
0
100
AcDbLine
 10
0.1609507435391914
 20
0.0016428422721268
 30
0.0
 11
0.1610037306844434
 21
0.0016061652107921
 31
0.0
  0
LINE
  5
267
330
1F
100
AcDbEntity
  8
0
100
AcDbLine
 10
0.1609749271898479
 20
0.0123906725241527
 30
0.0
 11
0.1610037315561613
 21
0.0123648858269282
 31
0.0
  0
LINE
  5
268
330
1F
100
AcDbEntity
  8
0
100
AcDbLine
 10
0.1609863156975483
 20
0.0092230129384649
 30
0.0
 11
0.1609528467021333
 21
0.0092088770029661
 31
0.0
  0
LINE
  5
269
330
1F
100
AcDbEntity
  8
0
100
AcDbLine
 10
0.1609863156975483
 20
0.0065930040442292
 30
0.0
 11
0.1609507288237933
 21
0.0065761576351212
 31
0.0
  0
LINE
  5
26A
330
1F
100
AcDbEntity
  8
0
100
AcDbLine
 10
0.1609863156975483
 20
0.0016914752025723
 30
0.0
 11
0.1609534930406106
 21
0.0017129627574518
 31
0.0
  0
LINE
  5
26B
330
1F
100
AcDbEntity
  8
0
100
AcDbLine
 10
0.1609863156975483
 20
-0.006162797768139
 30
0.0
 11
0.1609550212123908
 21
-0.0061542316449748
 31
0.0
  0
LINE
  5
26C
330
1F
100
AcDbEntity
  8
0
100
AcDbLine
 10
0.1609863156975483
 20
-0.0074741552336708
 30
0.0
 11
0.1609566576371846
 21
-0.0074935180932584
 31
0.0
  0
LINE
  5
26D
330
1F
100
AcDbEntity
  8
0
100
AcDbLine
 10
0.1609633402758967
 20
-0.0084874923749213
 30
0.0
 11
0.1609133866870487
 21
-0.0084887892465079
 31
0.0
  0
LINE
  5
26E
330
1F
100
AcDbEntity
  8
0
100
AcDbLine
 10
0.1610037315561613
 20
-0.0075120735428797
 30
0.0
 11
0.1609547199587237
 21
-0.0075213841190241
 31
0.0
  0
LINE
  5
26F
330
1F
100
AcDbEntity
  8
0
100
AcDbLine
 10
0.1609863156975483
 20
-0.0062230745984582
 30
0.0
 11
0.1609387320062974
 21
-0.0062057668375334
 31
0.0
  0
LINE
  5
270
330
1F
100
AcDbEntity
  8
0
100
AcDbLine
 10
0.1610037315561613
 20
0.0001985607915955
 30
0.0
 11
0.1633659129887065
 21
0.0004497716654138
 31
0.0
  0
LINE
  5
271
330
1F
100
AcDbEntity
  8
0
100
AcDbLine
 10
0.1610037315561613
 20
-0.0069315656229239
 30
0.0
 11
0.1633659129887065
 21
-0.0064967125405585
 31
0.0
  0
LINE
  5
272
330
1F
100
AcDbEntity
  8
0
100
AcDbLine
 10
0.1633659129887065
 20
-0.0064967125405585
 30
0.0
 11
0.1610037315561613
 21
-0.0069045738025735
 31
0.0
  0
LINE
  5
273
330
1F
100
AcDbEntity
  8
0
100
AcDbLine
 10
0.1610037315561613
 20
-0.0082923242724092
 30
0.0
 11
0.1633659129887065
 21
-0.0078224243368413
 31
0.0
  0
LINE
  5
274
330
1F
100
AcDbEntity
  8
0
100
AcDbLine
 10
0.1633659129887065
 20
-0.0078224243368413
 30
0.0
 11
0.1610037315561613
 21
-0.0082297329949199
 31
0.0
  0
LINE
  5
275
330
1F
100
AcDbEntity
  8
0
100
AcDbLine
 10
0.1610037315561613
 20
-0.0085477121131524
 30
0.0
 11
0.1633659129887065
 21
-0.0080712337291316
 31
0.0
  0
LINE
  5
276
330
1F
100
AcDbEntity
  8
0
100
AcDbLine
 10
0.163503731578513
 20
-0.0080364478931939
 30
0.0
 11
0.1633659129887065
 21
-0.0080712337291316
 31
0.0
  0
LINE
  5
277
330
1F
100
AcDbEntity
  8
0
100
AcDbLine
 10
0.1610037315561613
 20
-0.0085005790044809
 30
0.0
 11
0.1633659129887065
 21
-0.0080115439994136
 31
0.0
  0
LINE
  5
278
330
1F
100
AcDbEntity
  8
0
100
AcDbLine
 10
0.1610037315561613
 20
-0.004588427970206
 30
0.0
 11
0.1633659129887065
 21
-0.0041094873416306
 31
0.0
  0
LINE
  5
279
330
1F
100
AcDbEntity
  8
0
100
AcDbLine
 10
0.1633659129887065
 20
-0.0041094873416306
 30
0.0
 11
0.1610037315561613
 21
-0.004481229175919
 31
0.0
  0
LINE
  5
27A
330
1F
100
AcDbEntity
  8
0
100
AcDbLine
 10
0.1609863156975483
 20
0.0284453847500416
 30
0.0
 11
0.1633659129887065
 21
0.0279755922523153
 31
0.0
  0
LINE
  5
27B
330
1F
100
AcDbEntity
  8
0
100
AcDbLine
 10
0.1610037315561613
 20
0.0267836907787184
 30
0.0
 11
0.1633659129887065
 21
0.0263501844094759
 31
0.0
  0
LINE
  5
27C
330
1F
100
AcDbEntity
  8
0
100
AcDbLine
 10
0.1633659129887065
 20
0.0263501844094759
 30
0.0
 11
0.1610037315561613
 21
0.0268290919873266
 31
0.0
  0
LINE
  5
27D
330
1F
100
AcDbEntity
  8
0
100
AcDbLine
 10
0.1610037315561613
 20
0.0243059249252815
 30
0.0
 11
0.1633659129887065
 21
0.0239362339301617
 31
0.0
  0
LINE
  5
27E
330
1F
100
AcDbEntity
  8
0
100
AcDbLine
 10
0.1633659129887065
 20
0.0239362339301617
 30
0.0
 11
0.1610037315561613
 21
0.0245223528957887
 31
0.0
  0
LINE
  5
27F
330
1F
100
AcDbEntity
  8
0
100
AcDbLine
 10
0.1610037315561613
 20
0.0153087431358044
 30
0.0
 11
0.1633659129887065
 21
0.0151707814507997
 31
0.0
  0
LINE
  5
280
330
1F
100
AcDbEntity
  8
0
100
AcDbLine
 10
0.1633659129887065
 20
0.0151707814507997
 30
0.0
 11
0.1610037315561613
 21
0.0154797203585183
 31
0.0
  0
LINE
  5
281
330
1F
100
AcDbEntity
  8
0
100
AcDbLine
 10
0.1633659129887065
 20
0.0091255280804108
 30
0.0
 11
0.1610037315561613
 21
0.0091036741830289
 31
0.0
  0
LINE
  5
282
330
1F
100
AcDbEntity
  8
0
100
AcDbLine
 10
0.1610037315561613
 20
0.0195450166152513
 30
0.0
 11
0.1633659129887065
 21
0.0193493862915593
 31
0.0
  0
LINE
  5
283
330
1F
100
AcDbEntity
  8
0
100
AcDbLine
 10
0.1633659129887065
 20
0.0193493862915593
 30
0.0
 11
0.1610037315561613
 21
0.0195978165277827
 31
0.0
  0
LINE
  5
284
330
1F
100
AcDbEntity
  8
0
100
AcDbLine
 10
0.1610037306844434
 20
0.0230338229117015
 30
0.0
 11
0.1633659129887065
 21
0.0229215514870826
 31
0.0
  0
LINE
  5
285
330
1F
100
AcDbEntity
  8
0
100
AcDbLine
 10
0.1633659129887065
 20
0.0229215514870826
 30
0.0
 11
0.1610037315561613
 21
0.0232644174121314
 31
0.0
  0
LINE
  5
286
330
1F
100
AcDbEntity
  8
0
100
AcDbLine
 10
0.1610037306844434
 20
0.0281698698773206
 30
0.0
 11
0.1633659129887065
 21
0.0277059039974671
 31
0.0
  0
LINE
  5
287
330
1F
100
AcDbEntity
  8
0
100
AcDbLine
 10
0.16570239271216
 20
0.027385857584111
 30
0.0
 11
0.1633659129887065
 21
0.0279755922523153
 31
0.0
  0
LINE
  5
288
330
1F
100
AcDbEntity
  8
0
100
AcDbLine
 10
0.1680077453068634
 20
0.0266842325104308
 30
0.0
 11
0.16570239271216
 21
0.027385857584111
 31
0.0
  0
LINE
  5
289
330
1F
100
AcDbEntity
  8
0
100
AcDbLine
 10
0.1702766147366902
 20
0.0258723483723543
 30
0.0
 11
0.1680077453068634
 21
0.0266842325104308
 31
0.0
  0
LINE
  5
28A
330
1F
100
AcDbEntity
  8
0
100
AcDbLine
 10
0.1708222874135956
 20
0.0256468733178288
 30
0.0
 11
0.1702766147366902
 21
0.0258723483723543
 31
0.0
  0
LINE
  5
28B
330
1F
100
AcDbEntity
  8
0
100
AcDbLine
 10
0.1610037315561613
 20
0.0153087431358044
 30
0.0
 11
0.1609416177610959
 21
0.0153195026255825
 31
0.0
  0
LINE
  5
28C
330
1F
100
AcDbEntity
  8
0
100
AcDbLine
 10
0.1610037315561613
 20
0.0154797203585183
 30
0.0
 11
0.1609479027390559
 21
0.0154798456958992
 31
0.0
  0
LINE
  5
28D
330
1F
100
AcDbEntity
  8
0
100
AcDbLine
 10
0.1609863156975483
 20
0.0168047096119824
 30
0.0
 11
0.1609527033326499
 21
0.0168308760495229
 31
0.0
  0
LINE
  5
28E
330
1F
100
AcDbEntity
  8
0
100
AcDbLine
 10
0.1609863156975483
 20
0.0273785137568545
 30
0.0
 11
0.1609558999928143
 21
0.0273967761003564
 31
0.0
  0
LINE
  5
28F
330
1F
100
AcDbEntity
  8
0
100
AcDbLine
 10
0.1609863156975483
 20
0.0283807441973826
 30
0.0
 11
0.160945283001938
 21
0.0283823594184388
 31
0.0
  0
LINE
  5
290
330
1F
100
AcDbEntity
  8
0
100
AcDbLine
 10
0.1609538790951075
 20
0.0284504743738456
 30
0.0
 11
0.1609863156975483
 21
0.0284453847500416
 31
0.0
  0
LINE
  5
291
330
1F
100
AcDbEntity
  8
0
100
AcDbLine
 10
0.160945283001938
 20
0.0283823594184388
 30
0.0
 11
0.1610037315561613
 21
0.0284049748820453
 31
0.0
  0
LINE
  5
292
330
1F
100
AcDbEntity
  8
0
100
AcDbLine
 10
0.1609863156975483
 20
0.0274197405009281
 30
0.0
 11
0.1609584102747583
 21
0.0274250416046935
 31
0.0
  0
LINE
  5
293
330
1F
100
AcDbEntity
  8
0
100
AcDbLine
 10
0.1609618425549416
 20
0.0253340829013184
 30
0.0
 11
0.1610037315561613
 21
0.0253150229134859
 31
0.0
  0
LINE
  5
294
330
1F
100
AcDbEntity
  8
0
100
AcDbLine
 10
0.1609863156975483
 20
0.0213319084054637
 30
0.0
 11
0.160949488852304
 21
0.0213322131913158
 31
0.0
  0
LINE
  5
295
330
1F
100
AcDbEntity
  8
0
100
AcDbLine
 10
0.1609569926406264
 20
0.0169373812030929
 30
0.0
 11
0.1610037315561613
 21
0.0169088156899293
 31
0.0
  0
LINE
  5
296
330
1F
100
AcDbEntity
  8
0
100
AcDbLine
 10
0.0400982685257097
 20
-0.0031508328424567
 30
0.0
 11
0.0403148036114117
 21
-0.0029083247174354
 31
0.0
  0
LINE
  5
297
330
1F
100
AcDbEntity
  8
0
100
AcDbLine
 10
0.0391409320420762
 20
-0.0041895060677858
 30
0.0
 11
0.0397105669369755
 21
-0.0035736552214437
 31
0.0
  0
LINE
  5
298
330
1F
100
AcDbEntity
  8
0
100
AcDbLine
 10
0.0413836593813086
 20
-0.0015194275294276
 30
0.0
 11
0.0414103342311081
 21
-0.0014677990857182
 31
0.0
  0
LINE
  5
299
330
1F
100
AcDbEntity
  8
0
100
AcDbLine
 10
0.0411657647453983
 20
-0.0018075901658439
 30
0.0
 11
0.0413836593813086
 21
-0.0015194275294276
 31
0.0
  0
LINE
  5
29A
330
1F
100
AcDbEntity
  8
0
100
AcDbLine
 10
0.0428487503293338
 20
0.0009596656144939
 30
0.0
 11
0.0431213507092734
 21
0.0014963002066283
 31
0.0
  0
LINE
  5
29B
330
1F
100
AcDbEntity
  8
0
100
AcDbLine
 10
0.0423153226859113
 20
-0.0000518503877902
 30
0.0
 11
0.0425584755321879
 21
0.0004023428039006
 31
0.0
  0
LINE
  5
29C
330
1F
100
AcDbEntity
  8
0
100
AcDbLine
 10
0.0443216466940185
 20
0.0047755223821072
 30
0.0
 11
0.0443712957666204
 21
0.0049973979731632
 31
0.0
  0
LINE
  5
29D
330
1F
100
AcDbEntity
  8
0
100
AcDbLine
 10
0.0440006590240317
 20
0.0036978383921423
 30
0.0
 11
0.0440851551224194
 21
0.0040350812443867
 31
0.0
  0
LINE
  5
29E
330
1F
100
AcDbEntity
  8
0
100
AcDbLine
 10
0.0437511224960835
 20
0.0030111202764268
 30
0.0
 11
0.0437965241856118
 21
0.0031088614958493
 31
0.0
  0
LINE
  5
29F
330
1F
100
AcDbEntity
  8
0
100
AcDbLine
 10
0.0448733514415619
 20
0.0077967279255485
 30
0.0
 11
0.0449199767447253
 21
0.0082082917444851
 31
0.0
  0
LINE
  5
2A0
330
1F
100
AcDbEntity
  8
0
100
AcDbLine
 10
0.0231472726364001
 20
0.0298657088252367
 30
0.0
 11
0.0232754678449199
 21
0.0298776736336074
 31
0.0
  0
LINE
  5
2A1
330
1F
100
AcDbEntity
  8
0
100
AcDbLine
 10
0.0262411701309505
 20
0.0299129755056312
 30
0.0
 11
0.0263157284451912
 21
0.0299521792140943
 31
0.0
  0
LINE
  5
2A2
330
1F
100
AcDbEntity
  8
0
100
AcDbLine
 10
0.0263157284451912
 20
0.0299521792140943
 30
0.0
 11
0.026429482463128
 21
0.0299011629800648
 31
0.0
  0
LINE
  5
2A3
330
1F
100
AcDbEntity
  8
0
100
AcDbLine
 10
0.1787975955761636
 20
0.0299203009223785
 30
0.0
 11
0.1788965490119646
 21
0.0299521792140943
 31
0.0
  0
LINE
  5
2A4
330
1F
100
AcDbEntity
  8
0
100
AcDbLine
 10
0.1788965490119646
 20
0.0299521792140943
 30
0.0
 11
0.1789315477534619
 21
0.0299339135062509
 31
0.0
  0
LINE
  5
2A5
330
1F
100
AcDbEntity
  8
0
100
AcDbLine
 10
-0.1450962667130688
 20
0.0413907557028499
 30
0.0
 11
-0.1450962667130688
 21
0.0414521801519361
 31
0.0
  0
LINE
  5
2A6
330
1F
100
AcDbEntity
  8
0
100
AcDbLine
 10
-0.123167464555014
 20
0.0109521783935991
 30
0.0
 11
-0.1233249342997555
 21
0.010952179265317
 31
0.0
  0
LINE
  5
2A7
330
1F
100
AcDbEntity
  8
0
100
AcDbLine
 10
-0.1221665619327999
 20
0.0109521783935991
 30
0.0
 11
-0.1226437748674779
 21
0.0109138345626079
 31
0.0
  0
LINE
  5
2A8
330
1F
100
AcDbEntity
  8
0
100
AcDbLine
 10
-0.1212205984362349
 20
0.0109521783935991
 30
0.0
 11
-0.1219055059800604
 21
0.0109254677020253
 31
0.0
  0
LINE
  5
2A9
330
1F
100
AcDbEntity
  8
0
100
AcDbLine
 10
-0.1195094370232897
 20
0.0109521783935991
 30
0.0
 11
-0.1196609409331607
 21
0.0109521783935991
 31
0.0
  0
LINE
  5
2AA
330
1F
100
AcDbEntity
  8
0
100
AcDbLine
 10
-0.1178607173091518
 20
0.0109266716165722
 30
0.0
 11
-0.1180632605163567
 21
0.0109521783935991
 31
0.0
  0
LINE
  5
2AB
330
1F
100
AcDbEntity
  8
0
100
AcDbLine
 10
-0.1439741383186494
 20
0.010934763406704
 30
0.0
 11
-0.1438371930914562
 21
0.0109521783935991
 31
0.0
  0
LINE
  5
2AC
330
1F
100
AcDbEntity
  8
0
100
AcDbLine
 10
-0.1167785589012157
 20
0.0109481728112845
 30
0.0
 11
-0.1168342190092646
 21
0.0109521783935991
 31
0.0
  0
LINE
  5
2AD
330
1F
100
AcDbEntity
  8
0
100
AcDbLine
 10
-0.1168342190092646
 20
0.0109521783935991
 30
0.0
 11
-0.116887269184316
 21
0.0109169594092299
 31
0.0
  0
LINE
  5
2AE
330
1F
100
AcDbEntity
  8
0
100
AcDbLine
 10
-0.1269339675799969
 20
0.0109521783935991
 30
0.0
 11
-0.1270771823708772
 21
0.010914493468817
 31
0.0
  0
LINE
  5
2AF
330
1F
100
AcDbEntity
  8
0
100
AcDbLine
 10
-0.1226437748674779
 20
0.0109138345626079
 30
0.0
 11
-0.1228847641376947
 21
0.0109521783935991
 31
0.0
  0
LINE
  5
2B0
330
1F
100
AcDbEntity
  8
0
100
AcDbLine
 10
-0.117475472488552
 20
0.0108871797154532
 30
0.0
 11
-0.1174291814352855
 21
0.0108871797154532
 31
0.0
  0
LINE
  5
2B1
330
1F
100
AcDbEntity
  8
0
100
AcDbLine
 10
-0.1168707444000461
 20
0.0108871797154532
 30
0.0
 11
-0.1168173205947197
 21
0.0108871797154532
 31
0.0
  0
LINE
  5
2B2
330
1F
100
AcDbEntity
  8
0
100
AcDbLine
 10
-0.1168173205947197
 20
0.0108871797154532
 30
0.0
 11
-0.1167785589012157
 21
0.0109481728112845
 31
0.0
  0
LINE
  5
2B3
330
1F
100
AcDbEntity
  8
0
100
AcDbLine
 10
-0.116932126183918
 20
0.0108871797154532
 30
0.0
 11
-0.1168707444000461
 21
0.0108871797154532
 31
0.0
  0
LINE
  5
2B4
330
1F
100
AcDbEntity
  8
0
100
AcDbLine
 10
-0.1212290514384379
 20
0.0108871797154532
 30
0.0
 11
-0.1212205984362349
 21
0.0109521783935991
 31
0.0
  0
LINE
  5
2B5
330
1F
100
AcDbEntity
  8
0
100
AcDbLine
 10
-0.1212205984362349
 20
0.0109521783935991
 30
0.0
 11
-0.1211544335584309
 21
0.0109521783935991
 31
0.0
  0
LINE
  5
2B6
330
1F
100
AcDbEntity
  8
0
100
AcDbLine
 10
-0.1178067803268748
 20
0.010952179265317
 30
0.0
 11
-0.1178607173091518
 21
0.0109266716165722
 31
0.0
  0
LINE
  5
2B7
330
1F
100
AcDbEntity
  8
0
100
AcDbLine
 10
-0.1183140566883682
 20
0.010934763406704
 30
0.0
 11
-0.1184298388597025
 21
0.0109521783935991
 31
0.0
  0
LINE
  5
2B8
330
1F
100
AcDbEntity
  8
0
100
AcDbLine
 10
-0.1204266033239767
 20
0.010934763406704
 30
0.0
 11
-0.1204624870979379
 21
0.010952179265317
 31
0.0
  0
LINE
  5
2B9
330
1F
100
AcDbEntity
  8
0
100
AcDbLine
 10
-0.1338783313666971
 20
0.0109521783935991
 30
0.0
 11
-0.1339071271571058
 21
0.010952179265317
 31
0.0
  0
LINE
  5
2BA
330
1F
100
AcDbEntity
  8
0
100
AcDbLine
 10
-0.1441006940844171
 20
0.0108951953537031
 30
0.0
 11
-0.1445816598430801
 21
0.010952179265317
 31
0.0
  0
LINE
  5
2BB
330
1F
100
AcDbEntity
  8
0
100
AcDbLine
 10
-0.1177447898637792
 20
0.0133143606978622
 30
0.0
 11
-0.1173805102643232
 21
0.0109521783935991
 31
0.0
  0
LINE
  5
2BC
330
1F
100
AcDbEntity
  8
0
100
AcDbLine
 10
-0.1173805102643232
 20
0.0109521783935991
 30
0.0
 11
-0.1173483139224785
 21
0.0109276000822056
 31
0.0
  0
LINE
  5
2BD
330
1F
100
AcDbEntity
  8
0
100
AcDbLine
 10
0.0150037331170579
 20
-0.0073656648813846
 30
0.0
 11
0.0150037331170579
 21
0.0099521768774059
 31
0.0
  0
LINE
  5
2BE
330
1F
100
AcDbEntity
  8
0
100
AcDbLine
 10
0.0319171499124905
 20
0.0145715741004017
 30
0.0
 11
0.0312163375913342
 21
0.0148268189403383
 31
0.0
  0
LINE
  5
2BF
330
1F
100
AcDbEntity
  8
0
100
AcDbLine
 10
0.0350037326700231
 20
-0.050047820850167
 30
0.0
 11
0.0350037326700231
 21
-0.0075533785123824
 31
0.0
  0
LINE
  5
2C0
330
1F
100
AcDbEntity
  8
0
100
AcDbLine
 10
0.0190148304527791
 20
0.0148520240886719
 30
0.0
 11
0.0187911281957468
 21
0.0148268189403383
 31
0.0
  0
LINE
  5
2C1
330
1F
100
AcDbEntity
  8
0
100
AcDbLine
 10
0.0187911281957468
 20
0.0148268189403383
 30
0.0
 11
0.0180903158745905
 21
0.0145715741004017
 31
0.0
  0
LINE
  5
2C2
330
1F
100
AcDbEntity
  8
0
100
AcDbLine
 10
0.0245339852273633
 20
0.0299022334852002
 30
0.0
 11
0.0244494993211972
 21
0.0299436289262485
 31
0.0
  0
LINE
  5
2C3
330
1F
100
AcDbEntity
  8
0
100
AcDbLine
 10
0.024692208085365
 20
0.0299521792140943
 30
0.0
 11
0.0246141079826457
 21
0.029948384606388
 31
0.0
  0
LINE
  5
2C4
330
1F
100
AcDbEntity
  8
0
100
AcDbLine
 10
0.0145650515843685
 20
-0.0070946644439233
 30
0.0
 11
0.0149037332869311
 21
-0.0073102068965168
 31
0.0
  0
LINE
  5
2C5
330
1F
100
AcDbEntity
  8
0
100
AcDbLine
 10
0.0131349334639054
 20
-0.0061340690992716
 30
0.0
 11
0.013642437536194
 21
-0.0065074981068106
 31
0.0
  0
LINE
  5
2C6
330
1F
100
AcDbEntity
  8
0
100
AcDbLine
 10
0.0116863690284185
 20
-0.0049663464213952
 30
0.0
 11
0.0117412794045349
 21
-0.0050180357758732
 31
0.0
  0
LINE
  5
2C7
330
1F
100
AcDbEntity
  8
0
100
AcDbLine
 10
0.0106137846317177
 20
-0.0039267003217243
 30
0.0
 11
0.0108615977353593
 21
-0.0041899558965893
 31
0.0
  0
LINE
  5
2C8
330
1F
100
AcDbEntity
  8
0
100
AcDbLine
 10
0.0095310516201233
 20
-0.0027073595160342
 30
0.0
 11
0.0100335178560754
 21
-0.0033102742274137
 31
0.0
  0
LINE
  5
2C9
330
1F
100
AcDbEntity
  8
0
100
AcDbLine
 10
0.0084613914515377
 20
-0.0012812614099896
 30
0.0
 11
0.008544055525138
 21
-0.0014091160957547
 31
0.0
  0
LINE
  5
2CA
330
1F
100
AcDbEntity
  8
0
100
AcDbLine
 10
0.0076633695706421
 20
0.0000038936461674
 30
0.0
 11
0.00788810827203
 21
-0.0003945770551296
 31
0.0
  0
LINE
  5
2CB
330
1F
100
AcDbEntity
  8
0
100
AcDbLine
 10
0.0068475775452438
 20
0.0015758366505312
 30
0.0
 11
0.0072946117854854
 21
0.0006577159400253
 31
0.0
  0
LINE
  5
2CC
330
1F
100
AcDbEntity
  8
0
100
AcDbLine
 10
0.0062276356505184
 20
0.0030796637908213
 30
0.0
 11
0.0063034088946124
 21
0.0028600814874439
 31
0.0
  0
LINE
  5
2CD
330
1F
100
AcDbEntity
  8
0
100
AcDbLine
 10
0.0057570368287807
 20
0.0045483705810244
 30
0.0
 11
0.0059093160218736
 21
0.0040021181228725
 31
0.0
  0
LINE
  5
2CE
330
1F
100
AcDbEntity
  8
0
100
AcDbLine
 10
0.0053256322976973
 20
0.0063845500796014
 30
0.0
 11
0.0053313353694221
 21
0.0063470784696905
 31
0.0
  0
LINE
  5
2CF
330
1F
100
AcDbEntity
  8
0
100
AcDbLine
 10
0.0051208774399271
 20
0.007857040708434
 30
0.0
 11
0.0051495561040183
 21
0.0075414456549255
 31
0.0
  0
LINE
  5
2D0
330
1F
100
AcDbEntity
  8
0
100
AcDbLine
 10
0.0050190391215574
 20
0.0094456515212899
 30
0.0
 11
0.0050402225590488
 21
0.0087446092982931
 31
0.0
  0
LINE
  5
2D1
330
1F
100
AcDbEntity
  8
0
100
AcDbLine
 10
0.0449804998218601
 20
0.0106054166930548
 30
0.0
 11
0.0449672432280322
 21
0.0111597492248906
 31
0.0
  0
LINE
  5
2D2
330
1F
100
AcDbEntity
  8
0
100
AcDbLine
 10
0.0448579096830627
 20
0.0123629128682582
 30
0.0
 11
0.044705391070005
 21
0.0133650251067964
 31
0.0
  0
LINE
  5
2D3
330
1F
100
AcDbEntity
  8
0
100
AcDbLine
 10
0.0442504289583003
 20
0.0153559879421593
 30
0.0
 11
0.0440981497652074
 21
0.0159022404003112
 31
0.0
  0
LINE
  5
2D4
330
1F
100
AcDbEntity
  8
0
100
AcDbLine
 10
0.0437798301365625
 20
0.0168246947323625
 30
0.0
 11
0.0437040568924686
 21
0.0170442770357399
 31
0.0
  0
LINE
  5
2D5
330
1F
100
AcDbEntity
  8
0
100
AcDbLine
 10
0.0431598882418372
 20
0.0183285218726527
 30
0.0
 11
0.0427128540015956
 21
0.0192466425831584
 31
0.0
  0
LINE
  5
2D6
330
1F
100
AcDbEntity
  8
0
100
AcDbLine
 10
0.0423440962164389
 20
0.0199004648770164
 30
0.0
 11
0.042119357515051
 21
0.0202989355783133
 31
0.0
  0
LINE
  5
2D7
330
1F
100
AcDbEntity
  8
0
100
AcDbLine
 10
0.0415317701381037
 20
0.0212051279374351
 30
0.0
 11
0.041463410261943
 21
0.0213134746189384
 31
0.0
  0
LINE
  5
2D8
330
1F
100
AcDbEntity
  8
0
100
AcDbLine
 10
0.0404764141669576
 20
0.022611718039218
 30
0.0
 11
0.0399739479310056
 21
0.0232146327505974
 31
0.0
  0
LINE
  5
2D9
330
1F
100
AcDbEntity
  8
0
100
AcDbLine
 10
0.0393936811553632
 20
0.0238310588449081
 30
0.0
 11
0.0391458680517217
 21
0.0240943144197731
 31
0.0
  0
LINE
  5
2DA
330
1F
100
AcDbEntity
  8
0
100
AcDbLine
 10
0.0383126260265113
 20
0.0248776973240048
 30
0.0
 11
0.0382661863825461
 21
0.024922394299057
 31
0.0
  0
LINE
  5
2DB
330
1F
100
AcDbEntity
  8
0
100
AcDbLine
 10
0.0368725323231755
 20
0.0260384276224554
 30
0.0
 11
0.036365028250887
 21
0.0264118566299943
 31
0.0
  0
LINE
  5
2DC
330
1F
100
AcDbEntity
  8
0
100
AcDbLine
 10
0.0355805228293468
 20
0.0269190763186429
 30
0.0
 11
0.0353504892102619
 21
0.0270678038831024
 31
0.0
  0
LINE
  5
2DD
330
1F
100
AcDbEntity
  8
0
100
AcDbLine
 10
0.0342981962151071
 20
0.027661300369647
 30
0.0
 11
0.0337538474820956
 21
0.0279188714681631
 31
0.0
  0
LINE
  5
2DE
330
1F
100
AcDbEntity
  8
0
100
AcDbLine
 10
0.0325670753701853
 20
0.0284573076561277
 30
0.0
 11
0.0320958306676885
 21
0.0286525032605199
 31
0.0
  0
LINE
  5
2DF
330
1F
100
AcDbEntity
  8
0
100
AcDbLine
 10
0.0311351165396064
 20
0.0289840255417422
 30
0.0
 11
0.0309537940322598
 21
0.0290465961332588
 31
0.0
  0
LINE
  5
2E0
330
1F
100
AcDbEntity
  8
0
100
AcDbLine
 10
0.0294762365814889
 20
0.0294383780519723
 30
0.0
 11
0.0286088336854418
 21
0.0296245767857103
 31
0.0
  0
LINE
  5
2E1
330
1F
100
AcDbEntity
  8
0
100
AcDbLine
 10
0.0278180135156839
 20
0.0297449373509554
 30
0.0
 11
0.0274144665002068
 21
0.029806356051114
 31
0.0
  0
LINE
  5
2E2
330
1F
100
AcDbEntity
  8
0
100
AcDbLine
 10
0.021430930736956
 20
0.0296291267479611
 30
0.0
 11
0.0213986321016391
 21
0.0296245767857103
 31
0.0
  0
LINE
  5
2E3
330
1F
100
AcDbEntity
  8
0
100
AcDbLine
 10
0.0195999242129729
 20
0.0291988753263516
 30
0.0
 11
0.0190536717548212
 21
0.0290465961332588
 31
0.0
  0
LINE
  5
2E4
330
1F
100
AcDbEntity
  8
0
100
AcDbLine
 10
0.0181312174227698
 20
0.0287282765046139
 30
0.0
 11
0.0179116351193925
 21
0.0286525032605199
 31
0.0
  0
LINE
  5
2E5
330
1F
100
AcDbEntity
  8
0
100
AcDbLine
 10
0.0166273902824798
 20
0.0281083346098886
 30
0.0
 11
0.0157092695719739
 21
0.027661300369647
 31
0.0
  0
LINE
  5
2E6
330
1F
100
AcDbEntity
  8
0
100
AcDbLine
 10
0.0150554472781159
 20
0.0272925425844902
 30
0.0
 11
0.0146569765768191
 21
0.0270678038831024
 31
0.0
  0
LINE
  5
2E7
330
1F
100
AcDbEntity
  8
0
100
AcDbLine
 10
0.013770292221959
 20
0.0264945207035946
 30
0.0
 11
0.013642437536194
 21
0.0264118566299943
 31
0.0
  0
LINE
  5
2E8
330
1F
100
AcDbEntity
  8
0
100
AcDbLine
 10
0.0123441941159142
 20
0.0254248605350089
 30
0.0
 11
0.0117412794045349
 21
0.024922394299057
 31
0.0
  0
LINE
  5
2E9
330
1F
100
AcDbEntity
  8
0
100
AcDbLine
 10
0.0111248533102242
 20
0.0243421275234146
 30
0.0
 11
0.0108615977353593
 21
0.0240943144197731
 31
0.0
  0
LINE
  5
2EA
330
1F
100
AcDbEntity
  8
0
100
AcDbLine
 10
0.0100852072105534
 20
0.0232695431267138
 30
0.0
 11
0.0100335178560754
 21
0.0232146327505974
 31
0.0
  0
LINE
  5
2EB
330
1F
100
AcDbEntity
  8
0
100
AcDbLine
 10
0.0089174845326769
 20
0.0218209786912268
 30
0.0
 11
0.008544055525138
 21
0.0213134746189384
 31
0.0
  0
LINE
  5
2EC
330
1F
100
AcDbEntity
  8
0
100
AcDbLine
 10
0.0080368358364894
 20
0.0205289691973981
 30
0.0
 11
0.00788810827203
 21
0.0202989355783133
 31
0.0
  0
LINE
  5
2ED
330
1F
100
AcDbEntity
  8
0
100
AcDbLine
 10
0.0064986044990046
 20
0.0175155217382368
 30
0.0
 11
0.0063034088946124
 21
0.0170442770357398
 31
0.0
  0
LINE
  5
2EE
330
1F
100
AcDbEntity
  8
0
100
AcDbLine
 10
0.0059718866133902
 20
0.0160835629076577
 30
0.0
 11
0.0059093160218736
 21
0.0159022404003112
 31
0.0
  0
LINE
  5
2EF
330
1F
100
AcDbEntity
  8
0
100
AcDbLine
 10
0.0055175341031601
 20
0.0144246829495405
 30
0.0
 11
0.0053313353694221
 21
0.0135572800534932
 31
0.0
  0
LINE
  5
2F0
330
1F
100
AcDbEntity
  8
0
100
AcDbLine
 10
0.005210974804177
 20
0.0127664598837353
 30
0.0
 11
0.0051495561040183
 21
0.0123629128682582
 31
0.0
  0
LINE
  5
2F1
330
1F
100
AcDbEntity
  8
0
100
AcDbLine
 10
0.0050499980176355
 20
0.0112555285502348
 30
0.0
 11
0.0050402225590488
 21
0.0111597492248906
 31
0.0
  0
LINE
  5
2F2
330
1F
100
AcDbEntity
  8
0
100
AcDbLine
 10
0.0363112964701414
 20
-0.006535811737692
 30
0.0
 11
0.0363624922595163
 21
-0.0065035418485137
 31
0.0
  0
LINE
  5
2F3
330
1F
100
AcDbEntity
  8
0
100
AcDbLine
 10
0.0384294963975059
 20
-0.0048547257609134
 30
0.0
 11
0.0385291592662354
 21
-0.0047550628921839
 31
0.0
  0
LINE
  5
2F4
330
1F
100
AcDbEntity
  8
0
100
AcDbLine
 10
0.03988827083353
 20
-0.0034063581511619
 30
0.0
 11
0.0399620633236309
 21
-0.0032993779091422
 31
0.0
  0
LINE
  5
2F5
330
1F
100
AcDbEntity
  8
0
100
AcDbLine
 10
0.0400982685257097
 20
-0.0031508328424567
 30
0.0
 11
0.0400823820106843
 21
-0.0031712073263773
 31
0.0
  0
LINE
  5
2F6
330
1F
100
AcDbEntity
  8
0
100
AcDbLine
 10
0.0400823820106843
 20
-0.0031712073263773
 30
0.0
 11
0.0399620633236309
 21
-0.0032993779091422
 31
0.0
  0
LINE
  5
2F7
330
1F
100
AcDbEntity
  8
0
100
AcDbLine
 10
0.0436129747888084
 20
0.0026659522123377
 30
0.0
 11
0.0436949839479467
 21
0.0028638421680001
 31
0.0
  0
LINE
  5
2F8
330
1F
100
AcDbEntity
  8
0
100
AcDbLine
 10
0.0444093136206714
 20
0.0051688044479648
 30
0.0
 11
0.0444522555791074
 21
0.0052879535274965
 31
0.0
  0
LINE
  5
2F9
330
1F
100
AcDbEntity
  8
0
100
AcDbLine
 10
0.0444522555791074
 20
0.0052879535274965
 30
0.0
 11
0.0444886965300496
 21
0.0055267145693345
 31
0.0
  0
LINE
  5
2FA
330
1F
100
AcDbEntity
  8
0
100
AcDbLine
 10
0.0447932674295817
 20
0.0071887042737804
 30
0.0
 11
0.044816115405897
 21
0.007313381652551
 31
0.0
  0
LINE
  5
2FB
330
1F
100
AcDbEntity
  8
0
100
AcDbLine
 10
0.044816115405897
 20
0.007313381652551
 30
0.0
 11
0.0448400376028558
 21
0.0075437995727312
 31
0.0
  0
LINE
  5
2FC
330
1F
100
AcDbEntity
  8
0
100
AcDbLine
 10
0.0450037324465056
 20
0.0099521792615919
 30
0.0
 11
0.0449779073713879
 21
0.0093609448496387
 31
0.0
  0
LINE
  5
2FD
330
1F
100
AcDbEntity
  8
0
100
AcDbLine
 10
0.0230129160940861
 20
0.0298528006370156
 30
0.0
 11
0.0229391215302479
 21
0.0298452337739164
 31
0.0
  0
LINE
  5
2FE
330
1F
100
AcDbEntity
  8
0
100
AcDbLine
 10
0.0271030088494929
 20
0.0298409127272071
 30
0.0
 11
0.0270771397485461
 21
0.029843451170542
 31
0.0
  0
LINE
  5
2FF
330
1F
100
AcDbEntity
  8
0
100
AcDbLine
 10
0.0159945755860945
 20
0.0130696283775537
 30
0.0
 11
0.0164681987500926
 21
0.0134877157892254
 31
0.0
  0
LINE
  5
300
330
1F
100
AcDbEntity
  8
0
100
AcDbLine
 10
0.0164681987500926
 20
0.0134877157892254
 30
0.0
 11
0.0167862835935494
 21
0.0138613368506698
 31
0.0
  0
LINE
  5
301
330
1F
100
AcDbEntity
  8
0
100
AcDbLine
 10
0.0167862835935494
 20
0.0138613368506698
 30
0.0
 11
0.0172258818186065
 21
0.0141095263446835
 31
0.0
  0
LINE
  5
302
330
1F
100
AcDbEntity
  8
0
100
AcDbLine
 10
0.0172258818186065
 20
0.0141095263446835
 30
0.0
 11
0.0177343140951534
 21
0.0144570238079099
 31
0.0
  0
LINE
  5
303
330
1F
100
AcDbEntity
  8
0
100
AcDbLine
 10
0.0322731516919275
 20
0.0144570238079099
 30
0.0
 11
0.0327815839684745
 21
0.0141095263446835
 31
0.0
  0
LINE
  5
304
330
1F
100
AcDbEntity
  8
0
100
AcDbLine
 10
0.0327815839684745
 20
0.0141095263446835
 30
0.0
 11
0.0332211821935316
 21
0.0138613368506698
 31
0.0
  0
LINE
  5
305
330
1F
100
AcDbEntity
  8
0
100
AcDbLine
 10
0.0319171499124905
 20
0.0145715741004017
 30
0.0
 11
0.0322731516919275
 21
0.0144570238079099
 31
0.0
  0
LINE
  5
306
330
1F
100
AcDbEntity
  8
0
100
AcDbLine
 10
0.0332211821935316
 20
0.0138613368506698
 30
0.0
 11
0.0335392670369884
 21
0.0134877157892254
 31
0.0
  0
LINE
  5
307
330
1F
100
AcDbEntity
  8
0
100
AcDbLine
 10
0.0335392670369884
 20
0.0134877157892254
 30
0.0
 11
0.0340128902009865
 21
0.0130696283775537
 31
0.0
  0
LINE
  5
308
330
1F
100
AcDbEntity
  8
0
100
AcDbLine
 10
0.0177343140951534
 20
0.0144570238079099
 30
0.0
 11
0.0180903158745905
 21
0.0145715741004017
 31
0.0
  0
LINE
  5
309
330
1F
100
AcDbEntity
  8
0
100
AcDbLine
 10
0.0445044986502864
 20
0.0055538023606769
 30
0.0
 11
0.0444886965300496
 21
0.0055267145693345
 31
0.0
  0
LINE
  5
30A
330
1F
100
AcDbEntity
  8
0
100
AcDbLine
 10
0.0441663305718324
 20
0.0042811839307531
 30
0.0
 11
0.0440851551224194
 21
0.0040350812443867
 31
0.0
  0
LINE
  5
30B
330
1F
100
AcDbEntity
  8
0
100
AcDbLine
 10
0.0362505504630498
 20
-0.0065803536020181
 30
0.0
 11
0.0362113544933041
 21
-0.0066003971479697
 31
0.0
  0
LINE
  5
30C
330
1F
100
AcDbEntity
  8
0
100
AcDbLine
 10
0.0362113544933041
 20
-0.0066003971479697
 30
0.0
 11
0.0361534818409128
 21
-0.0066515289369011
 31
0.0
  0
LINE
  5
30D
330
1F
100
AcDbEntity
  8
0
100
AcDbLine
 10
0.0210531538016339
 20
0.0298130820627479
 30
0.0
 11
0.0222546809633348
 21
0.0299521792140943
 31
0.0
  0
LINE
  5
30E
330
1F
100
AcDbEntity
  8
0
100
AcDbLine
 10
0.0226560766983681
 20
0.0302325138633081
 30
0.0
 11
0.0224776884085313
 21
0.0301172613209268
 31
0.0
  0
LINE
  5
30F
330
1F
100
AcDbEntity
  8
0
100
AcDbLine
 10
0.02399565225982
 20
0.0299521792140943
 30
0.0
 11
0.024173205777807
 21
0.0299340049748929
 31
0.0
  0
LINE
  5
310
330
1F
100
AcDbEntity
  8
0
100
AcDbLine
 10
0.0242253525771418
 20
0.0299364916448895
 30
0.0
 11
0.0242806230304228
 21
0.0299249542130871
 31
0.0
  0
LINE
  5
311
330
1F
100
AcDbEntity
  8
0
100
AcDbLine
 10
0.0242806230304228
 20
0.0299249542130871
 30
0.0
 11
0.0244494993211972
 21
0.0299436289262485
 31
0.0
  0
LINE
  5
312
330
1F
100
AcDbEntity
  8
0
100
AcDbLine
 10
0.0254505608280862
 20
0.029946745651819
 30
0.0
 11
0.0256454962974193
 21
0.0299521792140943
 31
0.0
  0
LINE
  5
313
330
1F
100
AcDbEntity
  8
0
100
AcDbLine
 10
0.0253812368171289
 20
0.0308971805126269
 30
0.0
 11
0.0253497236008143
 21
0.0309303058921863
 31
0.0
  0
LINE
  5
314
330
1F
100
AcDbEntity
  8
0
100
AcDbLine
 10
0.0246018324993779
 20
0.0308971805126269
 30
0.0
 11
0.024658266773309
 21
0.0309303058921863
 31
0.0
  0
LINE
  5
315
330
1F
100
AcDbEntity
  8
0
100
AcDbLine
 10
0.0246429474185026
 20
0.0308971805126269
 30
0.0
 11
0.0246868081277742
 21
0.0308971805126269
 31
0.0
  0
LINE
  5
316
330
1F
100
AcDbEntity
  8
0
100
AcDbLine
 10
0.0246868081277742
 20
0.0308971805126269
 30
0.0
 11
0.0247526547076902
 21
0.0309303058921863
 31
0.0
  0
LINE
  5
317
330
1F
100
AcDbEntity
  8
0
100
AcDbLine
 10
0.0246868081277742
 20
0.0308971805126269
 30
0.0
 11
0.0247151015468436
 21
0.0309303058921863
 31
0.0
  0
LINE
  5
318
330
1F
100
AcDbEntity
  8
0
100
AcDbLine
 10
0.0247330808391613
 20
0.0308971805126269
 30
0.0
 11
0.0247814133528594
 21
0.0308971805126269
 31
0.0
  0
LINE
  5
319
330
1F
100
AcDbEntity
  8
0
100
AcDbLine
 10
0.0247814133528594
 20
0.0308971805126269
 30
0.0
 11
0.0248314378679828
 21
0.0308971805126269
 31
0.0
  0
LINE
  5
31A
330
1F
100
AcDbEntity
  8
0
100
AcDbLine
 10
0.0248314378679828
 20
0.0308971805126269
 30
0.0
 11
0.0248827736473919
 21
0.0308971805126269
 31
0.0
  0
LINE
  5
31B
330
1F
100
AcDbEntity
  8
0
100
AcDbLine
 10
0.0251452657609017
 20
0.0308971805126269
 30
0.0
 11
0.0250933286419911
 21
0.0308971805126269
 31
0.0
  0
LINE
  5
31C
330
1F
100
AcDbEntity
  8
0
100
AcDbLine
 10
0.0251961257324746
 20
0.0308971805126269
 30
0.0
 11
0.0251452657609017
 21
0.0308971805126269
 31
0.0
  0
LINE
  5
31D
330
1F
100
AcDbEntity
  8
0
100
AcDbLine
 10
0.0251452657609017
 20
0.0308971805126269
 30
0.0
 11
0.0251135292719921
 21
0.0309303058921863
 31
0.0
  0
LINE
  5
31E
330
1F
100
AcDbEntity
  8
0
100
AcDbLine
 10
0.0251688582831245
 20
0.0309303058921863
 30
0.0
 11
0.0251417188552321
 21
0.0309303058921863
 31
0.0
  0
LINE
  5
31F
330
1F
100
AcDbEntity
  8
0
100
AcDbLine
 10
0.0251961257324746
 20
0.0308971805126269
 30
0.0
 11
0.0251688582831245
 21
0.0309303058921863
 31
0.0
  0
LINE
  5
320
330
1F
100
AcDbEntity
  8
0
100
AcDbLine
 10
0.0252455214649061
 20
0.0308971805126269
 30
0.0
 11
0.0251947410088821
 21
0.0309303058921863
 31
0.0
  0
LINE
  5
321
330
1F
100
AcDbEntity
  8
0
100
AcDbLine
 10
0.0253497236008143
 20
0.0309303058921863
 30
0.0
 11
0.0252819395430748
 21
0.0309303058921863
 31
0.0
  0
LINE
  5
322
330
1F
100
AcDbEntity
  8
0
100
AcDbLine
 10
0.0253497236008143
 20
0.0309303058921863
 30
0.0
 11
0.025313466448912
 21
0.0309303058921863
 31
0.0
  0
LINE
  5
323
330
1F
100
AcDbEntity
  8
0
100
AcDbLine
 10
0.1790295082940673
 20
0.0298455165810143
 30
0.0
 11
0.1914037307500085
 21
0.029806356051114
 31
0.0
  0
LINE
  5
324
330
1F
100
AcDbEntity
  8
0
100
AcDbLine
 10
0.1727618863581857
 20
0.029806356051114
 30
0.0
 11
0.174951698898183
 21
0.0298298818934476
 31
0.0
  0
LINE
  5
325
330
1F
100
AcDbEntity
  8
0
100
AcDbLine
 10
0.174951698898183
 20
0.0299469684580604
 30
0.0
 11
0.1748514237305709
 21
0.0299521792140943
 31
0.0
  0
LINE
  5
326
330
1F
100
AcDbEntity
  8
0
100
AcDbLine
 10
0.1748514237305709
 20
0.0299521792140943
 30
0.0
 11
0.1748007694479014
 21
0.0299487984415143
 31
0.0
  0
LINE
  5
327
330
1F
100
AcDbEntity
  8
0
100
AcDbLine
 10
0.178715476744258
 20
0.0299521792140943
 30
0.0
 11
0.1787975955761636
 21
0.0299203009223785
 31
0.0
  0
LINE
  5
328
330
1F
100
AcDbEntity
  8
0
100
AcDbLine
 10
0.1771452644458742
 20
0.0308971805126269
 30
0.0
 11
0.1770724344687655
 21
0.0308971805126269
 31
0.0
  0
LINE
  5
329
330
1F
100
AcDbEntity
  8
0
100
AcDbLine
 10
0.1771961244174471
 20
0.0308971805126269
 30
0.0
 11
0.1771452644458742
 21
0.0308971805126269
 31
0.0
  0
LINE
  5
32A
330
1F
100
AcDbEntity
  8
0
100
AcDbLine
 10
0.1771452644458742
 20
0.0308971805126269
 30
0.0
 11
0.1771135279569646
 21
0.0309303058921863
 31
0.0
  0
LINE
  5
32B
330
1F
100
AcDbEntity
  8
0
100
AcDbLine
 10
0.1772455201498787
 20
0.0308971805126269
 30
0.0
 11
0.1771961244174471
 21
0.0308971805126269
 31
0.0
  0
LINE
  5
32C
330
1F
100
AcDbEntity
  8
0
100
AcDbLine
 10
0.1771961244174471
 20
0.0308971805126269
 30
0.0
 11
0.1771417175402046
 21
0.0309303058921863
 31
0.0
  0
LINE
  5
32D
330
1F
100
AcDbEntity
  8
0
100
AcDbLine
 10
0.1771961244174471
 20
0.0308971805126269
 30
0.0
 11
0.1771688569680971
 21
0.0309303058921863
 31
0.0
  0
LINE
  5
32E
330
1F
100
AcDbEntity
  8
0
100
AcDbLine
 10
0.1772455201498787
 20
0.0308971805126269
 30
0.0
 11
0.1771947396938547
 21
0.0309303058921863
 31
0.0
  0
LINE
  5
32F
330
1F
100
AcDbEntity
  8
0
100
AcDbLine
 10
0.1772930757484159
 20
0.0308971805126269
 30
0.0
 11
0.1772419581655391
 21
0.0309303058921863
 31
0.0
  0
LINE
  5
330
330
1F
100
AcDbEntity
  8
0
100
AcDbLine
 10
0.1773384292474286
 20
0.0308971805126269
 30
0.0
 11
0.1772819382280473
 21
0.0309303058921863
 31
0.0
  0
LINE
  5
331
330
1F
100
AcDbEntity
  8
0
100
AcDbLine
 10
0.1773384292474286
 20
0.0308971805126269
 30
0.0
 11
0.1773134651338846
 21
0.0309303058921863
 31
0.0
  0
LINE
  5
332
330
1F
100
AcDbEntity
  8
0
100
AcDbLine
 10
0.1773812355021014
 20
0.0308971805126269
 30
0.0
 11
0.17734288788999
 21
0.0309303058921863
 31
0.0
  0
LINE
  5
333
330
1F
100
AcDbEntity
  8
0
100
AcDbLine
 10
0.17471042558243
 20
0.0299521792140943
 30
0.0
 11
0.1748007694479014
 21
0.0299487984415143
 31
0.0
  0
LINE
  5
334
330
1F
100
AcDbEntity
  8
0
100
AcDbLine
 10
0.1748514237305709
 20
0.0299521792140943
 30
0.0
 11
0.174951698898183
 21
0.0299172227983423
 31
0.0
  0
LINE
  5
335
330
1F
100
AcDbEntity
  8
0
100
AcDbLine
 10
0.174951698898183
 20
0.0299172227983423
 30
0.0
 11
0.1750088024093153
 21
0.0299521792140943
 31
0.0
  0
LINE
  5
336
330
1F
100
AcDbEntity
  8
0
100
AcDbLine
 10
0.1753152891241198
 20
0.0299113925345116
 30
0.0
 11
0.175367794210879
 21
0.0299521792140943
 31
0.0
  0
LINE
  5
337
330
1F
100
AcDbEntity
  8
0
100
AcDbLine
 10
0.1769878079138102
 20
0.0308971805126269
 30
0.0
 11
0.1769350286882606
 21
0.0308971805126269
 31
0.0
  0
LINE
  5
338
330
1F
100
AcDbEntity
  8
0
100
AcDbLine
 10
0.1768621987111518
 20
0.0308971805126269
 30
0.0
 11
0.1769350286882606
 21
0.0308971805126269
 31
0.0
  0
LINE
  5
339
330
1F
100
AcDbEntity
  8
0
100
AcDbLine
 10
0.1768113387395789
 20
0.0308971805126269
 30
0.0
 11
0.1768621987111518
 21
0.0308971805126269
 31
0.0
  0
LINE
  5
33A
330
1F
100
AcDbEntity
  8
0
100
AcDbLine
 10
0.1768621987111518
 20
0.0308971805126269
 30
0.0
 11
0.1768939352000614
 21
0.0309303058921863
 31
0.0
  0
LINE
  5
33B
330
1F
100
AcDbEntity
  8
0
100
AcDbLine
 10
0.1767619430071474
 20
0.0308971805126269
 30
0.0
 11
0.1768113387395789
 21
0.0308971805126269
 31
0.0
  0
LINE
  5
33C
330
1F
100
AcDbEntity
  8
0
100
AcDbLine
 10
0.1768113387395789
 20
0.0308971805126269
 30
0.0
 11
0.1768657456168214
 21
0.0309303058921863
 31
0.0
  0
LINE
  5
33D
330
1F
100
AcDbEntity
  8
0
100
AcDbLine
 10
0.1768113387395789
 20
0.0308971805126269
 30
0.0
 11
0.176838606188929
 21
0.0309303058921863
 31
0.0
  0
LINE
  5
33E
330
1F
100
AcDbEntity
  8
0
100
AcDbLine
 10
0.1767619430071474
 20
0.0308971805126269
 30
0.0
 11
0.1768127234631714
 21
0.0309303058921863
 31
0.0
  0
LINE
  5
33F
330
1F
100
AcDbEntity
  8
0
100
AcDbLine
 10
0.1767143874086101
 20
0.0308971805126269
 30
0.0
 11
0.1767655049914869
 21
0.0309303058921863
 31
0.0
  0
LINE
  5
340
330
1F
100
AcDbEntity
  8
0
100
AcDbLine
 10
0.1766690339095975
 20
0.0308971805126269
 30
0.0
 11
0.1767255249289787
 21
0.0309303058921863
 31
0.0
  0
LINE
  5
341
330
1F
100
AcDbEntity
  8
0
100
AcDbLine
 10
0.1766690339095975
 20
0.0308971805126269
 30
0.0
 11
0.1766939980231415
 21
0.0309303058921863
 31
0.0
  0
LINE
  5
342
330
1F
100
AcDbEntity
  8
0
100
AcDbLine
 10
0.1766262276549246
 20
0.0308971805126269
 30
0.0
 11
0.176664575267036
 21
0.0309303058921863
 31
0.0
  0
LINE
  5
343
330
1F
100
AcDbEntity
  8
0
100
AcDbLine
 10
0.1609387320062974
 20
0.006653878433655
 30
0.0
 11
0.1609507288237933
 21
0.0065761576351212
 31
0.0
  0
LINE
  5
344
330
1F
100
AcDbEntity
  8
0
100
AcDbLine
 10
0.1609507288237933
 20
0.0065761576351212
 30
0.0
 11
0.1609899784322236
 21
0.0065355741166869
 31
0.0
  0
LINE
  5
345
330
1F
100
AcDbEntity
  8
0
100
AcDbLine
 10
0.1609582155721494
 20
0.0157429478630667
 30
0.0
 11
0.1609863156975483
 21
0.0159336887371719
 31
0.0
  0
LINE
  5
346
330
1F
100
AcDbEntity
  8
0
100
AcDbLine
 10
0.1608737309067128
 20
-0.0087892959258956
 30
0.0
 11
0.1609133866870487
 21
-0.0084887892465079
 31
0.0
  0
LINE
  5
347
330
1F
100
AcDbEntity
  8
0
100
AcDbLine
 10
0.1609133866870487
 20
-0.0084887892465079
 30
0.0
 11
0.1608737309067128
 21
-0.0083213924875696
 31
0.0
  0
LINE
  5
348
330
1F
100
AcDbEntity
  8
0
100
AcDbLine
 10
0.1610037306844434
 20
0.0220468309232243
 30
0.0
 11
0.1609863156975483
 21
0.0213319084054637
 31
0.0
  0
LINE
  5
349
330
1F
100
AcDbEntity
  8
0
100
AcDbLine
 10
0.1609863156975483
 20
0.0213319084054637
 30
0.0
 11
0.1610037306844434
 21
0.0210080480962573
 31
0.0
  0
LINE
  5
34A
330
1F
100
AcDbEntity
  8
0
100
AcDbLine
 10
0.160989398308852
 20
0.0064926320629152
 30
0.0
 11
0.1610037306844434
 21
0.0062831221770798
 31
0.0
  0
LINE
  5
34B
330
1F
100
AcDbEntity
  8
0
100
AcDbLine
 10
0.1610037306844434
 20
0.016426891209861
 30
0.0
 11
0.1609863156975483
 21
0.0159336887371719
 31
0.0
  0
LINE
  5
34C
330
1F
100
AcDbEntity
  8
0
100
AcDbLine
 10
0.1610037306844434
 20
0.0126830401424416
 30
0.0
 11
0.1609749271898479
 21
0.0123906725241527
 31
0.0
  0
LINE
  5
34D
330
1F
100
AcDbEntity
  8
0
100
AcDbLine
 10
0.1610037306844434
 20
0.0210080480962573
 30
0.0
 11
0.1610037315561613
 21
0.0206944635037139
 31
0.0
  0
LINE
  5
34E
330
1F
100
AcDbEntity
  8
0
100
AcDbLine
 10
0.1609863156975483
 20
0.0168047096119824
 30
0.0
 11
0.1610037306844434
 21
0.016426891209861
 31
0.0
  0
LINE
  5
34F
330
1F
100
AcDbEntity
  8
0
100
AcDbLine
 10
0.1610037315561613
 20
0.0232644174121314
 30
0.0
 11
0.1610037306844434
 21
0.0230338229117015
 31
0.0
  0
LINE
  5
350
330
1F
100
AcDbEntity
  8
0
100
AcDbLine
 10
0.1610037315561613
 20
-0.0069315656229239
 30
0.0
 11
0.1610037306844434
 21
-0.006980827328511
 31
0.0
  0
LINE
  5
351
330
1F
100
AcDbEntity
  8
0
100
AcDbLine
 10
0.1609898762776536
 20
-0.0075417698187562
 30
0.0
 11
0.1610037306844434
 21
-0.0075966258125218
 31
0.0
  0
LINE
  5
352
330
1F
100
AcDbEntity
  8
0
100
AcDbLine
 10
0.1610037306844434
 20
-0.0075966258125218
 30
0.0
 11
0.1610019755878776
 21
-0.0076603906656227
 31
0.0
  0
LINE
  5
353
330
1F
100
AcDbEntity
  8
0
100
AcDbLine
 10
0.1610037306844434
 20
0.0286125372643809
 30
0.0
 11
0.1609863156975483
 21
0.0284453847500416
 31
0.0
  0
LINE
  5
354
330
1F
100
AcDbEntity
  8
0
100
AcDbLine
 10
0.1609522736070626
 20
0.0251820744196422
 30
0.0
 11
0.1609550097279128
 21
0.0252255393419488
 31
0.0
  0
LINE
  5
355
330
1F
100
AcDbEntity
  8
0
100
AcDbLine
 10
0.160989398308852
 20
0.0064926320629152
 30
0.0
 11
0.1609868620713518
 21
0.0063048939843598
 31
0.0
  0
LINE
  5
356
330
1F
100
AcDbEntity
  8
0
100
AcDbLine
 10
0.1609555555044862
 20
0.0017655617366383
 30
0.0
 11
0.1609534930406106
 21
0.0017129627574518
 31
0.0
  0
LINE
  5
357
330
1F
100
AcDbEntity
  8
0
100
AcDbLine
 10
0.1609534930406106
 20
0.0017129627574518
 30
0.0
 11
0.1609863156975483
 21
0.0016637859277506
 31
0.0
  0
LINE
  5
358
330
1F
100
AcDbEntity
  8
0
100
AcDbLine
 10
0.1609514354204305
 20
-0.0075686195249764
 30
0.0
 11
0.1610037306844434
 21
-0.0075966258125218
 31
0.0
  0
LINE
  5
359
330
1F
100
AcDbEntity
  8
0
100
AcDbLine
 10
0.1609898762776536
 20
-0.0075417698187562
 30
0.0
 11
0.1610037315561613
 21
-0.0075120735428797
 31
0.0
  0
LINE
  5
35A
330
1F
100
AcDbEntity
  8
0
100
AcDbLine
 10
0.1609863156975483
 20
-0.0062230745984582
 30
0.0
 11
0.1609863156975483
 21
-0.006162797768139
 31
0.0
  0
LINE
  5
35B
330
1F
100
AcDbEntity
  8
0
100
AcDbLine
 10
0.1609863156975483
 20
-0.006162797768139
 30
0.0
 11
0.1610037315561613
 21
-0.0058515363532369
 31
0.0
  0
LINE
  5
35C
330
1F
100
AcDbEntity
  8
0
100
AcDbLine
 10
0.0376723832790415
 20
-0.0055125848930973
 30
0.0
 11
0.037853543426766
 21
-0.0053736929659577
 31
0.0
  0
LINE
  5
35D
330
1F
100
AcDbEntity
  8
0
100
AcDbLine
 10
0.0388802083380688
 20
-0.0044402347032324
 30
0.0
 11
0.0391409320420762
 21
-0.0041895060677858
 31
0.0
  0
LINE
  5
35E
330
1F
100
AcDbEntity
  8
0
100
AcDbLine
 10
0.0420893068017059
 20
-0.0004195952391015
 30
0.0
 11
0.0423153226859113
 21
-0.0000518503877902
 31
0.0
  0
LINE
  5
35F
330
1F
100
AcDbEntity
  8
0
100
AcDbLine
 10
0.0437965241856118
 20
0.0031088614958493
 30
0.0
 11
0.0438862865947519
 21
0.0033934171172959
 31
0.0
  0
LINE
  5
360
330
1F
100
AcDbEntity
  8
0
100
AcDbLine
 10
0.0445044986502864
 20
0.0055538023606769
 30
0.0
 11
0.0446921230889102
 21
0.0064776883117078
 31
0.0
  0
LINE
  5
361
330
1F
100
AcDbEntity
  8
0
100
AcDbLine
 10
-0.1548455447954669
 20
-0.0120478207123312
 30
0.0
 11
-0.1151469894174521
 21
-0.0120478207123312
 31
0.0
  0
LINE
  5
362
330
1F
100
AcDbEntity
  8
0
100
AcDbLine
 10
-0.1270771823708772
 20
0.010914493468817
 30
0.0
 11
-0.1273183628057628
 21
0.010952179265317
 31
0.0
  0
LINE
  5
363
330
1F
100
AcDbEntity
  8
0
100
AcDbLine
 10
-0.1233249342997555
 20
0.010952179265317
 30
0.0
 11
-0.1236154764976703
 21
0.010952179265317
 31
0.0
  0
LINE
  5
364
330
1F
100
AcDbEntity
  8
0
100
AcDbLine
 10
-0.1226437748674779
 20
0.0109138345626079
 30
0.0
 11
-0.1228751029839091
 21
0.0109242801165059
 31
0.0
  0
LINE
  5
365
330
1F
100
AcDbEntity
  8
0
100
AcDbLine
 10
-0.1219055059800604
 20
0.0109254677020253
 30
0.0
 11
-0.1219415529304061
 21
0.010952179265317
 31
0.0
  0
LINE
  5
366
330
1F
100
AcDbEntity
  8
0
100
AcDbLine
 10
-0.1219415529304061
 20
0.010952179265317
 30
0.0
 11
-0.1221665619327999
 21
0.0109521783935991
 31
0.0
  0
LINE
  5
367
330
1F
100
AcDbEntity
  8
0
100
AcDbLine
 10
-0.1205323904469979
 20
0.010934763406704
 30
0.0
 11
-0.1208763804204208
 21
0.0109209772162118
 31
0.0
  0
LINE
  5
368
330
1F
100
AcDbEntity
  8
0
100
AcDbLine
 10
-0.1208763804204208
 20
0.0109209772162118
 30
0.0
 11
-0.1209465500834288
 21
0.0109245063164941
 31
0.0
  0
LINE
  5
369
330
1F
100
AcDbEntity
  8
0
100
AcDbLine
 10
-0.1191805682843191
 20
0.010952179265317
 30
0.0
 11
-0.1192098266571495
 21
0.010952179265317
 31
0.0
  0
LINE
  5
36A
330
1F
100
AcDbEntity
  8
0
100
AcDbLine
 10
-0.1192098266571495
 20
0.010952179265317
 30
0.0
 11
-0.1195094370232897
 21
0.0109521783935991
 31
0.0
  0
LINE
  5
36B
330
1F
100
AcDbEntity
  8
0
100
AcDbLine
 10
-0.1169068122368159
 20
0.0109521783935991
 30
0.0
 11
-0.1172887203089826
 21
0.010952179265317
 31
0.0
  0
LINE
  5
36C
330
1F
100
AcDbEntity
  8
0
100
AcDbLine
 10
-0.1172887203089826
 20
0.010952179265317
 30
0.0
 11
-0.1173483139224785
 21
0.0109276000822056
 31
0.0
  0
LINE
  5
36D
330
1F
100
AcDbEntity
  8
0
100
AcDbLine
 10
-0.1173805102643232
 20
0.0109521783935991
 30
0.0
 11
-0.1174474620323459
 21
0.0109521783935991
 31
0.0
  0
LINE
  5
36E
330
1F
100
AcDbEntity
  8
0
100
AcDbLine
 10
-0.1167785589012157
 20
0.0109481728112845
 30
0.0
 11
-0.1168251614267851
 21
0.0109173389779365
 31
0.0
  0
LINE
  5
36F
330
1F
100
AcDbEntity
  8
0
100
AcDbLine
 10
-0.1168251614267851
 20
0.0109173389779365
 30
0.0
 11
-0.116887269184316
 21
0.0109169594092299
 31
0.0
  0
LINE
  5
370
330
1F
100
AcDbEntity
  8
0
100
AcDbLine
 10
-0.116887269184316
 20
0.0109169594092299
 30
0.0
 11
-0.1169068122368159
 21
0.0109521783935991
 31
0.0
  0
LINE
  5
371
330
1F
100
AcDbEntity
  8
0
100
AcDbLine
 10
-0.1535489103761503
 20
0.0109521783935991
 30
0.0
 11
-0.1534767986358692
 21
0.010952179265317
 31
0.0
  0
LINE
  5
372
330
1F
100
AcDbEntity
  8
0
100
AcDbLine
 10
-0.1383556067475953
 20
0.010952179265317
 30
0.0
 11
-0.1380602713214992
 21
0.010952179265317
 31
0.0
  0
LINE
  5
373
330
1F
100
AcDbEntity
  8
0
100
AcDbLine
 10
-0.1426126135967506
 20
0.010952179265317
 30
0.0
 11
-0.1425586198491665
 21
0.010952179265317
 31
0.0
  0
LINE
  5
374
330
1F
100
AcDbEntity
  8
0
100
AcDbLine
 10
-0.1470909187680919
 20
0.0109521783935991
 30
0.0
 11
-0.1465624918784909
 21
0.010906770756696
 31
0.0
  0
LINE
  5
375
330
1F
100
AcDbEntity
  8
0
100
AcDbLine
 10
-0.1465624918784909
 20
0.010906770756696
 30
0.0
 11
-0.1464230222578129
 21
0.010934763406704
 31
0.0
  0
LINE
  5
376
330
1F
100
AcDbEntity
  8
0
100
AcDbLine
 10
-0.1464230222578129
 20
0.010934763406704
 30
0.0
 11
-0.1463774408605231
 21
0.010897990642695
 31
0.0
  0
LINE
  5
377
330
1F
100
AcDbEntity
  8
0
100
AcDbLine
 10
-0.1463774408605231
 20
0.010897990642695
 30
0.0
 11
-0.1460521359411249
 21
0.0109521783935991
 31
0.0
  0
LINE
  5
378
330
1F
100
AcDbEntity
  8
0
100
AcDbLine
 10
-0.11654475740799
 20
0.010952179265317
 30
0.0
 11
-0.1167785589012157
 21
0.0109481728112845
 31
0.0
  0
LINE
  5
379
330
1F
100
AcDbEntity
  8
0
100
AcDbLine
 10
-0.116887269184316
 20
0.0109169594092299
 30
0.0
 11
-0.116932126183918
 21
0.0108871797154532
 31
0.0
  0
LINE
  5
37A
330
1F
100
AcDbEntity
  8
0
100
AcDbLine
 10
-0.1205323904469979
 20
0.0108871797154532
 30
0.0
 11
-0.1208763804204208
 21
0.0109209772162118
 31
0.0
  0
LINE
  5
37B
330
1F
100
AcDbEntity
  8
0
100
AcDbLine
 10
-0.1204624870979379
 20
0.010952179265317
 30
0.0
 11
-0.1205323904469979
 21
0.010934763406704
 31
0.0
  0
LINE
  5
37C
330
1F
100
AcDbEntity
  8
0
100
AcDbLine
 10
-0.1209465500834288
 20
0.0109245063164941
 30
0.0
 11
-0.1210670213052632
 21
0.010952179265317
 31
0.0
  0
LINE
  5
37D
330
1F
100
AcDbEntity
  8
0
100
AcDbLine
 10
-0.1203336243308372
 20
0.0109521783935991
 30
0.0
 11
-0.1204266033239767
 21
0.010934763406704
 31
0.0
  0
LINE
  5
37E
330
1F
100
AcDbEntity
  8
0
100
AcDbLine
 10
-0.1440016338970593
 20
0.0108909165411674
 30
0.0
 11
-0.1441006940844171
 21
0.0108951953537031
 31
0.0
  0
LINE
  5
37F
330
1F
100
AcDbEntity
  8
0
100
AcDbLine
 10
0.0150037331170579
 20
-0.050047820850167
 30
0.0
 11
0.0150037331170579
 21
-0.0075533785123824
 31
0.0
  0
LINE
  5
380
330
1F
100
AcDbEntity
  8
0
100
AcDbLine
 10
0.0150037331170579
 20
-0.0075533785123824
 30
0.0
 11
0.0150037331170579
 21
-0.0073656648813846
 31
0.0
  0
LINE
  5
381
330
1F
100
AcDbEntity
  8
0
100
AcDbLine
 10
0.0350037326700231
 20
-0.0075533785123824
 30
0.0
 11
0.0350037326700231
 21
-0.0073656648813846
 31
0.0
  0
LINE
  5
382
330
1F
100
AcDbEntity
  8
0
100
AcDbLine
 10
0.0350037326700231
 20
-0.0073656648813846
 30
0.0
 11
0.0350037326700231
 21
0.0099521768774059
 31
0.0
  0
LINE
  5
383
330
1F
100
AcDbEntity
  8
0
100
AcDbLine
 10
0.0246141079826457
 20
0.029948384606388
 30
0.0
 11
0.0245574571126641
 21
0.0299302482749604
 31
0.0
  0
LINE
  5
384
330
1F
100
AcDbEntity
  8
0
100
AcDbLine
 10
0.006765736047103
 20
0.0017439230467348
 30
0.0
 11
0.0067912896033851
 21
0.0016873793100176
 31
0.0
  0
LINE
  5
385
330
1F
100
AcDbEntity
  8
0
100
AcDbLine
 10
0.0449672432280322
 20
0.0111597492248906
 30
0.0
 11
0.0449260647425219
 21
0.0116128988659159
 31
0.0
  0
LINE
  5
386
330
1F
100
AcDbEntity
  8
0
100
AcDbLine
 10
0.0446806803799097
 20
0.0135249814181763
 30
0.0
 11
0.0446761304176589
 21
0.0135572800534932
 31
0.0
  0
LINE
  5
387
330
1F
100
AcDbEntity
  8
0
100
AcDbLine
 10
0.0432417297399779
 20
0.018160435476449
 30
0.0
 11
0.0432161761836959
 21
0.0182169792131661
 31
0.0
  0
LINE
  5
388
330
1F
100
AcDbEntity
  8
0
100
AcDbLine
 10
0.0239582482117017
 20
0.0299022992456437
 30
0.0
 11
0.0237961629302418
 21
0.0299156895960836
 31
0.0
  0
LINE
  5
389
330
1F
100
AcDbEntity
  8
0
100
AcDbLine
 10
0.0167954766786834
 20
0.0281901761080293
 30
0.0
 11
0.0167389329419663
 21
0.0281646225517472
 31
0.0
  0
LINE
  5
38A
330
1F
100
AcDbEntity
  8
0
100
AcDbLine
 10
0.0397105669369755
 20
-0.0035736552214437
 30
0.0
 11
0.0397479294186518
 21
-0.0035502933722223
 31
0.0
  0
LINE
  5
38B
330
1F
100
AcDbEntity
  8
0
100
AcDbLine
 10
0.0435698210519865
 20
0.0025618212694515
 30
0.0
 11
0.043539318071479
 21
0.002469902588039
 31
0.0
  0
LINE
  5
38C
330
1F
100
AcDbEntity
  8
0
100
AcDbLine
 10
0.0435698210519865
 20
0.0025618212694515
 30
0.0
 11
0.0435942208327278
 21
0.0026160354338411
 31
0.0
  0
LINE
  5
38D
330
1F
100
AcDbEntity
  8
0
100
AcDbLine
 10
0.0443216466940185
 20
0.0047755223821072
 30
0.0
 11
0.0441663305718324
 21
0.0042811839307531
 31
0.0
  0
LINE
  5
38E
330
1F
100
AcDbEntity
  8
0
100
AcDbLine
 10
0.0447932674295817
 20
0.0071887042737804
 30
0.0
 11
0.0447923493049233
 21
0.0071008634546889
 31
0.0
  0
LINE
  5
38F
330
1F
100
AcDbEntity
  8
0
100
AcDbLine
 10
0.0229391215302479
 20
0.0298452337739164
 30
0.0
 11
0.0229057488829046
 21
0.0298407519719065
 31
0.0
  0
LINE
  5
390
330
1F
100
AcDbEntity
  8
0
100
AcDbLine
 10
0.02399565225982
 20
0.0299521792140943
 30
0.0
 11
0.0239582482117017
 21
0.0299022992456437
 31
0.0
  0
LINE
  5
391
330
1F
100
AcDbEntity
  8
0
100
AcDbLine
 10
0.0270146271968352
 20
0.0298508765440815
 30
0.0
 11
0.0270771397485461
 21
0.029843451170542
 31
0.0
  0
LINE
  5
392
330
1F
100
AcDbEntity
  8
0
100
AcDbLine
 10
0.0224295687777696
 20
0.0300787471128319
 30
0.0
 11
0.0223296647710137
 21
0.0299521792140943
 31
0.0
  0
LINE
  5
393
330
1F
100
AcDbEntity
  8
0
100
AcDbLine
 10
0.0223296647710137
 20
0.0299521792140943
 30
0.0
 11
0.0222546809633348
 21
0.0299521792140943
 31
0.0
  0
LINE
  5
394
330
1F
100
AcDbEntity
  8
0
100
AcDbLine
 10
0.0245339852273633
 20
0.0299521792140943
 30
0.0
 11
0.0245574571126641
 21
0.0299302482749604
 31
0.0
  0
LINE
  5
395
330
1F
100
AcDbEntity
  8
0
100
AcDbLine
 10
0.0261000935085749
 20
0.0299521792140943
 30
0.0
 11
0.0261248978222244
 21
0.0299203729403926
 31
0.0
  0
LINE
  5
396
330
1F
100
AcDbEntity
  8
0
100
AcDbLine
 10
0.0276404255263329
 20
0.0299521792140943
 30
0.0
 11
0.0275297773785497
 21
0.0301172613209268
 31
0.0
  0
LINE
  5
397
330
1F
100
AcDbEntity
  8
0
100
AcDbLine
 10
0.0254211700284243
 20
0.0308971805126269
 30
0.0
 11
0.0253812368171289
 21
0.0308971805126269
 31
0.0
  0
LINE
  5
398
330
1F
100
AcDbEntity
  8
0
100
AcDbLine
 10
0.024658266773309
 20
0.0309303058921863
 30
0.0
 11
0.0247151015468436
 21
0.0309303058921863
 31
0.0
  0
LINE
  5
399
330
1F
100
AcDbEntity
  8
0
100
AcDbLine
 10
0.024658266773309
 20
0.0309303058921863
 30
0.0
 11
0.0246868081277742
 21
0.0308971805126269
 31
0.0
  0
LINE
  5
39A
330
1F
100
AcDbEntity
  8
0
100
AcDbLine
 10
0.0247151015468436
 20
0.0309303058921863
 30
0.0
 11
0.0247526547076902
 21
0.0309303058921863
 31
0.0
  0
LINE
  5
39B
330
1F
100
AcDbEntity
  8
0
100
AcDbLine
 10
0.0247526547076902
 20
0.0309303058921863
 30
0.0
 11
0.0247978367678428
 21
0.0309303058921863
 31
0.0
  0
LINE
  5
39C
330
1F
100
AcDbEntity
  8
0
100
AcDbLine
 10
0.0252455214649061
 20
0.0308971805126269
 30
0.0
 11
0.0251961257324746
 21
0.0308971805126269
 31
0.0
  0
LINE
  5
39D
330
1F
100
AcDbEntity
  8
0
100
AcDbLine
 10
0.0252930770634434
 20
0.0308971805126269
 30
0.0
 11
0.0252455214649061
 21
0.0308971805126269
 31
0.0
  0
LINE
  5
39E
330
1F
100
AcDbEntity
  8
0
100
AcDbLine
 10
0.0253384305624561
 20
0.0308971805126269
 30
0.0
 11
0.0252930770634434
 21
0.0308971805126269
 31
0.0
  0
LINE
  5
39F
330
1F
100
AcDbEntity
  8
0
100
AcDbLine
 10
0.0253497236008143
 20
0.0309303058921863
 30
0.0
 11
0.0252930770634434
 21
0.0308971805126269
 31
0.0
  0
LINE
  5
3A0
330
1F
100
AcDbEntity
  8
0
100
AcDbLine
 10
0.0252930770634434
 20
0.0308971805126269
 30
0.0
 11
0.0252419594805666
 21
0.0309303058921863
 31
0.0
  0
LINE
  5
3A1
330
1F
100
AcDbEntity
  8
0
100
AcDbLine
 10
0.0247151015468436
 20
0.0309303058921863
 30
0.0
 11
0.0247814133528594
 21
0.0308971805126269
 31
0.0
  0
LINE
  5
3A2
330
1F
100
AcDbEntity
  8
0
100
AcDbLine
 10
0.1750340237924572
 20
0.0299381985203528
 30
0.0
 11
0.174951698898183
 21
0.0299172227983423
 31
0.0
  0
LINE
  5
3A3
330
1F
100
AcDbEntity
  8
0
100
AcDbLine
 10
0.17424123797854
 20
0.029952178814557
 30
0.0
 11
0.1728128697498878
 21
0.0299156895960836
 31
0.0
  0
LINE
  5
3A4
330
1F
100
AcDbEntity
  8
0
100
AcDbLine
 10
0.1789315477534619
 20
0.0299339135062509
 30
0.0
 11
0.1790295082940673
 21
0.029952178814557
 31
0.0
  0
LINE
  5
3A5
330
1F
100
AcDbEntity
  8
0
100
AcDbLine
 10
0.1796404242113054
 20
0.0299521792140943
 30
0.0
 11
0.1795259461932381
 21
0.0301172613209273
 31
0.0
  0
LINE
  5
3A6
330
1F
100
AcDbEntity
  8
0
100
AcDbLine
 10
0.1772930757484159
 20
0.0308971805126269
 30
0.0
 11
0.1772455201498787
 21
0.0308971805126269
 31
0.0
  0
LINE
  5
3A7
330
1F
100
AcDbEntity
  8
0
100
AcDbLine
 10
0.1773384292474286
 20
0.0308971805126269
 30
0.0
 11
0.1772930757484159
 21
0.0308971805126269
 31
0.0
  0
LINE
  5
3A8
330
1F
100
AcDbEntity
  8
0
100
AcDbLine
 10
0.1773812355021014
 20
0.0308971805126269
 30
0.0
 11
0.1773384292474286
 21
0.0308971805126269
 31
0.0
  0
LINE
  5
3A9
330
1F
100
AcDbEntity
  8
0
100
AcDbLine
 10
0.1774211687133968
 20
0.0308971805126269
 30
0.0
 11
0.1773812355021014
 21
0.0308971805126269
 31
0.0
  0
LINE
  5
3AA
330
1F
100
AcDbEntity
  8
0
100
AcDbLine
 10
0.174951698898183
 20
0.0299469684580604
 30
0.0
 11
0.174951698898183
 21
0.0299172227983423
 31
0.0
  0
LINE
  5
3AB
330
1F
100
AcDbEntity
  8
0
100
AcDbLine
 10
0.1743296634559863
 20
0.0299521792140943
 30
0.0
 11
0.1744776870935038
 21
0.0301172613209268
 31
0.0
  0
LINE
  5
3AC
330
1F
100
AcDbEntity
  8
0
100
AcDbLine
 10
0.1751813636147894
 20
0.0299521792140943
 30
0.0
 11
0.1752555068775433
 21
0.0299174405806184
 31
0.0
  0
LINE
  5
3AD
330
1F
100
AcDbEntity
  8
0
100
AcDbLine
 10
0.1767143874086101
 20
0.0308971805126269
 30
0.0
 11
0.1767619430071474
 21
0.0308971805126269
 31
0.0
  0
LINE
  5
3AE
330
1F
100
AcDbEntity
  8
0
100
AcDbLine
 10
0.1766690339095975
 20
0.0308971805126269
 30
0.0
 11
0.1767143874086101
 21
0.0308971805126269
 31
0.0
  0
LINE
  5
3AF
330
1F
100
AcDbEntity
  8
0
100
AcDbLine
 10
0.1766262276549246
 20
0.0308971805126269
 30
0.0
 11
0.1766690339095975
 21
0.0308971805126269
 31
0.0
  0
LINE
  5
3B0
330
1F
100
AcDbEntity
  8
0
100
AcDbLine
 10
0.1765862944436292
 20
0.0308971805126269
 30
0.0
 11
0.1766262276549246
 21
0.0308971805126269
 31
0.0
  0
LINE
  5
3B1
330
1F
100
AcDbEntity
  8
0
100
AcDbLine
 10
0.1609863156975483
 20
0.0016637859277506
 30
0.0
 11
0.1610037306844434
 21
0.0016061652107921
 31
0.0
  0
LINE
  5
3B2
330
1F
100
AcDbEntity
  8
0
100
AcDbLine
 10
0.1610037306844434
 20
0.0101197271056784
 30
0.0
 11
0.1609863156975483
 21
0.0092230129384649
 31
0.0
  0
LINE
  5
3B3
330
1F
100
AcDbEntity
  8
0
100
AcDbLine
 10
0.1609899784322236
 20
0.0065355741166869
 30
0.0
 11
0.160989398308852
 21
0.0064926320629152
 31
0.0
  0
LINE
  5
3B4
330
1F
100
AcDbEntity
  8
0
100
AcDbLine
 10
0.1610037315561613
 20
0.0206944635037139
 30
0.0
 11
0.1609656506955107
 21
0.0203561822270098
 31
0.0
  0
LINE
  5
3B5
330
1F
100
AcDbEntity
  8
0
100
AcDbLine
 10
0.1610037306844434
 20
0.0199219228459003
 30
0.0
 11
0.1610037315561613
 21
0.0195978165277827
 31
0.0
  0
LINE
  5
3B6
330
1F
100
AcDbEntity
  8
0
100
AcDbLine
 10
0.1610037315561613
 20
0.0195978165277827
 30
0.0
 11
0.1610037315561613
 21
0.0195450166152513
 31
0.0
  0
LINE
  5
3B7
330
1F
100
AcDbEntity
  8
0
100
AcDbLine
 10
0.1610037306844434
 20
0.0248357664443792
 30
0.0
 11
0.1610037315561613
 21
0.0245223528957887
 31
0.0
  0
LINE
  5
3B8
330
1F
100
AcDbEntity
  8
0
100
AcDbLine
 10
0.1610037315561613
 20
0.0245223528957887
 30
0.0
 11
0.1610037315561613
 21
0.0243059249252815
 31
0.0
  0
LINE
  5
3B9
330
1F
100
AcDbEntity
  8
0
100
AcDbLine
 10
0.1610037306844434
 20
-0.0062925208187805
 30
0.0
 11
0.1610037315561613
 21
-0.0069045738025735
 31
0.0
  0
LINE
  5
3BA
330
1F
100
AcDbEntity
  8
0
100
AcDbLine
 10
0.1610037315561613
 20
-0.0069045738025735
 30
0.0
 11
0.1610037315561613
 21
-0.0069315656229239
 31
0.0
  0
LINE
  5
3BB
330
1F
100
AcDbEntity
  8
0
100
AcDbLine
 10
0.1610037306844434
 20
-0.006980827328511
 30
0.0
 11
0.1609566576371846
 21
-0.0074935180932584
 31
0.0
  0
LINE
  5
3BC
330
1F
100
AcDbEntity
  8
0
100
AcDbLine
 10
0.1610037315561613
 20
-0.0082923242724092
 30
0.0
 11
0.1609633402758967
 21
-0.0084874923749213
 31
0.0
  0
LINE
  5
3BD
330
1F
100
AcDbEntity
  8
0
100
AcDbLine
 10
0.1609633402758967
 20
-0.0084874923749213
 30
0.0
 11
0.1610037315561613
 21
-0.0085477121131524
 31
0.0
  0
LINE
  5
3BE
330
1F
100
AcDbEntity
  8
0
100
AcDbLine
 10
0.1610037315561613
 20
-0.004481229175919
 30
0.0
 11
0.1610037315561613
 21
-0.004588427970206
 31
0.0
  0
LINE
  5
3BF
330
1F
100
AcDbEntity
  8
0
100
AcDbLine
 10
0.1609863156975483
 20
-0.0062230745984582
 30
0.0
 11
0.1610037306844434
 21
-0.0062925208187805
 31
0.0
  0
LINE
  5
3C0
330
1F
100
AcDbEntity
  8
0
100
AcDbLine
 10
0.1609863156975483
 20
0.0284453847500416
 30
0.0
 11
0.1609863156975483
 21
0.0283807441973826
 31
0.0
  0
LINE
  5
3C1
330
1F
100
AcDbEntity
  8
0
100
AcDbLine
 10
0.1609863156975483
 20
0.0283807441973826
 30
0.0
 11
0.1610037306844434
 21
0.0281698698773206
 31
0.0
  0
LINE
  5
3C2
330
1F
100
AcDbEntity
  8
0
100
AcDbLine
 10
0.1610037306844434
 20
0.0276491931761751
 30
0.0
 11
0.1609863156975483
 21
0.0275363138655673
 31
0.0
  0
LINE
  5
3C3
330
1F
100
AcDbEntity
  8
0
100
AcDbLine
 10
0.1609558999928143
 20
0.0273967761003564
 30
0.0
 11
0.1610037306844434
 21
0.027052734044072
 31
0.0
  0
LINE
  5
3C4
330
1F
100
AcDbEntity
  8
0
100
AcDbLine
 10
0.1610037306844434
 20
0.027052734044072
 30
0.0
 11
0.1610037315561613
 21
0.0268290919873266
 31
0.0
  0
LINE
  5
3C5
330
1F
100
AcDbEntity
  8
0
100
AcDbLine
 10
0.1610037315561613
 20
0.0268290919873266
 30
0.0
 11
0.1610037315561613
 21
0.0267836907787184
 31
0.0
  0
LINE
  5
3C6
330
1F
100
AcDbEntity
  8
0
100
AcDbLine
 10
0.1609507288237933
 20
0.0065761576351212
 30
0.0
 11
0.1609387320062974
 21
0.0065071866856694
 31
0.0
  0
LINE
  5
3C7
330
1F
100
AcDbEntity
  8
0
100
AcDbLine
 10
0.0403148036114117
 20
-0.0029083247174354
 30
0.0
 11
0.0406034344282088
 21
-0.0025399922282404
 31
0.0
  0
LINE
  5
3C8
330
1F
100
AcDbEntity
  8
0
100
AcDbLine
 10
-0.1316893383022207
 20
0.010952179265317
 30
0.0
 11
-0.1318072780334669
 21
0.010952179265317
 31
0.0
  0
LINE
  5
3C9
330
1F
100
AcDbEntity
  8
0
100
AcDbLine
 10
-0.1273183628057628
 20
0.010952179265317
 30
0.0
 11
-0.1274302390637979
 21
0.010952179265317
 31
0.0
  0
LINE
  5
3CA
330
1F
100
AcDbEntity
  8
0
100
AcDbLine
 10
-0.1228751029839091
 20
0.0109242801165059
 30
0.0
 11
-0.1229111524119285
 21
0.0109259079179559
 31
0.0
  0
LINE
  5
3CB
330
1F
100
AcDbEntity
  8
0
100
AcDbLine
 10
-0.1229111524119285
 20
0.0109259079179559
 30
0.0
 11
-0.123167464555014
 21
0.0109521783935991
 31
0.0
  0
LINE
  5
3CC
330
1F
100
AcDbEntity
  8
0
100
AcDbLine
 10
-0.1209465500834288
 20
0.0109245063164941
 30
0.0
 11
-0.1210532619238015
 21
0.0109298732624056
 31
0.0
  0
LINE
  5
3CD
330
1F
100
AcDbEntity
  8
0
100
AcDbLine
 10
-0.1174474620323459
 20
0.0109521783935991
 30
0.0
 11
-0.1175074899455949
 21
0.010934763406704
 31
0.0
  0
LINE
  5
3CE
330
1F
100
AcDbEntity
  8
0
100
AcDbLine
 10
-0.1175505697516093
 20
0.0109051053463403
 30
0.0
 11
-0.1178067803268748
 21
0.010952179265317
 31
0.0
  0
LINE
  5
3CF
330
1F
100
AcDbEntity
  8
0
100
AcDbLine
 10
-0.117482193811998
 20
0.0109521783935991
 30
0.0
 11
-0.1175074899455949
 21
0.010934763406704
 31
0.0
  0
LINE
  5
3D0
330
1F
100
AcDbEntity
  8
0
100
AcDbLine
 10
-0.1210532619238015
 20
0.0109298732624056
 30
0.0
 11
-0.1211544335584309
 21
0.0109521783935991
 31
0.0
  0
LINE
  5
3D1
330
1F
100
AcDbEntity
  8
0
100
AcDbLine
 10
0.013642437536194
 20
-0.0065074981068106
 30
0.0
 11
0.0139949811310624
 21
-0.0067318624893832
 31
0.0
  0
LINE
  5
3D2
330
1F
100
AcDbEntity
  8
0
100
AcDbLine
 10
0.0126693553886553
 20
-0.0057914898608656
 30
0.0
 11
0.0128222942838913
 21
-0.0059040245635027
 31
0.0
  0
LINE
  5
3D3
330
1F
100
AcDbEntity
  8
0
100
AcDbLine
 10
0.0108615977353593
 20
-0.0041899558965893
 30
0.0
 11
0.0115035990964579
 21
-0.0047942977036624
 31
0.0
  0
LINE
  5
3D4
330
1F
100
AcDbEntity
  8
0
100
AcDbLine
 10
0.0100335178560754
 20
-0.0033102742274137
 30
0.0
 11
0.0103117414900779
 21
-0.0036058353645531
 31
0.0
  0
LINE
  5
3D5
330
1F
100
AcDbEntity
  8
0
100
AcDbLine
 10
0.009260063771083
 20
-0.0023821982432933
 30
0.0
 11
0.0093315217630527
 21
-0.0024679414664625
 31
0.0
  0
LINE
  5
3D6
330
1F
100
AcDbEntity
  8
0
100
AcDbLine
 10
0.00788810827203
 20
-0.0003945770551296
 30
0.0
 11
0.0082668842064161
 21
-0.0009804213760916
 31
0.0
  0
LINE
  5
3D7
330
1F
100
AcDbEntity
  8
0
100
AcDbLine
 10
0.0072946117854854
 20
0.0006577159400253
 30
0.0
 11
0.0074492493578575
 21
0.0003835373427057
 31
0.0
  0
LINE
  5
3D8
330
1F
100
AcDbEntity
  8
0
100
AcDbLine
 10
0.0059093160218736
 20
0.0040021181228725
 30
0.0
 11
0.0060933535091129
 21
0.0034687982704761
 31
0.0
  0
LINE
  5
3D9
330
1F
100
AcDbEntity
  8
0
100
AcDbLine
 10
0.0055848972535869
 20
0.0051658657501606
 30
0.0
 11
0.0056467412503297
 21
0.0049440203715729
 31
0.0
  0
LINE
  5
3DA
330
1F
100
AcDbEntity
  8
0
100
AcDbLine
 10
0.0051495561040183
 20
0.0075414456549255
 30
0.0
 11
0.005302074717076
 21
0.0065393334163871
 31
0.0
  0
LINE
  5
3DB
330
1F
100
AcDbEntity
  8
0
100
AcDbLine
 10
0.0050402225590488
 20
0.0087446092982931
 30
0.0
 11
0.0050814010445591
 21
0.0082914596572679
 31
0.0
  0
LINE
  5
3DC
330
1F
100
AcDbEntity
  8
0
100
AcDbLine
 10
0.0050037333405753
 20
0.0099521792615919
 30
0.0
 11
0.0050082746724807
 21
0.0098018889503239
 31
0.0
  0
LINE
  5
3DD
330
1F
100
AcDbEntity
  8
0
100
AcDbLine
 10
0.0444225685334941
 20
0.0147384927730231
 30
0.0
 11
0.0443607245367512
 21
0.0149603381516108
 31
0.0
  0
LINE
  5
3DE
330
1F
100
AcDbEntity
  8
0
100
AcDbLine
 10
0.0440981497652074
 20
0.0159022404003112
 30
0.0
 11
0.0439141122779681
 21
0.0164355602527076
 31
0.0
  0
LINE
  5
3DF
330
1F
100
AcDbEntity
  8
0
100
AcDbLine
 10
0.0427128540015956
 20
0.0192466425831584
 30
0.0
 11
0.0425582164292235
 21
0.019520821180478
 31
0.0
  0
LINE
  5
3E0
330
1F
100
AcDbEntity
  8
0
100
AcDbLine
 10
0.042119357515051
 20
0.0202989355783133
 30
0.0
 11
0.0417405815806649
 21
0.0208847798992753
 31
0.0
  0
LINE
  5
3E1
330
1F
100
AcDbEntity
  8
0
100
AcDbLine
 10
0.040747402015998
 20
0.0222865567664771
 30
0.0
 11
0.0406759440240283
 21
0.0223722999896462
 31
0.0
  0
LINE
  5
3E2
330
1F
100
AcDbEntity
  8
0
100
AcDbLine
 10
0.0399739479310056
 20
0.0232146327505974
 30
0.0
 11
0.0396957242970031
 21
0.0235101938877368
 31
0.0
  0
LINE
  5
3E3
330
1F
100
AcDbEntity
  8
0
100
AcDbLine
 10
0.0391458680517217
 20
0.0240943144197731
 30
0.0
 11
0.0385038666906232
 21
0.024698656226846
 31
0.0
  0
LINE
  5
3E4
330
1F
100
AcDbEntity
  8
0
100
AcDbLine
 10
0.0373381103984257
 20
0.0256958483840494
 30
0.0
 11
0.0371851715031897
 21
0.0258083830866864
 31
0.0
  0
LINE
  5
3E5
330
1F
100
AcDbEntity
  8
0
100
AcDbLine
 10
0.036365028250887
 20
0.0264118566299943
 30
0.0
 11
0.035938877300876
 21
0.0266873832818784
 31
0.0
  0
LINE
  5
3E6
330
1F
100
AcDbEntity
  8
0
100
AcDbLine
 10
0.0332119891083976
 20
0.0281901761080293
 30
0.0
 11
0.0329608228758554
 21
0.0282942123853693
 31
0.0
  0
LINE
  5
3E7
330
1F
100
AcDbEntity
  8
0
100
AcDbLine
 10
0.0320958306676885
 20
0.0286525032605199
 30
0.0
 11
0.0315032884054725
 21
0.0288569771583719
 31
0.0
  0
LINE
  5
3E8
330
1F
100
AcDbEntity
  8
0
100
AcDbLine
 10
0.0297900464049717
 20
0.0293710149015455
 30
0.0
 11
0.0297181373628173
 21
0.0293864510646647
 31
0.0
  0
LINE
  5
3E9
330
1F
100
AcDbEntity
  8
0
100
AcDbLine
 10
0.0286088336854418
 20
0.0296245767857103
 30
0.0
 11
0.028253626358973
 21
0.0296786383236274
 31
0.0
  0
LINE
  5
3EA
330
1F
100
AcDbEntity
  8
0
100
AcDbLine
 10
0.0245339852273633
 20
0.0299022334852002
 30
0.0
 11
0.0244503533741715
 21
0.0299022430375958
 31
0.0
  0
LINE
  5
3EB
330
1F
100
AcDbEntity
  8
0
100
AcDbLine
 10
0.0225929992868742
 20
0.029806356051114
 30
0.0
 11
0.0215908870483363
 21
0.0296538374380565
 31
0.0
  0
LINE
  5
3EC
330
1F
100
AcDbEntity
  8
0
100
AcDbLine
 10
0.0202174193821093
 20
0.0293710149015455
 30
0.0
 11
0.0199955740035217
 21
0.0293091709048026
 31
0.0
  0
LINE
  5
3ED
330
1F
100
AcDbEntity
  8
0
100
AcDbLine
 10
0.0190536717548212
 20
0.0290465961332588
 30
0.0
 11
0.0185203519024249
 21
0.0288625586460195
 31
0.0
  0
LINE
  5
3EE
330
1F
100
AcDbEntity
  8
0
100
AcDbLine
 10
0.0157092695719739
 20
0.027661300369647
 30
0.0
 11
0.0154350909746544
 21
0.0275066627972749
 31
0.0
  0
LINE
  5
3EF
330
1F
100
AcDbEntity
  8
0
100
AcDbLine
 10
0.0146569765768191
 20
0.0270678038831024
 30
0.0
 11
0.014071132255857
 21
0.0266890279487162
 31
0.0
  0
LINE
  5
3F0
330
1F
100
AcDbEntity
  8
0
100
AcDbLine
 10
0.0126693553886553
 20
0.0256958483840494
 30
0.0
 11
0.0125836121654862
 21
0.0256243903920797
 31
0.0
  0
LINE
  5
3F1
330
1F
100
AcDbEntity
  8
0
100
AcDbLine
 10
0.0117412794045349
 20
0.024922394299057
 30
0.0
 11
0.0114457182673956
 21
0.0246441706650545
 31
0.0
  0
LINE
  5
3F2
330
1F
100
AcDbEntity
  8
0
100
AcDbLine
 10
0.0108615977353593
 20
0.0240943144197731
 30
0.0
 11
0.0102572559282864
 21
0.0234523130586746
 31
0.0
  0
LINE
  5
3F3
330
1F
100
AcDbEntity
  8
0
100
AcDbLine
 10
0.009260063771083
 20
0.0222865567664771
 30
0.0
 11
0.009147529068446
 21
0.0221336178712411
 31
0.0
  0
LINE
  5
3F4
330
1F
100
AcDbEntity
  8
0
100
AcDbLine
 10
0.008544055525138
 20
0.0213134746189384
 30
0.0
 11
0.008268528873254
 21
0.0208873236689274
 31
0.0
  0
LINE
  5
3F5
330
1F
100
AcDbEntity
  8
0
100
AcDbLine
 10
0.006765736047103
 20
0.018160435476449
 30
0.0
 11
0.006661699769763
 21
0.0179092692439068
 31
0.0
  0
LINE
  5
3F6
330
1F
100
AcDbEntity
  8
0
100
AcDbLine
 10
0.0063034088946124
 20
0.0170442770357398
 30
0.0
 11
0.0060989349967604
 21
0.0164517347735239
 31
0.0
  0
LINE
  5
3F7
330
1F
100
AcDbEntity
  8
0
100
AcDbLine
 10
0.0055848972535869
 20
0.0147384927730231
 30
0.0
 11
0.0055694610904677
 21
0.0146665837308687
 31
0.0
  0
LINE
  5
3F8
330
1F
100
AcDbEntity
  8
0
100
AcDbLine
 10
0.0053313353694221
 20
0.0135572800534932
 30
0.0
 11
0.0052772738315049
 21
0.0132020727270243
 31
0.0
  0
LINE
  5
3F9
330
1F
100
AcDbEntity
  8
0
100
AcDbLine
 10
0.0051495561040183
 20
0.0123629128682582
 30
0.0
 11
0.0050789297458337
 21
0.0115857033992445
 31
0.0
  0
LINE
  5
3FA
330
1F
100
AcDbEntity
  8
0
100
AcDbLine
 10
0.0357498077168037
 20
-0.0068990342949154
 30
0.0
 11
0.0351037325001498
 21
-0.0073102068965168
 31
0.0
  0
LINE
  5
3FB
330
1F
100
AcDbEntity
  8
0
100
AcDbLine
 10
0.0449348440876556
 20
0.0083750621322331
 30
0.0
 11
0.0449199767447253
 21
0.0082082917444851
 31
0.0
  0
LINE
  5
3FC
330
1F
100
AcDbEntity
  8
0
100
AcDbLine
 10
0.026674910292225
 20
0.029882074366681
 30
0.0
 11
0.0268600290599436
 21
0.0298657263964233
 31
0.0
  0
LINE
  5
3FD
330
1F
100
AcDbEntity
  8
0
100
AcDbLine
 10
0.0277360308735344
 20
0.0299521792140943
 30
0.0
 11
0.028954311985447
 21
0.0298130820627479
 31
0.0
  0
LINE
  5
3FE
330
1F
100
AcDbEntity
  8
0
100
AcDbLine
 10
0.0254579263246767
 20
0.0308971805126269
 30
0.0
 11
0.0254211700284243
 21
0.0308971805126269
 31
0.0
  0
LINE
  5
3FF
330
1F
100
AcDbEntity
  8
0
100
AcDbLine
 10
0.0254912259144212
 20
0.0308971805126269
 30
0.0
 11
0.0254211700284243
 21
0.0308971805126269
 31
0.0
  0
LINE
  5
400
330
1F
100
AcDbEntity
  8
0
100
AcDbLine
 10
0.1751813636147894
 20
0.0299521792140943
 30
0.0
 11
0.1750340237924572
 21
0.0299381985203528
 31
0.0
  0
LINE
  5
401
330
1F
100
AcDbEntity
  8
0
100
AcDbLine
 10
0.1774912245993937
 20
0.0308971805126269
 30
0.0
 11
0.1774211687133968
 21
0.0308971805126269
 31
0.0
  0
LINE
  5
402
330
1F
100
AcDbEntity
  8
0
100
AcDbLine
 10
0.1774579250096492
 20
0.0308971805126269
 30
0.0
 11
0.1774211687133968
 21
0.0308971805126269
 31
0.0
  0
LINE
  5
403
330
1F
100
AcDbEntity
  8
0
100
AcDbLine
 10
0.1775208140375136
 20
0.0308971805126269
 30
0.0
 11
0.1774579250096492
 21
0.0308971805126269
 31
0.0
  0
LINE
  5
404
330
1F
100
AcDbEntity
  8
0
100
AcDbLine
 10
0.1765162385576323
 20
0.0308971805126269
 30
0.0
 11
0.1765862944436292
 21
0.0308971805126269
 31
0.0
  0
LINE
  5
405
330
1F
100
AcDbEntity
  8
0
100
AcDbLine
 10
0.1765495381473769
 20
0.0308971805126269
 30
0.0
 11
0.1765862944436292
 21
0.0308971805126269
 31
0.0
  0
LINE
  5
406
330
1F
100
AcDbEntity
  8
0
100
AcDbLine
 10
0.1609863156975483
 20
0.0092230129384649
 30
0.0
 11
0.1609512806894649
 21
0.0091662184766598
 31
0.0
  0
LINE
  5
407
330
1F
100
AcDbEntity
  8
0
100
AcDbLine
 10
0.1609656506955107
 20
0.0203561822270098
 30
0.0
 11
0.1609482297881297
 21
0.0202202836235486
 31
0.0
  0
LINE
  5
408
330
1F
100
AcDbEntity
  8
0
100
AcDbLine
 10
0.1610037306844434
 20
0.0176264294541937
 30
0.0
 11
0.1609569926406264
 21
0.0169373812030929
 31
0.0
  0
LINE
  5
409
330
1F
100
AcDbEntity
  8
0
100
AcDbLine
 10
0.1609569926406264
 20
0.0169373812030929
 30
0.0
 11
0.1609527033326499
 21
0.0168308760495229
 31
0.0
  0
LINE
  5
40A
330
1F
100
AcDbEntity
  8
0
100
AcDbLine
 10
0.1610037306844434
 20
0.0256430020988273
 30
0.0
 11
0.1609993161212026
 21
0.0254575745306741
 31
0.0
  0
LINE
  5
40B
330
1F
100
AcDbEntity
  8
0
100
AcDbLine
 10
0.1609714404082489
 20
0.0253910351943964
 30
0.0
 11
0.1609618425549416
 21
0.0253340829013184
 31
0.0
  0
LINE
  5
40C
330
1F
100
AcDbEntity
  8
0
100
AcDbLine
 10
0.1609522736070626
 20
0.0251820744196422
 30
0.0
 11
0.1610037306844434
 21
0.0248357664443792
 31
0.0
  0
LINE
  5
40D
330
1F
100
AcDbEntity
  8
0
100
AcDbLine
 10
0.1610019755878776
 20
-0.0076603906656227
 30
0.0
 11
0.1610037315561613
 21
-0.0076869351270193
 31
0.0
  0
LINE
  5
40E
330
1F
100
AcDbEntity
  8
0
100
AcDbLine
 10
0.1610037315561613
 20
-0.0082297329949199
 30
0.0
 11
0.1610037315561613
 21
-0.0082923242724092
 31
0.0
  0
LINE
  5
40F
330
1F
100
AcDbEntity
  8
0
100
AcDbLine
 10
0.1609584102747583
 20
0.0274250416046935
 30
0.0
 11
0.1609558999928143
 21
0.0273967761003564
 31
0.0
  0
LINE
  5
410
330
1F
100
AcDbEntity
  8
0
100
AcDbLine
 10
0.0368722584039978
 20
-0.0061192590826074
 30
0.0
 11
0.0369182365984051
 21
-0.0060907743411365
 31
0.0
  0
LINE
  5
411
330
1F
100
AcDbEntity
  8
0
100
AcDbLine
 10
0.0385291592662354
 20
-0.0047550628921839
 30
0.0
 11
0.0385630999397798
 21
-0.004738637017721
 31
0.0
  0
LINE
  5
412
330
1F
100
AcDbEntity
  8
0
100
AcDbLine
 10
0.0415856027046144
 20
-0.0012069851417721
 30
0.0
 11
0.0416725297719864
 21
-0.0010785053580767
 31
0.0
  0
LINE
  5
413
330
1F
100
AcDbEntity
  8
0
100
AcDbLine
 10
-0.116932126183918
 20
0.0108871797154532
 30
0.0
 11
-0.1172887203089826
 21
0.010952179265317
 31
0.0
  0
LINE
  5
414
330
1F
100
AcDbEntity
  8
0
100
AcDbLine
 10
-0.1174474620323459
 20
0.0109521783935991
 30
0.0
 11
-0.117482193811998
 21
0.0109521783935991
 31
0.0
  0
LINE
  5
415
330
1F
100
AcDbEntity
  8
0
100
AcDbLine
 10
-0.1197199108132873
 20
0.0109058132150012
 30
0.0
 11
-0.1204261190058322
 21
0.0108871797154532
 31
0.0
  0
LINE
  5
416
330
1F
100
AcDbEntity
  8
0
100
AcDbLine
 10
-0.1204261190058322
 20
0.0108871797154532
 30
0.0
 11
-0.1205323904469979
 21
0.0108871797154532
 31
0.0
  0
LINE
  5
417
330
1F
100
AcDbEntity
  8
0
100
AcDbLine
 10
0.0244503533741715
 20
0.0299022430375958
 30
0.0
 11
0.0242806230304228
 21
0.0299249542130871
 31
0.0
  0
LINE
  5
418
330
1F
100
AcDbEntity
  8
0
100
AcDbLine
 10
0.0237961629302418
 20
0.0299156895960836
 30
0.0
 11
0.02358010091984
 21
0.0299012114400056
 31
0.0
  0
LINE
  5
419
330
1F
100
AcDbEntity
  8
0
100
AcDbLine
 10
0.0432816525122487
 20
0.0018596295284704
 30
0.0
 11
0.0431213507092734
 21
0.0014963002066283
 31
0.0
  0
LINE
  5
41A
330
1F
100
AcDbEntity
  8
0
100
AcDbLine
 10
0.0447419201974764
 20
0.0067619671922587
 30
0.0
 11
0.0446921230889102
 21
0.0064776883117078
 31
0.0
  0
LINE
  5
41B
330
1F
100
AcDbEntity
  8
0
100
AcDbLine
 10
0.0254912259144212
 20
0.0308971805126269
 30
0.0
 11
0.0254579263246767
 21
0.0308971805126269
 31
0.0
  0
LINE
  5
41C
330
1F
100
AcDbEntity
  8
0
100
AcDbLine
 10
0.024658266773309
 20
0.0309303058921863
 30
0.0
 11
0.0246863182916442
 21
0.0309303058921863
 31
0.0
  0
LINE
  5
41D
330
1F
100
AcDbEntity
  8
0
100
AcDbLine
 10
0.0255208153525411
 20
0.0308971805126269
 30
0.0
 11
0.0254579263246767
 21
0.0308971805126269
 31
0.0
  0
LINE
  5
41E
330
1F
100
AcDbEntity
  8
0
100
AcDbLine
 10
0.025546469526939
 20
0.0308971805126269
 30
0.0
 11
0.0254912259144212
 21
0.0308971805126269
 31
0.0
  0
LINE
  5
41F
330
1F
100
AcDbEntity
  8
0
100
AcDbLine
 10
0.1779798304779019
 20
0.0298657088252367
 30
0.0
 11
0.1781966693857552
 21
0.0298770197969998
 31
0.0
  0
LINE
  5
420
330
1F
100
AcDbEntity
  8
0
100
AcDbLine
 10
0.1774912245993937
 20
0.0308971805126269
 30
0.0
 11
0.1774579250096492
 21
0.0308971805126269
 31
0.0
  0
LINE
  5
421
330
1F
100
AcDbEntity
  8
0
100
AcDbLine
 10
0.1775464682119115
 20
0.0308971805126269
 30
0.0
 11
0.1774912245993937
 21
0.0308971805126269
 31
0.0
  0
LINE
  5
422
330
1F
100
AcDbEntity
  8
0
100
AcDbLine
 10
0.1764866491195124
 20
0.0308971805126269
 30
0.0
 11
0.1765495381473769
 21
0.0308971805126269
 31
0.0
  0
LINE
  5
423
330
1F
100
AcDbEntity
  8
0
100
AcDbLine
 10
0.1765162385576323
 20
0.0308971805126269
 30
0.0
 11
0.1765495381473769
 21
0.0308971805126269
 31
0.0
  0
LINE
  5
424
330
1F
100
AcDbEntity
  8
0
100
AcDbLine
 10
0.1609512806894649
 20
0.0091662184766598
 30
0.0
 11
0.1609485997399907
 21
0.0090931888288331
 31
0.0
  0
LINE
  5
425
330
1F
100
AcDbEntity
  8
0
100
AcDbLine
 10
0.1609525941456338
 20
0.0155995333924359
 30
0.0
 11
0.1609479027390559
 21
0.0154798456958992
 31
0.0
  0
LINE
  5
426
330
1F
100
AcDbEntity
  8
0
100
AcDbLine
 10
0.1609482297881297
 20
0.0202202836235486
 30
0.0
 11
0.1609416157342143
 21
0.0200737082912963
 31
0.0
  0
LINE
  5
427
330
1F
100
AcDbEntity
  8
0
100
AcDbLine
 10
0.1609618425549416
 20
0.0253340829013184
 30
0.0
 11
0.1609950029306186
 21
0.0252764049794975
 31
0.0
  0
LINE
  5
428
330
1F
100
AcDbEntity
  8
0
100
AcDbLine
 10
0.1609687488324639
 20
0.0275044158460749
 30
0.0
 11
0.160997150099874
 21
0.0274566939300598
 31
0.0
  0
LINE
  5
429
330
1F
100
AcDbEntity
  8
0
100
AcDbLine
 10
0.160997150099874
 20
0.0274566939300598
 30
0.0
 11
0.1609584102747583
 21
0.0274250416046935
 31
0.0
  0
LINE
  5
42A
330
1F
100
AcDbEntity
  8
0
100
AcDbLine
 10
0.0255208153525411
 20
0.0308971805126269
 30
0.0
 11
0.0254912259144212
 21
0.0308971805126269
 31
0.0
  0
LINE
  5
42B
330
1F
100
AcDbEntity
  8
0
100
AcDbLine
 10
0.0255788855777166
 20
0.0308971805126269
 30
0.0
 11
0.0255208153525411
 21
0.0308971805126269
 31
0.0
  0
LINE
  5
42C
330
1F
100
AcDbEntity
  8
0
100
AcDbLine
 10
0.1752555068775433
 20
0.0299174405806184
 30
0.0
 11
0.174951698898183
 21
0.0298298818934476
 31
0.0
  0
LINE
  5
42D
330
1F
100
AcDbEntity
  8
0
100
AcDbLine
 10
0.1775208140375136
 20
0.0308971805126269
 30
0.0
 11
0.1774912245993937
 21
0.0308971805126269
 31
0.0
  0
LINE
  5
42E
330
1F
100
AcDbEntity
  8
0
100
AcDbLine
 10
0.1775788842626891
 20
0.0308971805126269
 30
0.0
 11
0.1775208140375136
 21
0.0308971805126269
 31
0.0
  0
LINE
  5
42F
330
1F
100
AcDbEntity
  8
0
100
AcDbLine
 10
0.1764609949451145
 20
0.0308971805126269
 30
0.0
 11
0.1765162385576323
 21
0.0308971805126269
 31
0.0
  0
LINE
  5
430
330
1F
100
AcDbEntity
  8
0
100
AcDbLine
 10
0.1764866491195124
 20
0.0308971805126269
 30
0.0
 11
0.1765162385576323
 21
0.0308971805126269
 31
0.0
  0
LINE
  5
431
330
1F
100
AcDbEntity
  8
0
100
AcDbLine
 10
0.1764285788943369
 20
0.0308971805126269
 30
0.0
 11
0.1764866491195124
 21
0.0308971805126269
 31
0.0
  0
LINE
  5
432
330
1F
100
AcDbEntity
  8
0
100
AcDbLine
 10
0.1610037306844434
 20
0.0025875171548206
 30
0.0
 11
0.1609700493617341
 21
0.0019912840296386
 31
0.0
  0
LINE
  5
433
330
1F
100
AcDbEntity
  8
0
100
AcDbLine
 10
0.1609700493617341
 20
0.0019912840296386
 30
0.0
 11
0.1609679081500713
 21
0.0019138327110252
 31
0.0
  0
LINE
  5
434
330
1F
100
AcDbEntity
  8
0
100
AcDbLine
 10
0.1609679081500713
 20
0.0019138327110252
 30
0.0
 11
0.1609555555044862
 21
0.0017655617366383
 31
0.0
  0
LINE
  5
435
330
1F
100
AcDbEntity
  8
0
100
AcDbLine
 10
0.1609879925769997
 20
0.0089528807448214
 30
0.0
 11
0.1610037315561613
 21
0.0089293011220798
 31
0.0
  0
LINE
  5
436
330
1F
100
AcDbEntity
  8
0
100
AcDbLine
 10
0.1610037306844434
 20
0.0075535471603505
 30
0.0
 11
0.1609387320062974
 21
0.0068846492561468
 31
0.0
  0
LINE
  5
437
330
1F
100
AcDbEntity
  8
0
100
AcDbLine
 10
0.1609387320062974
 20
0.0068846492561468
 30
0.0
 11
0.1609387320062974
 21
0.006653878433655
 31
0.0
  0
LINE
  5
438
330
1F
100
AcDbEntity
  8
0
100
AcDbLine
 10
0.1609479027390559
 20
0.0154798456958992
 30
0.0
 11
0.1609416177610959
 21
0.0153195026255825
 31
0.0
  0
LINE
  5
439
330
1F
100
AcDbEntity
  8
0
100
AcDbLine
 10
0.1609416177610959
 20
0.0153195026255825
 30
0.0
 11
0.1610037306844434
 21
0.0151996274069501
 31
0.0
  0
LINE
  5
43A
330
1F
100
AcDbEntity
  8
0
100
AcDbLine
 10
0.1609416157342143
 20
0.0200737082912963
 30
0.0
 11
0.160956643554282
 21
0.0199958202693481
 31
0.0
  0
LINE
  5
43B
330
1F
100
AcDbEntity
  8
0
100
AcDbLine
 10
0.160956643554282
 20
0.0199958202693481
 30
0.0
 11
0.1610037306844434
 21
0.0199219228459003
 31
0.0
  0
LINE
  5
43C
330
1F
100
AcDbEntity
  8
0
100
AcDbLine
 10
0.0256100018292097
 20
0.0308971805126269
 30
0.0
 11
0.025546469526939
 21
0.0308971805126269
 31
0.0
  0
LINE
  5
43D
330
1F
100
AcDbEntity
  8
0
100
AcDbLine
 10
0.025546469526939
 20
0.0308971805126269
 30
0.0
 11
0.0255208153525411
 21
0.0308971805126269
 31
0.0
  0
LINE
  5
43E
330
1F
100
AcDbEntity
  8
0
100
AcDbLine
 10
0.178268196754445
 20
0.0298820788282227
 30
0.0
 11
0.178426221883818
 21
0.0298918168249843
 31
0.0
  0
LINE
  5
43F
330
1F
100
AcDbEntity
  8
0
100
AcDbLine
 10
0.1776100005141822
 20
0.0308971805126269
 30
0.0
 11
0.1775464682119115
 21
0.0308971805126269
 31
0.0
  0
LINE
  5
440
330
1F
100
AcDbEntity
  8
0
100
AcDbLine
 10
0.1775464682119115
 20
0.0308971805126269
 30
0.0
 11
0.1775208140375136
 21
0.0308971805126269
 31
0.0
  0
LINE
  5
441
330
1F
100
AcDbEntity
  8
0
100
AcDbLine
 10
0.1763974626428438
 20
0.0308971805126269
 30
0.0
 11
0.1764609949451145
 21
0.0308971805126269
 31
0.0
  0
LINE
  5
442
330
1F
100
AcDbEntity
  8
0
100
AcDbLine
 10
0.1764609949451145
 20
0.0308971805126269
 30
0.0
 11
0.1764866491195124
 21
0.0308971805126269
 31
0.0
  0
LINE
  5
443
330
1F
100
AcDbEntity
  8
0
100
AcDbLine
 10
0.1785406778311876
 20
0.0299012114400057
 30
0.0
 11
0.1790295082940673
 21
0.0298455165810143
 31
0.0
  0
LINE
  5
444
330
1F
100
AcDbEntity
  8
0
100
AcDbLine
 10
0.0425584755321879
 20
0.0004023428039006
 30
0.0
 11
0.0428487503293338
 21
0.0009596656144939
 31
0.0
  0
LINE
  5
445
330
1F
100
AcDbEntity
  8
0
100
AcDbLine
 10
0.0230129160940861
 20
0.0298528006370156
 30
0.0
 11
0.0231472726364001
 21
0.0298657088252367
 31
0.0
  0
LINE
  5
446
330
1F
100
AcDbEntity
  8
0
100
AcDbLine
 10
0.0232754678449199
 20
0.0298776736336074
 30
0.0
 11
0.02358010091984
 21
0.0299012114400056
 31
0.0
  0
LINE
  5
447
330
1F
100
AcDbEntity
  8
0
100
AcDbLine
 10
0.0270146271968352
 20
0.0298508765440815
 30
0.0
 11
0.0268600290599436
 21
0.0298657263964233
 31
0.0
  0
LINE
  5
448
330
1F
100
AcDbEntity
  8
0
100
AcDbLine
 10
0.026674910292225
 20
0.029882074366681
 30
0.0
 11
0.026429482463128
 21
0.0299011629800648
 31
0.0
  0
LINE
  5
449
330
1F
100
AcDbEntity
  8
0
100
AcDbLine
 10
0.0261248978222244
 20
0.0299203729403926
 30
0.0
 11
0.0262411701309505
 21
0.0299129755056312
 31
0.0
  0
LINE
  5
44A
330
1F
100
AcDbEntity
  8
0
100
AcDbLine
 10
0.1779433153677003
 20
0.029863629586456
 30
0.0
 11
0.1776606253964624
 21
0.029852397738147
 31
0.0
  0
LINE
  5
44B
330
1F
100
AcDbEntity
  8
0
100
AcDbLine
 10
-0.1249962673299769
 20
0.0413521792317894
 30
0.0
 11
-0.1449962668829421
 21
0.0413521792317894
 31
0.0
  0
LINE
  5
44C
330
1F
100
AcDbEntity
  8
0
100
AcDbLine
 10
-0.1249962673299769
 20
0.0363521793435481
 30
0.0
 11
-0.1449962668829421
 21
0.0363521793435481
 31
0.0
  0
LINE
  5
44D
330
1F
100
AcDbEntity
  8
0
100
AcDbLine
 10
-0.1549962666594247
 20
0.0413521784591642
 30
0.0
 11
-0.1450962667130688
 21
0.0413521784591642
 31
0.0
  0
LINE
  5
44E
330
1F
100
AcDbEntity
  8
0
100
AcDbLine
 10
-0.1548962668292979
 20
0.0414521801519361
 30
0.0
 11
-0.1450962667130688
 21
0.0414521801519361
 31
0.0
  0
LINE
  5
44F
330
1F
100
AcDbEntity
  8
0
100
AcDbLine
 10
-0.1235317271911362
 20
0.0413521784591642
 30
0.0
 11
-0.1186163407527665
 21
0.0413521784591642
 31
0.0
  0
LINE
  5
450
330
1F
100
AcDbEntity
  8
0
100
AcDbLine
 10
-0.1170212314370286
 20
0.0134521792876688
 30
0.0
 11
-0.1529713027758904
 21
0.0134521792876688
 31
0.0
  0
LINE
  5
451
330
1F
100
AcDbEntity
  8
0
100
AcDbLine
 10
-0.1185413189940909
 20
0.0413521784591642
 30
0.0
 11
-0.1162959431075314
 21
0.0413521784591642
 31
0.0
  0
LINE
  5
452
330
1F
100
AcDbEntity
  8
0
100
AcDbLine
 10
-0.1549962666594247
 20
0.0134521792876688
 30
0.0
 11
-0.1529713027758904
 21
0.0134521792876688
 31
0.0
  0
LINE
  5
453
330
1F
100
AcDbEntity
  8
0
100
AcDbLine
 10
-0.1170212314370286
 20
0.0134521792876688
 30
0.0
 11
-0.1149962675534943
 21
0.0134521792876688
 31
0.0
  0
LINE
  5
454
330
1F
100
AcDbEntity
  8
0
100
AcDbLine
 10
-0.1248962674998502
 20
0.0414521801519361
 30
0.0
 11
-0.1450962667130688
 21
0.0414521801519361
 31
0.0
  0
LINE
  5
455
330
1F
100
AcDbEntity
  8
0
100
AcDbLine
 10
-0.1150962673836211
 20
0.0414521801519361
 30
0.0
 11
-0.1248962674998502
 21
0.0414521801519361
 31
0.0
  0
LINE
  5
456
330
1F
100
AcDbEntity
  8
0
100
AcDbLine
 10
-0.1248962674998501
 20
0.0413521784591642
 30
0.0
 11
-0.1248962674998502
 21
0.0414521801519361
 31
0.0
  0
LINE
  5
457
330
1F
100
AcDbEntity
  8
0
100
AcDbLine
 10
-0.1191805682843191
 20
0.010952179265317
 30
0.0
 11
-0.1184298388597025
 21
0.0109521783935991
 31
0.0
  0
LINE
  5
458
330
1F
100
AcDbEntity
  8
0
100
AcDbLine
 10
-0.1164970024657618
 20
0.0109521783935991
 30
0.0
 11
-0.1153469816180989
 21
0.0109521783935991
 31
0.0
  0
LINE
  5
459
330
1F
100
AcDbEntity
  8
0
100
AcDbLine
 10
-0.194996265765355
 20
-0.0150478207384082
 30
0.0
 11
-0.074996268447564
 21
-0.0150478207384082
 31
0.0
  0
LINE
  5
45A
330
1F
100
AcDbEntity
  8
0
100
AcDbLine
 10
-0.1548455447954669
 20
0.0108221786158686
 30
0.0
 11
-0.1151469894174521
 21
0.0108221786158686
 31
0.0
  0
LINE
  5
45B
330
1F
100
AcDbEntity
  8
0
100
AcDbLine
 10
-0.1380602713214992
 20
0.010952179265317
 30
0.0
 11
-0.1365019912832325
 21
0.010952179265317
 31
0.0
  0
LINE
  5
45C
330
1F
100
AcDbEntity
  8
0
100
AcDbLine
 10
-0.1546455541808521
 20
0.010952177991705
 30
0.0
 11
-0.1535489103761503
 21
0.0109521783935991
 31
0.0
  0
LINE
  5
45D
330
1F
100
AcDbEntity
  8
0
100
AcDbLine
 10
-0.1438371930914562
 20
0.0109521783935991
 30
0.0
 11
-0.1426126135967506
 21
0.010952179265317
 31
0.0
  0
LINE
  5
45E
330
1F
100
AcDbEntity
  8
0
100
AcDbLine
 10
-0.1507162204530696
 20
0.010952179265317
 30
0.0
 11
-0.1534767986358692
 21
0.010952179265317
 31
0.0
  0
LINE
  5
45F
330
1F
100
AcDbEntity
  8
0
100
AcDbLine
 10
-0.1338783313666971
 20
0.0109521783935991
 30
0.0
 11
-0.136139974667698
 21
0.010952179265317
 31
0.0
  0
LINE
  5
460
330
1F
100
AcDbEntity
  8
0
100
AcDbLine
 10
-0.136139974667698
 20
0.010952179265317
 30
0.0
 11
-0.1365019912832325
 21
0.010952179265317
 31
0.0
  0
LINE
  5
461
330
1F
100
AcDbEntity
  8
0
100
AcDbLine
 10
-0.1180632605163567
 20
0.0109521783935991
 30
0.0
 11
-0.1182899271128276
 21
0.0109521783935991
 31
0.0
  0
LINE
  5
462
330
1F
100
AcDbEntity
  8
0
100
AcDbLine
 10
-0.1196609409331607
 20
0.0109521783935991
 30
0.0
 11
-0.1203336243308372
 21
0.0109521783935991
 31
0.0
  0
LINE
  5
463
330
1F
100
AcDbEntity
  8
0
100
AcDbLine
 10
-0.1269339675799969
 20
0.0109521783935991
 30
0.0
 11
-0.1236154764976703
 21
0.010952179265317
 31
0.0
  0
LINE
  5
464
330
1F
100
AcDbEntity
  8
0
100
AcDbLine
 10
-0.1274302390637979
 20
0.010952179265317
 30
0.0
 11
-0.1316893383022207
 21
0.010952179265317
 31
0.0
  0
LINE
  5
465
330
1F
100
AcDbEntity
  8
0
100
AcDbLine
 10
-0.1338783313666971
 20
0.0109521783935991
 30
0.0
 11
-0.1318072780334669
 21
0.010952179265317
 31
0.0
  0
LINE
  5
466
330
1F
100
AcDbEntity
  8
0
100
AcDbLine
 10
-0.1425586198491665
 20
0.010952179265317
 30
0.0
 11
-0.1383556067475953
 21
0.010952179265317
 31
0.0
  0
LINE
  5
467
330
1F
100
AcDbEntity
  8
0
100
AcDbLine
 10
-0.1460521359411249
 20
0.0109521783935991
 30
0.0
 11
-0.1445816598430801
 21
0.010952179265317
 31
0.0
  0
LINE
  5
468
330
1F
100
AcDbEntity
  8
0
100
AcDbLine
 10
-0.1507162204530696
 20
0.010952179265317
 30
0.0
 11
-0.1470909187680919
 21
0.0109521783935991
 31
0.0
  0
LINE
  5
469
330
1F
100
AcDbEntity
  8
0
100
AcDbLine
 10
0.0301037330775698
 20
0.0149521791498332
 30
0.0
 11
0.0312163375913342
 21
0.0148268189403383
 31
0.0
  0
LINE
  5
46A
330
1F
100
AcDbEntity
  8
0
100
AcDbLine
 10
0.0199037327095112
 20
0.0149521791498332
 30
0.0
 11
0.0301037330775698
 21
0.0149521791498332
 31
0.0
  0
LINE
  5
46B
330
1F
100
AcDbEntity
  8
0
100
AcDbLine
 10
0.0199037327095112
 20
0.0149521791498332
 30
0.0
 11
0.0190148304527791
 21
0.0148520240886719
 31
0.0
  0
LINE
  5
46C
330
1F
100
AcDbEntity
  8
0
100
AcDbLine
 10
0.0149037332869311
 20
-0.0071942497853966
 30
0.0
 11
0.0149037332869311
 21
-0.0072821275208922
 31
0.0
  0
LINE
  5
46D
330
1F
100
AcDbEntity
  8
0
100
AcDbLine
 10
0.038255139034166
 20
-0.0050059704919191
 30
0.0
 11
0.037853543426766
 21
-0.0053736929659577
 31
0.0
  0
LINE
  5
46E
330
1F
100
AcDbEntity
  8
0
100
AcDbLine
 10
0.0351037325001498
 20
-0.0071942497853966
 30
0.0
 11
0.0351037325001498
 21
-0.0072772492532464
 31
0.0
  0
LINE
  5
46F
330
1F
100
AcDbEntity
  8
0
100
AcDbLine
 10
0.0449129514255616
 20
0.0118555995880456
 30
0.0
 11
0.0448469433275078
 21
0.0123356253009492
 31
0.0
  0
LINE
  5
470
330
1F
100
AcDbEntity
  8
0
100
AcDbLine
 10
0.0448400376028558
 20
0.0075437995727312
 30
0.0
 11
0.0448733514415619
 21
0.0077967279255485
 31
0.0
  0
LINE
  5
471
330
1F
100
AcDbEntity
  8
0
100
AcDbLine
 10
0.0443712957666204
 20
0.0049973979731632
 30
0.0
 11
0.0444093136206714
 21
0.0051688044479648
 31
0.0
  0
LINE
  5
472
330
1F
100
AcDbEntity
  8
0
100
AcDbLine
 10
0.0363112964701414
 20
-0.006535811737692
 30
0.0
 11
0.0362505504630498
 21
-0.0065803536020181
 31
0.0
  0
LINE
  5
473
330
1F
100
AcDbEntity
  8
0
100
AcDbLine
 10
0.0229057433432459
 20
0.0299521792140943
 30
0.0
 11
0.0223296647710137
 21
0.0299521792140943
 31
0.0
  0
LINE
  5
474
330
1F
100
AcDbEntity
  8
0
100
AcDbLine
 10
0.02399565225982
 20
0.0299521792140943
 30
0.0
 11
0.0229057433432459
 21
0.0299521792140943
 31
0.0
  0
LINE
  5
475
330
1F
100
AcDbEntity
  8
0
100
AcDbLine
 10
0.024692208085365
 20
0.0299521792140943
 30
0.0
 11
0.0251713994180001
 21
0.0299521792140943
 31
0.0
  0
LINE
  5
476
330
1F
100
AcDbEntity
  8
0
100
AcDbLine
 10
0.0256454962974193
 20
0.0299521792140943
 30
0.0
 11
0.0261000935085749
 21
0.0299521792140943
 31
0.0
  0
LINE
  5
477
330
1F
100
AcDbEntity
  8
0
100
AcDbLine
 10
0.0271030088494929
 20
0.0299521792140943
 30
0.0
 11
0.0263157284451912
 21
0.0299521792140943
 31
0.0
  0
LINE
  5
478
330
1F
100
AcDbEntity
  8
0
100
AcDbLine
 10
0.0276404255263329
 20
0.0299521792140943
 30
0.0
 11
0.0271030088494929
 21
0.0299521792140943
 31
0.0
  0
LINE
  5
479
330
1F
100
AcDbEntity
  8
0
100
AcDbLine
 10
0.0276404255263329
 20
0.0299521792140943
 30
0.0
 11
0.0277360308735344
 21
0.0299521792140943
 31
0.0
  0
LINE
  5
47A
330
1F
100
AcDbEntity
  8
0
100
AcDbLine
 10
0.0246018324993779
 20
0.0308971805126269
 30
0.0
 11
0.0243974639578713
 21
0.0308971805126269
 31
0.0
  0
LINE
  5
47B
330
1F
100
AcDbEntity
  8
0
100
AcDbLine
 10
0.1864037317930897
 20
-0.0073102068965168
 30
0.0
 11
0.1864037316343924
 21
-0.0100478202913733
 31
0.0
  0
LINE
  5
47C
330
1F
100
AcDbEntity
  8
0
100
AcDbLine
 10
0.1914037315226337
 20
-0.0550478207384083
 30
0.0
 11
0.1914037315226337
 21
-0.0073102068965169
 31
0.0
  0
LINE
  5
47D
330
1F
100
AcDbEntity
  8
0
100
AcDbLine
 10
0.1864037316343924
 20
-0.0550478207384083
 30
0.0
 11
0.1864037316343924
 21
-0.0100478202913733
 31
0.0
  0
LINE
  5
47E
330
1F
100
AcDbEntity
  8
0
100
AcDbLine
 10
0.1914037307500085
 20
0.029952178814557
 30
0.0
 11
0.1914037307500085
 21
0.029806356051114
 31
0.0
  0
LINE
  5
47F
330
1F
100
AcDbEntity
  8
0
100
AcDbLine
 10
0.1914037315226337
 20
-0.0073102068965169
 30
0.0
 11
0.1914037307500085
 21
0.029806356051114
 31
0.0
  0
LINE
  5
480
330
1F
100
AcDbEntity
  8
0
100
AcDbLine
 10
0.163503731578513
 20
-0.0080364478931939
 30
0.0
 11
0.163503731578513
 21
-0.0100478202913733
 31
0.0
  0
LINE
  5
481
330
1F
100
AcDbEntity
  8
0
100
AcDbLine
 10
0.163503731578513
 20
-0.0080364478931939
 30
0.0
 11
0.163503731578513
 21
0.0099521792615919
 31
0.0
  0
LINE
  5
482
330
1F
100
AcDbEntity
  8
0
100
AcDbLine
 10
0.1708222874135956
 20
0.0256468733178288
 30
0.0
 11
0.1727618863581857
 21
0.029806356051114
 31
0.0
  0
LINE
  5
483
330
1F
100
AcDbEntity
  8
0
100
AcDbLine
 10
0.1915037324427804
 20
0.0298521789844303
 30
0.0
 11
0.1915037324427804
 21
-0.0071942497853966
 31
0.0
  0
LINE
  5
484
330
1F
100
AcDbEntity
  8
0
100
AcDbLine
 10
0.1708222874135956
 20
0.0256468733178288
 30
0.0
 11
0.163503731578513
 21
0.0099521792615919
 31
0.0
  0
LINE
  5
485
330
1F
100
AcDbEntity
  8
0
100
AcDbLine
 10
0.138003731578513
 20
-0.0099087235395642
 30
0.0
 11
0.138003731578513
 21
-0.0500478193973036
 31
0.0
  0
LINE
  5
486
330
1F
100
AcDbEntity
  8
0
100
AcDbLine
 10
0.138003731578513
 20
0.0297979526006232
 30
0.0
 11
0.138003731578513
 21
-0.0099087235395642
 31
0.0
  0
LINE
  5
487
330
1F
100
AcDbEntity
  8
0
100
AcDbLine
 10
0.138003731578513
 20
0.0297979526006232
 30
0.0
 11
0.138003731578513
 21
0.0699521779204873
 31
0.0
  0
LINE
  5
488
330
1F
100
AcDbEntity
  8
0
100
AcDbLine
 10
0.1796404242113054
 20
0.0299521792140943
 30
0.0
 11
0.1790295082940673
 21
0.029952178814557
 31
0.0
  0
LINE
  5
489
330
1F
100
AcDbEntity
  8
0
100
AcDbLine
 10
0.1914037307500085
 20
0.029952178814557
 30
0.0
 11
0.1796404242113054
 21
0.0299521792140943
 31
0.0
  0
LINE
  5
48A
330
1F
100
AcDbEntity
  8
0
100
AcDbLine
 10
0.1743296634559863
 20
0.0299521792140943
 30
0.0
 11
0.17424123797854
 21
0.029952178814557
 31
0.0
  0
LINE
  5
48B
330
1F
100
AcDbEntity
  8
0
100
AcDbLine
 10
0.17471042558243
 20
0.0299521792140943
 30
0.0
 11
0.1743296634559863
 21
0.0299521792140943
 31
0.0
  0
LINE
  5
48C
330
1F
100
AcDbEntity
  8
0
100
AcDbLine
 10
0.178715476744258
 20
0.0299521792140943
 30
0.0
 11
0.175367794210879
 21
0.0299521792140943
 31
0.0
  0
LINE
  5
48D
330
1F
100
AcDbEntity
  8
0
100
AcDbLine
 10
0.1609582155721494
 20
0.0157429478630667
 30
0.0
 11
0.1609525941456338
 21
0.0155995333924359
 31
0.0
  0
LINE
  5
48E
330
1F
100
AcDbEntity
  8
0
100
AcDbLine
 10
0.135003731552436
 20
0.0699521779204873
 30
0.0
 11
0.135003731552436
 21
-0.0500478193973036
 31
0.0
  0
LINE
  5
48F
330
1F
100
AcDbEntity
  8
0
100
AcDbLine
 10
0.1608737309067128
 20
-0.0087892959258956
 30
0.0
 11
0.1608737309067128
 21
-0.0098970984274156
 31
0.0
  0
LINE
  5
490
330
1F
100
AcDbEntity
  8
0
100
AcDbLine
 10
0.1608737309067128
 20
0.029168915932959
 30
0.0
 11
0.1608737309067128
 21
-0.0083213924875696
 31
0.0
  0
LINE
  5
491
330
1F
100
AcDbEntity
  8
0
100
AcDbLine
 10
0.1610037306844434
 20
0.0025875171548206
 30
0.0
 11
0.1610037306844434
 21
0.0062831221770798
 31
0.0
  0
LINE
  5
492
330
1F
100
AcDbEntity
  8
0
100
AcDbLine
 10
0.1610037315561613
 20
-0.0085477121131524
 30
0.0
 11
0.1610037306844434
 21
-0.0096971062267687
 31
0.0
  0
LINE
  5
493
330
1F
100
AcDbEntity
  8
0
100
AcDbLine
 10
0.1610037306844434
 20
0.0101197271056784
 30
0.0
 11
0.1610037315561613
 21
0.0123648858269282
 31
0.0
  0
LINE
  5
494
330
1F
100
AcDbEntity
  8
0
100
AcDbLine
 10
0.1610037306844434
 20
0.0075535471603505
 30
0.0
 11
0.1610037315561613
 21
0.0089293011220798
 31
0.0
  0
LINE
  5
495
330
1F
100
AcDbEntity
  8
0
100
AcDbLine
 10
0.1610037306844434
 20
0.0151996274069501
 30
0.0
 11
0.1610037306844434
 21
0.0126830401424416
 31
0.0
  0
LINE
  5
496
330
1F
100
AcDbEntity
  8
0
100
AcDbLine
 10
0.1610037306844434
 20
0.0176264294541937
 30
0.0
 11
0.1610037315561613
 21
0.0195450166152513
 31
0.0
  0
LINE
  5
497
330
1F
100
AcDbEntity
  8
0
100
AcDbLine
 10
0.1610037306844434
 20
0.0256430020988273
 30
0.0
 11
0.1610037315561613
 21
0.0267836907787184
 31
0.0
  0
LINE
  5
498
330
1F
100
AcDbEntity
  8
0
100
AcDbLine
 10
0.1610037315561613
 20
0.0243059249252815
 30
0.0
 11
0.1610037315561613
 21
0.0232644174121314
 31
0.0
  0
LINE
  5
499
330
1F
100
AcDbEntity
  8
0
100
AcDbLine
 10
0.1610037315561613
 20
0.0001985607915955
 30
0.0
 11
0.1610037306844434
 21
0.0016061652107921
 31
0.0
  0
LINE
  5
49A
330
1F
100
AcDbEntity
  8
0
100
AcDbLine
 10
0.1610037306844434
 20
0.0286125372643809
 30
0.0
 11
0.1610037306844434
 21
0.0296014647499524
 31
0.0
  0
LINE
  5
49B
330
1F
100
AcDbEntity
  8
0
100
AcDbLine
 10
0.1610037315561613
 20
-0.0076869351270193
 30
0.0
 11
0.1610037315561613
 21
-0.0082297329949199
 31
0.0
  0
LINE
  5
49C
330
1F
100
AcDbEntity
  8
0
100
AcDbLine
 10
0.1610037315561613
 20
-0.004588427970206
 30
0.0
 11
0.1610037315561613
 21
-0.0058515363532369
 31
0.0
  0
LINE
  5
49D
330
1F
100
AcDbEntity
  8
0
100
AcDbLine
 10
0.1610037315561613
 20
0.0001985607915955
 30
0.0
 11
0.1610037315561613
 21
-0.004481229175919
 31
0.0
  0
LINE
  5
49E
330
1F
100
AcDbEntity
  8
0
100
AcDbLine
 10
0.0449804998218601
 20
0.0106054166930548
 30
0.0
 11
0.0450021342371475
 21
0.0102050078392928
 31
0.0
  0
LINE
  5
49F
330
1F
100
AcDbEntity
  8
0
100
AcDbLine
 10
0.174951698898183
 20
0.0298298818934476
 30
0.0
 11
0.174951698898183
 21
0.0299172227983423
 31
0.0
  0
LINE
  5
4A0
330
1F
100
AcDbEntity
  8
0
100
AcDbLine
 10
-0.1248962674998501
 20
0.041443466697928
 30
0.0
 11
-0.1248962674998501
 21
0.0413985993015733
 31
0.0
  0
LINE
  5
4A1
330
1F
100
AcDbEntity
  8
0
100
AcDbLine
 10
0.0351037325001498
 20
-0.0072382175241442
 30
0.0
 11
0.0351037325001498
 21
-0.0072969672147961
 31
0.0
  0
LINE
  5
4A2
330
1F
100
AcDbEntity
  8
0
100
AcDbLine
 10
0.0249247998845949
 20
0.0309493009696119
 30
0.0
 11
0.0250037328935405
 21
0.0309521792615918
 31
0.0
  0
LINE
  5
4A3
330
1F
100
AcDbEntity
  8
0
100
AcDbLine
 10
0.024941270018496
 20
0.0309493009696119
 30
0.0
 11
0.0250037328935405
 21
0.0309521792615918
 31
0.0
  0
LINE
  5
4A4
330
1F
100
AcDbEntity
  8
0
100
AcDbLine
 10
0.0249744770346172
 20
0.0309493009696119
 30
0.0
 11
0.0250037328935405
 21
0.0309521792615918
 31
0.0
  0
LINE
  5
4A5
330
1F
100
AcDbEntity
  8
0
100
AcDbLine
 10
0.024941270018496
 20
0.0309493009696119
 30
0.0
 11
0.0249744770346172
 21
0.0309493009696119
 31
0.0
  0
LINE
  5
4A6
330
1F
100
AcDbEntity
  8
0
100
AcDbLine
 10
0.0249744770346172
 20
0.0309493009696119
 30
0.0
 11
0.0250155231325097
 21
0.0309493009696119
 31
0.0
  0
LINE
  5
4A7
330
1F
100
AcDbEntity
  8
0
100
AcDbLine
 10
0.0250155231325097
 20
0.0309493009696119
 30
0.0
 11
0.0250534100452857
 21
0.0309493009696119
 31
0.0
  0
LINE
  5
4A8
330
1F
100
AcDbEntity
  8
0
100
AcDbLine
 10
0.0250534100452857
 20
0.0309493009696119
 30
0.0
 11
0.0250037328935405
 21
0.0309521792615918
 31
0.0
  0
LINE
  5
4A9
330
1F
100
AcDbEntity
  8
0
100
AcDbLine
 10
0.0250779860038698
 20
0.0309493009696119
 30
0.0
 11
0.0250037328935405
 21
0.0309521792615918
 31
0.0
  0
LINE
  5
4AA
330
1F
100
AcDbEntity
  8
0
100
AcDbLine
 10
0.0249247998845949
 20
0.0309493009696119
 30
0.0
 11
0.0246577421862667
 21
0.0309303058921863
 31
0.0
  0
LINE
  5
4AB
330
1F
100
AcDbEntity
  8
0
100
AcDbLine
 10
0.0248492748740083
 20
0.0309303058921863
 30
0.0
 11
0.0248228675758508
 21
0.0309303058921863
 31
0.0
  0
LINE
  5
4AC
330
1F
100
AcDbEntity
  8
0
100
AcDbLine
 10
0.0248768576922881
 20
0.0309303058921863
 30
0.0
 11
0.0248492748740083
 21
0.0309303058921863
 31
0.0
  0
LINE
  5
4AD
330
1F
100
AcDbEntity
  8
0
100
AcDbLine
 10
0.0249054061056809
 20
0.0309303058921863
 30
0.0
 11
0.0248768576922881
 21
0.0309303058921863
 31
0.0
  0
LINE
  5
4AE
330
1F
100
AcDbEntity
  8
0
100
AcDbLine
 10
0.0249347028454759
 20
0.0309303058921863
 30
0.0
 11
0.0249054061056809
 21
0.0309303058921863
 31
0.0
  0
LINE
  5
4AF
330
1F
100
AcDbEntity
  8
0
100
AcDbLine
 10
0.0249645249451973
 20
0.0309303058921863
 30
0.0
 11
0.0249347028454759
 21
0.0309303058921863
 31
0.0
  0
LINE
  5
4B0
330
1F
100
AcDbEntity
  8
0
100
AcDbLine
 10
0.024994645441275
 20
0.0309303058921863
 30
0.0
 11
0.0249645249451973
 21
0.0309303058921863
 31
0.0
  0
LINE
  5
4B1
330
1F
100
AcDbEntity
  8
0
100
AcDbLine
 10
0.0250248350989605
 20
0.0309303058921863
 30
0.0
 11
0.024994645441275
 21
0.0309303058921863
 31
0.0
  0
LINE
  5
4B2
330
1F
100
AcDbEntity
  8
0
100
AcDbLine
 10
0.0250548641547139
 20
0.0309303058921863
 30
0.0
 11
0.0250248350989605
 21
0.0309303058921863
 31
0.0
  0
LINE
  5
4B3
330
1F
100
AcDbEntity
  8
0
100
AcDbLine
 10
0.0250845040723464
 20
0.0309303058921863
 30
0.0
 11
0.0250548641547139
 21
0.0309303058921863
 31
0.0
  0
LINE
  5
4B4
330
1F
100
AcDbEntity
  8
0
100
AcDbLine
 10
0.0251135292719921
 20
0.0309303058921863
 30
0.0
 11
0.0250845040723464
 21
0.0309303058921863
 31
0.0
  0
LINE
  5
4B5
330
1F
100
AcDbEntity
  8
0
100
AcDbLine
 10
0.0251417188552321
 20
0.0309303058921863
 30
0.0
 11
0.0251135292719921
 21
0.0309303058921863
 31
0.0
  0
LINE
  5
4B6
330
1F
100
AcDbEntity
  8
0
100
AcDbLine
 10
0.0251688582831245
 20
0.0309303058921863
 30
0.0
 11
0.0251417188552321
 21
0.0309303058921863
 31
0.0
  0
LINE
  5
4B7
330
1F
100
AcDbEntity
  8
0
100
AcDbLine
 10
0.0251947410088821
 20
0.0309303058921863
 30
0.0
 11
0.0251688582831245
 21
0.0309303058921863
 31
0.0
  0
LINE
  5
4B8
330
1F
100
AcDbEntity
  8
0
100
AcDbLine
 10
0.0256063069686557
 20
0.0308971805126269
 30
0.0
 11
0.0253476149664784
 21
0.0309303058921863
 31
0.0
  0
LINE
  5
4B9
330
1F
100
AcDbEntity
  8
0
100
AcDbLine
 10
0.0253497236008143
 20
0.0309303058921863
 30
0.0
 11
0.0250779860038698
 21
0.0309493009696119
 31
0.0
  0
LINE
  5
4BA
330
1F
100
AcDbEntity
  8
0
100
AcDbLine
 10
0.0250779860038698
 20
0.0309493009696119
 30
0.0
 11
0.0253476149664784
 21
0.0309303058921863
 31
0.0
  0
LINE
  5
4BB
330
1F
100
AcDbEntity
  8
0
100
AcDbLine
 10
0.0250779860038698
 20
0.0309493009696119
 30
0.0
 11
0.0253428892050175
 21
0.0309303058921863
 31
0.0
  0
LINE
  5
4BC
330
1F
100
AcDbEntity
  8
0
100
AcDbLine
 10
0.0250779860038698
 20
0.0309493009696119
 30
0.0
 11
0.0253355822358032
 21
0.0309303058921863
 31
0.0
  0
LINE
  5
4BD
330
1F
100
AcDbEntity
  8
0
100
AcDbLine
 10
0.0250779860038698
 20
0.0309493009696119
 30
0.0
 11
0.0253257496997675
 21
0.0309303058921863
 31
0.0
  0
LINE
  5
4BE
330
1F
100
AcDbEntity
  8
0
100
AcDbLine
 10
0.0250779860038698
 20
0.0309493009696119
 30
0.0
 11
0.025313466448912
 21
0.0309303058921863
 31
0.0
  0
LINE
  5
4BF
330
1F
100
AcDbEntity
  8
0
100
AcDbLine
 10
0.0250534100452857
 20
0.0309493009696119
 30
0.0
 11
0.025313466448912
 21
0.0309303058921863
 31
0.0
  0
LINE
  5
4C0
330
1F
100
AcDbEntity
  8
0
100
AcDbLine
 10
0.0250534100452857
 20
0.0309493009696119
 30
0.0
 11
0.0252988258916866
 21
0.0309303058921863
 31
0.0
  0
LINE
  5
4C1
330
1F
100
AcDbEntity
  8
0
100
AcDbLine
 10
0.0250534100452857
 20
0.0309493009696119
 30
0.0
 11
0.0252819395430748
 21
0.0309303058921863
 31
0.0
  0
LINE
  5
4C2
330
1F
100
AcDbEntity
  8
0
100
AcDbLine
 10
0.0250534100452857
 20
0.0309493009696119
 30
0.0
 11
0.0252629358496268
 21
0.0309303058921863
 31
0.0
  0
LINE
  5
4C3
330
1F
100
AcDbEntity
  8
0
100
AcDbLine
 10
0.0250534100452857
 20
0.0309493009696119
 30
0.0
 11
0.0252419594805666
 21
0.0309303058921863
 31
0.0
  0
LINE
  5
4C4
330
1F
100
AcDbEntity
  8
0
100
AcDbLine
 10
0.0250534100452857
 20
0.0309493009696119
 30
0.0
 11
0.0252191700423716
 21
0.0309303058921863
 31
0.0
  0
LINE
  5
4C5
330
1F
100
AcDbEntity
  8
0
100
AcDbLine
 10
0.0250534100452857
 20
0.0309493009696119
 30
0.0
 11
0.0251947410088821
 21
0.0309303058921863
 31
0.0
  0
LINE
  5
4C6
330
1F
100
AcDbEntity
  8
0
100
AcDbLine
 10
0.0250155231325097
 20
0.0309493009696119
 30
0.0
 11
0.0251947410088821
 21
0.0309303058921863
 31
0.0
  0
LINE
  5
4C7
330
1F
100
AcDbEntity
  8
0
100
AcDbLine
 10
0.0250155231325097
 20
0.0309493009696119
 30
0.0
 11
0.0251688582831245
 21
0.0309303058921863
 31
0.0
  0
LINE
  5
4C8
330
1F
100
AcDbEntity
  8
0
100
AcDbLine
 10
0.0250155231325097
 20
0.0309493009696119
 30
0.0
 11
0.0251417188552321
 21
0.0309303058921863
 31
0.0
  0
LINE
  5
4C9
330
1F
100
AcDbEntity
  8
0
100
AcDbLine
 10
0.0250155231325097
 20
0.0309493009696119
 30
0.0
 11
0.0251135292719921
 21
0.0309303058921863
 31
0.0
  0
LINE
  5
4CA
330
1F
100
AcDbEntity
  8
0
100
AcDbLine
 10
0.0250155231325097
 20
0.0309493009696119
 30
0.0
 11
0.0250845040723464
 21
0.0309303058921863
 31
0.0
  0
LINE
  5
4CB
330
1F
100
AcDbEntity
  8
0
100
AcDbLine
 10
0.0250155231325097
 20
0.0309493009696119
 30
0.0
 11
0.0250548641547139
 21
0.0309303058921863
 31
0.0
  0
LINE
  5
4CC
330
1F
100
AcDbEntity
  8
0
100
AcDbLine
 10
0.0249744770346172
 20
0.0309493009696119
 30
0.0
 11
0.0250248350989605
 21
0.0309303058921863
 31
0.0
  0
LINE
  5
4CD
330
1F
100
AcDbEntity
  8
0
100
AcDbLine
 10
0.0249744770346172
 20
0.0309493009696119
 30
0.0
 11
0.024994645441275
 21
0.0309303058921863
 31
0.0
  0
LINE
  5
4CE
330
1F
100
AcDbEntity
  8
0
100
AcDbLine
 10
0.0249744770346172
 20
0.0309493009696119
 30
0.0
 11
0.0249347028454759
 21
0.0309303058921863
 31
0.0
  0
LINE
  5
4CF
330
1F
100
AcDbEntity
  8
0
100
AcDbLine
 10
0.0249744770346172
 20
0.0309493009696119
 30
0.0
 11
0.0249054061056809
 21
0.0309303058921863
 31
0.0
  0
LINE
  5
4D0
330
1F
100
AcDbEntity
  8
0
100
AcDbLine
 10
0.0249744770346172
 20
0.0309493009696119
 30
0.0
 11
0.0248768576922881
 21
0.0309303058921863
 31
0.0
  0
LINE
  5
4D1
330
1F
100
AcDbEntity
  8
0
100
AcDbLine
 10
0.0249744770346172
 20
0.0309493009696119
 30
0.0
 11
0.0248492748740083
 21
0.0309303058921863
 31
0.0
  0
LINE
  5
4D2
330
1F
100
AcDbEntity
  8
0
100
AcDbLine
 10
0.024941270018496
 20
0.0309493009696119
 30
0.0
 11
0.0248492748740083
 21
0.0309303058921863
 31
0.0
  0
LINE
  5
4D3
330
1F
100
AcDbEntity
  8
0
100
AcDbLine
 10
0.024941270018496
 20
0.0309493009696119
 30
0.0
 11
0.0248228675758508
 21
0.0309303058921863
 31
0.0
  0
LINE
  5
4D4
330
1F
100
AcDbEntity
  8
0
100
AcDbLine
 10
0.024941270018496
 20
0.0309493009696119
 30
0.0
 11
0.0247978367678428
 21
0.0309303058921863
 31
0.0
  0
LINE
  5
4D5
330
1F
100
AcDbEntity
  8
0
100
AcDbLine
 10
0.024941270018496
 20
0.0309493009696119
 30
0.0
 11
0.0247743729601331
 21
0.0309303058921863
 31
0.0
  0
LINE
  5
4D6
330
1F
100
AcDbEntity
  8
0
100
AcDbLine
 10
0.024941270018496
 20
0.0309493009696119
 30
0.0
 11
0.0247526547076902
 21
0.0309303058921863
 31
0.0
  0
LINE
  5
4D7
330
1F
100
AcDbEntity
  8
0
100
AcDbLine
 10
0.024941270018496
 20
0.0309493009696119
 30
0.0
 11
0.02473284733394
 21
0.0309303058921863
 31
0.0
  0
LINE
  5
4D8
330
1F
100
AcDbEntity
  8
0
100
AcDbLine
 10
0.024941270018496
 20
0.0309493009696119
 30
0.0
 11
0.0247151015468436
 21
0.0309303058921863
 31
0.0
  0
LINE
  5
4D9
330
1F
100
AcDbEntity
  8
0
100
AcDbLine
 10
0.0249247998845949
 20
0.0309493009696119
 30
0.0
 11
0.0247151015468436
 21
0.0309303058921863
 31
0.0
  0
LINE
  5
4DA
330
1F
100
AcDbEntity
  8
0
100
AcDbLine
 10
0.0249247998845949
 20
0.0309493009696119
 30
0.0
 11
0.0246995524431289
 21
0.0309303058921863
 31
0.0
  0
LINE
  5
4DB
330
1F
100
AcDbEntity
  8
0
100
AcDbLine
 10
0.0249247998845949
 20
0.0309493009696119
 30
0.0
 11
0.0246863182916442
 21
0.0309303058921863
 31
0.0
  0
LINE
  5
4DC
330
1F
100
AcDbEntity
  8
0
100
AcDbLine
 10
0.0249247998845949
 20
0.0309493009696119
 30
0.0
 11
0.0246754999039365
 21
0.0309303058921863
 31
0.0
  0
LINE
  5
4DD
330
1F
100
AcDbEntity
  8
0
100
AcDbLine
 10
0.0249247998845949
 20
0.0309493009696119
 30
0.0
 11
0.024667179539902
 21
0.0309303058921863
 31
0.0
  0
LINE
  5
4DE
330
1F
100
AcDbEntity
  8
0
100
AcDbLine
 10
0.0249247998845949
 20
0.0309493009696119
 30
0.0
 11
0.0246614205430749
 21
0.0309303058921863
 31
0.0
  0
LINE
  5
4DF
330
1F
100
AcDbEntity
  8
0
100
AcDbLine
 10
0.0249247998845949
 20
0.0309493009696119
 30
0.0
 11
0.024658266773309
 21
0.0309303058921863
 31
0.0
  0
LINE
  5
4E0
330
1F
100
AcDbEntity
  8
0
100
AcDbLine
 10
0.0250826659024861
 20
0.0309493009696119
 30
0.0
 11
0.0250037328935405
 21
0.0309521792615918
 31
0.0
  0
LINE
  5
4E1
330
1F
100
AcDbEntity
  8
0
100
AcDbLine
 10
0.025066195768585
 20
0.0309493009696119
 30
0.0
 11
0.0250037328935405
 21
0.0309521792615918
 31
0.0
  0
LINE
  5
4E2
330
1F
100
AcDbEntity
  8
0
100
AcDbLine
 10
0.0250454382062967
 20
0.0309493009696119
 30
0.0
 11
0.0250037328935405
 21
0.0309521792615918
 31
0.0
  0
LINE
  5
4E3
330
1F
100
AcDbEntity
  8
0
100
AcDbLine
 10
0.0250454382062967
 20
0.0309493009696119
 30
0.0
 11
0.0250127737636001
 21
0.0309493009696119
 31
0.0
  0
LINE
  5
4E4
330
1F
100
AcDbEntity
  8
0
100
AcDbLine
 10
0.0250037328935405
 20
0.0309521792615918
 30
0.0
 11
0.0249719150298923
 21
0.0309493009696119
 31
0.0
  0
LINE
  5
4E5
330
1F
100
AcDbEntity
  8
0
100
AcDbLine
 10
0.0250127737636001
 20
0.0309493009696119
 30
0.0
 11
0.0249719150298923
 21
0.0309493009696119
 31
0.0
  0
LINE
  5
4E6
330
1F
100
AcDbEntity
  8
0
100
AcDbLine
 10
0.0249719150298923
 20
0.0309493009696119
 30
0.0
 11
0.0249395818662504
 21
0.0309493009696119
 31
0.0
  0
LINE
  5
4E7
330
1F
100
AcDbEntity
  8
0
100
AcDbLine
 10
0.0249395818662504
 20
0.0309493009696119
 30
0.0
 11
0.0250037328935405
 21
0.0309521792615918
 31
0.0
  0
LINE
  5
4E8
330
1F
100
AcDbEntity
  8
0
100
AcDbLine
 10
0.0249272125186309
 20
0.0309493009696119
 30
0.0
 11
0.0250037328935405
 21
0.0309521792615918
 31
0.0
  0
LINE
  5
4E9
330
1F
100
AcDbEntity
  8
0
100
AcDbLine
 10
0.0253497236008143
 20
0.0309303058921863
 30
0.0
 11
0.0250826659024861
 21
0.0309493009696119
 31
0.0
  0
LINE
  5
4EA
330
1F
100
AcDbEntity
  8
0
100
AcDbLine
 10
0.0251581909130727
 20
0.0309303058921863
 30
0.0
 11
0.0251845982112302
 21
0.0309303058921863
 31
0.0
  0
LINE
  5
4EB
330
1F
100
AcDbEntity
  8
0
100
AcDbLine
 10
0.0251306080947929
 20
0.0309303058921863
 30
0.0
 11
0.0251581909130727
 21
0.0309303058921863
 31
0.0
  0
LINE
  5
4EC
330
1F
100
AcDbEntity
  8
0
100
AcDbLine
 10
0.0251020596814001
 20
0.0309303058921863
 30
0.0
 11
0.0251306080947929
 21
0.0309303058921863
 31
0.0
  0
LINE
  5
4ED
330
1F
100
AcDbEntity
  8
0
100
AcDbLine
 10
0.0250727629416051
 20
0.0309303058921863
 30
0.0
 11
0.0251020596814001
 21
0.0309303058921863
 31
0.0
  0
LINE
  5
4EE
330
1F
100
AcDbEntity
  8
0
100
AcDbLine
 10
0.0250429408418836
 20
0.0309303058921863
 30
0.0
 11
0.0250727629416051
 21
0.0309303058921863
 31
0.0
  0
LINE
  5
4EF
330
1F
100
AcDbEntity
  8
0
100
AcDbLine
 10
0.0250128203458059
 20
0.0309303058921863
 30
0.0
 11
0.0250429408418836
 21
0.0309303058921863
 31
0.0
  0
LINE
  5
4F0
330
1F
100
AcDbEntity
  8
0
100
AcDbLine
 10
0.0249826306881205
 20
0.0309303058921863
 30
0.0
 11
0.0250128203458059
 21
0.0309303058921863
 31
0.0
  0
LINE
  5
4F1
330
1F
100
AcDbEntity
  8
0
100
AcDbLine
 10
0.024952601632367
 20
0.0309303058921863
 30
0.0
 11
0.0249826306881205
 21
0.0309303058921863
 31
0.0
  0
LINE
  5
4F2
330
1F
100
AcDbEntity
  8
0
100
AcDbLine
 10
0.0249229617147345
 20
0.0309303058921863
 30
0.0
 11
0.024952601632367
 21
0.0309303058921863
 31
0.0
  0
LINE
  5
4F3
330
1F
100
AcDbEntity
  8
0
100
AcDbLine
 10
0.0248939365150889
 20
0.0309303058921863
 30
0.0
 11
0.0249229617147345
 21
0.0309303058921863
 31
0.0
  0
LINE
  5
4F4
330
1F
100
AcDbEntity
  8
0
100
AcDbLine
 10
0.0248657469318489
 20
0.0309303058921863
 30
0.0
 11
0.0248939365150889
 21
0.0309303058921863
 31
0.0
  0
LINE
  5
4F5
330
1F
100
AcDbEntity
  8
0
100
AcDbLine
 10
0.0248386075039564
 20
0.0309303058921863
 30
0.0
 11
0.0248657469318489
 21
0.0309303058921863
 31
0.0
  0
LINE
  5
4F6
330
1F
100
AcDbEntity
  8
0
100
AcDbLine
 10
0.0248127247781988
 20
0.0309303058921863
 30
0.0
 11
0.0248386075039564
 21
0.0309303058921863
 31
0.0
  0
LINE
  5
4F7
330
1F
100
AcDbEntity
  8
0
100
AcDbLine
 10
0.0244011588184253
 20
0.0308971805126269
 30
0.0
 11
0.0246598508206026
 21
0.0309303058921863
 31
0.0
  0
LINE
  5
4F8
330
1F
100
AcDbEntity
  8
0
100
AcDbLine
 10
0.0249247998845949
 20
0.0309493009696119
 30
0.0
 11
0.0246598508206026
 21
0.0309303058921863
 31
0.0
  0
LINE
  5
4F9
330
1F
100
AcDbEntity
  8
0
100
AcDbLine
 10
0.0249272125186309
 20
0.0309493009696119
 30
0.0
 11
0.0246598508206026
 21
0.0309303058921863
 31
0.0
  0
LINE
  5
4FA
330
1F
100
AcDbEntity
  8
0
100
AcDbLine
 10
0.0249272125186309
 20
0.0309493009696119
 30
0.0
 11
0.0246645765820635
 21
0.0309303058921863
 31
0.0
  0
LINE
  5
4FB
330
1F
100
AcDbEntity
  8
0
100
AcDbLine
 10
0.0249272125186309
 20
0.0309493009696119
 30
0.0
 11
0.0246718835512777
 21
0.0309303058921863
 31
0.0
  0
LINE
  5
4FC
330
1F
100
AcDbEntity
  8
0
100
AcDbLine
 10
0.0249395818662504
 20
0.0309493009696119
 30
0.0
 11
0.0246718835512777
 21
0.0309303058921863
 31
0.0
  0
LINE
  5
4FD
330
1F
100
AcDbEntity
  8
0
100
AcDbLine
 10
0.0249395818662504
 20
0.0309493009696119
 30
0.0
 11
0.0246817160873134
 21
0.0309303058921863
 31
0.0
  0
LINE
  5
4FE
330
1F
100
AcDbEntity
  8
0
100
AcDbLine
 10
0.0249395818662504
 20
0.0309493009696119
 30
0.0
 11
0.0246939993381689
 21
0.0309303058921863
 31
0.0
  0
LINE
  5
4FF
330
1F
100
AcDbEntity
  8
0
100
AcDbLine
 10
0.0249395818662504
 20
0.0309493009696119
 30
0.0
 11
0.0247086398953943
 21
0.0309303058921863
 31
0.0
  0
LINE
  5
500
330
1F
100
AcDbEntity
  8
0
100
AcDbLine
 10
0.0249395818662504
 20
0.0309493009696119
 30
0.0
 11
0.0247255262440062
 21
0.0309303058921863
 31
0.0
  0
LINE
  5
501
330
1F
100
AcDbEntity
  8
0
100
AcDbLine
 10
0.0249395818662504
 20
0.0309493009696119
 30
0.0
 11
0.0247445299374541
 21
0.0309303058921863
 31
0.0
  0
LINE
  5
502
330
1F
100
AcDbEntity
  8
0
100
AcDbLine
 10
0.0249719150298923
 20
0.0309493009696119
 30
0.0
 11
0.0247445299374541
 21
0.0309303058921863
 31
0.0
  0
LINE
  5
503
330
1F
100
AcDbEntity
  8
0
100
AcDbLine
 10
0.0249719150298923
 20
0.0309493009696119
 30
0.0
 11
0.0247655063065144
 21
0.0309303058921863
 31
0.0
  0
LINE
  5
504
330
1F
100
AcDbEntity
  8
0
100
AcDbLine
 10
0.0249719150298923
 20
0.0309493009696119
 30
0.0
 11
0.0247882957447094
 21
0.0309303058921863
 31
0.0
  0
LINE
  5
505
330
1F
100
AcDbEntity
  8
0
100
AcDbLine
 10
0.0249719150298923
 20
0.0309493009696119
 30
0.0
 11
0.0248127247781988
 21
0.0309303058921863
 31
0.0
  0
LINE
  5
506
330
1F
100
AcDbEntity
  8
0
100
AcDbLine
 10
0.0249719150298923
 20
0.0309493009696119
 30
0.0
 11
0.0248386075039564
 21
0.0309303058921863
 31
0.0
  0
LINE
  5
507
330
1F
100
AcDbEntity
  8
0
100
AcDbLine
 10
0.0249719150298923
 20
0.0309493009696119
 30
0.0
 11
0.0248657469318489
 21
0.0309303058921863
 31
0.0
  0
LINE
  5
508
330
1F
100
AcDbEntity
  8
0
100
AcDbLine
 10
0.0249719150298923
 20
0.0309493009696119
 30
0.0
 11
0.0248939365150889
 21
0.0309303058921863
 31
0.0
  0
LINE
  5
509
330
1F
100
AcDbEntity
  8
0
100
AcDbLine
 10
0.0250127737636001
 20
0.0309493009696119
 30
0.0
 11
0.0248939365150889
 21
0.0309303058921863
 31
0.0
  0
LINE
  5
50A
330
1F
100
AcDbEntity
  8
0
100
AcDbLine
 10
0.0250127737636001
 20
0.0309493009696119
 30
0.0
 11
0.0249229617147345
 21
0.0309303058921863
 31
0.0
  0
LINE
  5
50B
330
1F
100
AcDbEntity
  8
0
100
AcDbLine
 10
0.0250127737636001
 20
0.0309493009696119
 30
0.0
 11
0.024952601632367
 21
0.0309303058921863
 31
0.0
  0
LINE
  5
50C
330
1F
100
AcDbEntity
  8
0
100
AcDbLine
 10
0.0250127737636001
 20
0.0309493009696119
 30
0.0
 11
0.0249826306881205
 21
0.0309303058921863
 31
0.0
  0
LINE
  5
50D
330
1F
100
AcDbEntity
  8
0
100
AcDbLine
 10
0.0250127737636001
 20
0.0309493009696119
 30
0.0
 11
0.0250429408418836
 21
0.0309303058921863
 31
0.0
  0
LINE
  5
50E
330
1F
100
AcDbEntity
  8
0
100
AcDbLine
 10
0.0250127737636001
 20
0.0309493009696119
 30
0.0
 11
0.0250727629416051
 21
0.0309303058921863
 31
0.0
  0
LINE
  5
50F
330
1F
100
AcDbEntity
  8
0
100
AcDbLine
 10
0.0250454382062967
 20
0.0309493009696119
 30
0.0
 11
0.0250727629416051
 21
0.0309303058921863
 31
0.0
  0
LINE
  5
510
330
1F
100
AcDbEntity
  8
0
100
AcDbLine
 10
0.0250454382062967
 20
0.0309493009696119
 30
0.0
 11
0.0251020596814001
 21
0.0309303058921863
 31
0.0
  0
LINE
  5
511
330
1F
100
AcDbEntity
  8
0
100
AcDbLine
 10
0.0250454382062967
 20
0.0309493009696119
 30
0.0
 11
0.0251306080947929
 21
0.0309303058921863
 31
0.0
  0
LINE
  5
512
330
1F
100
AcDbEntity
  8
0
100
AcDbLine
 10
0.0250454382062967
 20
0.0309493009696119
 30
0.0
 11
0.0251581909130727
 21
0.0309303058921863
 31
0.0
  0
LINE
  5
513
330
1F
100
AcDbEntity
  8
0
100
AcDbLine
 10
0.0250454382062967
 20
0.0309493009696119
 30
0.0
 11
0.0251845982112302
 21
0.0309303058921863
 31
0.0
  0
LINE
  5
514
330
1F
100
AcDbEntity
  8
0
100
AcDbLine
 10
0.025066195768585
 20
0.0309493009696119
 30
0.0
 11
0.0251845982112302
 21
0.0309303058921863
 31
0.0
  0
LINE
  5
515
330
1F
100
AcDbEntity
  8
0
100
AcDbLine
 10
0.025066195768585
 20
0.0309493009696119
 30
0.0
 11
0.0252096290192382
 21
0.0309303058921863
 31
0.0
  0
LINE
  5
516
330
1F
100
AcDbEntity
  8
0
100
AcDbLine
 10
0.025066195768585
 20
0.0309493009696119
 30
0.0
 11
0.0252330928269479
 21
0.0309303058921863
 31
0.0
  0
LINE
  5
517
330
1F
100
AcDbEntity
  8
0
100
AcDbLine
 10
0.025066195768585
 20
0.0309493009696119
 30
0.0
 11
0.0252548110793908
 21
0.0309303058921863
 31
0.0
  0
LINE
  5
518
330
1F
100
AcDbEntity
  8
0
100
AcDbLine
 10
0.025066195768585
 20
0.0309493009696119
 30
0.0
 11
0.025274618453141
 21
0.0309303058921863
 31
0.0
  0
LINE
  5
519
330
1F
100
AcDbEntity
  8
0
100
AcDbLine
 10
0.025066195768585
 20
0.0309493009696119
 30
0.0
 11
0.0252923642402374
 21
0.0309303058921863
 31
0.0
  0
LINE
  5
51A
330
1F
100
AcDbEntity
  8
0
100
AcDbLine
 10
0.0250826659024861
 20
0.0309493009696119
 30
0.0
 11
0.0252923642402374
 21
0.0309303058921863
 31
0.0
  0
LINE
  5
51B
330
1F
100
AcDbEntity
  8
0
100
AcDbLine
 10
0.0250826659024861
 20
0.0309493009696119
 30
0.0
 11
0.0253079133439521
 21
0.0309303058921863
 31
0.0
  0
LINE
  5
51C
330
1F
100
AcDbEntity
  8
0
100
AcDbLine
 10
0.0250826659024861
 20
0.0309493009696119
 30
0.0
 11
0.0253211474954368
 21
0.0309303058921863
 31
0.0
  0
LINE
  5
51D
330
1F
100
AcDbEntity
  8
0
100
AcDbLine
 10
0.0250826659024861
 20
0.0309493009696119
 30
0.0
 11
0.0253319658831445
 21
0.0309303058921863
 31
0.0
  0
LINE
  5
51E
330
1F
100
AcDbEntity
  8
0
100
AcDbLine
 10
0.0250826659024861
 20
0.0309493009696119
 30
0.0
 11
0.025340286247179
 21
0.0309303058921863
 31
0.0
  0
LINE
  5
51F
330
1F
100
AcDbEntity
  8
0
100
AcDbLine
 10
0.0250826659024861
 20
0.0309493009696119
 30
0.0
 11
0.0253460452440061
 21
0.0309303058921863
 31
0.0
  0
LINE
  5
520
330
1F
100
AcDbEntity
  8
0
100
AcDbLine
 10
0.0250826659024861
 20
0.0309493009696119
 30
0.0
 11
0.025349199013772
 21
0.0309303058921863
 31
0.0
  0
LINE
  5
521
330
1F
100
AcDbEntity
  8
0
100
AcDbLine
 10
0.1770155218174823
 20
0.0309493009696119
 30
0.0
 11
0.1770534087302582
 21
0.0309493009696119
 31
0.0
  0
LINE
  5
522
330
1F
100
AcDbEntity
  8
0
100
AcDbLine
 10
0.1770534087302582
 20
0.0309493009696119
 30
0.0
 11
0.177003731578513
 21
0.0309521792615918
 31
0.0
  0
LINE
  5
523
330
1F
100
AcDbEntity
  8
0
100
AcDbLine
 10
0.1770779846888423
 20
0.0309493009696119
 30
0.0
 11
0.177003731578513
 21
0.0309521792615918
 31
0.0
  0
LINE
  5
524
330
1F
100
AcDbEntity
  8
0
100
AcDbLine
 10
0.1770826645874586
 20
0.0309493009696119
 30
0.0
 11
0.177003731578513
 21
0.0309521792615918
 31
0.0
  0
LINE
  5
525
330
1F
100
AcDbEntity
  8
0
100
AcDbLine
 10
0.1770661944535575
 20
0.0309493009696119
 30
0.0
 11
0.177003731578513
 21
0.0309521792615918
 31
0.0
  0
LINE
  5
526
330
1F
100
AcDbEntity
  8
0
100
AcDbLine
 10
0.1770661944535575
 20
0.0309493009696119
 30
0.0
 11
0.1770329874374363
 21
0.0309493009696119
 31
0.0
  0
LINE
  5
527
330
1F
100
AcDbEntity
  8
0
100
AcDbLine
 10
0.1770329874374363
 20
0.0309493009696119
 30
0.0
 11
0.177003731578513
 21
0.0309521792615918
 31
0.0
  0
LINE
  5
528
330
1F
100
AcDbEntity
  8
0
100
AcDbLine
 10
0.1770155218174823
 20
0.0309493009696119
 30
0.0
 11
0.1769946441262476
 21
0.0309303058921863
 31
0.0
  0
LINE
  5
529
330
1F
100
AcDbEntity
  8
0
100
AcDbLine
 10
0.1770548628396865
 20
0.0309303058921863
 30
0.0
 11
0.177024833783933
 21
0.0309303058921863
 31
0.0
  0
LINE
  5
52A
330
1F
100
AcDbEntity
  8
0
100
AcDbLine
 10
0.177084502757319
 20
0.0309303058921863
 30
0.0
 11
0.1770548628396865
 21
0.0309303058921863
 31
0.0
  0
LINE
  5
52B
330
1F
100
AcDbEntity
  8
0
100
AcDbLine
 10
0.1771135279569646
 20
0.0309303058921863
 30
0.0
 11
0.177084502757319
 21
0.0309303058921863
 31
0.0
  0
LINE
  5
52C
330
1F
100
AcDbEntity
  8
0
100
AcDbLine
 10
0.1771417175402046
 20
0.0309303058921863
 30
0.0
 11
0.1771135279569646
 21
0.0309303058921863
 31
0.0
  0
LINE
  5
52D
330
1F
100
AcDbEntity
  8
0
100
AcDbLine
 10
0.1771688569680971
 20
0.0309303058921863
 30
0.0
 11
0.1771417175402046
 21
0.0309303058921863
 31
0.0
  0
LINE
  5
52E
330
1F
100
AcDbEntity
  8
0
100
AcDbLine
 10
0.1771947396938547
 20
0.0309303058921863
 30
0.0
 11
0.1771688569680971
 21
0.0309303058921863
 31
0.0
  0
LINE
  5
52F
330
1F
100
AcDbEntity
  8
0
100
AcDbLine
 10
0.1771581895980452
 20
0.0309303058921863
 30
0.0
 11
0.1771845968962028
 21
0.0309303058921863
 31
0.0
  0
LINE
  5
530
330
1F
100
AcDbEntity
  8
0
100
AcDbLine
 10
0.1771306067797654
 20
0.0309303058921863
 30
0.0
 11
0.1771581895980452
 21
0.0309303058921863
 31
0.0
  0
LINE
  5
531
330
1F
100
AcDbEntity
  8
0
100
AcDbLine
 10
0.1771020583663726
 20
0.0309303058921863
 30
0.0
 11
0.1771306067797654
 21
0.0309303058921863
 31
0.0
  0
LINE
  5
532
330
1F
100
AcDbEntity
  8
0
100
AcDbLine
 10
0.1770727616265776
 20
0.0309303058921863
 30
0.0
 11
0.1771020583663726
 21
0.0309303058921863
 31
0.0
  0
LINE
  5
533
330
1F
100
AcDbEntity
  8
0
100
AcDbLine
 10
0.1770724344687655
 20
0.0308971805126269
 30
0.0
 11
0.1770429395268562
 21
0.0309303058921863
 31
0.0
  0
LINE
  5
534
330
1F
100
AcDbEntity
  8
0
100
AcDbLine
 10
0.1770429395268562
 20
0.0309303058921863
 30
0.0
 11
0.1770727616265776
 21
0.0309303058921863
 31
0.0
  0
LINE
  5
535
330
1F
100
AcDbEntity
  8
0
100
AcDbLine
 10
0.1770128190307785
 20
0.0309303058921863
 30
0.0
 11
0.1770429395268562
 21
0.0309303058921863
 31
0.0
  0
LINE
  5
536
330
1F
100
AcDbEntity
  8
0
100
AcDbLine
 10
0.1770128190307785
 20
0.0309303058921863
 30
0.0
 11
0.1770329874374363
 21
0.0309493009696119
 31
0.0
  0
LINE
  5
537
330
1F
100
AcDbEntity
  8
0
100
AcDbLine
 10
0.1770329874374363
 20
0.0309493009696119
 30
0.0
 11
0.1770727616265776
 21
0.0309303058921863
 31
0.0
  0
LINE
  5
538
330
1F
100
AcDbEntity
  8
0
100
AcDbLine
 10
0.1770329874374363
 20
0.0309493009696119
 30
0.0
 11
0.1771020583663726
 21
0.0309303058921863
 31
0.0
  0
LINE
  5
539
330
1F
100
AcDbEntity
  8
0
100
AcDbLine
 10
0.1770329874374363
 20
0.0309493009696119
 30
0.0
 11
0.1771306067797654
 21
0.0309303058921863
 31
0.0
  0
LINE
  5
53A
330
1F
100
AcDbEntity
  8
0
100
AcDbLine
 10
0.1770329874374363
 20
0.0309493009696119
 30
0.0
 11
0.1771581895980452
 21
0.0309303058921863
 31
0.0
  0
LINE
  5
53B
330
1F
100
AcDbEntity
  8
0
100
AcDbLine
 10
0.1770661944535575
 20
0.0309493009696119
 30
0.0
 11
0.1771581895980452
 21
0.0309303058921863
 31
0.0
  0
LINE
  5
53C
330
1F
100
AcDbEntity
  8
0
100
AcDbLine
 10
0.1770661944535575
 20
0.0309493009696119
 30
0.0
 11
0.1771845968962028
 21
0.0309303058921863
 31
0.0
  0
LINE
  5
53D
330
1F
100
AcDbEntity
  8
0
100
AcDbLine
 10
0.1770661944535575
 20
0.0309493009696119
 30
0.0
 11
0.1772096277042108
 21
0.0309303058921863
 31
0.0
  0
LINE
  5
53E
330
1F
100
AcDbEntity
  8
0
100
AcDbLine
 10
0.1770661944535575
 20
0.0309493009696119
 30
0.0
 11
0.1772330915119204
 21
0.0309303058921863
 31
0.0
  0
LINE
  5
53F
330
1F
100
AcDbEntity
  8
0
100
AcDbLine
 10
0.1770661944535575
 20
0.0309493009696119
 30
0.0
 11
0.1772548097643633
 21
0.0309303058921863
 31
0.0
  0
LINE
  5
540
330
1F
100
AcDbEntity
  8
0
100
AcDbLine
 10
0.1770661944535575
 20
0.0309493009696119
 30
0.0
 11
0.1772746171381135
 21
0.0309303058921863
 31
0.0
  0
LINE
  5
541
330
1F
100
AcDbEntity
  8
0
100
AcDbLine
 10
0.1770661944535575
 20
0.0309493009696119
 30
0.0
 11
0.1772923629252099
 21
0.0309303058921863
 31
0.0
  0
LINE
  5
542
330
1F
100
AcDbEntity
  8
0
100
AcDbLine
 10
0.1770826645874586
 20
0.0309493009696119
 30
0.0
 11
0.1772923629252099
 21
0.0309303058921863
 31
0.0
  0
LINE
  5
543
330
1F
100
AcDbEntity
  8
0
100
AcDbLine
 10
0.1770826645874586
 20
0.0309493009696119
 30
0.0
 11
0.1773079120289246
 21
0.0309303058921863
 31
0.0
  0
LINE
  5
544
330
1F
100
AcDbEntity
  8
0
100
AcDbLine
 10
0.1770826645874586
 20
0.0309493009696119
 30
0.0
 11
0.1773211461804093
 21
0.0309303058921863
 31
0.0
  0
LINE
  5
545
330
1F
100
AcDbEntity
  8
0
100
AcDbLine
 10
0.1770826645874586
 20
0.0309493009696119
 30
0.0
 11
0.177331964568117
 21
0.0309303058921863
 31
0.0
  0
LINE
  5
546
330
1F
100
AcDbEntity
  8
0
100
AcDbLine
 10
0.1770826645874586
 20
0.0309493009696119
 30
0.0
 11
0.1773402849321515
 21
0.0309303058921863
 31
0.0
  0
LINE
  5
547
330
1F
100
AcDbEntity
  8
0
100
AcDbLine
 10
0.1770826645874586
 20
0.0309493009696119
 30
0.0
 11
0.1773460439289786
 21
0.0309303058921863
 31
0.0
  0
LINE
  5
548
330
1F
100
AcDbEntity
  8
0
100
AcDbLine
 10
0.1770826645874586
 20
0.0309493009696119
 30
0.0
 11
0.1773491976987445
 21
0.0309303058921863
 31
0.0
  0
LINE
  5
549
330
1F
100
AcDbEntity
  8
0
100
AcDbLine
 10
0.1770779846888423
 20
0.0309493009696119
 30
0.0
 11
0.1773491976987445
 21
0.0309303058921863
 31
0.0
  0
LINE
  5
54A
330
1F
100
AcDbEntity
  8
0
100
AcDbLine
 10
0.1770779846888423
 20
0.0309493009696119
 30
0.0
 11
0.1773497222857868
 21
0.0309303058921863
 31
0.0
  0
LINE
  5
54B
330
1F
100
AcDbEntity
  8
0
100
AcDbLine
 10
0.1770779846888423
 20
0.0309493009696119
 30
0.0
 11
0.177347613651451
 21
0.0309303058921863
 31
0.0
  0
LINE
  5
54C
330
1F
100
AcDbEntity
  8
0
100
AcDbLine
 10
0.1770779846888423
 20
0.0309493009696119
 30
0.0
 11
0.17734288788999
 21
0.0309303058921863
 31
0.0
  0
LINE
  5
54D
330
1F
100
AcDbEntity
  8
0
100
AcDbLine
 10
0.1770779846888423
 20
0.0309493009696119
 30
0.0
 11
0.1773355809207758
 21
0.0309303058921863
 31
0.0
  0
LINE
  5
54E
330
1F
100
AcDbEntity
  8
0
100
AcDbLine
 10
0.1770779846888423
 20
0.0309493009696119
 30
0.0
 11
0.1773257483847401
 21
0.0309303058921863
 31
0.0
  0
LINE
  5
54F
330
1F
100
AcDbEntity
  8
0
100
AcDbLine
 10
0.1770779846888423
 20
0.0309493009696119
 30
0.0
 11
0.1773134651338846
 21
0.0309303058921863
 31
0.0
  0
LINE
  5
550
330
1F
100
AcDbEntity
  8
0
100
AcDbLine
 10
0.1770534087302582
 20
0.0309493009696119
 30
0.0
 11
0.1773134651338846
 21
0.0309303058921863
 31
0.0
  0
LINE
  5
551
330
1F
100
AcDbEntity
  8
0
100
AcDbLine
 10
0.1770534087302582
 20
0.0309493009696119
 30
0.0
 11
0.1772988245766592
 21
0.0309303058921863
 31
0.0
  0
LINE
  5
552
330
1F
100
AcDbEntity
  8
0
100
AcDbLine
 10
0.1770534087302582
 20
0.0309493009696119
 30
0.0
 11
0.1772819382280473
 21
0.0309303058921863
 31
0.0
  0
LINE
  5
553
330
1F
100
AcDbEntity
  8
0
100
AcDbLine
 10
0.1770534087302582
 20
0.0309493009696119
 30
0.0
 11
0.1772629345345994
 21
0.0309303058921863
 31
0.0
  0
LINE
  5
554
330
1F
100
AcDbEntity
  8
0
100
AcDbLine
 10
0.1770534087302582
 20
0.0309493009696119
 30
0.0
 11
0.1772419581655391
 21
0.0309303058921863
 31
0.0
  0
LINE
  5
555
330
1F
100
AcDbEntity
  8
0
100
AcDbLine
 10
0.1770534087302582
 20
0.0309493009696119
 30
0.0
 11
0.1772191687273441
 21
0.0309303058921863
 31
0.0
  0
LINE
  5
556
330
1F
100
AcDbEntity
  8
0
100
AcDbLine
 10
0.1770534087302582
 20
0.0309493009696119
 30
0.0
 11
0.1771947396938547
 21
0.0309303058921863
 31
0.0
  0
LINE
  5
557
330
1F
100
AcDbEntity
  8
0
100
AcDbLine
 10
0.1770155218174823
 20
0.0309493009696119
 30
0.0
 11
0.1771947396938547
 21
0.0309303058921863
 31
0.0
  0
LINE
  5
558
330
1F
100
AcDbEntity
  8
0
100
AcDbLine
 10
0.1770155218174823
 20
0.0309493009696119
 30
0.0
 11
0.1771688569680971
 21
0.0309303058921863
 31
0.0
  0
LINE
  5
559
330
1F
100
AcDbEntity
  8
0
100
AcDbLine
 10
0.1770155218174823
 20
0.0309493009696119
 30
0.0
 11
0.1771417175402046
 21
0.0309303058921863
 31
0.0
  0
LINE
  5
55A
330
1F
100
AcDbEntity
  8
0
100
AcDbLine
 10
0.1770155218174823
 20
0.0309493009696119
 30
0.0
 11
0.1771135279569646
 21
0.0309303058921863
 31
0.0
  0
LINE
  5
55B
330
1F
100
AcDbEntity
  8
0
100
AcDbLine
 10
0.1770155218174823
 20
0.0309493009696119
 30
0.0
 11
0.177084502757319
 21
0.0309303058921863
 31
0.0
  0
LINE
  5
55C
330
1F
100
AcDbEntity
  8
0
100
AcDbLine
 10
0.1770155218174823
 20
0.0309493009696119
 30
0.0
 11
0.1770548628396865
 21
0.0309303058921863
 31
0.0
  0
LINE
  5
55D
330
1F
100
AcDbEntity
  8
0
100
AcDbLine
 10
0.1769946441262476
 20
0.0309303058921863
 30
0.0
 11
0.177024833783933
 21
0.0309303058921863
 31
0.0
  0
LINE
  5
55E
330
1F
100
AcDbEntity
  8
0
100
AcDbLine
 10
0.1769919413395438
 20
0.0309493009696119
 30
0.0
 11
0.1769540544267678
 21
0.0309493009696119
 31
0.0
  0
LINE
  5
55F
330
1F
100
AcDbEntity
  8
0
100
AcDbLine
 10
0.1769540544267678
 20
0.0309493009696119
 30
0.0
 11
0.177003731578513
 21
0.0309521792615918
 31
0.0
  0
LINE
  5
560
330
1F
100
AcDbEntity
  8
0
100
AcDbLine
 10
0.176935686767502
 20
0.0309493009696119
 30
0.0
 11
0.177003731578513
 21
0.0309521792615918
 31
0.0
  0
LINE
  5
561
330
1F
100
AcDbEntity
  8
0
100
AcDbLine
 10
0.1769244366039618
 20
0.0309493009696119
 30
0.0
 11
0.177003731578513
 21
0.0309521792615918
 31
0.0
  0
LINE
  5
562
330
1F
100
AcDbEntity
  8
0
100
AcDbLine
 10
0.177003731578513
 20
0.0309521792615918
 30
0.0
 11
0.1769305396820725
 21
0.0309493009696119
 31
0.0
  0
LINE
  5
563
330
1F
100
AcDbEntity
  8
0
100
AcDbLine
 10
0.1769305396820725
 20
0.0309493009696119
 30
0.0
 11
0.1769562544675861
 21
0.0309493009696119
 31
0.0
  0
LINE
  5
564
330
1F
100
AcDbEntity
  8
0
100
AcDbLine
 10
0.1769562544675861
 20
0.0309493009696119
 30
0.0
 11
0.177003731578513
 21
0.0309521792615918
 31
0.0
  0
LINE
  5
565
330
1F
100
AcDbEntity
  8
0
100
AcDbLine
 10
0.1769810586315192
 20
0.0309493009696119
 30
0.0
 11
0.1770155218174823
 21
0.0309493009696119
 31
0.0
  0
LINE
  5
566
330
1F
100
AcDbEntity
  8
0
100
AcDbLine
 10
0.1770329874374363
 20
0.0309493009696119
 30
0.0
 11
0.1769919413395438
 21
0.0309493009696119
 31
0.0
  0
LINE
  5
567
330
1F
100
AcDbEntity
  8
0
100
AcDbLine
 10
0.1770128190307785
 20
0.0309303058921863
 30
0.0
 11
0.1769919413395438
 21
0.0309493009696119
 31
0.0
  0
LINE
  5
568
330
1F
100
AcDbEntity
  8
0
100
AcDbLine
 10
0.1769526003173396
 20
0.0309303058921863
 30
0.0
 11
0.176982629373093
 21
0.0309303058921863
 31
0.0
  0
LINE
  5
569
330
1F
100
AcDbEntity
  8
0
100
AcDbLine
 10
0.1769229603997071
 20
0.0309303058921863
 30
0.0
 11
0.1769526003173396
 21
0.0309303058921863
 31
0.0
  0
LINE
  5
56A
330
1F
100
AcDbEntity
  8
0
100
AcDbLine
 10
0.1768939352000614
 20
0.0309303058921863
 30
0.0
 11
0.1769229603997071
 21
0.0309303058921863
 31
0.0
  0
LINE
  5
56B
330
1F
100
AcDbEntity
  8
0
100
AcDbLine
 10
0.1768657456168214
 20
0.0309303058921863
 30
0.0
 11
0.1768939352000614
 21
0.0309303058921863
 31
0.0
  0
LINE
  5
56C
330
1F
100
AcDbEntity
  8
0
100
AcDbLine
 10
0.176838606188929
 20
0.0309303058921863
 30
0.0
 11
0.1768657456168214
 21
0.0309303058921863
 31
0.0
  0
LINE
  5
56D
330
1F
100
AcDbEntity
  8
0
100
AcDbLine
 10
0.1768127234631714
 20
0.0309303058921863
 30
0.0
 11
0.176838606188929
 21
0.0309303058921863
 31
0.0
  0
LINE
  5
56E
330
1F
100
AcDbEntity
  8
0
100
AcDbLine
 10
0.1768492735589808
 20
0.0309303058921863
 30
0.0
 11
0.1768228662608233
 21
0.0309303058921863
 31
0.0
  0
LINE
  5
56F
330
1F
100
AcDbEntity
  8
0
100
AcDbLine
 10
0.1768768563772606
 20
0.0309303058921863
 30
0.0
 11
0.1768492735589808
 21
0.0309303058921863
 31
0.0
  0
LINE
  5
570
330
1F
100
AcDbEntity
  8
0
100
AcDbLine
 10
0.1769054047906534
 20
0.0309303058921863
 30
0.0
 11
0.1768768563772606
 21
0.0309303058921863
 31
0.0
  0
LINE
  5
571
330
1F
100
AcDbEntity
  8
0
100
AcDbLine
 10
0.1769347015304484
 20
0.0309303058921863
 30
0.0
 11
0.1769054047906534
 21
0.0309303058921863
 31
0.0
  0
LINE
  5
572
330
1F
100
AcDbEntity
  8
0
100
AcDbLine
 10
0.1769350286882606
 20
0.0308971805126269
 30
0.0
 11
0.1769645236301699
 21
0.0309303058921863
 31
0.0
  0
LINE
  5
573
330
1F
100
AcDbEntity
  8
0
100
AcDbLine
 10
0.1769645236301699
 20
0.0309303058921863
 30
0.0
 11
0.1769347015304484
 21
0.0309303058921863
 31
0.0
  0
LINE
  5
574
330
1F
100
AcDbEntity
  8
0
100
AcDbLine
 10
0.1769946441262476
 20
0.0309303058921863
 30
0.0
 11
0.1769645236301699
 21
0.0309303058921863
 31
0.0
  0
LINE
  5
575
330
1F
100
AcDbEntity
  8
0
100
AcDbLine
 10
0.1770155218174823
 20
0.0309493009696119
 30
0.0
 11
0.1769645236301699
 21
0.0309303058921863
 31
0.0
  0
LINE
  5
576
330
1F
100
AcDbEntity
  8
0
100
AcDbLine
 10
0.1769810586315192
 20
0.0309493009696119
 30
0.0
 11
0.1769347015304484
 21
0.0309303058921863
 31
0.0
  0
LINE
  5
577
330
1F
100
AcDbEntity
  8
0
100
AcDbLine
 10
0.1769810586315192
 20
0.0309493009696119
 30
0.0
 11
0.1769054047906534
 21
0.0309303058921863
 31
0.0
  0
LINE
  5
578
330
1F
100
AcDbEntity
  8
0
100
AcDbLine
 10
0.1769562544675861
 20
0.0309493009696119
 30
0.0
 11
0.1769054047906534
 21
0.0309303058921863
 31
0.0
  0
LINE
  5
579
330
1F
100
AcDbEntity
  8
0
100
AcDbLine
 10
0.1769562544675861
 20
0.0309493009696119
 30
0.0
 11
0.1768768563772606
 21
0.0309303058921863
 31
0.0
  0
LINE
  5
57A
330
1F
100
AcDbEntity
  8
0
100
AcDbLine
 10
0.1769562544675861
 20
0.0309493009696119
 30
0.0
 11
0.1768492735589808
 21
0.0309303058921863
 31
0.0
  0
LINE
  5
57B
330
1F
100
AcDbEntity
  8
0
100
AcDbLine
 10
0.1769562544675861
 20
0.0309493009696119
 30
0.0
 11
0.1768228662608233
 21
0.0309303058921863
 31
0.0
  0
LINE
  5
57C
330
1F
100
AcDbEntity
  8
0
100
AcDbLine
 10
0.1769562544675861
 20
0.0309493009696119
 30
0.0
 11
0.1767978354528153
 21
0.0309303058921863
 31
0.0
  0
LINE
  5
57D
330
1F
100
AcDbEntity
  8
0
100
AcDbLine
 10
0.1769562544675861
 20
0.0309493009696119
 30
0.0
 11
0.1767743716451056
 21
0.0309303058921863
 31
0.0
  0
LINE
  5
57E
330
1F
100
AcDbEntity
  8
0
100
AcDbLine
 10
0.1769305396820725
 20
0.0309493009696119
 30
0.0
 11
0.1767743716451056
 21
0.0309303058921863
 31
0.0
  0
LINE
  5
57F
330
1F
100
AcDbEntity
  8
0
100
AcDbLine
 10
0.1769305396820725
 20
0.0309493009696119
 30
0.0
 11
0.1767526533926627
 21
0.0309303058921863
 31
0.0
  0
LINE
  5
580
330
1F
100
AcDbEntity
  8
0
100
AcDbLine
 10
0.1769305396820725
 20
0.0309493009696119
 30
0.0
 11
0.1767328460189125
 21
0.0309303058921863
 31
0.0
  0
LINE
  5
581
330
1F
100
AcDbEntity
  8
0
100
AcDbLine
 10
0.1769305396820725
 20
0.0309493009696119
 30
0.0
 11
0.1767151002318161
 21
0.0309303058921863
 31
0.0
  0
LINE
  5
582
330
1F
100
AcDbEntity
  8
0
100
AcDbLine
 10
0.1769305396820725
 20
0.0309493009696119
 30
0.0
 11
0.1766995511281014
 21
0.0309303058921863
 31
0.0
  0
LINE
  5
583
330
1F
100
AcDbEntity
  8
0
100
AcDbLine
 10
0.1769305396820725
 20
0.0309493009696119
 30
0.0
 11
0.1766863169766167
 21
0.0309303058921863
 31
0.0
  0
LINE
  5
584
330
1F
100
AcDbEntity
  8
0
100
AcDbLine
 10
0.1769305396820725
 20
0.0309493009696119
 30
0.0
 11
0.176675498588909
 21
0.0309303058921863
 31
0.0
  0
LINE
  5
585
330
1F
100
AcDbEntity
  8
0
100
AcDbLine
 10
0.1769244366039618
 20
0.0309493009696119
 30
0.0
 11
0.176675498588909
 21
0.0309303058921863
 31
0.0
  0
LINE
  5
586
330
1F
100
AcDbEntity
  8
0
100
AcDbLine
 10
0.1769244366039618
 20
0.0309493009696119
 30
0.0
 11
0.1766671782248745
 21
0.0309303058921863
 31
0.0
  0
LINE
  5
587
330
1F
100
AcDbEntity
  8
0
100
AcDbLine
 10
0.1769244366039618
 20
0.0309493009696119
 30
0.0
 11
0.1766614192280474
 21
0.0309303058921863
 31
0.0
  0
LINE
  5
588
330
1F
100
AcDbEntity
  8
0
100
AcDbLine
 10
0.1769244366039618
 20
0.0309493009696119
 30
0.0
 11
0.1766582654582815
 21
0.0309303058921863
 31
0.0
  0
LINE
  5
589
330
1F
100
AcDbEntity
  8
0
100
AcDbLine
 10
0.1769244366039618
 20
0.0309493009696119
 30
0.0
 11
0.1766577408712393
 21
0.0309303058921863
 31
0.0
  0
LINE
  5
58A
330
1F
100
AcDbEntity
  8
0
100
AcDbLine
 10
0.1769244366039618
 20
0.0309493009696119
 30
0.0
 11
0.1766598495055751
 21
0.0309303058921863
 31
0.0
  0
LINE
  5
58B
330
1F
100
AcDbEntity
  8
0
100
AcDbLine
 10
0.1769244366039618
 20
0.0309493009696119
 30
0.0
 11
0.176664575267036
 21
0.0309303058921863
 31
0.0
  0
LINE
  5
58C
330
1F
100
AcDbEntity
  8
0
100
AcDbLine
 10
0.176935686767502
 20
0.0309493009696119
 30
0.0
 11
0.176664575267036
 21
0.0309303058921863
 31
0.0
  0
LINE
  5
58D
330
1F
100
AcDbEntity
  8
0
100
AcDbLine
 10
0.176935686767502
 20
0.0309493009696119
 30
0.0
 11
0.1766718822362503
 21
0.0309303058921863
 31
0.0
  0
LINE
  5
58E
330
1F
100
AcDbEntity
  8
0
100
AcDbLine
 10
0.176935686767502
 20
0.0309493009696119
 30
0.0
 11
0.176681714772286
 21
0.0309303058921863
 31
0.0
  0
LINE
  5
58F
330
1F
100
AcDbEntity
  8
0
100
AcDbLine
 10
0.176935686767502
 20
0.0309493009696119
 30
0.0
 11
0.1766939980231415
 21
0.0309303058921863
 31
0.0
  0
LINE
  5
590
330
1F
100
AcDbEntity
  8
0
100
AcDbLine
 10
0.176935686767502
 20
0.0309493009696119
 30
0.0
 11
0.1767086385803669
 21
0.0309303058921863
 31
0.0
  0
LINE
  5
591
330
1F
100
AcDbEntity
  8
0
100
AcDbLine
 10
0.1769540544267678
 20
0.0309493009696119
 30
0.0
 11
0.1767086385803669
 21
0.0309303058921863
 31
0.0
  0
LINE
  5
592
330
1F
100
AcDbEntity
  8
0
100
AcDbLine
 10
0.1769540544267678
 20
0.0309493009696119
 30
0.0
 11
0.1767255249289787
 21
0.0309303058921863
 31
0.0
  0
LINE
  5
593
330
1F
100
AcDbEntity
  8
0
100
AcDbLine
 10
0.1769540544267678
 20
0.0309493009696119
 30
0.0
 11
0.1767445286224266
 21
0.0309303058921863
 31
0.0
  0
LINE
  5
594
330
1F
100
AcDbEntity
  8
0
100
AcDbLine
 10
0.1769540544267678
 20
0.0309493009696119
 30
0.0
 11
0.1767655049914869
 21
0.0309303058921863
 31
0.0
  0
LINE
  5
595
330
1F
100
AcDbEntity
  8
0
100
AcDbLine
 10
0.1769540544267678
 20
0.0309493009696119
 30
0.0
 11
0.1767882944296819
 21
0.0309303058921863
 31
0.0
  0
LINE
  5
596
330
1F
100
AcDbEntity
  8
0
100
AcDbLine
 10
0.1769540544267678
 20
0.0309493009696119
 30
0.0
 11
0.1768127234631714
 21
0.0309303058921863
 31
0.0
  0
LINE
  5
597
330
1F
100
AcDbEntity
  8
0
100
AcDbLine
 10
0.1769919413395438
 20
0.0309493009696119
 30
0.0
 11
0.1768127234631714
 21
0.0309303058921863
 31
0.0
  0
LINE
  5
598
330
1F
100
AcDbEntity
  8
0
100
AcDbLine
 10
0.1769919413395438
 20
0.0309493009696119
 30
0.0
 11
0.176838606188929
 21
0.0309303058921863
 31
0.0
  0
LINE
  5
599
330
1F
100
AcDbEntity
  8
0
100
AcDbLine
 10
0.1769919413395438
 20
0.0309493009696119
 30
0.0
 11
0.1768657456168214
 21
0.0309303058921863
 31
0.0
  0
LINE
  5
59A
330
1F
100
AcDbEntity
  8
0
100
AcDbLine
 10
0.1769919413395438
 20
0.0309493009696119
 30
0.0
 11
0.1768939352000614
 21
0.0309303058921863
 31
0.0
  0
LINE
  5
59B
330
1F
100
AcDbEntity
  8
0
100
AcDbLine
 10
0.1769919413395438
 20
0.0309493009696119
 30
0.0
 11
0.1769229603997071
 21
0.0309303058921863
 31
0.0
  0
LINE
  5
59C
330
1F
100
AcDbEntity
  8
0
100
AcDbLine
 10
0.1769919413395438
 20
0.0309493009696119
 30
0.0
 11
0.1769526003173396
 21
0.0309303058921863
 31
0.0
  0
LINE
  5
59D
330
1F
100
AcDbEntity
  8
0
100
AcDbLine
 10
0.1770128190307785
 20
0.0309303058921863
 30
0.0
 11
0.176982629373093
 21
0.0309303058921863
 31
0.0
  0
ENDSEC
  0
SECTION
  2
OBJECTS
  0
DICTIONARY
  5
C
330
0
100
AcDbDictionary
  3
ACAD_GROUP
350
D
  3
ACAD_LAYOUT
350
1A
  3
ACAD_MATERIAL
350
43
  3
ACAD_MLEADERSTYLE
350
5B
  3
ACAD_MLINESTYLE
350
17
  3
ACAD_PLOTSETTINGS
350
19
  3
ACAD_SCALELIST
350
47
  3
ACAD_VISUALSTYLE
350
2A
  3
ACDBHEADERROUNDTRIPXREC
350
59E
  3
ACDBVARIABLEDICTIONARY
350
5BF
  3
DWGPROPS
350
5C6
  0
DICTIONARY
  5
5C7
330
8
100
AcDbDictionary
280
     1
  3
ACAD_XREC_ROUNDTRIP
360
5C8
  0
DICTIONARY
  5
D
102
{ACAD_REACTORS
330
C
102
}
330
C
100
AcDbDictionary
  0
DICTIONARY
  5
1A
102
{ACAD_REACTORS
330
C
102
}
330
C
100
AcDbDictionary
  0
DICTIONARY
  5
43
102
{ACAD_REACTORS
330
C
102
}
330
C
100
AcDbDictionary
  3
BYBLOCK
350
45
  3
BYLAYER
350
44
  3
GLOBAL
350
46
  0
DICTIONARY
  5
5B
102
{ACAD_REACTORS
330
C
102
}
330
C
100
AcDbDictionary
  3
STANDARD
350
5C
  0
DICTIONARY
  5
17
102
{ACAD_REACTORS
330
C
102
}
330
C
100
AcDbDictionary
  3
STANDARD
350
18
  0
DICTIONARY
  5
19
102
{ACAD_REACTORS
330
C
102
}
330
C
100
AcDbDictionary
  0
DICTIONARY
  5
47
102
{ACAD_REACTORS
330
C
102
}
330
C
100
AcDbDictionary
  3
A0
350
48
  3
A1
350
49
  3
A2
350
4A
  3
A3
350
4B
  3
A4
350
4C
  3
A5
350
4D
  3
A6
350
4E
  3
A7
350
4F
  3
A8
350
50
  3
A9
350
51
  3
B1
350
52
  3
B2
350
53
  3
B3
350
54
  3
B4
350
55
  3
B5
350
56
  3
B6
350
57
  3
B7
350
58
  0
DICTIONARY
  5
2A
102
{ACAD_REACTORS
330
C
102
}
330
C
100
AcDbDictionary
  3
2DWIREFRAME
350
2F
  3
BASIC
350
32
  3
BRIGHTEN
350
36
  3
COLORCHANGE
350
3A
  3
CONCEPTUAL
350
34
  3
DIM
350
35
  3
EDGECOLOROFF
350
3D
  3
FACEPATTERN
350
39
  3
FLAT
350
2B
  3
FLATWITHEDGES
350
2C
  3
GOURAUD
350
2D
  3
GOURAUDWITHEDGES
350
2E
  3
HIDDEN
350
31
  3
JITTEROFF
350
3B
  3
LINEPATTERN
350
38
  3
OVERHANGOFF
350
3C
  3
REALISTIC
350
33
  3
SHADED
350
42
  3
SHADED_WITH_EDGES
350
41
  3
SHADES_OF_GRAY
350
3E
  3
SKETCHY
350
3F
  3
THICKEN
350
37
  3
WIREFRAME
350
30
  3
X-RAY
350
40
  0
DICTIONARY
  5
59E
102
{ACAD_REACTORS
330
C
102
}
330
C
100
AcDbDictionary
  3
CEPSNID
350
5A8
  3
CEPSNTYPE
350
5A7
  3
DIMSTYLEDATA
350
5BE
  3
FINGERPRINTGUID
350
5A9
  3
HYPERLINKBASE
350
5A1
  3
INSUNITS
350
5A6
  3
LAYOUTDICT
350
5A3
  3
LWETCUNION
350
5A5
  3
PLOTSETDICT
350
5A4
  3
PSVPSCALE
350
5AB
  3
PUCSBASE
350
5AE
  3
PUCSORGBACK
350
5B4
  3
PUCSORGBOTTOM
350
5B0
  3
PUCSORGFRONT
350
5B3
  3
PUCSORGLEFT
350
5B1
  3
PUCSORGRIGHT
350
5B2
  3
PUCSORGTOP
350
5AF
  3
PUCSORTHOREF
350
5AC
  3
PUCSORTHOVIEW
350
5AD
  3
STYLESHEET
350
5A2
  3
TSTACKALIGN
350
59F
  3
TSTACKSIZE
350
5A0
  3
UCSBASE
350
5B7
  3
UCSORGBACK
350
5BD
  3
UCSORGBOTTOM
350
5B9
  3
UCSORGFRONT
350
5BC
  3
UCSORGLEFT
350
5BA
  3
UCSORGRIGHT
350
5BB
  3
UCSORGTOP
350
5B8
  3
UCSORTHOREF
350
5B5
  3
UCSORTHOVIEW
350
5B6
  3
VERSIONGUID
350
5AA
  0
DICTIONARY
  5
5BF
102
{ACAD_REACTORS
330
C
102
}
330
C
100
AcDbDictionary
  3
CANNOSCALE
350
5C9
  3
CMLEADERSTYLE
350
5C1
  3
CTABLESTYLE
350
5C0
  3
DIMASSOC
350
5C4
  3
HIDETEXT
350
5C5
  3
MSLTSCALE
350
5CA
  0
XRECORD
  5
5C6
102
{ACAD_REACTORS
330
C
102
}
330
C
100
AcDbXrecord
  1
DWGPROPS COOKIE
  2

  3

  4

  6

  7

  8
im_marketing1
  9

300
=
301
=
302
=
303
=
304
=
305
=
306
=
307
=
308
=
309
=
 40
0.0
 41
2460501.591861447
 42
2460501.591881355
  1

 90
        0
  0
XRECORD
  5
5C8
102
{ACAD_REACTORS
330
5C7
102
}
330
5C7
100
AcDbXrecord
102
VTR_0.000_0.000_1.000_1.000_VISUALSTYLE
340
2F
102
VTR_0.000_0.000_1.000_1.000_GRIDDISPLAY
 70
     3
102
VTR_0.000_0.000_1.000_1.000_GRIDMAJOR
 70
     5
102
VTR_0.000_0.000_1.000_1.000_DEFAULTLIGHTING
280
     1
102
VTR_0.000_0.000_1.000_1.000_DEFAULTLIGHTINGTYPE
 70
     1
102
VTR_0.000_0.000_1.000_1.000_BRIGHTNESS
141
0.0
102
VTR_0.000_0.000_1.000_1.000_CONTRAST
142
0.0
  0
MATERIAL
  5
45
102
{ACAD_REACTORS
330
43
102
}
102
{ACAD_XDICTIONARY
360
5CD
102
}
330
43
100
AcDbMaterial
  1
BYBLOCK
  0
MATERIAL
  5
44
102
{ACAD_REACTORS
330
43
102
}
102
{ACAD_XDICTIONARY
360
5CB
102
}
330
43
100
AcDbMaterial
  1
BYLAYER
  0
MATERIAL
  5
46
102
{ACAD_REACTORS
330
43
102
}
102
{ACAD_XDICTIONARY
360
5CF
102
}
330
43
100
AcDbMaterial
  1
GLOBAL
  0
ACAD_PROXY_OBJECT
  5
5C
102
{ACAD_REACTORS
330
5B
102
}
330
5B
100
AcDbProxyObject
 90
      499
 91
      505
 93
      610
310
40901902A4063FBFFFFFE056BD1B81E855B9FC0AD7A3703D0AD73F4214DD185B99185C9900AD7A3703D0AC73F90141901A02B5E8DC0F42B1CFC02B5E8DC0F42B1CFE5764000000000000300FC0
340
14
340
0
340
11
340
0
 94
        0
1001
ACAD_MLEADERVER
1070
     2
  0
MLINESTYLE
  5
18
102
{ACAD_REACTORS
330
17
102
}
330
17
100
AcDbMlineStyle
  2
Standard
 70
     0
  3

 62
   256
 51
90.0
 52
90.0
 71
     2
 49
0.5
 62
   256
  6
BYLAYER
 49
-0.5
 62
   256
  6
BYLAYER
  0
ACAD_PROXY_OBJECT
  5
48
102
{ACAD_REACTORS
330
47
102
}
330
47
100
AcDbProxyObject
 90
      499
 91
      503
 93
       41
310
903313A31580
  0
ACAD_PROXY_OBJECT
  5
49
102
{ACAD_REACTORS
330
47
102
}
330
47
100
AcDbProxyObject
 90
      499
 91
      503
 93
      257
310
90E312F31323822203D2031272D3022000000000000200FC000000000000284000
  0
ACAD_PROXY_OBJECT
  5
4A
102
{ACAD_REACTORS
330
47
102
}
330
47
100
AcDbProxyObject
 90
      499
 91
      503
 93
      249
310
90D312F363422203D2031272D3022000000000000240FC000000000000284000
  0
ACAD_PROXY_OBJECT
  5
4B
102
{ACAD_REACTORS
330
47
102
}
330
47
100
AcDbProxyObject
 90
      499
 91
      503
 93
      249
310
90D312F333222203D2031272D3022000000000000280FC000000000000284000
  0
ACAD_PROXY_OBJECT
  5
4C
102
{ACAD_REACTORS
330
47
102
}
330
47
100
AcDbProxyObject
 90
      499
 91
      503
 93
      249
310
90D312F313622203D2031272D30220000000000002C0FC000000000000284000
  0
ACAD_PROXY_OBJECT
  5
4D
102
{ACAD_REACTORS
330
47
102
}
330
47
100
AcDbProxyObject
 90
      499
 91
      503
 93
      249
310
90D332F333222203D2031272D30220000000000002E0FC000000000000284000
  0
ACAD_PROXY_OBJECT
  5
4E
102
{ACAD_REACTORS
330
47
102
}
330
47
100
AcDbProxyObject
 90
      499
 91
      503
 93
      241
310
90C312F3822203D2031272D3022000000000000300FC000000000000284000
  0
ACAD_PROXY_OBJECT
  5
4F
102
{ACAD_REACTORS
330
47
102
}
330
47
100
AcDbProxyObject
 90
      499
 91
      503
 93
      249
310
90D332F313622203D2031272D3022000000000000320FC000000000000284000
  0
ACAD_PROXY_OBJECT
  5
50
102
{ACAD_REACTORS
330
47
102
}
330
47
100
AcDbProxyObject
 90
      499
 91
      503
 93
      241
310
90C312F3422203D2031272D3022000000000000340FC000000000000284000
  0
ACAD_PROXY_OBJECT
  5
51
102
{ACAD_REACTORS
330
47
102
}
330
47
100
AcDbProxyObject
 90
      499
 91
      503
 93
      241
310
90C332F3822203D2031272D3022000000000000360FC000000000000284000
  0
ACAD_PROXY_OBJECT
  5
52
102
{ACAD_REACTORS
330
47
102
}
330
47
100
AcDbProxyObject
 90
      499
 91
      503
 93
      241
310
90C312F3222203D2031272D3022000000000000380FC000000000000284000
  0
ACAD_PROXY_OBJECT
  5
53
102
{ACAD_REACTORS
330
47
102
}
330
47
100
AcDbProxyObject
 90
      499
 91
      503
 93
      241
310
90C332F3422203D2031272D30220000000000003A0FC000000000000284000
  0
ACAD_PROXY_OBJECT
  5
54
102
{ACAD_REACTORS
330
47
102
}
330
47
100
AcDbProxyObject
 90
      499
 91
      503
 93
      161
310
90A3122203D2031272D30224000000000000284000
  0
ACAD_PROXY_OBJECT
  5
55
102
{ACAD_REACTORS
330
47
102
}
330
47
100
AcDbProxyObject
 90
      499
 91
      503
 93
      257
310
90E312D312F3222203D2031272D30220000000000003E0FC000000000000284000
  0
ACAD_PROXY_OBJECT
  5
56
102
{ACAD_REACTORS
330
47
102
}
330
47
100
AcDbProxyObject
 90
      499
 91
      503
 93
      225
310
90A3322203D2031272D302200000000000002100000000000000284000
  0
ACAD_PROXY_OBJECT
  5
57
102
{ACAD_REACTORS
330
47
102
}
330
47
100
AcDbProxyObject
 90
      499
 91
      503
 93
      225
310
90A3622203D2031272D302200000000000006100000000000000284000
  0
ACAD_PROXY_OBJECT
  5
58
102
{ACAD_REACTORS
330
47
102
}
330
47
100
AcDbProxyObject
 90
      499
 91
      503
 93
      249
310
90D31272D3022203D2031272D30220000000000000A100000000000000284000
  0
ACAD_PROXY_OBJECT
  5
2F
102
{ACAD_REACTORS
330
2A
102
}
330
2A
100
AcDbProxyObject
 90
      499
 91
      501
 93
      436
310
42CC9915DA5C99599C985B595049028333333333333E33F0000000000000F90107901411070040501600405405064090741402480A0340
1001
ACAD
1000
AcDbSavedByObjectVersion
1070
     0
  0
ACAD_PROXY_OBJECT
  5
32
102
{ACAD_REACTORS
330
2A
102
}
330
2A
100
AcDbProxyObject
 90
      499
 91
      501
 93
      388
310
4150985CDA58D07406404333333333333E33F0000000000000F90107A41107004050150841D405064090741402480A0350
1001
ACAD
1000
AcDbSavedByObjectVersion
1070
     0
  0
ACAD_PROXY_OBJECT
  5
36
102
{ACAD_REACTORS
330
2A
102
}
330
2A
100
AcDbProxyObject
 90
      499
 91
      501
 93
      428
310
42109C9A59DA1D195B90C409028333333333333E33F0000000000000F9010790141107004050150841D405064090741402480A029950
1001
ACAD
1000
AcDbSavedByObjectVersion
1070
     0
  0
ACAD_PROXY_OBJECT
  5
3A
102
{ACAD_REACTORS
330
2A
102
}
330
2A
100
AcDbProxyObject
 90
      499
 91
      501
 93
      452
310
42D0DBDB1BDC90DA185B99D95104090240C333333333333E33F0000000000000F90108901411070040501508421405064090741402480A0350
1001
ACAD
1000
AcDbSavedByObjectVersion
1070
     0
  0
ACAD_PROXY_OBJECT
  5
34
102
{ACAD_REACTORS
330
2A
102
}
330
2A
100
AcDbProxyObject
 90
      499
 91
      501
 93
      500
310
4290DBDB98D95C1D1D585B10940D028333333333333E33F0000000000000F90107902409070040501000000000018199010841D405064090740C02480A0340
1001
ACAD
1000
AcDbSavedByObjectVersion
1070
     0
  0
ACAD_PROXY_OBJECT
  5
35
102
{ACAD_REACTORS
330
2A
102
}
330
2A
100
AcDbProxyObject
 90
      499
 91
      501
 93
      412
310
40D11A5B50B409028333333333333E33F0000000000000F9010790141107004050150841D405064090741402480A02677FFFFFD0
1001
ACAD
1000
AcDbSavedByObjectVersion
1070
     0
  0
ACAD_PROXY_OBJECT
  5
3D
102
{ACAD_REACTORS
330
2A
102
}
330
2A
100
AcDbProxyObject
 90
      499
 91
      501
 93
      452
310
43115919D950DBDB1BDC93D999916409028333333333333E33F0000000000000F9010790141107004050150841D405064090741402480A0350
1001
ACAD
1000
AcDbSavedByObjectVersion
1070
     0
  0
ACAD_PROXY_OBJECT
  5
39
102
{ACAD_REACTORS
330
2A
102
}
330
2A
100
AcDbProxyObject
 90
      499
 91
      501
 93
      444
310
42D19858D95C185D1D195C9B90F409028333333333333E33F0000000000000F9010790141107004050150841D405064090741402480A0350
1001
ACAD
1000
AcDbSavedByObjectVersion
1070
     0
  0
ACAD_PROXY_OBJECT
  5
2B
102
{ACAD_REACTORS
330
2A
102
}
330
2A
100
AcDbProxyObject
 90
      499
 91
      501
 93
      380
310
41119B185D240901404333333333333E33F0000000000000F9010740A907004050150841D405064090741402480A1B50
1001
ACAD
1000
AcDbSavedByObjectVersion
1070
     0
  0
ACAD_PROXY_OBJECT
  5
2C
102
{ACAD_REACTORS
330
2A
102
}
330
2A
100
AcDbProxyObject
 90
      499
 91
      501
 93
      468
310
43519B185D15DA5D1A115919D95CD0140901404333333333333E33F0000000000000F90107409019070040501600405405064090741402480A1B50
1001
ACAD
1000
AcDbSavedByObjectVersion
1070
     0
  0
ACAD_PROXY_OBJECT
  5
2D
102
{ACAD_REACTORS
330
2A
102
}
330
2A
100
AcDbProxyObject
 90
      499
 91
      501
 93
      404
310
41D1DBDD5C985D5910240902404333333333333E33F0000000000000F9010740A9070040501641D405064090741402480A1B50
1001
ACAD
1000
AcDbSavedByObjectVersion
1070
     0
  0
ACAD_PROXY_OBJECT
  5
2E
102
{ACAD_REACTORS
330
2A
102
}
330
2A
100
AcDbProxyObject
 90
      499
 91
      501
 93
      492
310
4411DBDD5C985D5915DA5D1A115919D95CD0340902404333333333333E33F0000000000000F90107409019070040501600405405064090741402480A1B50
1001
ACAD
1000
AcDbSavedByObjectVersion
1070
     0
  0
ACAD_PROXY_OBJECT
  5
31
102
{ACAD_REACTORS
330
2A
102
}
330
2A
100
AcDbProxyObject
 90
      499
 91
      501
 93
      476
310
41921A5919195B90640502408333333333333E33F0000000000000F901079024090700405020000000000001110200405405064090740C02480A0340
1001
ACAD
1000
AcDbSavedByObjectVersion
1070
     0
  0
ACAD_PROXY_OBJECT
  5
3B
102
{ACAD_REACTORS
330
2A
102
}
330
2A
100
AcDbProxyObject
 90
      499
 91
      501
 93
      428
310
42529A5D1D195C93D999914409028333333333333E33F0000000000000F9010790141107004050150A41D405064090741402480A0350
1001
ACAD
1000
AcDbSavedByObjectVersion
1070
     0
  0
ACAD_PROXY_OBJECT
  5
38
102
{ACAD_REACTORS
330
2A
102
}
330
2A
100
AcDbProxyObject
 90
      499
 91
      501
 93
      444
310
42D31A5B995C185D1D195C9B90E409028333333333333E33F0000000000000F9010790141107004050750841D405064090741402483A0350
1001
ACAD
1000
AcDbSavedByObjectVersion
1070
     0
  0
ACAD_PROXY_OBJECT
  5
3C
102
{ACAD_REACTORS
330
2A
102
}
330
2A
100
AcDbProxyObject
 90
      499
 91
      501
 93
      444
310
42D3DD995C9A185B99D3D999915409028333333333333E33F0000000000000F9010790141107004050150941D405064090741402480A0350
1001
ACAD
1000
AcDbSavedByObjectVersion
1070
     0
  0
ACAD_PROXY_OBJECT
  5
33
102
{ACAD_REACTORS
330
2A
102
}
330
2A
100
AcDbProxyObject
 90
      499
 91
      501
 93
      428
310
425499585B1A5CDD1A58D08409038333333333333E33F0000000000000F9010740A907004050150800405405064090740C02480A1B40
1001
ACAD
1000
AcDbSavedByObjectVersion
1070
     0
  0
ACAD_PROXY_OBJECT
  5
42
102
{ACAD_REACTORS
330
2A
102
}
330
2A
100
AcDbProxyObject
 90
      499
 91
      501
 93
      420
310
4194DA1859195911B40902404333333333333E33F0000000000000F9010740A41107004050150800405405064090840C02480A0B40
1001
ACAD
1000
AcDbSavedByObjectVersion
1070
     0
  0
ACAD_PROXY_OBJECT
  5
41
102
{ACAD_REACTORS
330
2A
102
}
330
2A
100
AcDbProxyObject
 90
      499
 91
      501
 93
      516
310
4454DA18591959081DDA5D1A08195919D95CD1A40902404333333333333E33F0000000000000F901074090142907004050250800405405064090740C02480A0B40
1001
ACAD
1000
AcDbSavedByObjectVersion
1070
     0
  0
ACAD_PROXY_OBJECT
  5
3E
102
{ACAD_REACTORS
330
2A
102
}
330
2A
100
AcDbProxyObject
 90
      499
 91
      501
 93
      532
310
4394DA1859195CC81BD98811DC985E5174090240C333333333333E33F0000000000000F901079024090741D01000000000000111010841D405064090740C02480A0340
1001
ACAD
1000
AcDbSavedByObjectVersion
1070
     0
  0
ACAD_PROXY_OBJECT
  5
3F
102
{ACAD_REACTORS
330
2A
102
}
330
2A
100
AcDbProxyObject
 90
      499
 91
      501
 93
      476
310
41D4DAD95D18DA1E51840502408333333333333E33F0000000000000F901079024090741D01000000000000111010B41D405064090741802480A0340
1001
ACAD
1000
AcDbSavedByObjectVersion
1070
     0
  0
ACAD_PROXY_OBJECT
  5
37
102
{ACAD_REACTORS
330
2A
102
}
330
2A
100
AcDbProxyObject
 90
      499
 91
      501
 93
      412
310
41D51A1A58DAD95B90D409028333333333333E33F0000000000000F9010790141107004050150C41D405064090741402480A0350
1001
ACAD
1000
AcDbSavedByObjectVersion
1070
     0
  0
ACAD_PROXY_OBJECT
  5
30
102
{ACAD_REACTORS
330
2A
102
}
330
2A
100
AcDbProxyObject
 90
      499
 91
      501
 93
      420
310
4255DA5C99599C985B595059028333333333333E33F0000000000000F90107901411070040501600405405064090740C02480A0340
1001
ACAD
1000
AcDbSavedByObjectVersion
1070
     0
  0
ACAD_PROXY_OBJECT
  5
40
102
{ACAD_REACTORS
330
2A
102
}
330
2A
100
AcDbProxyObject
 90
      499
 91
      501
 93
      404
310
41560B54985E51940902404000000000000E03F0000000000000F9010740501907004050150841D405064090740C02480A1B40
1001
ACAD
1000
AcDbSavedByObjectVersion
1070
     0
  0
XRECORD
  5
5A8
102
{ACAD_REACTORS
330
59E
102
}
330
59E
100
AcDbXrecord
340
0
  0
XRECORD
  5
5A7
102
{ACAD_REACTORS
330
59E
102
}
330
59E
100
AcDbXrecord
 90
        0
  0
XRECORD
  5
5BE
102
{ACAD_REACTORS
330
59E
102
}
330
59E
100
AcDbXrecord
1000
DSTYLE
1002
{
1070
   171
 70
     2
1070
   143
 40
25.4
1070
   274
 70
     2
1070
    41
 40
0.18
1070
   141
 40
0.09
1070
   271
 70
     4
1070
    43
 40
0.38
1070
   278
 70
    46
1070
    44
 40
0.18
1070
    42
 40
0.0625
1070
   147
 40
0.09
1070
    77
 70
     0
1070
   272
 70
     4
1070
    73
 70
     1
1070
   172
 70
     0
1070
    74
 70
     1
1070
   283
 70
     1
1070
   340
340
11
1070
   140
 40
0.18
1070
   284
 70
     0
1070
    78
 70
     0
1002
}
  0
XRECORD
  5
5A9
102
{ACAD_REACTORS
330
59E
102
}
330
59E
100
AcDbXrecord
  1
{5b570ac3-5765-4210-ac48-8b501c3f33bc}
  0
XRECORD
  5
5A1
102
{ACAD_REACTORS
330
59E
102
}
330
59E
100
AcDbXrecord
  1

  0
XRECORD
  5
5A6
102
{ACAD_REACTORS
330
59E
102
}
330
59E
100
AcDbXrecord
 90
        6
  0
XRECORD
  5
5A3
102
{ACAD_REACTORS
330
59E
102
}
330
59E
100
AcDbXrecord
340
1A
  0
XRECORD
  5
5A5
102
{ACAD_REACTORS
330
59E
102
}
330
59E
100
AcDbXrecord
 90
    10781
  0
XRECORD
  5
5A4
102
{ACAD_REACTORS
330
59E
102
}
330
59E
100
AcDbXrecord
340
19
  0
XRECORD
  5
5AB
102
{ACAD_REACTORS
330
59E
102
}
330
59E
100
AcDbXrecord
 40
0.0
  0
XRECORD
  5
5AE
102
{ACAD_REACTORS
330
59E
102
}
330
59E
100
AcDbXrecord
340
0
  0
XRECORD
  5
5B4
102
{ACAD_REACTORS
330
59E
102
}
330
59E
100
AcDbXrecord
 10
0.0
 20
0.0
 30
0.0
  0
XRECORD
  5
5B0
102
{ACAD_REACTORS
330
59E
102
}
330
59E
100
AcDbXrecord
 10
0.0
 20
0.0
 30
0.0
  0
XRECORD
  5
5B3
102
{ACAD_REACTORS
330
59E
102
}
330
59E
100
AcDbXrecord
 10
0.0
 20
0.0
 30
0.0
  0
XRECORD
  5
5B1
102
{ACAD_REACTORS
330
59E
102
}
330
59E
100
AcDbXrecord
 10
0.0
 20
0.0
 30
0.0
  0
XRECORD
  5
5B2
102
{ACAD_REACTORS
330
59E
102
}
330
59E
100
AcDbXrecord
 10
0.0
 20
0.0
 30
0.0
  0
XRECORD
  5
5AF
102
{ACAD_REACTORS
330
59E
102
}
330
59E
100
AcDbXrecord
 10
0.0
 20
0.0
 30
0.0
  0
XRECORD
  5
5AC
102
{ACAD_REACTORS
330
59E
102
}
330
59E
100
AcDbXrecord
340
0
  0
XRECORD
  5
5AD
102
{ACAD_REACTORS
330
59E
102
}
330
59E
100
AcDbXrecord
 70
     0
  0
XRECORD
  5
5A2
102
{ACAD_REACTORS
330
59E
102
}
330
59E
100
AcDbXrecord
  1

  0
XRECORD
  5
59F
102
{ACAD_REACTORS
330
59E
102
}
330
59E
100
AcDbXrecord
 90
        1
  0
XRECORD
  5
5A0
102
{ACAD_REACTORS
330
59E
102
}
330
59E
100
AcDbXrecord
 90
       70
  0
XRECORD
  5
5B7
102
{ACAD_REACTORS
330
59E
102
}
330
59E
100
AcDbXrecord
340
0
  0
XRECORD
  5
5BD
102
{ACAD_REACTORS
330
59E
102
}
330
59E
100
AcDbXrecord
 10
0.0
 20
0.0
 30
0.0
  0
XRECORD
  5
5B9
102
{ACAD_REACTORS
330
59E
102
}
330
59E
100
AcDbXrecord
 10
0.0
 20
0.0
 30
0.0
  0
XRECORD
  5
5BC
102
{ACAD_REACTORS
330
59E
102
}
330
59E
100
AcDbXrecord
 10
0.0
 20
0.0
 30
0.0
  0
XRECORD
  5
5BA
102
{ACAD_REACTORS
330
59E
102
}
330
59E
100
AcDbXrecord
 10
0.0
 20
0.0
 30
0.0
  0
XRECORD
  5
5BB
102
{ACAD_REACTORS
330
59E
102
}
330
59E
100
AcDbXrecord
 10
0.0
 20
0.0
 30
0.0
  0
XRECORD
  5
5B8
102
{ACAD_REACTORS
330
59E
102
}
330
59E
100
AcDbXrecord
 10
0.0
 20
0.0
 30
0.0
  0
XRECORD
  5
5B5
102
{ACAD_REACTORS
330
59E
102
}
330
59E
100
AcDbXrecord
340
0
  0
XRECORD
  5
5B6
102
{ACAD_REACTORS
330
59E
102
}
330
59E
100
AcDbXrecord
 70
     0
  0
XRECORD
  5
5AA
102
{ACAD_REACTORS
330
59E
102
}
330
59E
100
AcDbXrecord
  1
{FAEB1C32-E019-11D5-929B-00C0DF256EC4}
  0
DICTIONARYVAR
  5
5C9
102
{ACAD_REACTORS
330
5BF
102
}
330
5BF
100
DictionaryVariables
280
     0
  1
1:1
  0
DICTIONARYVAR
  5
5C1
102
{ACAD_REACTORS
330
5BF
102
}
330
5BF
100
DictionaryVariables
280
     0
  1
Standard
  0
DICTIONARYVAR
  5
5C0
102
{ACAD_REACTORS
330
5BF
102
}
330
5BF
100
DictionaryVariables
280
     0
  1
Standard
  0
DICTIONARYVAR
  5
5C4
102
{ACAD_REACTORS
330
5BF
102
}
330
5BF
100
DictionaryVariables
280
     0
  1
2
  0
DICTIONARYVAR
  5
5C5
102
{ACAD_REACTORS
330
5BF
102
}
330
5BF
100
DictionaryVariables
280
     0
  1
1
  0
DICTIONARYVAR
  5
5CA
102
{ACAD_REACTORS
330
5BF
102
}
330
5BF
100
DictionaryVariables
280
     0
  1
1
  0
DICTIONARY
  5
5CD
330
45
100
AcDbDictionary
280
     1
  3
ACAD_XREC_ROUNDTRIP
360
5CE
  0
DICTIONARY
  5
5CB
330
44
100
AcDbDictionary
280
     1
  3
ACAD_XREC_ROUNDTRIP
360
5CC
  0
DICTIONARY
  5
5CF
330
46
100
AcDbDictionary
280
     1
  3
ACAD_XREC_ROUNDTRIP
360
5D0
  0
XRECORD
  5
5CE
102
{ACAD_REACTORS
330
5CD
102
}
330
5CD
100
AcDbXrecord
102
MATERIAL
148
0.0
149
0.0
149
0.0
 93
        0
 94
      127
282
     0
 72
     1
 77
     1
171
     1
175
     1
179
     1
273
     0
  0
XRECORD
  5
5CC
102
{ACAD_REACTORS
330
5CB
102
}
330
5CB
100
AcDbXrecord
102
MATERIAL
148
0.0
149
0.0
149
0.0
 93
        0
 94
      127
282
     0
 72
     1
 77
     1
171
     1
175
     1
179
     1
273
     0
  0
XRECORD
  5
5D0
102
{ACAD_REACTORS
330
5CF
102
}
330
5CF
100
AcDbXrecord
102
MATERIAL
148
0.0
149
0.0
149
0.0
 93
        0
 94
      127
282
     0
 72
     1
 77
     1
171
     1
175
     1
179
     1
273
     0
  0
ENDSEC
  0
EOF
