  0
SECTION
  2
HEADER
  9
$ACADVER
  1
AC1014
  9
$ACADMAINTVER
 70
     9
  9
$DWGCODEPAGE
  3
ANSI_1252
  9
$INSBASE
 10
0.0
 20
0.0
 30
0.0
  9
$EXTMIN
 10
1.000000000000000E+20
 20
1.000000000000000E+20
 30
1.000000000000000E+20
  9
$EXTMAX
 10
-1.000000000000000E+20
 20
-1.000000000000000E+20
 30
-1.000000000000000E+20
  9
$LIMMIN
 10
0.0
 20
0.0
  9
$LIMMAX
 10
12.0
 20
9.0
  9
$ORTHOMODE
 70
     0
  9
$REGENMODE
 70
     1
  9
$FILLMODE
 70
     1
  9
$QTEXTMODE
 70
     0
  9
$MIRRTEXT
 70
     1
  9
$DRAGMODE
 70
     2
  9
$LTSCALE
 40
1.0
  9
$OSMODE
 70
    37
  9
$ATTMODE
 70
     1
  9
$TEXTSIZE
 40
0.2
  9
$TRACEWID
 40
0.05
  9
$TEXTSTYLE
  7
STANDARD
  9
$CLAYER
  8
0
  9
$CELTYPE
  6
BYLAYER
  9
$CECOLOR
 62
   256
  9
$CELTSCALE
 40
1.0
  9
$DELOBJ
 70
     1
  9
$DISPSILH
 70
     0
  9
$DIMSCALE
 40
1.0
  9
$DIMASZ
 40
0.18
  9
$DIMEXO
 40
0.0625
  9
$DIMDLI
 40
0.38
  9
$DIMRND
 40
0.0
  9
$DIMDLE
 40
0.0
  9
$DIMEXE
 40
0.18
  9
$DIMTP
 40
0.0
  9
$DIMTM
 40
0.0
  9
$DIMTXT
 40
0.18
  9
$DIMCEN
 40
0.09
  9
$DIMTSZ
 40
0.0
  9
$DIMTOL
 70
     0
  9
$DIMLIM
 70
     0
  9
$DIMTIH
 70
     1
  9
$DIMTOH
 70
     1
  9
$DIMSE1
 70
     0
  9
$DIMSE2
 70
     0
  9
$DIMTAD
 70
     0
  9
$DIMZIN
 70
     0
  9
$DIMBLK
  1

  9
$DIMASO
 70
     1
  9
$DIMSHO
 70
     1
  9
$DIMPOST
  1

  9
$DIMAPOST
  1

  9
$DIMALT
 70
     0
  9
$DIMALTD
 70
     2
  9
$DIMALTF
 40
25.4
  9
$DIMLFAC
 40
1.0
  9
$DIMTOFL
 70
     0
  9
$DIMTVP
 40
0.0
  9
$DIMTIX
 70
     0
  9
$DIMSOXD
 70
     0
  9
$DIMSAH
 70
     0
  9
$DIMBLK1
  1

  9
$DIMBLK2
  1

  9
$DIMSTYLE
  2
STANDARD
  9
$DIMCLRD
 70
     0
  9
$DIMCLRE
 70
     0
  9
$DIMCLRT
 70
     0
  9
$DIMTFAC
 40
1.0
  9
$DIMGAP
 40
0.09
  9
$DIMJUST
 70
     0
  9
$DIMSD1
 70
     0
  9
$DIMSD2
 70
     0
  9
$DIMTOLJ
 70
     1
  9
$DIMTZIN
 70
     0
  9
$DIMALTZ
 70
     0
  9
$DIMALTTZ
 70
     0
  9
$DIMFIT
 70
     3
  9
$DIMUPT
 70
     0
  9
$DIMUNIT
 70
     2
  9
$DIMDEC
 70
     4
  9
$DIMTDEC
 70
     4
  9
$DIMALTU
 70
     2
  9
$DIMALTTD
 70
     2
  9
$DIMTXSTY
  7
STANDARD
  9
$DIMAUNIT
 70
     0
  9
$LUNITS
 70
     2
  9
$LUPREC
 70
     4
  9
$SKETCHINC
 40
0.1
  9
$FILLETRAD
 40
0.0
  9
$AUNITS
 70
     0
  9
$AUPREC
 70
     0
  9
$MENU
  1
.
  9
$ELEVATION
 40
0.0
  9
$PELEVATION
 40
0.0
  9
$THICKNESS
 40
0.0
  9
$LIMCHECK
 70
     0
  9
$CHAMFERA
 40
0.0
  9
$CHAMFERB
 40
0.0
  9
$CHAMFERC
 40
0.0
  9
$CHAMFERD
 40
0.0
  9
$SKPOLY
 70
     0
  9
$TDCREATE
 40
2460503.520461818
  9
$TDUPDATE
 40
2460503.520480591
  9
$TDINDWG
 40
0.0000000116
  9
$TDUSRTIMER
 40
0.0000000116
  9
$USRTIMER
 70
     1
  9
$ANGBASE
 50
0.0
  9
$ANGDIR
 70
     0
  9
$PDMODE
 70
     0
  9
$PDSIZE
 40
0.0
  9
$PLINEWID
 40
0.0
  9
$COORDS
 70
     1
  9
$SPLFRAME
 70
     0
  9
$SPLINETYPE
 70
     6
  9
$SPLINESEGS
 70
     8
  9
$ATTDIA
 70
     0
  9
$ATTREQ
 70
     1
  9
$HANDLING
 70
     1
  9
$HANDSEED
  5
42C
  9
$SURFTAB1
 70
     6
  9
$SURFTAB2
 70
     6
  9
$SURFTYPE
 70
     6
  9
$SURFU
 70
     6
  9
$SURFV
 70
     6
  9
$UCSNAME
  2

  9
$UCSORG
 10
0.0
 20
0.0
 30
0.0
  9
$UCSXDIR
 10
1.0
 20
0.0
 30
0.0
  9
$UCSYDIR
 10
0.0
 20
1.0
 30
0.0
  9
$PUCSNAME
  2

  9
$PUCSORG
 10
0.0
 20
0.0
 30
0.0
  9
$PUCSXDIR
 10
1.0
 20
0.0
 30
0.0
  9
$PUCSYDIR
 10
0.0
 20
1.0
 30
0.0
  9
$USERI1
 70
     0
  9
$USERI2
 70
     0
  9
$USERI3
 70
     0
  9
$USERI4
 70
     0
  9
$USERI5
 70
     0
  9
$USERR1
 40
0.0
  9
$USERR2
 40
0.0
  9
$USERR3
 40
0.0
  9
$USERR4
 40
0.0
  9
$USERR5
 40
0.0
  9
$WORLDVIEW
 70
     1
  9
$SHADEDGE
 70
     3
  9
$SHADEDIF
 70
    70
  9
$TILEMODE
 70
     1
  9
$MAXACTVP
 70
    64
  9
$PINSBASE
 10
0.0
 20
0.0
 30
0.0
  9
$PLIMCHECK
 70
     0
  9
$PEXTMIN
 10
1.000000000000000E+20
 20
1.000000000000000E+20
 30
1.000000000000000E+20
  9
$PEXTMAX
 10
-1.000000000000000E+20
 20
-1.000000000000000E+20
 30
-1.000000000000000E+20
  9
$PLIMMIN
 10
0.0
 20
0.0
  9
$PLIMMAX
 10
12.0
 20
9.0
  9
$UNITMODE
 70
     0
  9
$VISRETAIN
 70
     1
  9
$PLINEGEN
 70
     0
  9
$PSLTSCALE
 70
     1
  9
$TREEDEPTH
 70
  3020
  9
$PICKSTYLE
 70
     1
  9
$CMLSTYLE
  2
STANDARD
  9
$CMLJUST
 70
     0
  9
$CMLSCALE
 40
1.0
  9
$PROXYGRAPHICS
 70
     1
  9
$MEASUREMENT
 70
     1
  0
ENDSEC
  0
SECTION
  2
CLASSES
  0
CLASS
  1
ACDBDICTIONARYWDFLT
  2
AcDbDictionaryWithDefault
  3
ObjectDBX Classes
 90
        0
280
     0
281
     0
  0
CLASS
  1
VISUALSTYLE
  2
AcDbVisualStyle
  3
ObjectDBX Classes
 90
     4095
280
     0
281
     0
  0
CLASS
  1
MATERIAL
  2
AcDbMaterial
  3
ObjectDBX Classes
 90
     1153
280
     0
281
     0
  0
CLASS
  1
SCALE
  2
AcDbScale
  3
ObjectDBX Classes
 90
     1153
280
     0
281
     0
  0
CLASS
  1
TABLESTYLE
  2
AcDbTableStyle
  3
ObjectDBX Classes
 90
     4095
280
     0
281
     0
  0
CLASS
  1
MLEADERSTYLE
  2
AcDbMLeaderStyle
  3
ACDB_MLEADERSTYLE_CLASS
 90
     4095
280
     0
281
     0
  0
CLASS
  1
SUN
  2
AcDbSun
  3
SCENEOE
 90
     1153
280
     0
281
     0
  0
CLASS
  1
DICTIONARYVAR
  2
AcDbDictionaryVar
  3
ObjectDBX Classes
 90
        0
280
     0
281
     0
  0
CLASS
  1
XRECORD
  2
AcDbXrecord
  3
ObjectDBX Classes
 90
        0
280
     0
281
     0
  0
CLASS
  1
LWPOLYLINE
  2
AcDbPolyline
  3
ObjectDBX Classes
 90
        0
280
     0
281
     1
  0
CLASS
  1
HATCH
  2
AcDbHatch
  3
ObjectDBX Classes
 90
        0
280
     0
281
     1
  0
CLASS
  1
ACDBPLACEHOLDER
  2
AcDbPlaceHolder
  3
ObjectDBX Classes
 90
        0
280
     0
281
     0
  0
CLASS
  1
LAYOUT
  2
AcDbLayout
  3
ObjectDBX Classes
 90
        0
280
     0
281
     0
  0
ENDSEC
  0
SECTION
  2
TABLES
  0
TABLE
  2
VPORT
  5
8
102
{ACAD_XDICTIONARY
360
421
102
}
330
0
100
AcDbSymbolTable
 70
     1
  0
VPORT
  5
29
330
8
100
AcDbSymbolTableRecord
100
AcDbViewportTableRecord
  2
*ACTIVE
 70
     0
 10
0.0
 20
0.0
 11
1.0
 21
1.0
 12
0.0
 22
0.0
 13
0.0
 23
0.0
 14
0.5
 24
0.5
 15
0.5
 25
0.5
 16
0.0
 26
0.0
 36
1.0
 17
0.0
 27
0.0
 37
-1000.0
 40
0.2287083192188756
 41
1.894193548387097
 42
50.0
 43
0.559650337511348
 44
0.8290793880876273
 50
0.0
 51
0.0
 71
     0
 72
   100
 73
     1
 74
     3
 75
     0
 76
     0
 77
     0
 78
     0
  0
ENDTAB
  0
TABLE
  2
LTYPE
  5
5
330
0
100
AcDbSymbolTable
 70
     1
  0
LTYPE
  5
14
330
5
100
AcDbSymbolTableRecord
100
AcDbLinetypeTableRecord
  2
BYBLOCK
 70
     0
  3

 72
    65
 73
     0
 40
0.0
  0
LTYPE
  5
15
330
5
100
AcDbSymbolTableRecord
100
AcDbLinetypeTableRecord
  2
BYLAYER
 70
     0
  3

 72
    65
 73
     0
 40
0.0
  0
LTYPE
  5
16
330
5
100
AcDbSymbolTableRecord
100
AcDbLinetypeTableRecord
  2
CONTINUOUS
 70
     0
  3
Solid line
 72
    65
 73
     0
 40
0.0
  0
ENDTAB
  0
TABLE
  2
LAYER
  5
2
330
0
100
AcDbSymbolTable
 70
     3
  0
LAYER
  5
10
330
2
100
AcDbSymbolTableRecord
100
AcDbLayerTableRecord
  2
0
 70
     0
 62
     7
  6
CONTINUOUS
  0
LAYER
  5
5E
330
2
100
AcDbSymbolTableRecord
100
AcDbLayerTableRecord
  2
PROFILEEDGES
 70
     0
 62
     7
  6
CONTINUOUS
  0
LAYER
  5
5F
330
2
100
AcDbSymbolTableRecord
100
AcDbLayerTableRecord
  2
SECTIONCUTEDGES
 70
     0
 62
     7
  6
CONTINUOUS
  0
ENDTAB
  0
TABLE
  2
STYLE
  5
3
330
0
100
AcDbSymbolTable
 70
     1
  0
STYLE
  5
11
330
3
100
AcDbSymbolTableRecord
100
AcDbTextStyleTableRecord
  2
STANDARD
 70
     0
 40
0.0
 41
1.0
 50
0.0
 71
     0
 42
0.2
  3
txt
  4

  0
ENDTAB
  0
TABLE
  2
VIEW
  5
6
330
0
100
AcDbSymbolTable
 70
     0
  0
ENDTAB
  0
TABLE
  2
UCS
  5
7
330
0
100
AcDbSymbolTable
 70
     0
  0
ENDTAB
  0
TABLE
  2
APPID
  5
9
330
0
100
AcDbSymbolTable
 70
     2
  0
APPID
  5
12
330
9
100
AcDbSymbolTableRecord
100
AcDbRegAppTableRecord
  2
ACAD
 70
     0
  0
APPID
  5
42B
330
9
100
AcDbSymbolTableRecord
100
AcDbRegAppTableRecord
  2
ACAD_MLEADERVER
 70
     0
  0
ENDTAB
  0
TABLE
  2
DIMSTYLE
  5
A
330
0
100
AcDbSymbolTable
 70
     1
  0
DIMSTYLE
105
27
330
A
100
AcDbSymbolTableRecord
100
AcDbDimStyleTableRecord
  2
STANDARD
 70
     0
  3

  4

  5

  6

  7

 40
1.0
 41
0.18
 42
0.0625
 43
0.38
 44
0.18
 45
0.0
 46
0.0
 47
0.0
 48
0.0
140
0.18
141
0.09
142
0.0
143
25.4
144
1.0
145
0.0
146
1.0
147
0.09
 71
     0
 72
     0
 73
     1
 74
     1
 75
     0
 76
     0
 77
     0
 78
     0
170
     0
171
     2
172
     0
173
     0
174
     0
175
     0
176
     0
177
     0
178
     0
270
     2
271
     4
272
     4
273
     2
274
     2
340
11
275
     0
280
     0
281
     0
282
     0
283
     1
284
     0
285
     0
286
     0
287
     3
288
     0
  0
ENDTAB
  0
TABLE
  2
BLOCK_RECORD
  5
1
330
0
100
AcDbSymbolTable
 70
     0
  0
BLOCK_RECORD
  5
1F
330
1
100
AcDbSymbolTableRecord
100
AcDbBlockTableRecord
  2
*MODEL_SPACE
  0
BLOCK_RECORD
  5
1B
330
1
100
AcDbSymbolTableRecord
100
AcDbBlockTableRecord
  2
*PAPER_SPACE
  0
ENDTAB
  0
ENDSEC
  0
SECTION
  2
BLOCKS
  0
BLOCK
  5
20
330
1F
100
AcDbEntity
  8
0
100
AcDbBlockBegin
  2
*MODEL_SPACE
 70
     0
 10
0.0
 20
0.0
 30
0.0
  3
*MODEL_SPACE
  1

  0
ENDBLK
  5
21
330
1F
100
AcDbEntity
  8
0
100
AcDbBlockEnd
  0
BLOCK
  5
1C
330
1B
100
AcDbEntity
 67
     1
  8
0
100
AcDbBlockBegin
  2
*PAPER_SPACE
 70
     0
 10
0.0
 20
0.0
 30
0.0
  3
*PAPER_SPACE
  1

  0
ENDBLK
  5
1D
330
1B
100
AcDbEntity
 67
     1
  8
0
100
AcDbBlockEnd
  0
ENDSEC
  0
SECTION
  2
ENTITIES
  0
LINE
  5
60
330
1F
100
AcDbEntity
  8
0
100
AcDbLine
 10
0.0279691911942602
 20
0.0250281501420749
 30
0.0
 11
0.0280617102347799
 21
0.0250521387041807
 31
0.0
  0
LINE
  5
61
330
1F
100
AcDbEntity
  8
0
100
AcDbLine
 10
0.0372495802677444
 20
0.0249371106006635
 30
0.0
 11
0.0373882237396056
 21
0.0248934384533248
 31
0.0
  0
LINE
  5
62
330
1F
100
AcDbEntity
  8
0
100
AcDbLine
 10
-0.1573480287032537
 20
0.0353760215665314
 30
0.0
 11
-0.1572480341889623
 21
0.0353934361515324
 31
0.0
  0
LINE
  5
63
330
1F
100
AcDbEntity
  8
0
100
AcDbLine
 10
-0.1521266000811152
 20
0.0357934373193462
 30
0.0
 11
-0.1519746326618537
 21
0.037343667982616
 31
0.0
  0
LINE
  5
64
330
1F
100
AcDbEntity
  8
0
100
AcDbLine
 10
0.1684012502744392
 20
0.0270427255277168
 30
0.0
 11
0.1683838356925648
 21
0.0271427200240554
 31
0.0
  0
LINE
  5
65
330
1F
100
AcDbEntity
  8
0
100
AcDbLine
 10
0.1683838356925648
 20
0.0271427200240554
 30
0.0
 11
0.1683362519981873
 21
0.0272159233315121
 31
0.0
  0
LINE
  5
66
330
1F
100
AcDbEntity
  8
0
100
AcDbLine
 10
0.1688012514422529
 20
-0.0071515144610243
 30
0.0
 11
0.1703514821055227
 21
-0.0069824470939593
 31
0.0
  0
LINE
  5
67
330
1F
100
AcDbEntity
  8
0
100
AcDbLine
 10
0.0125403500842743
 20
0.0034428593614182
 30
0.0
 11
0.0121512528258257
 21
0.0073934384533248
 31
0.0
  0
LINE
  5
68
330
1F
100
AcDbEntity
  8
0
100
AcDbLine
 10
0.0136926922696524
 20
-0.00035590111231
 30
0.0
 11
0.0125403500842743
 21
0.0034428593614182
 31
0.0
  0
LINE
  5
69
330
1F
100
AcDbEntity
  8
0
100
AcDbLine
 10
0.0149012528109246
 20
-0.0026169590484357
 30
0.0
 11
0.0136926922696524
 21
-0.00035590111231
 31
0.0
  0
LINE
  5
6A
330
1F
100
AcDbEntity
  8
0
100
AcDbLine
 10
0.0511098135012084
 20
-0.00035590111231
 30
0.0
 11
0.0499012529599362
 21
-0.0026169590484356
 31
0.0
  0
LINE
  5
6B
330
1F
100
AcDbEntity
  8
0
100
AcDbLine
 10
0.0522621556865864
 20
0.0034428593614182
 30
0.0
 11
0.0511098135012084
 21
-0.00035590111231
 31
0.0
  0
LINE
  5
6C
330
1F
100
AcDbEntity
  8
0
100
AcDbLine
 10
0.052651252945035
 20
0.0073934384533248
 30
0.0
 11
0.0522621556865864
 21
0.0034428593614182
 31
0.0
  0
LINE
  5
6D
330
1F
100
AcDbEntity
  8
0
100
AcDbLine
 10
-0.0275987457734651
 20
-0.0526065602055707
 30
0.0
 11
0.0149012528109246
 21
-0.0526065602055707
 31
0.0
  0
LINE
  5
6E
330
1F
100
AcDbEntity
  8
0
100
AcDbLine
 10
0.0499012529599362
 20
-0.0526065602055707
 30
0.0
 11
0.0924012515443259
 21
-0.0526065602055707
 31
0.0
  0
LINE
  5
6F
330
1F
100
AcDbEntity
  8
0
100
AcDbLine
 10
0.0363518319773369
 20
0.0272543412544808
 30
0.0
 11
0.0401505924510651
 21
0.0261019990691027
 31
0.0
  0
LINE
  5
70
330
1F
100
AcDbEntity
  8
0
100
AcDbLine
 10
0.0401505924510651
 20
0.0261019990691027
 30
0.0
 11
0.0424116505265814
 21
0.0248934384533248
 31
0.0
  0
LINE
  5
71
330
1F
100
AcDbEntity
  8
0
100
AcDbLine
 10
-0.0275987457734651
 20
0.0673934371122202
 30
0.0
 11
-0.0275987457734651
 21
-0.0526065602055707
 31
0.0
  0
LINE
  5
72
330
1F
100
AcDbEntity
  8
0
100
AcDbLine
 10
0.0121512528258257
 20
0.0073934384533248
 30
0.0
 11
0.0125403500842743
 21
0.0113440175452313
 31
0.0
  0
LINE
  5
73
330
1F
100
AcDbEntity
  8
0
100
AcDbLine
 10
0.0125403500842743
 20
0.0113440175452313
 30
0.0
 11
0.0136926922696524
 21
0.0151427780189595
 31
0.0
  0
LINE
  5
74
330
1F
100
AcDbEntity
  8
0
100
AcDbLine
 10
0.0136926922696524
 20
0.0151427780189595
 30
0.0
 11
0.0149012528109246
 21
0.0174038359550852
 31
0.0
  0
LINE
  5
75
330
1F
100
AcDbEntity
  8
0
100
AcDbLine
 10
0.0499012529599362
 20
0.0174038359550852
 30
0.0
 11
0.0511098135012084
 21
0.0151427780189595
 31
0.0
  0
LINE
  5
76
330
1F
100
AcDbEntity
  8
0
100
AcDbLine
 10
0.0511098135012084
 20
0.0151427780189595
 30
0.0
 11
0.0522621556865864
 21
0.0113440175452313
 31
0.0
  0
LINE
  5
77
330
1F
100
AcDbEntity
  8
0
100
AcDbLine
 10
0.0924012515443259
 20
-0.0526065602055707
 30
0.0
 11
0.0924012515443259
 21
0.0673934371122203
 31
0.0
  0
LINE
  5
78
330
1F
100
AcDbEntity
  8
0
100
AcDbLine
 10
0.0522621556865864
 20
0.0113440175452313
 30
0.0
 11
0.052651252945035
 21
0.0073934384533248
 31
0.0
  0
LINE
  5
79
330
1F
100
AcDbEntity
  8
0
100
AcDbLine
 10
0.0223908552442794
 20
0.0248934384533248
 30
0.0
 11
0.0246519133197957
 21
0.0261019990691027
 31
0.0
  0
LINE
  5
7A
330
1F
100
AcDbEntity
  8
0
100
AcDbLine
 10
0.0246519133197957
 20
0.0261019990691027
 30
0.0
 11
0.0284506737935238
 21
0.0272543412544808
 31
0.0
  0
LINE
  5
7B
330
1F
100
AcDbEntity
  8
0
100
AcDbLine
 10
0.0924012515443259
 20
0.0673934371122203
 30
0.0
 11
-0.0275987457734651
 21
0.0673934371122202
 31
0.0
  0
LINE
  5
7C
330
1F
100
AcDbEntity
  8
0
100
AcDbLine
 10
0.0284506737935238
 20
0.0272543412544808
 30
0.0
 11
0.0324012528854304
 21
0.0276434385129294
 31
0.0
  0
LINE
  5
7D
330
1F
100
AcDbEntity
  8
0
100
AcDbLine
 10
0.0324012528854304
 20
0.0276434385129294
 30
0.0
 11
0.0363518319773369
 21
0.0272543412544808
 31
0.0
  0
LINE
  5
7E
330
1F
100
AcDbEntity
  8
0
100
AcDbLine
 10
0.014785496043294
 20
0.0015807277027523
 30
0.0
 11
0.0149012528109246
 21
0.001294384728545
 31
0.0
  0
LINE
  5
7F
330
1F
100
AcDbEntity
  8
0
100
AcDbLine
 10
0.0149012528109246
 20
0.0016189242037258
 30
0.0
 11
0.014785496043294
 21
0.0015807277027523
 31
0.0
  0
LINE
  5
80
330
1F
100
AcDbEntity
  8
0
100
AcDbLine
 10
0.0149012528109246
 20
0.0020806118649566
 30
0.0
 11
0.014785496043294
 21
0.0015807277027523
 31
0.0
  0
LINE
  5
81
330
1F
100
AcDbEntity
  8
0
100
AcDbLine
 10
0.0141774906080208
 20
0.0039297740740095
 30
0.0
 11
0.014785496043294
 21
0.0015807277027523
 31
0.0
  0
LINE
  5
82
330
1F
100
AcDbEntity
  8
0
100
AcDbLine
 10
0.0145229790526487
 20
0.0039954389812068
 30
0.0
 11
0.0141774906080208
 21
0.0039297740740095
 31
0.0
  0
LINE
  5
83
330
1F
100
AcDbEntity
  8
0
100
AcDbLine
 10
0.0144133158885564
 20
0.0046465232204844
 30
0.0
 11
0.0141774906080208
 21
0.0039297740740095
 31
0.0
  0
LINE
  5
84
330
1F
100
AcDbEntity
  8
0
100
AcDbLine
 10
0.0143136983081079
 20
0.005491581404908
 30
0.0
 11
0.013881298354355
 21
0.0063380844739614
 31
0.0
  0
LINE
  5
85
330
1F
100
AcDbEntity
  8
0
100
AcDbLine
 10
0.013881298354355
 20
0.0063380844739614
 30
0.0
 11
0.0141774906080208
 21
0.0039297740740095
 31
0.0
  0
LINE
  5
86
330
1F
100
AcDbEntity
  8
0
100
AcDbLine
 10
0.0142025057451147
 20
0.0070688371574871
 30
0.0
 11
0.013881298354355
 21
0.0063380844739614
 31
0.0
  0
LINE
  5
87
330
1F
100
AcDbEntity
  8
0
100
AcDbLine
 10
0.0142245653084419
 20
0.0079259701701157
 30
0.0
 11
0.0139019882447326
 21
0.0087644522736579
 31
0.0
  0
LINE
  5
88
330
1F
100
AcDbEntity
  8
0
100
AcDbLine
 10
0.0139019882447326
 20
0.0087644522736579
 30
0.0
 11
0.013881298354355
 21
0.0063380844739614
 31
0.0
  0
LINE
  5
89
330
1F
100
AcDbEntity
  8
0
100
AcDbLine
 10
0.0142454895727516
 20
0.0087389947715807
 30
0.0
 11
0.0139019882447326
 21
0.0087644522736579
 31
0.0
  0
LINE
  5
8A
330
1F
100
AcDbEntity
  8
0
100
AcDbLine
 10
0.0143439458634221
 20
0.0095841518989854
 30
0.0
 11
0.0142392047882355
 21
0.0111673617130159
 31
0.0
  0
LINE
  5
8B
330
1F
100
AcDbEntity
  8
0
100
AcDbLine
 10
0.0142392047882355
 20
0.0111673617130159
 30
0.0
 11
0.0139019882447326
 21
0.0087644522736579
 31
0.0
  0
LINE
  5
8C
330
1F
100
AcDbEntity
  8
0
100
AcDbLine
 10
0.0145694709388473
 20
0.0110987351265271
 30
0.0
 11
0.0142392047882355
 21
0.0111673617130159
 31
0.0
  0
LINE
  5
8D
330
1F
100
AcDbEntity
  8
0
100
AcDbLine
 10
0.0147830858204399
 20
0.0119025146100316
 30
0.0
 11
0.0148871795909689
 21
0.0135056981919407
 31
0.0
  0
LINE
  5
8E
330
1F
100
AcDbEntity
  8
0
100
AcDbLine
 10
0.0148871795909689
 20
0.0135056981919407
 30
0.0
 11
0.0142392047882355
 21
0.0111673617130159
 31
0.0
  0
LINE
  5
8F
330
1F
100
AcDbEntity
  8
0
100
AcDbLine
 10
0.0149012528109246
 20
0.0135388710722702
 30
0.0
 11
0.0148871795909689
 21
0.0135056981919407
 31
0.0
  0
LINE
  5
90
330
1F
100
AcDbEntity
  8
0
100
AcDbLine
 10
0.0265633213542364
 20
0.0248934384533248
 30
0.0
 11
0.0265885421348579
 21
0.0250091952954611
 31
0.0
  0
LINE
  5
91
330
1F
100
AcDbEntity
  8
0
100
AcDbLine
 10
0.0265885421348579
 20
0.0250091952954611
 30
0.0
 11
0.0263021989763485
 21
0.0248934384533248
 31
0.0
  0
LINE
  5
92
330
1F
100
AcDbEntity
  8
0
100
AcDbLine
 10
0.0266267386604162
 20
0.0248934384533248
 30
0.0
 11
0.0265885421348579
 21
0.0250091952954611
 31
0.0
  0
LINE
  5
93
330
1F
100
AcDbEntity
  8
0
100
AcDbLine
 10
0.0288579829148724
 20
0.0252585982202037
 30
0.0
 11
0.0289375885061152
 21
0.0256172007307344
 31
0.0
  0
LINE
  5
94
330
1F
100
AcDbEntity
  8
0
100
AcDbLine
 10
0.0289375885061152
 20
0.0256172007307344
 30
0.0
 11
0.0265885421348579
 21
0.0250091952954611
 31
0.0
  0
LINE
  5
95
330
1F
100
AcDbEntity
  8
0
100
AcDbLine
 10
0.0337722667057635
 20
0.0258927030940225
 30
0.0
 11
0.031345898906067
 21
0.0259133929844002
 31
0.0
  0
LINE
  5
96
330
1F
100
AcDbEntity
  8
0
100
AcDbLine
 10
0.031345898906067
 20
0.0259133929844002
 30
0.0
 11
0.0313655270413514
 21
0.0255689475022393
 31
0.0
  0
LINE
  5
97
330
1F
100
AcDbEntity
  8
0
100
AcDbLine
 10
0.031345898906067
 20
0.0259133929844002
 30
0.0
 11
0.0312959392665174
 21
0.0255646910109437
 31
0.0
  0
LINE
  5
98
330
1F
100
AcDbEntity
  8
0
100
AcDbLine
 10
0.031345898906067
 20
0.0259133929844002
 30
0.0
 11
0.0289375885061152
 21
0.0256172007307344
 31
0.0
  0
LINE
  5
99
330
1F
100
AcDbEntity
  8
0
100
AcDbLine
 10
0.0289375885061152
 20
0.0256172007307344
 30
0.0
 11
0.0290007200916381
 21
0.0252850410701158
 31
0.0
  0
LINE
  5
9A
330
1F
100
AcDbEntity
  8
0
100
AcDbLine
 10
0.0499012529599362
 20
-0.0019543501315338
 30
0.0
 11
0.0501286702488581
 21
-0.0015374712679052
 31
0.0
  0
LINE
  5
9B
330
1F
100
AcDbEntity
  8
0
100
AcDbLine
 10
0.0501286702488581
 20
-0.0015374712679052
 30
0.0
 11
0.0506748246345919
 21
-0.0003589210836633
 31
0.0
  0
LINE
  5
9C
330
1F
100
AcDbEntity
  8
0
100
AcDbLine
 10
0.0506748246345919
 20
-0.0003589210836633
 30
0.0
 11
0.0511427280729179
 21
0.0008528260282097
 31
0.0
  0
LINE
  5
9D
330
1F
100
AcDbEntity
  8
0
100
AcDbLine
 10
0.0511427280729179
 20
0.0008528260282097
 30
0.0
 11
0.0515303766682655
 21
0.0020925812409607
 31
0.0
  0
LINE
  5
9E
330
1F
100
AcDbEntity
  8
0
100
AcDbLine
 10
0.0515303766682655
 20
0.0020925812409607
 30
0.0
 11
0.0518361124731411
 21
0.0033550353005121
 31
0.0
  0
LINE
  5
9F
330
1F
100
AcDbEntity
  8
0
100
AcDbLine
 10
0.0518361124731411
 20
0.0033550353005121
 30
0.0
 11
0.0520586252691876
 21
0.0046347825575248
 31
0.0
  0
LINE
  5
A0
330
1F
100
AcDbEntity
  8
0
100
AcDbLine
 10
0.0520586252691876
 20
0.0046347825575248
 30
0.0
 11
0.0521969635155393
 21
0.0059263426857726
 31
0.0
  0
LINE
  5
A1
330
1F
100
AcDbEntity
  8
0
100
AcDbLine
 10
0.0521969635155393
 20
0.0059263426857726
 30
0.0
 11
0.0522505305744378
 21
0.0072241853593984
 31
0.0
  0
LINE
  5
A2
330
1F
100
AcDbEntity
  8
0
100
AcDbLine
 10
0.0522505305744378
 20
0.0072241853593984
 30
0.0
 11
0.052219101318281
 21
0.0085227527192583
 31
0.0
  0
LINE
  5
A3
330
1F
100
AcDbEntity
  8
0
100
AcDbLine
 10
0.052219101318281
 20
0.0085227527192583
 30
0.0
 11
0.0521028090158594
 21
0.0098164840419286
 31
0.0
  0
LINE
  5
A4
330
1F
100
AcDbEntity
  8
0
100
AcDbLine
 10
0.0521028090158594
 20
0.0098164840419286
 30
0.0
 11
0.0519021527032769
 21
0.0110998395909636
 31
0.0
  0
LINE
  5
A5
330
1F
100
AcDbEntity
  8
0
100
AcDbLine
 10
0.0519021527032769
 20
0.0110998395909636
 30
0.0
 11
0.0516179895567976
 21
0.0123673237119343
 31
0.0
  0
LINE
  5
A6
330
1F
100
AcDbEntity
  8
0
100
AcDbLine
 10
0.0516179895567976
 20
0.0123673237119343
 30
0.0
 11
0.0512515366739057
 21
0.0136135088644911
 31
0.0
  0
LINE
  5
A7
330
1F
100
AcDbEntity
  8
0
100
AcDbLine
 10
0.0512515366739057
 20
0.0136135088644911
 30
0.0
 11
0.0508043653467241
 21
0.0148330591602209
 31
0.0
  0
LINE
  5
A8
330
1F
100
AcDbEntity
  8
0
100
AcDbLine
 10
0.0508043653467241
 20
0.0148330591602209
 30
0.0
 11
0.0502783876987313
 21
0.0160207516648432
 31
0.0
  0
LINE
  5
A9
330
1F
100
AcDbEntity
  8
0
100
AcDbLine
 10
0.0502783876987313
 20
0.0160207516648432
 30
0.0
 11
0.0499012529599362
 21
0.0167410273982342
 31
0.0
  0
LINE
  5
AA
330
1F
100
AcDbEntity
  8
0
100
AcDbLine
 10
0.0417490416068656
 20
0.0248934384533248
 30
0.0
 11
0.0413321626066604
 21
0.0251208558167525
 31
0.0
  0
LINE
  5
AB
330
1F
100
AcDbEntity
  8
0
100
AcDbLine
 10
0.0413321626066604
 20
0.0251208558167525
 30
0.0
 11
0.0401536124224185
 21
0.0256670102024863
 31
0.0
  0
LINE
  5
AC
330
1F
100
AcDbEntity
  8
0
100
AcDbLine
 10
0.0401536124224185
 20
0.0256670102024863
 30
0.0
 11
0.0389418653105455
 21
0.0261349136408122
 31
0.0
  0
LINE
  5
AD
330
1F
100
AcDbEntity
  8
0
100
AcDbLine
 10
0.0389418653105455
 20
0.0261349136408122
 30
0.0
 11
0.0377021100977944
 21
0.0265225622361598
 31
0.0
  0
LINE
  5
AE
330
1F
100
AcDbEntity
  8
0
100
AcDbLine
 10
0.0377021100977944
 20
0.0265225622361598
 30
0.0
 11
0.036439656038243
 21
0.0268282980410355
 31
0.0
  0
LINE
  5
AF
330
1F
100
AcDbEntity
  8
0
100
AcDbLine
 10
0.036439656038243
 20
0.0268282980410355
 30
0.0
 11
0.0351599087812303
 21
0.027050810837082
 31
0.0
  0
LINE
  5
B0
330
1F
100
AcDbEntity
  8
0
100
AcDbLine
 10
0.0351599087812303
 20
0.027050810837082
 30
0.0
 11
0.0338683486529825
 21
0.0271891490834337
 31
0.0
  0
LINE
  5
B1
330
1F
100
AcDbEntity
  8
0
100
AcDbLine
 10
0.049950057959544
 20
-0.0014474875316719
 30
0.0
 11
0.0499012529599362
 21
-0.0015369517702535
 31
0.0
  0
LINE
  5
B2
330
1F
100
AcDbEntity
  8
0
100
AcDbLine
 10
0.050490707755074
 20
-0.0002808117392772
 30
0.0
 11
0.049950057959544
 21
-0.0014474875316719
 31
0.0
  0
LINE
  5
B3
330
1F
100
AcDbEntity
  8
0
100
AcDbLine
 10
0.0509538961551212
 20
0.0009187265050556
 30
0.0
 11
0.050490707755074
 21
-0.0002808117392772
 31
0.0
  0
LINE
  5
B4
330
1F
100
AcDbEntity
  8
0
100
AcDbLine
 10
0.0513376399227738
 20
0.0021459903079665
 30
0.0
 11
0.0509538961551212
 21
0.0009187265050556
 31
0.0
  0
LINE
  5
B5
330
1F
100
AcDbEntity
  8
0
100
AcDbLine
 10
0.0516402963170026
 20
0.0033957243871272
 30
0.0
 11
0.0513376399227738
 21
0.0021459903079665
 31
0.0
  0
LINE
  5
B6
330
1F
100
AcDbEntity
  8
0
100
AcDbLine
 10
0.0518605666280216
 20
0.004662577572475
 30
0.0
 11
0.0516402963170026
 21
0.0033957243871272
 31
0.0
  0
LINE
  5
B7
330
1F
100
AcDbEntity
  8
0
100
AcDbLine
 10
0.0519975090004024
 20
0.0059411246191138
 30
0.0
 11
0.0518605666280216
 21
0.004662577572475
 31
0.0
  0
LINE
  5
B8
330
1F
100
AcDbEntity
  8
0
100
AcDbLine
 10
0.052050538373791
 20
0.0072258906092382
 30
0.0
 11
0.0519975090004024
 21
0.0059411246191138
 31
0.0
  0
LINE
  5
B9
330
1F
100
AcDbEntity
  8
0
100
AcDbLine
 10
0.0520194263375833
 20
0.0085113741930872
 30
0.0
 11
0.052050538373791
 21
0.0072258906092382
 31
0.0
  0
LINE
  5
BA
330
1F
100
AcDbEntity
  8
0
100
AcDbLine
 10
0.0519043047007024
 20
0.0097920705545661
 30
0.0
 11
0.0520194263375833
 21
0.0085113741930872
 31
0.0
  0
LINE
  5
BB
330
1F
100
AcDbEntity
  8
0
100
AcDbLine
 10
0.051705669147417
 20
0.0110624955378368
 30
0.0
 11
0.0519043047007024
 21
0.0097920705545661
 31
0.0
  0
LINE
  5
BC
330
1F
100
AcDbEntity
  8
0
100
AcDbLine
 10
0.0514243697698465
 20
0.0123172091122169
 30
0.0
 11
0.051705669147417
 21
0.0110624955378368
 31
0.0
  0
LINE
  5
BD
330
1F
100
AcDbEntity
  8
0
100
AcDbLine
 10
0.0510616108882195
 20
0.0135508381487458
 30
0.0
 11
0.0514243697698465
 21
0.0123172091122169
 31
0.0
  0
LINE
  5
BE
330
1F
100
AcDbEntity
  8
0
100
AcDbLine
 10
0.0506189435011592
 20
0.014758100560096
 30
0.0
 11
0.0510616108882195
 21
0.0135508381487458
 31
0.0
  0
LINE
  5
BF
330
1F
100
AcDbEntity
  8
0
100
AcDbLine
 10
0.0500982668000137
 20
0.0159338257336313
 30
0.0
 11
0.0506189435011592
 21
0.014758100560096
 31
0.0
  0
LINE
  5
C0
330
1F
100
AcDbEntity
  8
0
100
AcDbLine
 10
0.0499012529599362
 20
0.0163100949693615
 30
0.0
 11
0.0500982668000137
 21
0.0159338257336313
 31
0.0
  0
LINE
  5
C1
330
1F
100
AcDbEntity
  8
0
100
AcDbLine
 10
0.0412421788704271
 20
0.0249422435274384
 30
0.0
 11
0.0413316432455849
 21
0.0248934384533248
 31
0.0
  0
LINE
  5
C2
330
1F
100
AcDbEntity
  8
0
100
AcDbLine
 10
0.0400755030780323
 20
0.0254828933229684
 30
0.0
 11
0.0412421788704271
 21
0.0249422435274384
 31
0.0
  0
LINE
  5
C3
330
1F
100
AcDbEntity
  8
0
100
AcDbLine
 10
0.0388759648336995
 20
0.0259460817230155
 30
0.0
 11
0.0400755030780323
 21
0.0254828933229684
 31
0.0
  0
LINE
  5
C4
330
1F
100
AcDbEntity
  8
0
100
AcDbLine
 10
0.0376487010307887
 20
0.0263298254906681
 30
0.0
 11
0.0388759648336995
 21
0.0259460817230155
 31
0.0
  0
LINE
  5
C5
330
1F
100
AcDbEntity
  8
0
100
AcDbLine
 10
0.0363989669516279
 20
0.0266324818848969
 30
0.0
 11
0.0376487010307887
 21
0.0263298254906681
 31
0.0
  0
LINE
  5
C6
330
1F
100
AcDbEntity
  8
0
100
AcDbLine
 10
0.0351321137662801
 20
0.026852752195916
 30
0.0
 11
0.0363989669516279
 21
0.0266324818848969
 31
0.0
  0
LINE
  5
C7
330
1F
100
AcDbEntity
  8
0
100
AcDbLine
 10
0.0338535667196413
 20
0.0269896945682968
 30
0.0
 11
0.0351321137662801
 21
0.026852752195916
 31
0.0
  0
LINE
  5
C8
330
1F
100
AcDbEntity
  8
0
100
AcDbLine
 10
0.0145241180721295
 20
-0.0012338747581937
 30
0.0
 11
0.0149012528109246
 21
-0.0019541504915847
 31
0.0
  0
LINE
  5
C9
330
1F
100
AcDbEntity
  8
0
100
AcDbLine
 10
0.0139981404241367
 20
-0.0000461822535714
 30
0.0
 11
0.0145241180721295
 21
-0.0012338747581937
 31
0.0
  0
LINE
  5
CA
330
1F
100
AcDbEntity
  8
0
100
AcDbLine
 10
0.0135509690969551
 20
0.0011733680421584
 30
0.0
 11
0.0139981404241367
 21
-0.0000461822535714
 31
0.0
  0
LINE
  5
CB
330
1F
100
AcDbEntity
  8
0
100
AcDbLine
 10
0.0131845162140632
 20
0.0024195531947152
 30
0.0
 11
0.0135509690969551
 21
0.0011733680421584
 31
0.0
  0
LINE
  5
CC
330
1F
100
AcDbEntity
  8
0
100
AcDbLine
 10
0.0129003530675839
 20
0.0036870373156859
 30
0.0
 11
0.0131845162140632
 21
0.0024195531947152
 31
0.0
  0
LINE
  5
CD
330
1F
100
AcDbEntity
  8
0
100
AcDbLine
 10
0.0126996967550014
 20
0.004970392864721
 30
0.0
 11
0.0129003530675839
 21
0.0036870373156859
 31
0.0
  0
LINE
  5
CE
330
1F
100
AcDbEntity
  8
0
100
AcDbLine
 10
0.0125834044525798
 20
0.0062641241873913
 30
0.0
 11
0.0126996967550014
 21
0.004970392864721
 31
0.0
  0
LINE
  5
CF
330
1F
100
AcDbEntity
  8
0
100
AcDbLine
 10
0.012551975196423
 20
0.0075626915472511
 30
0.0
 11
0.0125834044525798
 21
0.0062641241873913
 31
0.0
  0
LINE
  5
D0
330
1F
100
AcDbEntity
  8
0
100
AcDbLine
 10
0.0126055422553215
 20
0.0088605342208769
 30
0.0
 11
0.012551975196423
 21
0.0075626915472511
 31
0.0
  0
LINE
  5
D1
330
1F
100
AcDbEntity
  8
0
100
AcDbLine
 10
0.0127438805016732
 20
0.0101520943491247
 30
0.0
 11
0.0126055422553215
 21
0.0088605342208769
 31
0.0
  0
LINE
  5
D2
330
1F
100
AcDbEntity
  8
0
100
AcDbLine
 10
0.0129663932977197
 20
0.0114318416061374
 30
0.0
 11
0.0127438805016732
 21
0.0101520943491247
 31
0.0
  0
LINE
  5
D3
330
1F
100
AcDbEntity
  8
0
100
AcDbLine
 10
0.0132721291025953
 20
0.0126942956656888
 30
0.0
 11
0.0129663932977197
 21
0.0114318416061374
 31
0.0
  0
LINE
  5
D4
330
1F
100
AcDbEntity
  8
0
100
AcDbLine
 10
0.0136597776979429
 20
0.0139340508784398
 30
0.0
 11
0.0132721291025953
 21
0.0126942956656888
 31
0.0
  0
LINE
  5
D5
330
1F
100
AcDbEntity
  8
0
100
AcDbLine
 10
0.0141276811362689
 20
0.0151457979903128
 30
0.0
 11
0.0136597776979429
 21
0.0139340508784398
 31
0.0
  0
LINE
  5
D6
330
1F
100
AcDbEntity
  8
0
100
AcDbLine
 10
0.0146738355220026
 20
0.0163243481745548
 30
0.0
 11
0.0141276811362689
 21
0.0151457979903128
 31
0.0
  0
LINE
  5
D7
330
1F
100
AcDbEntity
  8
0
100
AcDbLine
 10
0.0149012528109246
 20
0.0167412270381833
 30
0.0
 11
0.0146738355220026
 21
0.0163243481745548
 31
0.0
  0
LINE
  5
D8
330
1F
100
AcDbEntity
  8
0
100
AcDbLine
 10
0.0237739396739119
 20
0.0252705732666257
 30
0.0
 11
0.0230536637982251
 21
0.0248934384533248
 31
0.0
  0
LINE
  5
D9
330
1F
100
AcDbEntity
  8
0
100
AcDbLine
 10
0.0249616321785342
 20
0.0257965509146185
 30
0.0
 11
0.0237739396739119
 21
0.0252705732666257
 31
0.0
  0
LINE
  5
DA
330
1F
100
AcDbEntity
  8
0
100
AcDbLine
 10
0.026181182474264
 20
0.0262437222418
 30
0.0
 11
0.0249616321785342
 21
0.0257965509146185
 31
0.0
  0
LINE
  5
DB
330
1F
100
AcDbEntity
  8
0
100
AcDbLine
 10
0.0274273676268208
 20
0.026610175124692
 30
0.0
 11
0.026181182474264
 21
0.0262437222418
 31
0.0
  0
LINE
  5
DC
330
1F
100
AcDbEntity
  8
0
100
AcDbLine
 10
0.0286948517477915
 20
0.0268943382711713
 30
0.0
 11
0.0274273676268208
 21
0.026610175124692
 31
0.0
  0
LINE
  5
DD
330
1F
100
AcDbEntity
  8
0
100
AcDbLine
 10
0.0299782072968266
 20
0.0270949945837538
 30
0.0
 11
0.0286948517477915
 21
0.0268943382711713
 31
0.0
  0
LINE
  5
DE
330
1F
100
AcDbEntity
  8
0
100
AcDbLine
 10
0.0312719386194969
 20
0.0272112868861753
 30
0.0
 11
0.0299782072968266
 21
0.0270949945837538
 31
0.0
  0
LINE
  5
DF
330
1F
100
AcDbEntity
  8
0
100
AcDbLine
 10
0.0325705059793568
 20
0.0272427161423322
 30
0.0
 11
0.0312719386194969
 21
0.0272112868861753
 31
0.0
  0
LINE
  5
E0
330
1F
100
AcDbEntity
  8
0
100
AcDbLine
 10
0.0338683486529825
 20
0.0271891490834337
 30
0.0
 11
0.0325705059793568
 21
0.0272427161423322
 31
0.0
  0
LINE
  5
E1
330
1F
100
AcDbEntity
  8
0
100
AcDbLine
 10
0.0130968366234437
 20
0.0037243813688127
 30
0.0
 11
0.0133781360010143
 21
0.0024696677944326
 31
0.0
  0
LINE
  5
E2
330
1F
100
AcDbEntity
  8
0
100
AcDbLine
 10
0.0133781360010143
 20
0.0024696677944326
 30
0.0
 11
0.0137408948826413
 21
0.0012360387579037
 31
0.0
  0
LINE
  5
E3
330
1F
100
AcDbEntity
  8
0
100
AcDbLine
 10
0.0137408948826413
 20
0.0012360387579037
 30
0.0
 11
0.0141835622697016
 21
0.0000287763465535
 31
0.0
  0
LINE
  5
E4
330
1F
100
AcDbEntity
  8
0
100
AcDbLine
 10
0.0141835622697016
 20
0.0000287763465535
 30
0.0
 11
0.0147042389708471
 21
-0.0011469488269818
 31
0.0
  0
LINE
  5
E5
330
1F
100
AcDbEntity
  8
0
100
AcDbLine
 10
0.0128049967704583
 20
0.0088457522875357
 30
0.0
 11
0.0127519673970698
 21
0.0075609862974113
 31
0.0
  0
LINE
  5
E6
330
1F
100
AcDbEntity
  8
0
100
AcDbLine
 10
0.0127519673970698
 20
0.0075609862974113
 30
0.0
 11
0.0127830794332775
 21
0.0062755027135623
 31
0.0
  0
LINE
  5
E7
330
1F
100
AcDbEntity
  8
0
100
AcDbLine
 10
0.0127830794332775
 20
0.0062755027135623
 30
0.0
 11
0.0128982010701584
 21
0.0049948063520834
 31
0.0
  0
LINE
  5
E8
330
1F
100
AcDbEntity
  8
0
100
AcDbLine
 10
0.0128982010701584
 20
0.0049948063520834
 30
0.0
 11
0.0130968366234437
 21
0.0037243813688127
 31
0.0
  0
LINE
  5
E9
330
1F
100
AcDbEntity
  8
0
100
AcDbLine
 10
0.0138486096157396
 20
0.0138681504015939
 30
0.0
 11
0.013464865848087
 21
0.012640886598683
 31
0.0
  0
LINE
  5
EA
330
1F
100
AcDbEntity
  8
0
100
AcDbLine
 10
0.013464865848087
 20
0.012640886598683
 30
0.0
 11
0.0131622094538582
 21
0.0113911525195223
 31
0.0
  0
LINE
  5
EB
330
1F
100
AcDbEntity
  8
0
100
AcDbLine
 10
0.0131622094538582
 20
0.0113911525195223
 30
0.0
 11
0.0129419391428391
 21
0.0101242993341745
 31
0.0
  0
LINE
  5
EC
330
1F
100
AcDbEntity
  8
0
100
AcDbLine
 10
0.0129419391428391
 20
0.0101242993341745
 30
0.0
 11
0.0128049967704583
 21
0.0088457522875357
 31
0.0
  0
LINE
  5
ED
330
1F
100
AcDbEntity
  8
0
100
AcDbLine
 10
0.0149012528109246
 20
0.016323828676903
 30
0.0
 11
0.0148524478113168
 21
0.0162343644383214
 31
0.0
  0
LINE
  5
EE
330
1F
100
AcDbEntity
  8
0
100
AcDbLine
 10
0.0148524478113168
 20
0.0162343644383214
 30
0.0
 11
0.0143117980157868
 21
0.0150676886459267
 31
0.0
  0
LINE
  5
EF
330
1F
100
AcDbEntity
  8
0
100
AcDbLine
 10
0.0143117980157868
 20
0.0150676886459267
 30
0.0
 11
0.0138486096157396
 21
0.0138681504015939
 31
0.0
  0
LINE
  5
F0
330
1F
100
AcDbEntity
  8
0
100
AcDbLine
 10
0.0361751761451215
 20
0.0255554865505196
 30
0.0
 11
0.0385135126240463
 21
0.0249075117477863
 31
0.0
  0
LINE
  5
F1
330
1F
100
AcDbEntity
  8
0
100
AcDbLine
 10
0.0338535667196413
 20
0.0269896945682968
 30
0.0
 11
0.0325688007295169
 21
0.0270427239416853
 31
0.0
  0
LINE
  5
F2
330
1F
100
AcDbEntity
  8
0
100
AcDbLine
 10
0.0325688007295169
 20
0.0270427239416853
 30
0.0
 11
0.031283317145668
 21
0.0270116119054776
 31
0.0
  0
LINE
  5
F3
330
1F
100
AcDbEntity
  8
0
100
AcDbLine
 10
0.0337722667057635
 20
0.0258927030940225
 30
0.0
 11
0.0361751761451215
 21
0.0255554865505196
 31
0.0
  0
LINE
  5
F4
330
1F
100
AcDbEntity
  8
0
100
AcDbLine
 10
0.0147042389708471
 20
-0.0011469488269818
 30
0.0
 11
0.0149012528109246
 21
-0.001523218062712
 31
0.0
  0
LINE
  5
F5
330
1F
100
AcDbEntity
  8
0
100
AcDbLine
 10
0.0262438531900093
 20
0.0260537964561138
 30
0.0
 11
0.0250365907786591
 21
0.0256111290690535
 31
0.0
  0
LINE
  5
F6
330
1F
100
AcDbEntity
  8
0
100
AcDbLine
 10
0.0250365907786591
 20
0.0256111290690535
 30
0.0
 11
0.0238608656051238
 21
0.0250904523679081
 31
0.0
  0
LINE
  5
F7
330
1F
100
AcDbEntity
  8
0
100
AcDbLine
 10
0.0238608656051238
 20
0.0250904523679081
 30
0.0
 11
0.0234845962270978
 21
0.0248934384533248
 31
0.0
  0
LINE
  5
F8
330
1F
100
AcDbEntity
  8
0
100
AcDbLine
 10
0.031283317145668
 20
0.0270116119054776
 30
0.0
 11
0.0300026207841891
 21
0.0268964902685968
 31
0.0
  0
LINE
  5
F9
330
1F
100
AcDbEntity
  8
0
100
AcDbLine
 10
0.0300026207841891
 20
0.0268964902685968
 30
0.0
 11
0.0287321958009183
 21
0.0266978547153114
 31
0.0
  0
LINE
  5
FA
330
1F
100
AcDbEntity
  8
0
100
AcDbLine
 10
0.0287321958009183
 20
0.0266978547153114
 30
0.0
 11
0.0274774822265383
 21
0.0264165553377408
 31
0.0
  0
LINE
  5
FB
330
1F
100
AcDbEntity
  8
0
100
AcDbLine
 10
0.0274774822265383
 20
0.0264165553377408
 30
0.0
 11
0.0262438531900093
 21
0.0260537964561138
 31
0.0
  0
LINE
  5
FC
330
1F
100
AcDbEntity
  8
0
100
AcDbLine
 10
0.0385135126240463
 20
0.0249075117477863
 30
0.0
 11
0.0385466856799982
 21
0.0248934384533248
 31
0.0
  0
LINE
  5
FD
330
1F
100
AcDbEntity
  8
0
100
AcDbLine
 10
0.0499012529599362
 20
0.0134924921781046
 30
0.0
 11
0.0500170097275668
 21
0.0132061492038972
 31
0.0
  0
LINE
  5
FE
330
1F
100
AcDbEntity
  8
0
100
AcDbLine
 10
0.0509212074165058
 20
0.0084487924326881
 30
0.0
 11
0.0509005175261282
 21
0.0060224246329916
 31
0.0
  0
LINE
  5
FF
330
1F
100
AcDbEntity
  8
0
100
AcDbLine
 10
0.0500170097275668
 20
0.0132061492038972
 30
0.0
 11
0.05062501516284
 21
0.01085710283264
 31
0.0
  0
LINE
  5
100
330
1F
100
AcDbEntity
  8
0
100
AcDbLine
 10
0.05062501516284
 20
0.01085710283264
 30
0.0
 11
0.0509212074165058
 21
0.0084487924326881
 31
0.0
  0
LINE
  5
101
330
1F
100
AcDbEntity
  8
0
100
AcDbLine
 10
0.0509005175261282
 20
0.0060224246329916
 30
0.0
 11
0.0505633009826253
 21
0.0036195151936336
 31
0.0
  0
LINE
  5
102
330
1F
100
AcDbEntity
  8
0
100
AcDbLine
 10
0.0505633009826253
 20
0.0036195151936336
 30
0.0
 11
0.0499153261798919
 21
0.0012811787147088
 31
0.0
  0
LINE
  5
103
330
1F
100
AcDbEntity
  8
0
100
AcDbLine
 10
0.0499153261798919
 20
0.0012811787147088
 30
0.0
 11
0.0499012529599362
 21
0.0012480058343793
 31
0.0
  0
LINE
  5
104
330
1F
100
AcDbEntity
  8
0
100
AcDbLine
 10
0.0361036066419059
 20
0.0252110575830074
 30
0.0
 11
0.0361751761451215
 21
0.0255554865505196
 31
0.0
  0
LINE
  5
105
330
1F
100
AcDbEntity
  8
0
100
AcDbLine
 10
0.0361731367779436
 20
0.0251944364775453
 30
0.0
 11
0.0361751761451215
 21
0.0255554865505196
 31
0.0
  0
LINE
  5
106
330
1F
100
AcDbEntity
  8
0
100
AcDbLine
 10
0.0499012529599362
 20
0.0131679527029237
 30
0.0
 11
0.0500170097275668
 21
0.0132061492038972
 31
0.0
  0
LINE
  5
107
330
1F
100
AcDbEntity
  8
0
100
AcDbLine
 10
0.0499012529599362
 20
0.0127062650416929
 30
0.0
 11
0.0500170097275668
 21
0.0132061492038972
 31
0.0
  0
LINE
  5
108
330
1F
100
AcDbEntity
  8
0
100
AcDbLine
 10
0.0502795267182121
 20
0.0107914379254427
 30
0.0
 11
0.05062501516284
 21
0.01085710283264
 31
0.0
  0
LINE
  5
109
330
1F
100
AcDbEntity
  8
0
100
AcDbLine
 10
0.0503891898823044
 20
0.0101403536861652
 30
0.0
 11
0.05062501516284
 21
0.01085710283264
 31
0.0
  0
LINE
  5
10A
330
1F
100
AcDbEntity
  8
0
100
AcDbLine
 10
0.0504888074627529
 20
0.0092952955017415
 30
0.0
 11
0.0509212074165058
 21
0.0084487924326881
 31
0.0
  0
LINE
  5
10B
330
1F
100
AcDbEntity
  8
0
100
AcDbLine
 10
0.0506000000257461
 20
0.0077180397491624
 30
0.0
 11
0.0509212074165058
 21
0.0084487924326881
 31
0.0
  0
LINE
  5
10C
330
1F
100
AcDbEntity
  8
0
100
AcDbLine
 10
0.0505779404624189
 20
0.0068609067365338
 30
0.0
 11
0.0509005175261282
 21
0.0060224246329916
 31
0.0
  0
LINE
  5
10D
330
1F
100
AcDbEntity
  8
0
100
AcDbLine
 10
0.0505570161981092
 20
0.0060478821350688
 30
0.0
 11
0.0509005175261282
 21
0.0060224246329916
 31
0.0
  0
LINE
  5
10E
330
1F
100
AcDbEntity
  8
0
100
AcDbLine
 10
0.0504585599074387
 20
0.0052027250076641
 30
0.0
 11
0.0505633009826253
 21
0.0036195151936336
 31
0.0
  0
LINE
  5
10F
330
1F
100
AcDbEntity
  8
0
100
AcDbLine
 10
0.0502330348320134
 20
0.0036881417801224
 30
0.0
 11
0.0505633009826253
 21
0.0036195151936336
 31
0.0
  0
LINE
  5
110
330
1F
100
AcDbEntity
  8
0
100
AcDbLine
 10
0.0500194199504209
 20
0.0028843622966179
 30
0.0
 11
0.0499153261798919
 21
0.0012811787147088
 31
0.0
  0
LINE
  5
111
330
1F
100
AcDbEntity
  8
0
100
AcDbLine
 10
0.0148021563695381
 20
0.011171244499088
 30
0.0
 11
0.0149012528109246
 21
0.011529824546204
 31
0.0
  0
LINE
  5
112
330
1F
100
AcDbEntity
  8
0
100
AcDbLine
 10
0.0144825798175084
 20
0.0091025696139144
 30
0.0
 11
0.0148021563695381
 21
0.011171244499088
 31
0.0
  0
LINE
  5
113
330
1F
100
AcDbEntity
  8
0
100
AcDbLine
 10
0.0144053202140434
 20
0.0070107827228234
 30
0.0
 11
0.0144825798175084
 21
0.0091025696139144
 31
0.0
  0
LINE
  5
114
330
1F
100
AcDbEntity
  8
0
100
AcDbLine
 10
0.0145714261644864
 20
0.0049241695782312
 30
0.0
 11
0.0144053202140434
 21
0.0070107827228234
 31
0.0
  0
LINE
  5
115
330
1F
100
AcDbEntity
  8
0
100
AcDbLine
 10
0.0149012528109246
 20
0.0032611859847114
 30
0.0
 11
0.0145714261644864
 21
0.0049241695782312
 31
0.0
  0
LINE
  5
116
330
1F
100
AcDbEntity
  8
0
100
AcDbLine
 10
0.0330656142281395
 20
0.0253811732955802
 30
0.0
 11
0.0309728743327133
 21
0.0253366750922574
 31
0.0
  0
LINE
  5
117
330
1F
100
AcDbEntity
  8
0
100
AcDbLine
 10
0.0503199259533524
 20
0.0056843072927351
 30
0.0
 11
0.0503971855568174
 21
0.0077760941838262
 31
0.0
  0
LINE
  5
118
330
1F
100
AcDbEntity
  8
0
100
AcDbLine
 10
0.0503971855568174
 20
0.0077760941838262
 30
0.0
 11
0.0502310796063744
 21
0.0098627073284183
 31
0.0
  0
LINE
  5
119
330
1F
100
AcDbEntity
  8
0
100
AcDbLine
 10
0.0502310796063744
 20
0.0098627073284183
 30
0.0
 11
0.0499012529599362
 21
0.0115256909219381
 31
0.0
  0
LINE
  5
11A
330
1F
100
AcDbEntity
  8
0
100
AcDbLine
 10
0.0499012529599362
 20
0.0032570523604455
 30
0.0
 11
0.0500003494013227
 21
0.0036156324075615
 31
0.0
  0
LINE
  5
11B
330
1F
100
AcDbEntity
  8
0
100
AcDbLine
 10
0.0500003494013227
 20
0.0036156324075615
 30
0.0
 11
0.0503199259533524
 21
0.0056843072927351
 31
0.0
  0
LINE
  5
11C
330
1F
100
AcDbEntity
  8
0
100
AcDbLine
 10
0.0149012528109246
 20
-0.0751065630367913
 30
0.0
 11
0.0499012529599362
 21
-0.0751065630367913
 31
0.0
  0
LINE
  5
11D
330
1F
100
AcDbEntity
  8
0
100
AcDbLine
 10
0.0368981507177585
 20
0.0249934384390755
 30
0.0
 11
0.0369006349623128
 21
0.0248934384634296
 31
0.0
  0
LINE
  5
11E
330
1F
100
AcDbEntity
  8
0
100
AcDbLine
 10
0.036866479092859
 20
0.0249934384390755
 30
0.0
 11
0.0369006349623128
 21
0.0248934384634296
 31
0.0
  0
LINE
  5
11F
330
1F
100
AcDbEntity
  8
0
100
AcDbLine
 10
0.0368008236516956
 20
0.0249934384390755
 30
0.0
 11
0.0367877350130605
 21
0.0248934384634296
 31
0.0
  0
LINE
  5
120
330
1F
100
AcDbEntity
  8
0
100
AcDbLine
 10
0.036418803279583
 20
0.0249934384390755
 30
0.0
 11
0.036419908979818
 21
0.0248934384634296
 31
0.0
  0
LINE
  5
121
330
1F
100
AcDbEntity
  8
0
100
AcDbLine
 10
0.0362121523992124
 20
0.0249934384390755
 30
0.0
 11
0.0361465280779526
 21
0.0248934384634296
 31
0.0
  0
LINE
  5
122
330
1F
100
AcDbEntity
  8
0
100
AcDbLine
 10
0.0362121523992124
 20
0.0249934384390755
 30
0.0
 11
0.0361435251561293
 21
0.0249934384390755
 31
0.0
  0
LINE
  5
123
330
1F
100
AcDbEntity
  8
0
100
AcDbLine
 10
0.0361435251561293
 20
0.0249934384390755
 30
0.0
 11
0.0361465280779526
 21
0.0248934384634296
 31
0.0
  0
LINE
  5
124
330
1F
100
AcDbEntity
  8
0
100
AcDbLine
 10
0.0358157222147422
 20
0.0249934384390755
 30
0.0
 11
0.0358185329493968
 21
0.0248934384634296
 31
0.0
  0
LINE
  5
125
330
1F
100
AcDbEntity
  8
0
100
AcDbLine
 10
0.0358157222147422
 20
0.0249934384390755
 30
0.0
 11
0.0357386946384021
 21
0.0249934384390755
 31
0.0
  0
LINE
  5
126
330
1F
100
AcDbEntity
  8
0
100
AcDbLine
 10
0.0357386946384021
 20
0.0249934384390755
 30
0.0
 11
0.0358185329493968
 21
0.0248934384634296
 31
0.0
  0
LINE
  5
127
330
1F
100
AcDbEntity
  8
0
100
AcDbLine
 10
0.0354629129963065
 20
0.0249934384390755
 30
0.0
 11
0.0354407060138426
 21
0.0248934384634296
 31
0.0
  0
LINE
  5
128
330
1F
100
AcDbEntity
  8
0
100
AcDbLine
 10
0.0345571142606337
 20
0.0249934384390755
 30
0.0
 11
0.0345582418253274
 21
0.0248934384634296
 31
0.0
  0
LINE
  5
129
330
1F
100
AcDbEntity
  8
0
100
AcDbLine
 10
0.0345571142606337
 20
0.0249934384390755
 30
0.0
 11
0.0345050264869714
 21
0.0249934384390755
 31
0.0
  0
LINE
  5
12A
330
1F
100
AcDbEntity
  8
0
100
AcDbLine
 10
0.0345050264869714
 20
0.0249934384390755
 30
0.0
 11
0.0345582418253274
 21
0.0248934384634296
 31
0.0
  0
LINE
  5
12B
330
1F
100
AcDbEntity
  8
0
100
AcDbLine
 10
0.0340654142751435
 20
0.0249934384390755
 30
0.0
 11
0.0340664729518943
 21
0.0248934384634296
 31
0.0
  0
LINE
  5
12C
330
1F
100
AcDbEntity
  8
0
100
AcDbLine
 10
0.0324465132089881
 20
0.0252985773789689
 30
0.0
 11
0.0325133154859792
 21
0.0252985773789689
 31
0.0
  0
LINE
  5
12D
330
1F
100
AcDbEntity
  8
0
100
AcDbLine
 10
0.0324012528854304
 20
0.0252934384533248
 30
0.0
 11
0.0324465132089881
 21
0.0252985773789689
 31
0.0
  0
LINE
  5
12E
330
1F
100
AcDbEntity
  8
0
100
AcDbLine
 10
0.0351049468482586
 20
0.0252110113195769
 30
0.0
 11
0.0360042805359545
 21
0.0251184206189166
 31
0.0
  0
LINE
  5
12F
330
1F
100
AcDbEntity
  8
0
100
AcDbLine
 10
0.0332959025706029
 20
0.0252985773789689
 30
0.0
 11
0.0342049033558336
 21
0.0252710897074095
 31
0.0
  0
LINE
  5
130
330
1F
100
AcDbEntity
  8
0
100
AcDbLine
 10
0.0318429013620739
 20
0.0249934384390755
 30
0.0
 11
0.0319331763691041
 21
0.0249934384390755
 31
0.0
  0
LINE
  5
131
330
1F
100
AcDbEntity
  8
0
100
AcDbLine
 10
0.0313974391453632
 20
0.0249934384390755
 30
0.0
 11
0.0314558559118933
 21
0.0249934384390755
 31
0.0
  0
LINE
  5
132
330
1F
100
AcDbEntity
  8
0
100
AcDbLine
 10
0.0340945318136243
 20
0.0249934384390755
 30
0.0
 11
0.0341503193010641
 21
0.0249934384390755
 31
0.0
  0
LINE
  5
133
330
1F
100
AcDbEntity
  8
0
100
AcDbLine
 10
0.0340654142751435
 20
0.0249934384390755
 30
0.0
 11
0.0340945318136243
 21
0.0249934384390755
 31
0.0
  0
LINE
  5
134
330
1F
100
AcDbEntity
  8
0
100
AcDbLine
 10
0.0340945318136243
 20
0.0249934384390755
 30
0.0
 11
0.0341114357817845
 21
0.0249470637188941
 31
0.0
  0
LINE
  5
135
330
1F
100
AcDbEntity
  8
0
100
AcDbLine
 10
0.0282235483273748
 20
0.0249934384390755
 30
0.0
 11
0.0282550777587813
 21
0.0249934384390755
 31
0.0
  0
LINE
  5
136
330
1F
100
AcDbEntity
  8
0
100
AcDbLine
 10
0.0299087496901301
 20
0.0249934384390755
 30
0.0
 11
0.0300081284399523
 21
0.0249934384390755
 31
0.0
  0
LINE
  5
137
330
1F
100
AcDbEntity
  8
0
100
AcDbLine
 10
0.0303493768577135
 20
0.0249934384390755
 30
0.0
 11
0.0303768142868788
 21
0.0249934384390755
 31
0.0
  0
LINE
  5
138
330
1F
100
AcDbEntity
  8
0
100
AcDbLine
 10
0.0293827296933362
 20
0.0249934384390755
 30
0.0
 11
0.0294757489757059
 21
0.0249934384390755
 31
0.0
  0
LINE
  5
139
330
1F
100
AcDbEntity
  8
0
100
AcDbLine
 10
0.0284232967521369
 20
0.0249934384390755
 30
0.0
 11
0.0284538226290735
 21
0.0249934384390755
 31
0.0
  0
LINE
  5
13A
330
1F
100
AcDbEntity
  8
0
100
AcDbLine
 10
0.0296975589226022
 20
0.0252110113195769
 30
0.0
 11
0.0287982252349063
 21
0.0251184206189166
 31
0.0
  0
LINE
  5
13B
330
1F
100
AcDbEntity
  8
0
100
AcDbLine
 10
0.0314992260283964
 20
0.0252985773789689
 30
0.0
 11
0.0305976024150272
 21
0.0252710897074095
 31
0.0
  0
LINE
  5
13C
330
1F
100
AcDbEntity
  8
0
100
AcDbLine
 10
0.0317954274522458
 20
0.0252985773789689
 30
0.0
 11
0.0318282052958108
 21
0.0252967300757356
 31
0.0
  0
LINE
  5
13D
330
1F
100
AcDbEntity
  8
0
100
AcDbLine
 10
0.0319331763691041
 20
0.0249934384390755
 30
0.0
 11
0.0319329310282099
 21
0.0248934384634296
 31
0.0
  0
LINE
  5
13E
330
1F
100
AcDbEntity
  8
0
100
AcDbLine
 10
0.0318429013620739
 20
0.0249934384390755
 30
0.0
 11
0.0319329310282099
 21
0.0248934384634296
 31
0.0
  0
LINE
  5
13F
330
1F
100
AcDbEntity
  8
0
100
AcDbLine
 10
0.0314558559118933
 20
0.0249934384390755
 30
0.0
 11
0.0313968759153354
 21
0.0248934384634296
 31
0.0
  0
LINE
  5
140
330
1F
100
AcDbEntity
  8
0
100
AcDbLine
 10
0.0313974391453632
 20
0.0249934384390755
 30
0.0
 11
0.0313968759153354
 21
0.0248934384634296
 31
0.0
  0
LINE
  5
141
330
1F
100
AcDbEntity
  8
0
100
AcDbLine
 10
0.0303768142868788
 20
0.0249934384390755
 30
0.0
 11
0.0303763074004193
 21
0.0248934384634296
 31
0.0
  0
LINE
  5
142
330
1F
100
AcDbEntity
  8
0
100
AcDbLine
 10
0.0303493768577135
 20
0.0249934384390755
 30
0.0
 11
0.0303763074004193
 21
0.0248934384634296
 31
0.0
  0
LINE
  5
143
330
1F
100
AcDbEntity
  8
0
100
AcDbLine
 10
0.0300081284399523
 20
0.0249934384390755
 30
0.0
 11
0.0299066760092051
 21
0.0248934384634296
 31
0.0
  0
LINE
  5
144
330
1F
100
AcDbEntity
  8
0
100
AcDbLine
 10
0.0299087496901301
 20
0.0249934384390755
 30
0.0
 11
0.0299066760092051
 21
0.0248934384634296
 31
0.0
  0
LINE
  5
145
330
1F
100
AcDbEntity
  8
0
100
AcDbLine
 10
0.0294757489757059
 20
0.0249934384390755
 30
0.0
 11
0.0294734214313439
 21
0.0248934384634296
 31
0.0
  0
LINE
  5
146
330
1F
100
AcDbEntity
  8
0
100
AcDbLine
 10
0.0293827296933362
 20
0.0249934384390755
 30
0.0
 11
0.0294734214313439
 21
0.0248934384634296
 31
0.0
  0
LINE
  5
147
330
1F
100
AcDbEntity
  8
0
100
AcDbLine
 10
0.0291033387132412
 20
0.0249934384390755
 30
0.0
 11
0.0290828608497585
 21
0.0248934384634296
 31
0.0
  0
LINE
  5
148
330
1F
100
AcDbEntity
  8
0
100
AcDbLine
 10
0.0284538226290735
 20
0.0249934384390755
 30
0.0
 11
0.0284518988537896
 21
0.0248934384634296
 31
0.0
  0
LINE
  5
149
330
1F
100
AcDbEntity
  8
0
100
AcDbLine
 10
0.0284232967521369
 20
0.0249934384390755
 30
0.0
 11
0.0284518988537896
 21
0.0248934384634296
 31
0.0
  0
LINE
  5
14A
330
1F
100
AcDbEntity
  8
0
100
AcDbLine
 10
0.0282550777587813
 20
0.0249934384390755
 30
0.0
 11
0.0282206974077702
 21
0.0248934384634296
 31
0.0
  0
LINE
  5
14B
330
1F
100
AcDbEntity
  8
0
100
AcDbLine
 10
0.0282235483273748
 20
0.0249934384390755
 30
0.0
 11
0.0282206974077702
 21
0.0248934384634296
 31
0.0
  0
LINE
  5
14C
330
1F
100
AcDbEntity
  8
0
100
AcDbLine
 10
0.0279043550531023
 20
0.0249934384390755
 30
0.0
 11
0.027901870808548
 21
0.0248934384634296
 31
0.0
  0
LINE
  5
14D
330
1F
100
AcDbEntity
  8
0
100
AcDbLine
 10
0.0149012528109246
 20
-0.0022831702868212
 30
0.0
 11
0.014188809595275
 21
-0.0008713614982495
 31
0.0
  0
LINE
  5
14E
330
1F
100
AcDbEntity
  8
0
100
AcDbLine
 10
0.014188809595275
 20
-0.0008713614982495
 30
0.0
 11
0.0135685121722293
 21
0.0006608383048331
 31
0.0
  0
LINE
  5
14F
330
1F
100
AcDbEntity
  8
0
100
AcDbLine
 10
0.0135685121722293
 20
0.0006608383048331
 30
0.0
 11
0.0130768618799465
 21
0.0022390295545124
 31
0.0
  0
LINE
  5
150
330
1F
100
AcDbEntity
  8
0
100
AcDbLine
 10
0.0130768618799465
 20
0.0022390295545124
 30
0.0
 11
0.0127172183365582
 21
0.0038524296304186
 31
0.0
  0
LINE
  5
151
330
1F
100
AcDbEntity
  8
0
100
AcDbLine
 10
0.0127172183365582
 20
0.0038524296304186
 30
0.0
 11
0.0124920343534093
 21
0.005490018126871
 31
0.0
  0
LINE
  5
152
330
1F
100
AcDbEntity
  8
0
100
AcDbLine
 10
0.0124920343534093
 20
0.005490018126871
 30
0.0
 11
0.0124028515418234
 21
0.0071406098756238
 31
0.0
  0
LINE
  5
153
330
1F
100
AcDbEntity
  8
0
100
AcDbLine
 10
0.0124028515418234
 20
0.0071406098756238
 30
0.0
 11
0.0124502775103942
 21
0.0087929286368069
 31
0.0
  0
LINE
  5
154
330
1F
100
AcDbEntity
  8
0
100
AcDbLine
 10
0.0124502775103942
 20
0.0087929286368069
 30
0.0
 11
0.0126339886616021
 21
0.0104356870692966
 31
0.0
  0
LINE
  5
155
330
1F
100
AcDbEntity
  8
0
100
AcDbLine
 10
0.0126339886616021
 20
0.0104356870692966
 30
0.0
 11
0.0129527301998635
 21
0.0120576641874201
 31
0.0
  0
LINE
  5
156
330
1F
100
AcDbEntity
  8
0
100
AcDbLine
 10
0.0129527301998635
 20
0.0120576641874201
 30
0.0
 11
0.0134043267549392
 21
0.0136477793227743
 31
0.0
  0
LINE
  5
157
330
1F
100
AcDbEntity
  8
0
100
AcDbLine
 10
0.0134043267549392
 20
0.0136477793227743
 30
0.0
 11
0.0139856890082458
 21
0.0151951718142479
 31
0.0
  0
LINE
  5
158
330
1F
100
AcDbEntity
  8
0
100
AcDbLine
 10
0.0139856890082458
 20
0.0151951718142479
 30
0.0
 11
0.014692850104779
 21
0.0166892699112547
 31
0.0
  0
LINE
  5
159
330
1F
100
AcDbEntity
  8
0
100
AcDbLine
 10
0.014692850104779
 20
0.0166892699112547
 30
0.0
 11
0.0149012528109246
 21
0.0170492876491535
 31
0.0
  0
LINE
  5
15A
330
1F
100
AcDbEntity
  8
0
100
AcDbLine
 10
0.0227246439976404
 20
0.0248934384533248
 30
0.0
 11
0.0241364529338562
 21
0.0256058817434801
 31
0.0
  0
LINE
  5
15B
330
1F
100
AcDbEntity
  8
0
100
AcDbLine
 10
0.0241364529338562
 20
0.0256058817434801
 30
0.0
 11
0.0256686527369388
 21
0.0262261791665259
 31
0.0
  0
LINE
  5
15C
330
1F
100
AcDbEntity
  8
0
100
AcDbLine
 10
0.0256686527369388
 20
0.0262261791665259
 30
0.0
 11
0.027246843986618
 21
0.0267178294588087
 31
0.0
  0
LINE
  5
15D
330
1F
100
AcDbEntity
  8
0
100
AcDbLine
 10
0.027246843986618
 20
0.0267178294588087
 30
0.0
 11
0.0288602440625242
 21
0.0270774730021969
 31
0.0
  0
LINE
  5
15E
330
1F
100
AcDbEntity
  8
0
100
AcDbLine
 10
0.0288602440625242
 20
0.0270774730021969
 30
0.0
 11
0.0304978325589767
 21
0.0273026569853459
 31
0.0
  0
LINE
  5
15F
330
1F
100
AcDbEntity
  8
0
100
AcDbLine
 10
0.0304978325589767
 20
0.0273026569853459
 30
0.0
 11
0.0321484243077294
 21
0.0273918397969317
 31
0.0
  0
LINE
  5
160
330
1F
100
AcDbEntity
  8
0
100
AcDbLine
 10
0.0321484243077294
 20
0.0273918397969317
 30
0.0
 11
0.0338007430689125
 21
0.0273444138283609
 31
0.0
  0
LINE
  5
161
330
1F
100
AcDbEntity
  8
0
100
AcDbLine
 10
0.0338007430689125
 20
0.0273444138283609
 30
0.0
 11
0.0354435015014023
 21
0.027160702677153
 31
0.0
  0
LINE
  5
162
330
1F
100
AcDbEntity
  8
0
100
AcDbLine
 10
0.0354435015014023
 20
0.027160702677153
 30
0.0
 11
0.0370654786195257
 21
0.0268419611388917
 31
0.0
  0
LINE
  5
163
330
1F
100
AcDbEntity
  8
0
100
AcDbLine
 10
0.0370654786195257
 20
0.0268419611388917
 30
0.0
 11
0.0386555937548799
 21
0.026390364583816
 31
0.0
  0
LINE
  5
164
330
1F
100
AcDbEntity
  8
0
100
AcDbLine
 10
0.0386555937548799
 20
0.026390364583816
 30
0.0
 11
0.0402029862463536
 21
0.0258090023305094
 31
0.0
  0
LINE
  5
165
330
1F
100
AcDbEntity
  8
0
100
AcDbLine
 10
0.0402029862463536
 20
0.0258090023305094
 30
0.0
 11
0.0416970843433603
 21
0.0251018412339762
 31
0.0
  0
LINE
  5
166
330
1F
100
AcDbEntity
  8
0
100
AcDbLine
 10
0.0416970843433603
 20
0.0251018412339762
 30
0.0
 11
0.0420571022099686
 21
0.0248934384533248
 31
0.0
  0
LINE
  5
167
330
1F
100
AcDbEntity
  8
0
100
AcDbLine
 10
0.0499012529599362
 20
0.0170700471934707
 30
0.0
 11
0.0506136961755858
 21
0.015658238404899
 31
0.0
  0
LINE
  5
168
330
1F
100
AcDbEntity
  8
0
100
AcDbLine
 10
0.0506136961755858
 20
0.015658238404899
 30
0.0
 11
0.0512339935986315
 21
0.0141260386018164
 31
0.0
  0
LINE
  5
169
330
1F
100
AcDbEntity
  8
0
100
AcDbLine
 10
0.0512339935986315
 20
0.0141260386018164
 30
0.0
 11
0.0517256438909143
 21
0.0125478473521371
 31
0.0
  0
LINE
  5
16A
330
1F
100
AcDbEntity
  8
0
100
AcDbLine
 10
0.0517256438909143
 20
0.0125478473521371
 30
0.0
 11
0.0520852874343025
 21
0.0109344472762309
 31
0.0
  0
LINE
  5
16B
330
1F
100
AcDbEntity
  8
0
100
AcDbLine
 10
0.0520852874343025
 20
0.0109344472762309
 30
0.0
 11
0.0523104714174515
 21
0.0092968587797785
 31
0.0
  0
LINE
  5
16C
330
1F
100
AcDbEntity
  8
0
100
AcDbLine
 10
0.0523104714174515
 20
0.0092968587797785
 30
0.0
 11
0.0523996542290374
 21
0.0076462670310257
 31
0.0
  0
LINE
  5
16D
330
1F
100
AcDbEntity
  8
0
100
AcDbLine
 10
0.0523996542290374
 20
0.0076462670310257
 30
0.0
 11
0.0523522282604666
 21
0.0059939482698426
 31
0.0
  0
LINE
  5
16E
330
1F
100
AcDbEntity
  8
0
100
AcDbLine
 10
0.0523522282604666
 20
0.0059939482698426
 30
0.0
 11
0.0521685171092586
 21
0.0043511898373529
 31
0.0
  0
LINE
  5
16F
330
1F
100
AcDbEntity
  8
0
100
AcDbLine
 10
0.0521685171092586
 20
0.0043511898373529
 30
0.0
 11
0.0518497755709973
 21
0.0027292127192294
 31
0.0
  0
LINE
  5
170
330
1F
100
AcDbEntity
  8
0
100
AcDbLine
 10
0.0518497755709973
 20
0.0027292127192294
 30
0.0
 11
0.0513981790159216
 21
0.0011390975838752
 31
0.0
  0
LINE
  5
171
330
1F
100
AcDbEntity
  8
0
100
AcDbLine
 10
0.0513981790159216
 20
0.0011390975838752
 30
0.0
 11
0.050816816762615
 21
-0.0004082949075984
 31
0.0
  0
LINE
  5
172
330
1F
100
AcDbEntity
  8
0
100
AcDbLine
 10
0.050816816762615
 20
-0.0004082949075984
 30
0.0
 11
0.0501096556660818
 21
-0.0019023930046052
 31
0.0
  0
LINE
  5
173
330
1F
100
AcDbEntity
  8
0
100
AcDbLine
 10
0.0501096556660818
 20
-0.0019023930046052
 30
0.0
 11
0.0499012529599362
 21
-0.002262410742504
 31
0.0
  0
LINE
  5
174
330
1F
100
AcDbEntity
  8
0
100
AcDbLine
 10
-0.1574480248035771
 20
0.0123934374474962
 30
0.0
 11
-0.1975987457734651
 21
0.0123934374474962
 31
0.0
  0
LINE
  5
175
330
1F
100
AcDbEntity
  8
0
100
AcDbLine
 10
-0.0775987484556741
 20
0.0123934374474962
 30
0.0
 11
-0.0775987484556742
 21
0.0093934374214192
 31
0.0
  0
LINE
  5
176
330
1F
100
AcDbEntity
  8
0
100
AcDbLine
 10
-0.1975987457734651
 20
0.0123934374474962
 30
0.0
 11
-0.1975987457734651
 21
0.0093934374214192
 31
0.0
  0
LINE
  5
177
330
1F
100
AcDbEntity
  8
0
100
AcDbLine
 10
-0.1177494694255622
 20
0.035263436775696
 30
0.0
 11
-0.1177762622363823
 21
0.0353284378752806
 31
0.0
  0
LINE
  5
178
330
1F
100
AcDbEntity
  8
0
100
AcDbLine
 10
-0.1177762622363823
 20
0.0353284378752806
 30
0.0
 11
-0.1178494655258856
 21
0.0353760215665314
 31
0.0
  0
LINE
  5
179
330
1F
100
AcDbEntity
  8
0
100
AcDbLine
 10
-0.1178494655258856
 20
0.0353760215665314
 30
0.0
 11
-0.117949461626209
 21
0.0353934365534265
 31
0.0
  0
LINE
  5
17A
330
1F
100
AcDbEntity
  8
0
100
AcDbLine
 10
-0.1177494694255622
 20
0.035263436775696
 30
0.0
 11
-0.1177494694255622
 21
0.0123934374474962
 31
0.0
  0
LINE
  5
17B
330
1F
100
AcDbEntity
  8
0
100
AcDbLine
 10
-0.1574480248035771
 20
0.035263436775696
 30
0.0
 11
-0.1574480248035771
 21
0.0123934374474962
 31
0.0
  0
LINE
  5
17C
330
1F
100
AcDbEntity
  8
0
100
AcDbLine
 10
-0.1574480248035771
 20
0.035263436775696
 30
0.0
 11
-0.157421231992757
 21
0.0353284378752806
 31
0.0
  0
LINE
  5
17D
330
1F
100
AcDbEntity
  8
0
100
AcDbLine
 10
-0.157421231992757
 20
0.0353284378752806
 30
0.0
 11
-0.1573480287032537
 21
0.0353760215665314
 31
0.0
  0
LINE
  5
17E
330
1F
100
AcDbEntity
  8
0
100
AcDbLine
 10
-0.1292446975707606
 20
0.0353284378752806
 30
0.0
 11
-0.1292527330637699
 21
0.0353934365534265
 31
0.0
  0
LINE
  5
17F
330
1F
100
AcDbEntity
  8
0
100
AcDbLine
 10
-0.1272180450445742
 20
0.0353284378752806
 30
0.0
 11
-0.1271617820003345
 21
0.0353934365534265
 31
0.0
  0
LINE
  5
180
330
1F
100
AcDbEntity
  8
0
100
AcDbLine
 10
-0.1271533714035194
 20
0.0353284378752806
 30
0.0
 11
-0.1271617820003345
 21
0.0353934365534265
 31
0.0
  0
LINE
  5
181
330
1F
100
AcDbEntity
  8
0
100
AcDbLine
 10
-0.1253159814995859
 20
0.0353284378752806
 30
0.0
 11
-0.1252494093035595
 21
0.0353934365534265
 31
0.0
  0
LINE
  5
182
330
1F
100
AcDbEntity
  8
0
100
AcDbLine
 10
-0.1252440620640389
 20
0.0353284378752806
 30
0.0
 11
-0.1252494093035595
 21
0.0353934365534265
 31
0.0
  0
LINE
  5
183
330
1F
100
AcDbEntity
  8
0
100
AcDbLine
 10
-0.1236240800054784
 20
0.0353284378752806
 30
0.0
 11
-0.123554016000132
 21
0.0353885636892704
 31
0.0
  0
LINE
  5
184
330
1F
100
AcDbEntity
  8
0
100
AcDbLine
 10
-0.1235499640510509
 20
0.0353284378752806
 30
0.0
 11
-0.123554016000132
 21
0.0353885636892704
 31
0.0
  0
LINE
  5
185
330
1F
100
AcDbEntity
  8
0
100
AcDbLine
 10
-0.1221712891526622
 20
0.0353284378752806
 30
0.0
 11
-0.1221119170313999
 21
0.0353934365534265
 31
0.0
  0
LINE
  5
186
330
1F
100
AcDbEntity
  8
0
100
AcDbLine
 10
-0.1221005234819467
 20
0.0353284378752806
 30
0.0
 11
-0.1221119170313999
 21
0.0353934365534265
 31
0.0
  0
LINE
  5
187
330
1F
100
AcDbEntity
  8
0
100
AcDbLine
 10
-0.1209209266967968
 20
0.0353284378752806
 30
0.0
 11
-0.1208924071209377
 21
0.0353934365534265
 31
0.0
  0
LINE
  5
188
330
1F
100
AcDbEntity
  8
0
100
AcDbLine
 10
-0.1210494746005191
 20
0.0353284378752806
 30
0.0
 11
-0.1210323188678127
 21
0.0353934365534265
 31
0.0
  0
LINE
  5
189
330
1F
100
AcDbEntity
  8
0
100
AcDbLine
 10
-0.1222627813011458
 20
0.0353284378752806
 30
0.0
 11
-0.1222634209412708
 21
0.0353934365534265
 31
0.0
  0
LINE
  5
18A
330
1F
100
AcDbEntity
  8
0
100
AcDbLine
 10
-0.1223460899695064
 20
0.0353284378752806
 30
0.0
 11
-0.1222634209412708
 21
0.0353934365534265
 31
0.0
  0
LINE
  5
18B
330
1F
100
AcDbEntity
  8
0
100
AcDbLine
 10
-0.1237431092449935
 20
0.0353284378752806
 30
0.0
 11
-0.123756913566541
 21
0.0353934365534265
 31
0.0
  0
LINE
  5
18C
330
1F
100
AcDbEntity
  8
0
100
AcDbLine
 10
-0.1254647351491621
 20
0.0353284378752806
 30
0.0
 11
-0.1254872441458049
 21
0.0353934365534265
 31
0.0
  0
LINE
  5
18D
330
1F
100
AcDbEntity
  8
0
100
AcDbLine
 10
-0.1273977333157283
 20
0.0353284378752806
 30
0.0
 11
-0.1274248061699063
 21
0.0353934365534265
 31
0.0
  0
LINE
  5
18E
330
1F
100
AcDbEntity
  8
0
100
AcDbLine
 10
-0.1274796513429099
 20
0.0353284378752806
 30
0.0
 11
-0.1274248061699063
 21
0.0353934365534265
 31
0.0
  0
LINE
  5
18F
330
1F
100
AcDbEntity
  8
0
100
AcDbLine
 10
-0.1295084967987069
 20
0.0353284378752806
 30
0.0
 11
-0.129536447588107
 21
0.0353934365534265
 31
0.0
  0
LINE
  5
190
330
1F
100
AcDbEntity
  8
0
100
AcDbLine
 10
-0.1295799093866143
 20
0.0353284378752806
 30
0.0
 11
-0.129536447588107
 21
0.0353934365534265
 31
0.0
  0
LINE
  5
191
330
1F
100
AcDbEntity
  8
0
100
AcDbLine
 10
-0.1317603214052626
 20
0.0353284378752806
 30
0.0
 11
-0.1317860363639972
 21
0.0353934365534265
 31
0.0
  0
LINE
  5
192
330
1F
100
AcDbEntity
  8
0
100
AcDbLine
 10
-0.1318173712463064
 20
0.0353284378752806
 30
0.0
 11
-0.1317860363639972
 21
0.0353934365534265
 31
0.0
  0
LINE
  5
193
330
1F
100
AcDbEntity
  8
0
100
AcDbLine
 10
-0.1341140460670764
 20
0.0353284378752806
 30
0.0
 11
-0.1341350827352544
 21
0.0353934365534265
 31
0.0
  0
LINE
  5
194
330
1F
100
AcDbEntity
  8
0
100
AcDbLine
 10
-0.1365433931352063
 20
0.0353934365534265
 30
0.0
 11
-0.1365490822954344
 21
0.0353284378752806
 31
0.0
  0
LINE
  5
195
330
1F
100
AcDbEntity
  8
0
100
AcDbLine
 10
-0.1341350827352544
 20
0.0353934365534265
 30
0.0
 11
-0.1341537545386472
 21
0.0353284378752806
 31
0.0
  0
LINE
  5
196
330
1F
100
AcDbEntity
  8
0
100
AcDbLine
 10
-0.1230503857316409
 20
0.0355934376590927
 30
0.0
 11
-0.1230771768999732
 21
0.0354934378289659
 31
0.0
  0
LINE
  5
197
330
1F
100
AcDbEntity
  8
0
100
AcDbLine
 10
-0.1230771768999732
 20
0.0354934378289659
 30
0.0
 11
-0.1231503739581181
 21
0.0354202321493109
 31
0.0
  0
LINE
  5
198
330
1F
100
AcDbEntity
  8
0
100
AcDbLine
 10
-0.1231503739581181
 20
0.0354202321493109
 30
0.0
 11
-0.1232621175113657
 21
0.0353934370675166
 31
0.0
  0
LINE
  5
199
330
1F
100
AcDbEntity
  8
0
100
AcDbLine
 10
-0.1258167477790827
 20
0.0354202321493109
 30
0.0
 11
-0.1257699445631242
 21
0.0353934365534265
 31
0.0
  0
LINE
  5
19A
330
1F
100
AcDbEntity
  8
0
100
AcDbLine
 10
-0.1267027614332539
 20
0.0354202321493109
 30
0.0
 11
-0.1266811719945883
 21
0.0353934370675166
 31
0.0
  0
LINE
  5
19B
330
1F
100
AcDbEntity
  8
0
100
AcDbLine
 10
-0.1277476622670592
 20
0.0354202321493109
 30
0.0
 11
-0.1277281431836745
 21
0.0353934370675166
 31
0.0
  0
LINE
  5
19C
330
1F
100
AcDbEntity
  8
0
100
AcDbLine
 10
-0.1289362147080588
 20
0.0354202321493109
 30
0.0
 11
-0.1289190506424731
 21
0.0353934370675166
 31
0.0
  0
LINE
  5
19D
330
1F
100
AcDbEntity
  8
0
100
AcDbLine
 10
-0.130251086043402
 20
0.0354202321493109
 30
0.0
 11
-0.1302340850077984
 21
0.0353934365534265
 31
0.0
  0
LINE
  5
19E
330
1F
100
AcDbEntity
  8
0
100
AcDbLine
 10
-0.1316731024603465
 20
0.0354202321493109
 30
0.0
 11
-0.1316613613016701
 21
0.0353934370675166
 31
0.0
  0
LINE
  5
19F
330
1F
100
AcDbEntity
  8
0
100
AcDbLine
 10
-0.1331815290711242
 20
0.0354202321493109
 30
0.0
 11
-0.133172776736385
 21
0.0353934370675166
 31
0.0
  0
LINE
  5
1A0
330
1F
100
AcDbEntity
  8
0
100
AcDbLine
 10
-0.1347543677964779
 20
0.0354202321493109
 30
0.0
 11
-0.1347487318921893
 21
0.0353934370675166
 31
0.0
  0
LINE
  5
1A1
330
1F
100
AcDbEntity
  8
0
100
AcDbLine
 10
-0.1363705481910255
 20
0.0354407232001873
 30
0.0
 11
-0.1363662470845884
 21
0.0353934370675166
 31
0.0
  0
LINE
  5
1A2
330
1F
100
AcDbEntity
  8
0
100
AcDbLine
 10
-0.1363872363488881
 20
0.0354202321493109
 30
0.0
 11
-0.1363662470845884
 21
0.0353934370675166
 31
0.0
  0
LINE
  5
1A3
330
1F
100
AcDbEntity
  8
0
100
AcDbLine
 10
-0.1380009379564491
 20
0.0354202321493109
 30
0.0
 11
-0.1380017348728237
 21
0.0353934370675166
 31
0.0
  0
LINE
  5
1A4
330
1F
100
AcDbEntity
  8
0
100
AcDbLine
 10
-0.1396255808449259
 20
0.0354318702731048
 30
0.0
 11
-0.1396306200676519
 21
0.0353982770250154
 31
0.0
  0
LINE
  5
1A5
330
1F
100
AcDbEntity
  8
0
100
AcDbLine
 10
-0.139659391290336
 20
0.035434804459691
 30
0.0
 11
-0.1396306200676519
 21
0.0353982770250154
 31
0.0
  0
LINE
  5
1A6
330
1F
100
AcDbEntity
  8
0
100
AcDbLine
 10
-0.1497587658859325
 20
0.0354105205848611
 30
0.0
 11
-0.149778646417613
 21
0.0353934370675166
 31
0.0
  0
LINE
  5
1A7
330
1F
100
AcDbEntity
  8
0
100
AcDbLine
 10
-0.1502891700220098
 20
0.0355165332796179
 30
0.0
 11
-0.1503109986509754
 21
0.0354934378289659
 31
0.0
  0
LINE
  5
1A8
330
1F
100
AcDbEntity
  8
0
100
AcDbLine
 10
-0.1510235645415248
 20
0.0355118404171792
 30
0.0
 11
-0.1510420891938324
 21
0.0354934378289659
 31
0.0
  0
LINE
  5
1A9
330
1F
100
AcDbEntity
  8
0
100
AcDbLine
 10
-0.1509600941119176
 20
0.0354296820776372
 30
0.0
 11
-0.1509868806558231
 21
0.0354022040357188
 31
0.0
  0
LINE
  5
1AA
330
1F
100
AcDbEntity
  8
0
100
AcDbLine
 10
-0.1230519953233734
 20
0.0357934373193462
 30
0.0
 11
-0.1230503857316409
 21
0.0355934376590927
 31
0.0
  0
LINE
  5
1AB
330
1F
100
AcDbEntity
  8
0
100
AcDbLine
 10
-0.1230519953233734
 20
0.0357934373193462
 30
0.0
 11
-0.1230992650502843
 21
0.0357934373193462
 31
0.0
  0
LINE
  5
1AC
330
1F
100
AcDbEntity
  8
0
100
AcDbLine
 10
-0.1231270671902859
 20
0.0357934373193462
 30
0.0
 11
-0.123300995244123
 21
0.0357934373193462
 31
0.0
  0
LINE
  5
1AD
330
1F
100
AcDbEntity
  8
0
100
AcDbLine
 10
-0.123300995244123
 20
0.0357934373193462
 30
0.0
 11
-0.1233093221986149
 21
0.0355934376590927
 31
0.0
  0
LINE
  5
1AE
330
1F
100
AcDbEntity
  8
0
100
AcDbLine
 10
-0.123300995244123
 20
0.0357934373193462
 30
0.0
 11
-0.1235725913409504
 21
0.0357934373193462
 31
0.0
  0
LINE
  5
1AF
330
1F
100
AcDbEntity
  8
0
100
AcDbLine
 10
-0.1244007131382623
 20
0.0357934373193462
 30
0.0
 11
-0.1249515810055439
 21
0.0357934373193462
 31
0.0
  0
LINE
  5
1B0
330
1F
100
AcDbEntity
  8
0
100
AcDbLine
 10
-0.1263081438951795
 20
0.0357934373193462
 30
0.0
 11
-0.1271045709996134
 21
0.0357934373193462
 31
0.0
  0
LINE
  5
1B1
330
1F
100
AcDbEntity
  8
0
100
AcDbLine
 10
-0.1271688467967654
 20
0.0357934373193462
 30
0.0
 11
-0.1279726843251584
 21
0.0357934373193462
 31
0.0
  0
LINE
  5
1B2
330
1F
100
AcDbEntity
  8
0
100
AcDbLine
 10
-0.1289065529278903
 20
0.0357934373193462
 30
0.0
 11
-0.1297894815296125
 21
0.0357934373193462
 31
0.0
  0
LINE
  5
1B3
330
1F
100
AcDbEntity
  8
0
100
AcDbLine
 10
-0.1298997985449692
 20
0.0357934373193462
 30
0.0
 11
-0.1309456356741429
 21
0.0357934373193462
 31
0.0
  0
LINE
  5
1B4
330
1F
100
AcDbEntity
  8
0
100
AcDbLine
 10
-0.1331661977719784
 20
0.0357934373193462
 30
0.0
 11
-0.1343257539004099
 21
0.0357934373193462
 31
0.0
  0
LINE
  5
1B5
330
1F
100
AcDbEntity
  8
0
100
AcDbLine
 10
-0.134457026010229
 20
0.0357934373193462
 30
0.0
 11
-0.1355076679924213
 21
0.0357934373193462
 31
0.0
  0
LINE
  5
1B6
330
1F
100
AcDbEntity
  8
0
100
AcDbLine
 10
-0.1367038665240866
 20
0.0357934373193462
 30
0.0
 11
-0.1378171574896832
 21
0.0357934373193462
 31
0.0
  0
LINE
  5
1B7
330
1F
100
AcDbEntity
  8
0
100
AcDbLine
 10
-0.1379061776855254
 20
0.0357934373193462
 30
0.0
 11
-0.1391063885485875
 21
0.0357934373193462
 31
0.0
  0
LINE
  5
1B8
330
1F
100
AcDbEntity
  8
0
100
AcDbLine
 10
-0.141467787057707
 20
0.0357934373193462
 30
0.0
 11
-0.1426128430329775
 21
0.0357934373193462
 31
0.0
  0
LINE
  5
1B9
330
1F
100
AcDbEntity
  8
0
100
AcDbLine
 10
-0.1447926129235859
 20
0.0357934373193462
 30
0.0
 11
-0.1457746848419715
 21
0.0357934373193462
 31
0.0
  0
LINE
  5
1BA
330
1F
100
AcDbEntity
  8
0
100
AcDbLine
 10
-0.1457746848419715
 20
0.0357934373193462
 30
0.0
 11
-0.1457756241628103
 21
0.0355934376590927
 31
0.0
  0
LINE
  5
1BB
330
1F
100
AcDbEntity
  8
0
100
AcDbLine
 10
-0.1457746848419715
 20
0.0357934373193462
 30
0.0
 11
-0.1458124371157137
 21
0.0357934373193462
 31
0.0
  0
LINE
  5
1BC
330
1F
100
AcDbEntity
  8
0
100
AcDbLine
 10
-0.1458124371157137
 20
0.0357934373193462
 30
0.0
 11
-0.1457756241628103
 21
0.0355934376590927
 31
0.0
  0
LINE
  5
1BD
330
1F
100
AcDbEntity
  8
0
100
AcDbLine
 10
-0.1458124371157137
 20
0.0357934373193462
 30
0.0
 11
-0.146776153146057
 21
0.0357934373193462
 31
0.0
  0
LINE
  5
1BE
330
1F
100
AcDbEntity
  8
0
100
AcDbLine
 10
-0.1485093569063843
 20
0.0357934373193462
 30
0.0
 11
-0.1492670062302679
 21
0.0357934373193462
 31
0.0
  0
LINE
  5
1BF
330
1F
100
AcDbEntity
  8
0
100
AcDbLine
 10
-0.1492670062302679
 20
0.0357934373193462
 30
0.0
 11
-0.1491299507738525
 21
0.037343667982616
 31
0.0
  0
LINE
  5
1C0
330
1F
100
AcDbEntity
  8
0
100
AcDbLine
 10
-0.146776153146057
 20
0.0357934373193462
 30
0.0
 11
-0.1466683549773876
 21
0.037343667982616
 31
0.0
  0
LINE
  5
1C1
330
1F
100
AcDbEntity
  8
0
100
AcDbLine
 10
-0.1466683549773876
 20
0.037343667982616
 30
0.0
 11
-0.1471098351573246
 21
0.0357934373193462
 31
0.0
  0
LINE
  5
1C2
330
1F
100
AcDbEntity
  8
0
100
AcDbLine
 10
-0.1447926129235859
 20
0.0357934373193462
 30
0.0
 11
-0.1447081138933189
 21
0.037343667982616
 31
0.0
  0
LINE
  5
1C3
330
1F
100
AcDbEntity
  8
0
100
AcDbLine
 10
-0.1426128430329775
 20
0.0357934373193462
 30
0.0
 11
-0.1425539472441131
 21
0.037343667982616
 31
0.0
  0
LINE
  5
1C4
330
1F
100
AcDbEntity
  8
0
100
AcDbLine
 10
-0.1425539472441131
 20
0.037343667982616
 30
0.0
 11
-0.1427773502477867
 21
0.0357934373193462
 31
0.0
  0
LINE
  5
1C5
330
1F
100
AcDbEntity
  8
0
100
AcDbLine
 10
-0.1391063885485875
 20
0.0357934373193462
 30
0.0
 11
-0.1390886800974151
 21
0.037343667982616
 31
0.0
  0
LINE
  5
1C6
330
1F
100
AcDbEntity
  8
0
100
AcDbLine
 10
-0.1390886800974151
 20
0.037343667982616
 30
0.0
 11
-0.1395029762951078
 21
0.0357934373193462
 31
0.0
  0
LINE
  5
1C7
330
1F
100
AcDbEntity
  8
0
100
AcDbLine
 10
-0.1367038665240866
 20
0.0357934373193462
 30
0.0
 11
-0.1367143778657492
 21
0.037343667982616
 31
0.0
  0
LINE
  5
1C8
330
1F
100
AcDbEntity
  8
0
100
AcDbLine
 10
-0.1355076679924213
 20
0.0357934373193462
 30
0.0
 11
-0.1355322297213904
 21
0.037343667982616
 31
0.0
  0
LINE
  5
1C9
330
1F
100
AcDbEntity
  8
0
100
AcDbLine
 10
-0.1355322297213904
 20
0.037343667982616
 30
0.0
 11
-0.136127925291559
 21
0.0357934373193462
 31
0.0
  0
LINE
  5
1CA
330
1F
100
AcDbEntity
  8
0
100
AcDbLine
 10
-0.1343257539004099
 20
0.0357934373193462
 30
0.0
 11
-0.134364198394372
 21
0.037343667982616
 31
0.0
  0
LINE
  5
1CB
330
1F
100
AcDbEntity
  8
0
100
AcDbLine
 10
-0.134364198394372
 20
0.037343667982616
 30
0.0
 11
-0.134457026010229
 21
0.0357934373193462
 31
0.0
  0
LINE
  5
1CC
330
1F
100
AcDbEntity
  8
0
100
AcDbLine
 10
-0.1309456356741429
 20
0.0357934373193462
 30
0.0
 11
-0.1310237829881488
 21
0.037343667982616
 31
0.0
  0
LINE
  5
1CD
330
1F
100
AcDbEntity
  8
0
100
AcDbLine
 10
-0.1310237829881488
 20
0.037343667982616
 30
0.0
 11
-0.1312689264116029
 21
0.0357934373193462
 31
0.0
  0
LINE
  5
1CE
330
1F
100
AcDbEntity
  8
0
100
AcDbLine
 10
-0.1289065529278903
 20
0.0357934373193462
 30
0.0
 11
-0.1290086516475672
 21
0.037343667982616
 31
0.0
  0
LINE
  5
1CF
330
1F
100
AcDbEntity
  8
0
100
AcDbLine
 10
-0.1279726843251584
 20
0.0357934373193462
 30
0.0
 11
-0.1280857518634275
 21
0.037343667982616
 31
0.0
  0
LINE
  5
1D0
330
1F
100
AcDbEntity
  8
0
100
AcDbLine
 10
-0.1280857518634275
 20
0.037343667982616
 30
0.0
 11
-0.1284223196888041
 21
0.0357934373193462
 31
0.0
  0
LINE
  5
1D1
330
1F
100
AcDbEntity
  8
0
100
AcDbLine
 10
-0.1271045709996134
 20
0.0357934373193462
 30
0.0
 11
-0.1272278356602956
 21
0.037343667982616
 31
0.0
  0
LINE
  5
1D2
330
1F
100
AcDbEntity
  8
0
100
AcDbLine
 10
-0.1272278356602956
 20
0.037343667982616
 30
0.0
 11
-0.1271688467967654
 21
0.0357934373193462
 31
0.0
  0
LINE
  5
1D3
330
1F
100
AcDbEntity
  8
0
100
AcDbLine
 10
-0.1249515810055439
 20
0.0357934373193462
 30
0.0
 11
-0.1251001351787868
 21
0.037343667982616
 31
0.0
  0
LINE
  5
1D4
330
1F
100
AcDbEntity
  8
0
100
AcDbLine
 10
-0.1251001351787868
 20
0.037343667982616
 30
0.0
 11
-0.1251167639084632
 21
0.0357934373193462
 31
0.0
  0
LINE
  5
1D5
330
1F
100
AcDbEntity
  8
0
100
AcDbLine
 10
-0.1235725913409504
 20
0.0357934373193462
 30
0.0
 11
-0.12373734287919
 21
0.037343667982616
 31
0.0
  0
LINE
  5
1D6
330
1F
100
AcDbEntity
  8
0
100
AcDbLine
 10
-0.12373734287919
 20
0.037343667982616
 30
0.0
 11
-0.1237358788513609
 21
0.0357934373193462
 31
0.0
  0
LINE
  5
1D7
330
1F
100
AcDbEntity
  8
0
100
AcDbLine
 10
-0.123300995244123
 20
0.0357934373193462
 30
0.0
 11
-0.1234689366918248
 21
0.037343667982616
 31
0.0
  0
LINE
  5
1D8
330
1F
100
AcDbEntity
  8
0
100
AcDbLine
 10
-0.1230519953233734
 20
0.0357934373193462
 30
0.0
 11
-0.1232228615672856
 21
0.037343667982616
 31
0.0
  0
LINE
  5
1D9
330
1F
100
AcDbEntity
  8
0
100
AcDbLine
 10
-0.1232309832316147
 20
0.0373934377827723
 30
0.0
 11
-0.1232228615672856
 21
0.037343667982616
 31
0.0
  0
LINE
  5
1DA
330
1F
100
AcDbEntity
  8
0
100
AcDbLine
 10
-0.1230992650502843
 20
0.0357934373193462
 30
0.0
 11
-0.1232970517431352
 21
0.037343667982616
 31
0.0
  0
LINE
  5
1DB
330
1F
100
AcDbEntity
  8
0
100
AcDbLine
 10
-0.1232970517431352
 20
0.037343667982616
 30
0.0
 11
-0.1231270671902859
 21
0.0357934373193462
 31
0.0
  0
LINE
  5
1DC
330
1F
100
AcDbEntity
  8
0
100
AcDbLine
 10
-0.1243324828735435
 20
0.0357934373193462
 30
0.0
 11
-0.1245557370676374
 21
0.037343667982616
 31
0.0
  0
LINE
  5
1DD
330
1F
100
AcDbEntity
  8
0
100
AcDbLine
 10
-0.1245557370676374
 20
0.037343667982616
 30
0.0
 11
-0.1244007131382623
 21
0.0357934373193462
 31
0.0
  0
LINE
  5
1DE
330
1F
100
AcDbEntity
  8
0
100
AcDbLine
 10
-0.1260684071418126
 20
0.0357934373193462
 30
0.0
 11
-0.126440763246263
 21
0.037343667982616
 31
0.0
  0
LINE
  5
1DF
330
1F
100
AcDbEntity
  8
0
100
AcDbLine
 10
-0.126440763246263
 20
0.037343667982616
 30
0.0
 11
-0.1263081438951795
 21
0.0357934373193462
 31
0.0
  0
LINE
  5
1E0
330
1F
100
AcDbEntity
  8
0
100
AcDbLine
 10
-0.1284223196888041
 20
0.0357934373193462
 30
0.0
 11
-0.1290086516475672
 21
0.037343667982616
 31
0.0
  0
LINE
  5
1E1
330
1F
100
AcDbEntity
  8
0
100
AcDbLine
 10
-0.1297894815296125
 20
0.0357934373193462
 30
0.0
 11
-0.1299902302671761
 21
0.037343667982616
 31
0.0
  0
LINE
  5
1E2
330
1F
100
AcDbEntity
  8
0
100
AcDbLine
 10
-0.1299902302671761
 20
0.037343667982616
 30
0.0
 11
-0.1298997985449692
 21
0.0357934373193462
 31
0.0
  0
LINE
  5
1E3
330
1F
100
AcDbEntity
  8
0
100
AcDbLine
 10
-0.1328316516190292
 20
0.0357934373193462
 30
0.0
 11
-0.1332182624003218
 21
0.037343667982616
 31
0.0
  0
LINE
  5
1E4
330
1F
100
AcDbEntity
  8
0
100
AcDbLine
 10
-0.1332182624003218
 20
0.037343667982616
 30
0.0
 11
-0.1331661977719784
 21
0.0357934373193462
 31
0.0
  0
LINE
  5
1E5
330
1F
100
AcDbEntity
  8
0
100
AcDbLine
 10
-0.136127925291559
 20
0.0357934373193462
 30
0.0
 11
-0.1367143778657492
 21
0.037343667982616
 31
0.0
  0
LINE
  5
1E6
330
1F
100
AcDbEntity
  8
0
100
AcDbLine
 10
-0.1378171574896832
 20
0.0357934373193462
 30
0.0
 11
-0.1379025666071034
 21
0.037343667982616
 31
0.0
  0
LINE
  5
1E7
330
1F
100
AcDbEntity
  8
0
100
AcDbLine
 10
-0.1379025666071034
 20
0.037343667982616
 30
0.0
 11
-0.1379061776855254
 21
0.0357934373193462
 31
0.0
  0
LINE
  5
1E8
330
1F
100
AcDbEntity
  8
0
100
AcDbLine
 10
-0.1411641300767263
 20
0.0357934373193462
 30
0.0
 11
-0.1414223408350733
 21
0.037343667982616
 31
0.0
  0
LINE
  5
1E9
330
1F
100
AcDbEntity
  8
0
100
AcDbLine
 10
-0.1414223408350733
 20
0.037343667982616
 30
0.0
 11
-0.141467787057707
 21
0.0357934373193462
 31
0.0
  0
LINE
  5
1EA
330
1F
100
AcDbEntity
  8
0
100
AcDbLine
 10
-0.1443175337431488
 20
0.0357934373193462
 30
0.0
 11
-0.1447081138933189
 21
0.037343667982616
 31
0.0
  0
LINE
  5
1EB
330
1F
100
AcDbEntity
  8
0
100
AcDbLine
 10
-0.1457746848419715
 20
0.0357934373193462
 30
0.0
 11
-0.1457159591546789
 21
0.037343667982616
 31
0.0
  0
LINE
  5
1EC
330
1F
100
AcDbEntity
  8
0
100
AcDbLine
 10
-0.1457159591546789
 20
0.037343667982616
 30
0.0
 11
-0.1458124371157137
 21
0.0357934373193462
 31
0.0
  0
LINE
  5
1ED
330
1F
100
AcDbEntity
  8
0
100
AcDbLine
 10
-0.1483244743771852
 20
0.0357934373193462
 30
0.0
 11
-0.1483812009742884
 21
0.037343667982616
 31
0.0
  0
LINE
  5
1EE
330
1F
100
AcDbEntity
  8
0
100
AcDbLine
 10
-0.1483812009742884
 20
0.037343667982616
 30
0.0
 11
-0.1485093569063843
 21
0.0357934373193462
 31
0.0
  0
LINE
  5
1EF
330
1F
100
AcDbEntity
  8
0
100
AcDbLine
 10
-0.1518285715628108
 20
0.037343667982616
 30
0.0
 11
-0.1519977018917378
 21
0.0357934373193462
 31
0.0
  0
LINE
  5
1F0
330
1F
100
AcDbEntity
  8
0
100
AcDbLine
 10
-0.1521266000811152
 20
0.0357934373193462
 30
0.0
 11
-0.1519977018917378
 21
0.0357934373193462
 31
0.0
  0
LINE
  5
1F1
330
1F
100
AcDbEntity
  8
0
100
AcDbLine
 10
-0.1519665109975246
 20
0.0373934377827723
 30
0.0
 11
-0.1519746326618537
 21
0.037343667982616
 31
0.0
  0
LINE
  5
1F2
330
1F
100
AcDbEntity
  8
0
100
AcDbLine
 10
-0.1521266000811152
 20
0.0357934373193462
 30
0.0
 11
-0.1521471084974984
 21
0.0355934376590927
 31
0.0
  0
LINE
  5
1F3
330
1F
100
AcDbEntity
  8
0
100
AcDbLine
 10
-0.1402715668713483
 20
0.0356098041450383
 30
0.0
 11
-0.1402898701898073
 21
0.035587454614194
 31
0.0
  0
LINE
  5
1F4
330
1F
100
AcDbEntity
  8
0
100
AcDbLine
 10
-0.1371965562726902
 20
0.0354202321493109
 30
0.0
 11
-0.1371957593563156
 21
0.0353934370675166
 31
0.0
  0
LINE
  5
1F5
330
1F
100
AcDbEntity
  8
0
100
AcDbLine
 10
-0.1355701675840528
 20
0.0354202321493109
 30
0.0
 11
-0.1355661481339311
 21
0.0353934370675166
 31
0.0
  0
LINE
  5
1F6
330
1F
100
AcDbEntity
  8
0
100
AcDbLine
 10
-0.1340015999250565
 20
0.0354202321493109
 30
0.0
 11
-0.1339661765849978
 21
0.0353934370675166
 31
0.0
  0
LINE
  5
1F7
330
1F
100
AcDbEntity
  8
0
100
AcDbLine
 10
-0.1339499577992581
 20
0.0354202321493109
 30
0.0
 11
-0.1339661765849978
 21
0.0353934370675166
 31
0.0
  0
LINE
  5
1F8
330
1F
100
AcDbEntity
  8
0
100
AcDbLine
 10
-0.1324547723989125
 20
0.0354202321493109
 30
0.0
 11
-0.1324191762154773
 21
0.0353934370675166
 31
0.0
  0
LINE
  5
1F9
330
1F
100
AcDbEntity
  8
0
100
AcDbLine
 10
-0.1310072333806134
 20
0.0354202321493109
 30
0.0
 11
-0.1309477056077918
 21
0.0353934370675166
 31
0.0
  0
LINE
  5
1FA
330
1F
100
AcDbEntity
  8
0
100
AcDbLine
 10
-0.1309608580202637
 20
0.0354202321493109
 30
0.0
 11
-0.1309477056077918
 21
0.0353934370675166
 31
0.0
  0
LINE
  5
1FB
330
1F
100
AcDbEntity
  8
0
100
AcDbLine
 10
-0.129632411695587
 20
0.0354202321493109
 30
0.0
 11
-0.1295732225806782
 21
0.0353934370675166
 31
0.0
  0
LINE
  5
1FC
330
1F
100
AcDbEntity
  8
0
100
AcDbLine
 10
-0.1295890930097249
 20
0.0354202321493109
 30
0.0
 11
-0.1295732225806782
 21
0.0353934370675166
 31
0.0
  0
LINE
  5
1FD
330
1F
100
AcDbEntity
  8
0
100
AcDbLine
 10
-0.1283499760239008
 20
0.0354202321493109
 30
0.0
 11
-0.1283157691651761
 21
0.0353934370675166
 31
0.0
  0
LINE
  5
1FE
330
1F
100
AcDbEntity
  8
0
100
AcDbLine
 10
-0.1272269872232896
 20
0.0354202321493109
 30
0.0
 11
-0.1271936829712883
 21
0.0353934370675166
 31
0.0
  0
LINE
  5
1FF
330
1F
100
AcDbEntity
  8
0
100
AcDbLine
 10
-0.1262556038859952
 20
0.0354202321493109
 30
0.0
 11
-0.1262233256892135
 21
0.0353934370675166
 31
0.0
  0
LINE
  5
200
330
1F
100
AcDbEntity
  8
0
100
AcDbLine
 10
-0.125450029942334
 20
0.0354202321493109
 30
0.0
 11
-0.1254188478115263
 21
0.0353934370675166
 31
0.0
  0
LINE
  5
201
330
1F
100
AcDbEntity
  8
0
100
AcDbLine
 10
-0.1248220446214285
 20
0.0354202321493109
 30
0.0
 11
-0.12476904194091
 21
0.0353934365534265
 31
0.0
  0
LINE
  5
202
330
1F
100
AcDbEntity
  8
0
100
AcDbLine
 10
-0.1243808324227057
 20
0.0354202321493109
 30
0.0
 11
-0.1243385378674352
 21
0.0353934370675166
 31
0.0
  0
LINE
  5
203
330
1F
100
AcDbEntity
  8
0
100
AcDbLine
 10
-0.1241328460029604
 20
0.0354202321493109
 30
0.0
 11
-0.1241049176229234
 21
0.0353934370675166
 31
0.0
  0
LINE
  5
204
330
1F
100
AcDbEntity
  8
0
100
AcDbLine
 10
-0.1240817137834659
 20
0.0354202321493109
 30
0.0
 11
-0.1240420256137073
 21
0.0353934370675166
 31
0.0
  0
LINE
  5
205
330
1F
100
AcDbEntity
  8
0
100
AcDbLine
 10
-0.1242281880008428
 20
0.0354202321493109
 30
0.0
 11
-0.1242020672300447
 21
0.0353934370675166
 31
0.0
  0
LINE
  5
206
330
1F
100
AcDbEntity
  8
0
100
AcDbLine
 10
-0.1245447461915065
 20
0.0353934370675166
 30
0.0
 11
-0.1245705604366449
 21
0.0354202321493109
 31
0.0
  0
LINE
  5
207
330
1F
100
AcDbEntity
  8
0
100
AcDbLine
 10
-0.1521471084974984
 20
0.0355934376590927
 30
0.0
 11
-0.1521203173291661
 21
0.0354934378289659
 31
0.0
  0
LINE
  5
208
330
1F
100
AcDbEntity
  8
0
100
AcDbLine
 10
-0.1521203173291661
 20
0.0354934378289659
 30
0.0
 11
-0.1520471202710212
 21
0.0354202321493109
 31
0.0
  0
LINE
  5
209
330
1F
100
AcDbEntity
  8
0
100
AcDbLine
 10
-0.1520471202710212
 20
0.0354202321493109
 30
0.0
 11
-0.1519471313619514
 21
0.0353934365534265
 31
0.0
  0
LINE
  5
20A
330
1F
100
AcDbEntity
  8
0
100
AcDbLine
 10
-0.1493000943582362
 20
0.0356156145362667
 30
0.0
 11
-0.1493000943582362
 21
0.0355750291753087
 31
0.0
  0
LINE
  5
20B
330
1F
100
AcDbEntity
  8
0
100
AcDbLine
 10
-0.1493000943582362
 20
0.0354144448830811
 30
0.0
 11
-0.1493000943582362
 21
0.0353864652910248
 31
0.0
  0
LINE
  5
20C
330
1F
100
AcDbEntity
  8
0
100
AcDbLine
 10
-0.124850331260305
 20
0.0354202321493109
 30
0.0
 11
-0.124850331260305
 21
0.0353934372575064
 31
0.0
  0
LINE
  5
20D
330
1F
100
AcDbEntity
  8
0
100
AcDbLine
 10
-0.1200987470400638
 20
0.0623934372239788
 30
0.0
 11
-0.1200987470400638
 21
0.0673934371122201
 31
0.0
  0
LINE
  5
20E
330
1F
100
AcDbEntity
  8
0
100
AcDbLine
 10
-0.1550987471890754
 20
0.0623934372239788
 30
0.0
 11
-0.1200987470400638
 21
0.0623934372239788
 31
0.0
  0
LINE
  5
20F
330
1F
100
AcDbEntity
  8
0
100
AcDbLine
 10
-0.1200987470400638
 20
0.0673934371122201
 30
0.0
 11
-0.1550987471890754
 21
0.0673934371122201
 31
0.0
  0
LINE
  5
210
330
1F
100
AcDbEntity
  8
0
100
AcDbLine
 10
-0.1550987471890754
 20
0.0673934371122201
 30
0.0
 11
-0.1550987471890754
 21
0.0623934372239788
 31
0.0
  0
LINE
  5
211
330
1F
100
AcDbEntity
  8
0
100
AcDbLine
 10
0.1454012515704029
 20
0.0673934371122202
 30
0.0
 11
0.1424012515443259
 21
0.0673934371122202
 31
0.0
  0
LINE
  5
212
330
1F
100
AcDbEntity
  8
0
100
AcDbLine
 10
0.1454012515704029
 20
-0.0526065602055707
 30
0.0
 11
0.1424012515443259
 21
-0.0526065602055707
 31
0.0
  0
LINE
  5
213
330
1F
100
AcDbEntity
  8
0
100
AcDbLine
 10
0.1683838356894381
 20
0.0177774186973444
 30
0.0
 11
0.1684012506763332
 21
0.0178304035675599
 31
0.0
  0
LINE
  5
214
330
1F
100
AcDbEntity
  8
0
100
AcDbLine
 10
0.1683838356894381
 20
0.0196946042897867
 30
0.0
 11
0.1684012506763332
 21
0.0197427762643349
 31
0.0
  0
LINE
  5
215
330
1F
100
AcDbEntity
  8
0
100
AcDbLine
 10
0.1683790708266395
 20
0.0213885483387745
 30
0.0
 11
0.1684012506763332
 21
0.0214438478672753
 31
0.0
  0
LINE
  5
216
330
1F
100
AcDbEntity
  8
0
100
AcDbLine
 10
0.1683807562901644
 20
0.0214199659655293
 30
0.0
 11
0.1684012506763332
 21
0.0214438478672753
 31
0.0
  0
LINE
  5
217
330
1F
100
AcDbEntity
  8
0
100
AcDbLine
 10
0.1683838356894381
 20
0.02286556350793
 30
0.0
 11
0.1684012506763332
 21
0.022904512755135
 31
0.0
  0
LINE
  5
218
330
1F
100
AcDbEntity
  8
0
100
AcDbLine
 10
0.1683838356894381
 20
0.0240648186894054
 30
0.0
 11
0.1684012506763332
 21
0.0240997784469567
 31
0.0
  0
LINE
  5
219
330
1F
100
AcDbEntity
  8
0
100
AcDbLine
 10
0.1682712508986027
 20
-0.0124558392356827
 30
0.0
 11
0.1683362519981873
 21
-0.0124290464248626
 31
0.0
  0
LINE
  5
21A
330
1F
100
AcDbEntity
  8
0
100
AcDbLine
 10
0.1683362519981873
 20
-0.0124290464248626
 30
0.0
 11
0.1683838356894381
 21
-0.0123558431353593
 31
0.0
  0
LINE
  5
21B
330
1F
100
AcDbEntity
  8
0
100
AcDbLine
 10
0.1683838356894381
 20
-0.0123558431353593
 30
0.0
 11
0.1684012506763332
 21
-0.0122558470350358
 31
0.0
  0
LINE
  5
21C
330
1F
100
AcDbEntity
  8
0
100
AcDbLine
 10
0.1682712508986027
 20
-0.0124558392356827
 30
0.0
 11
0.1454012515704029
 21
-0.0124674643478313
 31
0.0
  0
LINE
  5
21D
330
1F
100
AcDbEntity
  8
0
100
AcDbLine
 10
0.1682712508986027
 20
0.0272427161423322
 30
0.0
 11
0.1454012515704029
 21
0.0272427161423322
 31
0.0
  0
LINE
  5
21E
330
1F
100
AcDbEntity
  8
0
100
AcDbLine
 10
0.1683838356894381
 20
0.0240648186894054
 30
0.0
 11
0.1684012506763332
 21
0.0239598667000818
 31
0.0
  0
LINE
  5
21F
330
1F
100
AcDbEntity
  8
0
100
AcDbLine
 10
0.1682712508986027
 20
0.0272427161423322
 30
0.0
 11
0.1683362519981873
 21
0.0272159233315121
 31
0.0
  0
LINE
  5
220
330
1F
100
AcDbEntity
  8
0
100
AcDbLine
 10
0.1683838356894381
 20
0.0239359392128252
 30
0.0
 11
0.1684012506763332
 21
0.0239598667000818
 31
0.0
  0
LINE
  5
221
330
1F
100
AcDbEntity
  8
0
100
AcDbLine
 10
0.1683838356894381
 20
0.0227066152524452
 30
0.0
 11
0.1684012506763332
 21
0.0227287646266236
 31
0.0
  0
LINE
  5
222
330
1F
100
AcDbEntity
  8
0
100
AcDbLine
 10
0.1683688527299094
 20
0.0211980794591712
 30
0.0
 11
0.1684012506763332
 21
0.0212352720013534
 31
0.0
  0
LINE
  5
223
330
1F
100
AcDbEntity
  8
0
100
AcDbLine
 10
0.1683790653403514
 20
0.0194490999712253
 30
0.0
 11
0.1684012506763332
 21
0.0194880901149572
 31
0.0
  0
LINE
  5
224
330
1F
100
AcDbEntity
  8
0
100
AcDbLine
 10
0.1683838356894381
 20
0.0175191884870982
 30
0.0
 11
0.1684012506763332
 21
0.0175673793979881
 31
0.0
  0
LINE
  5
225
330
1F
100
AcDbEntity
  8
0
100
AcDbLine
 10
0.1686012517819994
 20
-0.007154922929604
 30
0.0
 11
0.1685012519518727
 21
-0.0071281317612717
 31
0.0
  0
LINE
  5
226
330
1F
100
AcDbEntity
  8
0
100
AcDbLine
 10
0.1685012519518727
 20
-0.0071281317612717
 30
0.0
 11
0.1684280462722176
 21
-0.0070549347031268
 31
0.0
  0
LINE
  5
227
330
1F
100
AcDbEntity
  8
0
100
AcDbLine
 10
0.1684280462722176
 20
-0.0070549347031268
 30
0.0
 11
0.1684012511904233
 21
-0.006954945794057
 31
0.0
  0
LINE
  5
228
330
1F
100
AcDbEntity
  8
0
100
AcDbLine
 10
0.1684448881386037
 20
0.018732226060724
 30
0.0
 11
0.1684012511904233
 21
0.018768859878681
 31
0.0
  0
LINE
  5
229
330
1F
100
AcDbEntity
  8
0
100
AcDbLine
 10
0.1684280462722176
 20
0.0208605839563791
 30
0.0
 11
0.1684012511904233
 21
0.020887267944971
 31
0.0
  0
LINE
  5
22A
330
1F
100
AcDbEntity
  8
0
100
AcDbLine
 10
0.1684280462722176
 20
0.0183174033349228
 30
0.0
 11
0.1684012511904233
 21
0.0183110135733061
 31
0.0
  0
LINE
  5
22B
330
1F
100
AcDbEntity
  8
0
100
AcDbLine
 10
0.1684280462722176
 20
0.0147543825954087
 30
0.0
 11
0.1684020347424087
 21
0.014755620955468
 31
0.0
  0
LINE
  5
22C
330
1F
100
AcDbEntity
  8
0
100
AcDbLine
 10
0.1684295698105887
 20
0.0133316988808665
 30
0.0
 11
0.1684012511904233
 21
0.0133308242662243
 31
0.0
  0
LINE
  5
22D
330
1F
100
AcDbEntity
  8
0
100
AcDbLine
 10
0.1688012514422529
 20
-0.0071515144610243
 30
0.0
 11
0.1686012517819994
 21
-0.007154922929604
 31
0.0
  0
LINE
  5
22E
330
1F
100
AcDbEntity
  8
0
100
AcDbLine
 10
0.1688012514422529
 20
-0.0071515144610243
 30
0.0
 11
0.1688012514422529
 21
-0.0070782414709589
 31
0.0
  0
LINE
  5
22F
330
1F
100
AcDbEntity
  8
0
100
AcDbLine
 10
0.1688012514422529
 20
-0.0066327173202945
 30
0.0
 11
0.1688012514422529
 21
-0.0062653076206105
 31
0.0
  0
LINE
  5
230
330
1F
100
AcDbEntity
  8
0
100
AcDbLine
 10
0.1688012514422529
 20
-0.005253727655701
 30
0.0
 11
0.1688012514422529
 21
-0.00464005673254
 31
0.0
  0
LINE
  5
231
330
1F
100
AcDbEntity
  8
0
100
AcDbLine
 10
0.1688012514422529
 20
-0.00464005673254
 30
0.0
 11
0.1686012517819994
 21
-0.00464156000001
 31
0.0
  0
LINE
  5
232
330
1F
100
AcDbEntity
  8
0
100
AcDbLine
 10
0.1688012514422529
 20
-0.00464005673254
 30
0.0
 11
0.1688012514422529
 21
-0.0038971647660654
 31
0.0
  0
LINE
  5
233
330
1F
100
AcDbEntity
  8
0
100
AcDbLine
 10
0.1688012514422529
 20
-0.0022326243360865
 30
0.0
 11
0.1688012514422529
 21
-0.0012987557333546
 31
0.0
  0
LINE
  5
234
330
1F
100
AcDbEntity
  8
0
100
AcDbLine
 10
0.1688012514422529
 20
-0.0012987557333546
 30
0.0
 11
0.1703514821055227
 21
-0.0011966570136777
 31
0.0
  0
LINE
  5
235
330
1F
100
AcDbEntity
  8
0
100
AcDbLine
 10
0.1688012514422529
 20
-0.0038971647660654
 30
0.0
 11
0.1703514821055227
 21
-0.0037645454149819
 31
0.0
  0
LINE
  5
236
330
1F
100
AcDbEntity
  8
0
100
AcDbLine
 10
0.1703514821055227
 20
-0.0037645454149819
 30
0.0
 11
0.1688012514422529
 21
-0.0036022195230809
 31
0.0
  0
LINE
  5
237
330
1F
100
AcDbEntity
  8
0
100
AcDbLine
 10
0.1688012514422529
 20
-0.005253727655701
 30
0.0
 11
0.1703514821055227
 21
-0.0051051734824581
 31
0.0
  0
LINE
  5
238
330
1F
100
AcDbEntity
  8
0
100
AcDbLine
 10
0.1688012514422529
 20
-0.0062653076206105
 30
0.0
 11
0.1703514821055227
 21
-0.0061048724593905
 31
0.0
  0
LINE
  5
239
330
1F
100
AcDbEntity
  8
0
100
AcDbLine
 10
0.1703514821055227
 20
-0.0061048724593905
 30
0.0
 11
0.1688012514422529
 21
-0.0061970773558916
 31
0.0
  0
LINE
  5
23A
330
1F
100
AcDbEntity
  8
0
100
AcDbLine
 10
0.1688012514422529
 20
-0.0070782414709589
 30
0.0
 11
0.1703514821055227
 21
-0.0069082569181097
 31
0.0
  0
LINE
  5
23B
330
1F
100
AcDbEntity
  8
0
100
AcDbLine
 10
0.1703514821055227
 20
-0.0069082569181097
 30
0.0
 11
0.1688012514422529
 21
-0.0070202724217563
 31
0.0
  0
LINE
  5
23C
330
1F
100
AcDbEntity
  8
0
100
AcDbLine
 10
0.170401251905679
 20
-0.0069743254296302
 30
0.0
 11
0.1703514821055227
 21
-0.0069824470939593
 31
0.0
  0
LINE
  5
23D
330
1F
100
AcDbEntity
  8
0
100
AcDbLine
 10
0.1688012514422529
 20
-0.0067031162609114
 30
0.0
 11
0.1703514821055227
 21
-0.0064679657820549
 31
0.0
  0
LINE
  5
23E
330
1F
100
AcDbEntity
  8
0
100
AcDbLine
 10
0.1703514821055227
 20
-0.0064679657820549
 30
0.0
 11
0.1688012514422529
 21
-0.0066327173202945
 31
0.0
  0
LINE
  5
23F
330
1F
100
AcDbEntity
  8
0
100
AcDbLine
 10
0.1688012514422529
 20
-0.0054985491555811
 30
0.0
 11
0.1703514821055227
 21
-0.0051051734824581
 31
0.0
  0
LINE
  5
240
330
1F
100
AcDbEntity
  8
0
100
AcDbLine
 10
0.1688012514422529
 20
-0.00464005673254
 30
0.0
 11
0.1703514821055227
 21
-0.0044753974318605
 31
0.0
  0
LINE
  5
241
330
1F
100
AcDbEntity
  8
0
100
AcDbLine
 10
0.1688012514422529
 20
-0.0024254910795748
 30
0.0
 11
0.1703514821055227
 21
-0.0021195567978174
 31
0.0
  0
LINE
  5
242
330
1F
100
AcDbEntity
  8
0
100
AcDbLine
 10
0.1703514821055227
 20
-0.0021195567978174
 30
0.0
 11
0.1688012514422529
 21
-0.0022326243360865
 31
0.0
  0
LINE
  5
243
330
1F
100
AcDbEntity
  8
0
100
AcDbLine
 10
0.1764012515704029
 20
0.0202604794134606
 30
0.0
 11
0.1764012515704029
 21
0.0202905583763096
 31
0.0
  0
LINE
  5
244
330
1F
100
AcDbEntity
  8
0
100
AcDbLine
 10
0.1688012514422529
 20
0.0219158927770163
 30
0.0
 11
0.1703514821055227
 21
0.0217453122305344
 31
0.0
  0
LINE
  5
245
330
1F
100
AcDbEntity
  8
0
100
AcDbLine
 10
0.1688012514422529
 20
0.0217923932304929
 30
0.0
 11
0.1703514821055227
 21
0.0216232629015659
 31
0.0
  0
LINE
  5
246
330
1F
100
AcDbEntity
  8
0
100
AcDbLine
 10
0.1703514821055227
 20
0.0216232629015659
 30
0.0
 11
0.1688012514422529
 21
0.0218564309956199
 31
0.0
  0
LINE
  5
247
330
1F
100
AcDbEntity
  8
0
100
AcDbLine
 10
0.1688012514422529
 20
0.0215705332451296
 30
0.0
 11
0.1703514821055227
 21
0.0214040093549431
 31
0.0
  0
LINE
  5
248
330
1F
100
AcDbEntity
  8
0
100
AcDbLine
 10
0.1688012514422529
 20
0.0203332452941169
 30
0.0
 11
0.1703514821055227
 21
0.020181254592407
 31
0.0
  0
LINE
  5
249
330
1F
100
AcDbEntity
  8
0
100
AcDbLine
 10
0.1703514821055227
 20
0.020181254592407
 30
0.0
 11
0.1688012514422529
 21
0.0204829138841127
 31
0.0
  0
LINE
  5
24A
330
1F
100
AcDbEntity
  8
0
100
AcDbLine
 10
0.1688012514422529
 20
0.0196643425112574
 30
0.0
 11
0.1688012514422529
 21
0.019061697569023
 31
0.0
  0
LINE
  5
24B
330
1F
100
AcDbEntity
  8
0
100
AcDbLine
 10
0.1688012514422529
 20
0.019061697569023
 30
0.0
 11
0.1703514821055227
 21
0.0189246421126077
 31
0.0
  0
LINE
  5
24C
330
1F
100
AcDbEntity
  8
0
100
AcDbLine
 10
0.1688012514422529
 20
0.0183040482451394
 30
0.0
 11
0.1703514821055227
 21
0.0181758923130435
 31
0.0
  0
LINE
  5
24D
330
1F
100
AcDbEntity
  8
0
100
AcDbLine
 10
0.1703514821055227
 20
0.0181758923130435
 30
0.0
 11
0.1688012514422529
 21
0.0186688386596672
 31
0.0
  0
LINE
  5
24E
330
1F
100
AcDbEntity
  8
0
100
AcDbLine
 10
0.1688012514422529
 20
0.0174718693281639
 30
0.0
 11
0.1703514821055227
 21
0.0173534880094394
 31
0.0
  0
LINE
  5
24F
330
1F
100
AcDbEntity
  8
0
100
AcDbLine
 10
0.1703514821055227
 20
0.0173534880094394
 30
0.0
 11
0.1688012514422529
 21
0.0175334846925316
 31
0.0
  0
LINE
  5
250
330
1F
100
AcDbEntity
  8
0
100
AcDbLine
 10
0.1688012514422529
 20
0.014587304262341
 30
0.0
 11
0.1703514821055227
 21
0.014502805232074
 31
0.0
  0
LINE
  5
251
330
1F
100
AcDbEntity
  8
0
100
AcDbLine
 10
0.1703514821055227
 20
0.014502805232074
 30
0.0
 11
0.1688012514422529
 21
0.0148516490779161
 31
0.0
  0
LINE
  5
252
330
1F
100
AcDbEntity
  8
0
100
AcDbLine
 10
0.1688012514422529
 20
0.0112624783964621
 30
0.0
 11
0.1703514821055227
 21
0.0112170321738284
 31
0.0
  0
LINE
  5
253
330
1F
100
AcDbEntity
  8
0
100
AcDbLine
 10
0.1703514821055227
 20
0.0112170321738284
 30
0.0
 11
0.1688012514422529
 21
0.0117713742437945
 31
0.0
  0
LINE
  5
254
330
1F
100
AcDbEntity
  8
0
100
AcDbLine
 10
0.1688012514422529
 20
0.0101343592278423
 30
0.0
 11
0.1688012514422529
 21
0.0100909923721587
 31
0.0
  0
LINE
  5
255
330
1F
100
AcDbEntity
  8
0
100
AcDbLine
 10
0.1688012514422529
 20
0.0100909923721587
 30
0.0
 11
0.1703514821055227
 21
0.0100593067904425
 31
0.0
  0
LINE
  5
256
330
1F
100
AcDbEntity
  8
0
100
AcDbLine
 10
0.1703514821055227
 20
0.0100593067904425
 30
0.0
 11
0.1688012514422529
 21
0.0101343592278423
 31
0.0
  0
LINE
  5
257
330
1F
100
AcDbEntity
  8
0
100
AcDbLine
 10
0.1688012514422529
 20
0.0064985578628417
 30
0.0
 11
0.1703514821055227
 21
0.0065090692045043
 31
0.0
  0
LINE
  5
258
330
1F
100
AcDbEntity
  8
0
100
AcDbLine
 10
0.1703514821055227
 20
0.0065090692045043
 30
0.0
 11
0.1688012514422529
 21
0.0067656720425518
 31
0.0
  0
LINE
  5
259
330
1F
100
AcDbEntity
  8
0
100
AcDbLine
 10
0.1703514821055227
 20
0.0053269210601455
 30
0.0
 11
0.1688012514422529
 21
0.0053023593311764
 31
0.0
  0
LINE
  5
25A
330
1F
100
AcDbEntity
  8
0
100
AcDbLine
 10
0.1688012514422529
 20
0.0064985578628417
 30
0.0
 11
0.1688012514422529
 21
0.0053023593311764
 31
0.0
  0
LINE
  5
25B
330
1F
100
AcDbEntity
  8
0
100
AcDbLine
 10
0.1688012514422529
 20
0.0084565988168636
 30
0.0
 11
0.1703514821055227
 21
0.0088833714361702
 31
0.0
  0
LINE
  5
25C
330
1F
100
AcDbEntity
  8
0
100
AcDbLine
 10
0.1703514821055227
 20
0.0088833714361702
 30
0.0
 11
0.1688012514422529
 21
0.0089010798873426
 31
0.0
  0
LINE
  5
25D
330
1F
100
AcDbEntity
  8
0
100
AcDbLine
 10
0.1688012514422529
 20
0.0100909923721587
 30
0.0
 11
0.1688012514422529
 21
0.0089010798873426
 31
0.0
  0
LINE
  5
25E
330
1F
100
AcDbEntity
  8
0
100
AcDbLine
 10
0.1688012514422529
 20
0.0112624783964621
 30
0.0
 11
0.1688012514422529
 21
0.0101343592278423
 31
0.0
  0
LINE
  5
25F
330
1F
100
AcDbEntity
  8
0
100
AcDbLine
 10
0.1688012514422529
 20
0.0133538313480253
 30
0.0
 11
0.1703514821055227
 21
0.0134463959730648
 31
0.0
  0
LINE
  5
260
330
1F
100
AcDbEntity
  8
0
100
AcDbLine
 10
0.1703514821055227
 20
0.0134463959730648
 30
0.0
 11
0.1688012514422529
 21
0.0135183385628346
 31
0.0
  0
LINE
  5
261
330
1F
100
AcDbEntity
  8
0
100
AcDbLine
 10
0.1688012514422529
 20
0.014587304262341
 30
0.0
 11
0.1688012514422529
 21
0.0135183385628346
 31
0.0
  0
LINE
  5
262
330
1F
100
AcDbEntity
  8
0
100
AcDbLine
 10
0.1688012514422529
 20
0.0162496458851255
 30
0.0
 11
0.1703514821055227
 21
0.0164630463161427
 31
0.0
  0
LINE
  5
263
330
1F
100
AcDbEntity
  8
0
100
AcDbLine
 10
0.1703514821055227
 20
0.0164630463161427
 30
0.0
 11
0.1688012514422529
 21
0.0165708444848121
 31
0.0
  0
LINE
  5
264
330
1F
100
AcDbEntity
  8
0
100
AcDbLine
 10
0.1688012514422529
 20
0.0174718693281639
 30
0.0
 11
0.1688012514422529
 21
0.0165708444848121
 31
0.0
  0
LINE
  5
265
330
1F
100
AcDbEntity
  8
0
100
AcDbLine
 10
0.1688012514422529
 20
0.0183040482451394
 30
0.0
 11
0.1688012514422529
 21
0.0175334846925316
 31
0.0
  0
LINE
  5
266
330
1F
100
AcDbEntity
  8
0
100
AcDbLine
 10
0.1688012514422529
 20
0.0186688386596672
 30
0.0
 11
0.1703514821055227
 21
0.0189246421126077
 31
0.0
  0
LINE
  5
267
330
1F
100
AcDbEntity
  8
0
100
AcDbLine
 10
0.1688012514422529
 20
0.0196643425112574
 30
0.0
 11
0.1703514821055227
 21
0.019594621748216
 31
0.0
  0
LINE
  5
268
330
1F
100
AcDbEntity
  8
0
100
AcDbLine
 10
0.1703514821055227
 20
0.019594621748216
 30
0.0
 11
0.1688012514422529
 21
0.0197396399840953
 31
0.0
  0
LINE
  5
269
330
1F
100
AcDbEntity
  8
0
100
AcDbLine
 10
0.1688012514422529
 20
0.0203332452941169
 30
0.0
 11
0.1688012514422529
 21
0.0197396399840953
 31
0.0
  0
LINE
  5
26A
330
1F
100
AcDbEntity
  8
0
100
AcDbLine
 10
0.1688012514422529
 20
0.0211293693544798
 30
0.0
 11
0.1703514821055227
 21
0.0210890490106871
 31
0.0
  0
LINE
  5
26B
330
1F
100
AcDbEntity
  8
0
100
AcDbLine
 10
0.1703514821055227
 20
0.0210890490106871
 30
0.0
 11
0.1688012514422529
 21
0.0212518293859418
 31
0.0
  0
LINE
  5
26C
330
1F
100
AcDbEntity
  8
0
100
AcDbLine
 10
0.1688012514422529
 20
0.0215705332451296
 30
0.0
 11
0.1688012514422529
 21
0.0212518293859418
 31
0.0
  0
LINE
  5
26D
330
1F
100
AcDbEntity
  8
0
100
AcDbLine
 10
0.1688012514422529
 20
0.0217923932304929
 30
0.0
 11
0.1688012514422529
 21
0.0215705332451296
 31
0.0
  0
LINE
  5
26E
330
1F
100
AcDbEntity
  8
0
100
AcDbLine
 10
0.1688012514422529
 20
0.0218564309956199
 30
0.0
 11
0.1703514821055227
 21
0.0217453122305344
 31
0.0
  0
LINE
  5
26F
330
1F
100
AcDbEntity
  8
0
100
AcDbLine
 10
0.171890736200928
 20
0.0215181414553539
 30
0.0
 11
0.1703514821055227
 21
0.0217453122305344
 31
0.0
  0
LINE
  5
270
330
1F
100
AcDbEntity
  8
0
100
AcDbLine
 10
0.1734148530448669
 20
0.0211873217950493
 30
0.0
 11
0.171890736200928
 21
0.0215181414553539
 31
0.0
  0
LINE
  5
271
330
1F
100
AcDbEntity
  8
0
100
AcDbLine
 10
0.1749197139796683
 20
0.020777758543794
 30
0.0
 11
0.1734148530448669
 21
0.0211873217950493
 31
0.0
  0
LINE
  5
272
330
1F
100
AcDbEntity
  8
0
100
AcDbLine
 10
0.1764012515704029
 20
0.0202905583763096
 30
0.0
 11
0.1749197139796683
 21
0.020777758543794
 31
0.0
  0
LINE
  5
273
330
1F
100
AcDbEntity
  8
0
100
AcDbLine
 10
0.1688012514422529
 20
0.0100909923721587
 30
0.0
 11
0.1686012517819994
 21
0.0101347595956037
 31
0.0
  0
LINE
  5
274
330
1F
100
AcDbEntity
  8
0
100
AcDbLine
 10
0.1688012514422529
 20
0.0101343592278423
 30
0.0
 11
0.1686012517819994
 21
0.0101347595956037
 31
0.0
  0
LINE
  5
275
330
1F
100
AcDbEntity
  8
0
100
AcDbLine
 10
0.1688012514422529
 20
0.0219158927770163
 30
0.0
 11
0.1686012517819994
 21
0.0219417998362535
 31
0.0
  0
LINE
  5
276
330
1F
100
AcDbEntity
  8
0
100
AcDbLine
 10
0.1684012511904233
 20
0.0140254163616913
 30
0.0
 11
0.1684020347424087
 21
0.014755620955468
 31
0.0
  0
LINE
  5
277
330
1F
100
AcDbEntity
  8
0
100
AcDbLine
 10
0.1686099836120711
 20
-0.005892524027473
 30
0.0
 11
0.168589931145479
 21
-0.0059124933559449
 31
0.0
  0
LINE
  5
278
330
1F
100
AcDbEntity
  8
0
100
AcDbLine
 10
0.1686266218700682
 20
-0.001141892826823
 30
0.0
 11
0.1685946430369477
 21
-0.001162377436396
 31
0.0
  0
LINE
  5
279
330
1F
100
AcDbEntity
  8
0
100
AcDbLine
 10
0.1686012517819994
 20
0.0219417998362535
 30
0.0
 11
0.1685012519518727
 21
0.0219150086679212
 31
0.0
  0
LINE
  5
27A
330
1F
100
AcDbEntity
  8
0
100
AcDbLine
 10
0.1685012519518727
 20
0.0219150086679212
 30
0.0
 11
0.1684280462722176
 21
0.0218418116097764
 31
0.0
  0
LINE
  5
27B
330
1F
100
AcDbEntity
  8
0
100
AcDbLine
 10
0.1684280462722176
 20
0.0218418116097764
 30
0.0
 11
0.1684012511904233
 21
0.0217418227007065
 31
0.0
  0
LINE
  5
27C
330
1F
100
AcDbEntity
  8
0
100
AcDbLine
 10
0.1684280462722176
 20
0.0192419669309918
 30
0.0
 11
0.1683692375008366
 21
0.0192419669309918
 31
0.0
  0
LINE
  5
27D
330
1F
100
AcDbEntity
  8
0
100
AcDbLine
 10
0.1684280462722176
 20
0.015405637922774
 30
0.0
 11
0.1683884518220217
 21
0.015405637922774
 31
0.0
  0
LINE
  5
27E
330
1F
100
AcDbEntity
  8
0
100
AcDbLine
 10
0.1684280462722176
 20
0.0152937260485102
 30
0.0
 11
0.1683867234547647
 21
0.0152937260485102
 31
0.0
  0
LINE
  5
27F
330
1F
100
AcDbEntity
  8
0
100
AcDbLine
 10
0.1684280462722176
 20
0.0140199483619239
 30
0.0
 11
0.1684012511904233
 21
0.0140254163616913
 31
0.0
  0
LINE
  5
280
330
1F
100
AcDbEntity
  8
0
100
AcDbLine
 10
0.1684280462722176
 20
0.0139563574914963
 30
0.0
 11
0.1683846605713497
 21
0.0139563574914963
 31
0.0
  0
LINE
  5
281
330
1F
100
AcDbEntity
  8
0
100
AcDbLine
 10
0.1684280462722176
 20
0.0091043175841565
 30
0.0
 11
0.1684012513804131
 21
0.0091025696139144
 31
0.0
  0
LINE
  5
282
330
1F
100
AcDbEntity
  8
0
100
AcDbLine
 10
0.1954012513468855
 20
-0.0751065630367913
 30
0.0
 11
0.2004012512351268
 21
-0.0751065630367913
 31
0.0
  0
LINE
  5
283
330
1F
100
AcDbEntity
  8
0
100
AcDbLine
 10
0.1954012513468855
 20
-0.0751065630367913
 30
0.0
 11
0.1954012513468855
 21
-0.0101065616956868
 31
0.0
  0
LINE
  5
284
330
1F
100
AcDbEntity
  8
0
100
AcDbLine
 10
0.2004012512351268
 20
0.0248934384533248
 30
0.0
 11
0.2004012512351268
 21
-0.0751065630367913
 31
0.0
  0
LINE
  5
285
330
1F
100
AcDbEntity
  8
0
100
AcDbLine
 10
0.1954012513468855
 20
-0.0101065616956868
 30
0.0
 11
0.170401251905679
 21
-0.0101065616956868
 31
0.0
  0
LINE
  5
286
330
1F
100
AcDbEntity
  8
0
100
AcDbLine
 10
0.1785616358118945
 20
0.0248934384533248
 30
0.0
 11
0.1776290200958841
 21
0.0228934383583299
 31
0.0
  0
LINE
  5
287
330
1F
100
AcDbEntity
  8
0
100
AcDbLine
 10
0.1819043537380748
 20
0.0249934384390755
 30
0.0
 11
0.1819018694935206
 21
0.0248934384634296
 31
0.0
  0
LINE
  5
288
330
1F
100
AcDbEntity
  8
0
100
AcDbLine
 10
0.1819360253629744
 20
0.0249934384390755
 30
0.0
 11
0.1819018694935206
 21
0.0248934384634296
 31
0.0
  0
LINE
  5
289
330
1F
100
AcDbEntity
  8
0
100
AcDbLine
 10
0.1836975576075748
 20
0.0252110113195769
 30
0.0
 11
0.1827982239198788
 21
0.0251184206189166
 31
0.0
  0
LINE
  5
28A
330
1F
100
AcDbEntity
  8
0
100
AcDbLine
 10
0.1845976010999997
 20
0.0252710897074095
 30
0.0
 11
0.1836975576075748
 21
0.0252110113195769
 31
0.0
  0
LINE
  5
28B
330
1F
100
AcDbEntity
  8
0
100
AcDbLine
 10
0.1855186732449454
 20
0.0252985080402981
 30
0.0
 11
0.1845976010999997
 21
0.0252710897074095
 31
0.0
  0
LINE
  5
28C
330
1F
100
AcDbEntity
  8
0
100
AcDbLine
 10
0.1855186732449454
 20
0.0252985080402981
 30
0.0
 11
0.1855646097851842
 21
0.0252985773789689
 31
0.0
  0
LINE
  5
28D
330
1F
100
AcDbEntity
  8
0
100
AcDbLine
 10
0.1855646097851842
 20
0.0252985773789689
 30
0.0
 11
0.1855974432338819
 21
0.0252985773789689
 31
0.0
  0
LINE
  5
28E
330
1F
100
AcDbEntity
  8
0
100
AcDbLine
 10
0.1855974432338819
 20
0.0252985773789689
 30
0.0
 11
0.1856260538944882
 21
0.0252978912389034
 31
0.0
  0
LINE
  5
28F
330
1F
100
AcDbEntity
  8
0
100
AcDbLine
 10
0.1856260538944882
 20
0.0252978912389034
 30
0.0
 11
0.1856647622604353
 21
0.0252976688955463
 31
0.0
  0
LINE
  5
290
330
1F
100
AcDbEntity
  8
0
100
AcDbLine
 10
0.1856647622604353
 20
0.0252976688955463
 30
0.0
 11
0.1857314183991499
 21
0.0252985773789689
 31
0.0
  0
LINE
  5
291
330
1F
100
AcDbEntity
  8
0
100
AcDbLine
 10
0.1857314183991499
 20
0.0252985773789689
 30
0.0
 11
0.1857867684634351
 21
0.0252985773789689
 31
0.0
  0
LINE
  5
292
330
1F
100
AcDbEntity
  8
0
100
AcDbLine
 10
0.1858203822491195
 20
0.0252967750042681
 30
0.0
 11
0.18584679512951
 21
0.0252985773789689
 31
0.0
  0
LINE
  5
293
330
1F
100
AcDbEntity
  8
0
100
AcDbLine
 10
0.1859209453301892
 20
0.0252985773789689
 30
0.0
 11
0.185979018761159
 21
0.0252985773789689
 31
0.0
  0
LINE
  5
294
330
1F
100
AcDbEntity
  8
0
100
AcDbLine
 10
0.185979018761159
 20
0.0252985773789689
 30
0.0
 11
0.1860397081388807
 21
0.0252955151821746
 31
0.0
  0
LINE
  5
295
330
1F
100
AcDbEntity
  8
0
100
AcDbLine
 10
0.1861352710099302
 20
0.0252985773789689
 30
0.0
 11
0.1862000435281649
 21
0.0252985773789689
 31
0.0
  0
LINE
  5
296
330
1F
100
AcDbEntity
  8
0
100
AcDbLine
 10
0.1862000435281649
 20
0.0252985773789689
 30
0.0
 11
0.1862966213142957
 21
0.0252940394562818
 31
0.0
  0
LINE
  5
297
330
1F
100
AcDbEntity
  8
0
100
AcDbLine
 10
0.1863677228415492
 20
0.0252985773789689
 30
0.0
 11
0.1864347802992567
 21
0.0252985773789689
 31
0.0
  0
LINE
  5
298
330
1F
100
AcDbEntity
  8
0
100
AcDbLine
 10
0.1864012515704029
 20
0.0252934384533248
 30
0.0
 11
0.1864347802992567
 21
0.0252985773789689
 31
0.0
  0
LINE
  5
299
330
1F
100
AcDbEntity
  8
0
100
AcDbLine
 10
0.1853974378303358
 20
0.0249934384390755
 30
0.0
 11
0.1854558545968658
 21
0.0249934384390755
 31
0.0
  0
LINE
  5
29A
330
1F
100
AcDbEntity
  8
0
100
AcDbLine
 10
0.1858429000470465
 20
0.0249934384390755
 30
0.0
 11
0.1859331750540767
 21
0.0249934384390755
 31
0.0
  0
LINE
  5
29B
330
1F
100
AcDbEntity
  8
0
100
AcDbLine
 10
0.1880945304985968
 20
0.0249934384390755
 30
0.0
 11
0.1881482118000578
 21
0.0249934384390755
 31
0.0
  0
LINE
  5
29C
330
1F
100
AcDbEntity
  8
0
100
AcDbLine
 10
0.1880654129601161
 20
0.0249934384390755
 30
0.0
 11
0.1880945304985968
 21
0.0249934384390755
 31
0.0
  0
LINE
  5
29D
330
1F
100
AcDbEntity
  8
0
100
AcDbLine
 10
0.1822235470123474
 20
0.0249934384390755
 30
0.0
 11
0.1822550764437538
 21
0.0249934384390755
 31
0.0
  0
LINE
  5
29E
330
1F
100
AcDbEntity
  8
0
100
AcDbLine
 10
0.1839087483751026
 20
0.0249934384390755
 30
0.0
 11
0.1840081271249248
 21
0.0249934384390755
 31
0.0
  0
LINE
  5
29F
330
1F
100
AcDbEntity
  8
0
100
AcDbLine
 10
0.1901435238411019
 20
0.0249934384390755
 30
0.0
 11
0.190212151084185
 21
0.0249934384390755
 31
0.0
  0
LINE
  5
2A0
330
1F
100
AcDbEntity
  8
0
100
AcDbLine
 10
0.1891049455332311
 20
0.0252110113195769
 30
0.0
 11
0.1900042792209271
 21
0.0251184206189166
 31
0.0
  0
LINE
  5
2A1
330
1F
100
AcDbEntity
  8
0
100
AcDbLine
 10
0.1882049020408061
 20
0.0252710897074095
 30
0.0
 11
0.1891049455332311
 21
0.0252110113195769
 31
0.0
  0
LINE
  5
2A2
330
1F
100
AcDbEntity
  8
0
100
AcDbLine
 10
0.1872959012555755
 20
0.0252985773789689
 30
0.0
 11
0.1882049020408061
 21
0.0252710897074095
 31
0.0
  0
LINE
  5
2A3
330
1F
100
AcDbEntity
  8
0
100
AcDbLine
 10
0.1897386933233746
 20
0.0249934384390755
 30
0.0
 11
0.1898157208997148
 21
0.0249934384390755
 31
0.0
  0
LINE
  5
2A4
330
1F
100
AcDbEntity
  8
0
100
AcDbLine
 10
0.1870157346773708
 20
0.0252985773789689
 30
0.0
 11
0.1869377484645731
 21
0.0252965201261774
 31
0.0
  0
LINE
  5
2A5
330
1F
100
AcDbEntity
  8
0
100
AcDbLine
 10
0.1869377484645731
 20
0.0252965201261774
 30
0.0
 11
0.1868815578106167
 21
0.0252985773789689
 31
0.0
  0
LINE
  5
2A6
330
1F
100
AcDbEntity
  8
0
100
AcDbLine
 10
0.188505025171944
 20
0.0249934384390755
 30
0.0
 11
0.1885571129456062
 21
0.0249934384390755
 31
0.0
  0
LINE
  5
2A7
330
1F
100
AcDbEntity
  8
0
100
AcDbLine
 10
0.1863677228415492
 20
0.0252985773789689
 30
0.0
 11
0.1862966213142957
 21
0.0252940394562818
 31
0.0
  0
LINE
  5
2A8
330
1F
100
AcDbEntity
  8
0
100
AcDbLine
 10
0.1843493755426861
 20
0.0249934384390755
 30
0.0
 11
0.1843768129718513
 21
0.0249934384390755
 31
0.0
  0
LINE
  5
2A9
330
1F
100
AcDbEntity
  8
0
100
AcDbLine
 10
0.1859209453301892
 20
0.0252985773789689
 30
0.0
 11
0.18584679512951
 21
0.0252985773789689
 31
0.0
  0
LINE
  5
2AA
330
1F
100
AcDbEntity
  8
0
100
AcDbLine
 10
0.1833827283783088
 20
0.0249934384390755
 30
0.0
 11
0.1834757476606785
 21
0.0249934384390755
 31
0.0
  0
LINE
  5
2AB
330
1F
100
AcDbEntity
  8
0
100
AcDbLine
 10
0.1824232954371094
 20
0.0249934384390755
 30
0.0
 11
0.1824538213140461
 21
0.0249934384390755
 31
0.0
  0
LINE
  5
2AC
330
1F
100
AcDbEntity
  8
0
100
AcDbLine
 10
0.1856260538944882
 20
0.0252978912389034
 30
0.0
 11
0.1855646097851842
 21
0.0252985773789689
 31
0.0
  0
LINE
  5
2AD
330
1F
100
AcDbEntity
  8
0
100
AcDbLine
 10
0.190898149402731
 20
0.0249934384390755
 30
0.0
 11
0.1909006336472853
 21
0.0248934384634296
 31
0.0
  0
LINE
  5
2AE
330
1F
100
AcDbEntity
  8
0
100
AcDbLine
 10
0.1908664777778315
 20
0.0249934384390755
 30
0.0
 11
0.1909006336472853
 21
0.0248934384634296
 31
0.0
  0
LINE
  5
2AF
330
1F
100
AcDbEntity
  8
0
100
AcDbLine
 10
0.1908008223366681
 20
0.0249934384390755
 30
0.0
 11
0.190787733698033
 21
0.0248934384634296
 31
0.0
  0
LINE
  5
2B0
330
1F
100
AcDbEntity
  8
0
100
AcDbLine
 10
0.1904188019645555
 20
0.0249934384390755
 30
0.0
 11
0.1904199076647905
 21
0.0248934384634296
 31
0.0
  0
LINE
  5
2B1
330
1F
100
AcDbEntity
  8
0
100
AcDbLine
 10
0.190212151084185
 20
0.0249934384390755
 30
0.0
 11
0.1901465267629251
 21
0.0248934384634296
 31
0.0
  0
LINE
  5
2B2
330
1F
100
AcDbEntity
  8
0
100
AcDbLine
 10
0.1901435238411019
 20
0.0249934384390755
 30
0.0
 11
0.1901465267629251
 21
0.0248934384634296
 31
0.0
  0
LINE
  5
2B3
330
1F
100
AcDbEntity
  8
0
100
AcDbLine
 10
0.1898157208997148
 20
0.0249934384390755
 30
0.0
 11
0.1898185316343693
 21
0.0248934384634296
 31
0.0
  0
LINE
  5
2B4
330
1F
100
AcDbEntity
  8
0
100
AcDbLine
 10
0.1897386933233746
 20
0.0249934384390755
 30
0.0
 11
0.1898185316343693
 21
0.0248934384634296
 31
0.0
  0
LINE
  5
2B5
330
1F
100
AcDbEntity
  8
0
100
AcDbLine
 10
0.1894629116812791
 20
0.0249934384390755
 30
0.0
 11
0.1894407046988151
 21
0.0248934384634296
 31
0.0
  0
LINE
  5
2B6
330
1F
100
AcDbEntity
  8
0
100
AcDbLine
 10
0.1885571129456062
 20
0.0249934384390755
 30
0.0
 11
0.1885582405103
 21
0.0248934384634296
 31
0.0
  0
LINE
  5
2B7
330
1F
100
AcDbEntity
  8
0
100
AcDbLine
 10
0.188505025171944
 20
0.0249934384390755
 30
0.0
 11
0.1885582405103
 21
0.0248934384634296
 31
0.0
  0
LINE
  5
2B8
330
1F
100
AcDbEntity
  8
0
100
AcDbLine
 10
0.1880654129601161
 20
0.0249934384390755
 30
0.0
 11
0.1880664716368669
 21
0.0248934384634296
 31
0.0
  0
LINE
  5
2B9
330
1F
100
AcDbEntity
  8
0
100
AcDbLine
 10
0.1859331750540767
 20
0.0249934384390755
 30
0.0
 11
0.1859329297131825
 21
0.0248934384634296
 31
0.0
  0
LINE
  5
2BA
330
1F
100
AcDbEntity
  8
0
100
AcDbLine
 10
0.1858429000470465
 20
0.0249934384390755
 30
0.0
 11
0.1859329297131825
 21
0.0248934384634296
 31
0.0
  0
LINE
  5
2BB
330
1F
100
AcDbEntity
  8
0
100
AcDbLine
 10
0.1854558545968658
 20
0.0249934384390755
 30
0.0
 11
0.1853968746003079
 21
0.0248934384634296
 31
0.0
  0
LINE
  5
2BC
330
1F
100
AcDbEntity
  8
0
100
AcDbLine
 10
0.1853974378303358
 20
0.0249934384390755
 30
0.0
 11
0.1853968746003079
 21
0.0248934384634296
 31
0.0
  0
LINE
  5
2BD
330
1F
100
AcDbEntity
  8
0
100
AcDbLine
 10
0.1843768129718513
 20
0.0249934384390755
 30
0.0
 11
0.1843763060853919
 21
0.0248934384634296
 31
0.0
  0
LINE
  5
2BE
330
1F
100
AcDbEntity
  8
0
100
AcDbLine
 10
0.1843493755426861
 20
0.0249934384390755
 30
0.0
 11
0.1843763060853919
 21
0.0248934384634296
 31
0.0
  0
LINE
  5
2BF
330
1F
100
AcDbEntity
  8
0
100
AcDbLine
 10
0.1840081271249248
 20
0.0249934384390755
 30
0.0
 11
0.1839066746941776
 21
0.0248934384634296
 31
0.0
  0
LINE
  5
2C0
330
1F
100
AcDbEntity
  8
0
100
AcDbLine
 10
0.1839087483751026
 20
0.0249934384390755
 30
0.0
 11
0.1839066746941776
 21
0.0248934384634296
 31
0.0
  0
LINE
  5
2C1
330
1F
100
AcDbEntity
  8
0
100
AcDbLine
 10
0.1834757476606785
 20
0.0249934384390755
 30
0.0
 11
0.1834734201163164
 21
0.0248934384634296
 31
0.0
  0
LINE
  5
2C2
330
1F
100
AcDbEntity
  8
0
100
AcDbLine
 10
0.1833827283783088
 20
0.0249934384390755
 30
0.0
 11
0.1834734201163164
 21
0.0248934384634296
 31
0.0
  0
LINE
  5
2C3
330
1F
100
AcDbEntity
  8
0
100
AcDbLine
 10
0.1831033373982138
 20
0.0249934384390755
 30
0.0
 11
0.1830828595347311
 21
0.0248934384634296
 31
0.0
  0
LINE
  5
2C4
330
1F
100
AcDbEntity
  8
0
100
AcDbLine
 10
0.1824538213140461
 20
0.0249934384390755
 30
0.0
 11
0.1824518975387621
 21
0.0248934384634296
 31
0.0
  0
LINE
  5
2C5
330
1F
100
AcDbEntity
  8
0
100
AcDbLine
 10
0.1824232954371094
 20
0.0249934384390755
 30
0.0
 11
0.1824518975387621
 21
0.0248934384634296
 31
0.0
  0
LINE
  5
2C6
330
1F
100
AcDbEntity
  8
0
100
AcDbLine
 10
0.1822550764437538
 20
0.0249934384390755
 30
0.0
 11
0.1822206960927427
 21
0.0248934384634296
 31
0.0
  0
LINE
  5
2C7
330
1F
100
AcDbEntity
  8
0
100
AcDbLine
 10
0.1822235470123474
 20
0.0249934384390755
 30
0.0
 11
0.1822206960927427
 21
0.0248934384634296
 31
0.0
  0
LINE
  5
2C8
330
1F
100
AcDbEntity
  8
0
100
AcDbLine
 10
0.0279043550531023
 20
0.0249934384390755
 30
0.0
 11
0.0279691911942602
 21
0.0250281501420749
 31
0.0
  0
LINE
  5
2C9
330
1F
100
AcDbEntity
  8
0
100
AcDbLine
 10
0.0342049033558336
 20
0.0252710897074095
 30
0.0
 11
0.0330656142281395
 21
0.0253811732955802
 31
0.0
  0
LINE
  5
2CA
330
1F
100
AcDbEntity
  8
0
100
AcDbLine
 10
0.0304078399210379
 20
0.0252584229587403
 30
0.0
 11
0.0303205432139599
 21
0.0252463331577711
 31
0.0
  0
LINE
  5
2CB
330
1F
100
AcDbEntity
  8
0
100
AcDbLine
 10
0.0499012529599362
 20
-0.0751065630367913
 30
0.0
 11
0.0499012529599362
 21
-0.0526065602055707
 31
0.0
  0
LINE
  5
2CC
330
1F
100
AcDbEntity
  8
0
100
AcDbLine
 10
0.0149012528109246
 20
0.0248934384533248
 30
0.0
 11
0.0149012528109246
 21
0.0174038359550852
 31
0.0
  0
LINE
  5
2CD
330
1F
100
AcDbEntity
  8
0
100
AcDbLine
 10
0.0341503193010641
 20
0.0249934384390755
 30
0.0
 11
0.0341114357817845
 21
0.0249470637188941
 31
0.0
  0
LINE
  5
2CE
330
1F
100
AcDbEntity
  8
0
100
AcDbLine
 10
0.0341114357817845
 20
0.0249470637188941
 30
0.0
 11
0.0340664729518943
 21
0.0248934384634296
 31
0.0
  0
LINE
  5
2CF
330
1F
100
AcDbEntity
  8
0
100
AcDbLine
 10
0.0368981507177585
 20
0.0249934384390755
 30
0.0
 11
0.036866479092859
 21
0.0249934384390755
 31
0.0
  0
LINE
  5
2D0
330
1F
100
AcDbEntity
  8
0
100
AcDbLine
 10
0.0323677241565767
 20
0.0252985773789689
 30
0.0
 11
0.0324012528854304
 21
0.0252934384533248
 31
0.0
  0
LINE
  5
2D1
330
1F
100
AcDbEntity
  8
0
100
AcDbLine
 10
0.032480930598332
 20
0.02529389612726
 30
0.0
 11
0.0325133154859792
 21
0.0252985773789689
 31
0.0
  0
LINE
  5
2D2
330
1F
100
AcDbEntity
  8
0
100
AcDbLine
 10
0.0325133154859792
 20
0.0252985773789689
 30
0.0
 11
0.0325673749627058
 21
0.0252943926692789
 31
0.0
  0
LINE
  5
2D3
330
1F
100
AcDbEntity
  8
0
100
AcDbLine
 10
0.0345423357096826
 20
0.0252403204851178
 30
0.0
 11
0.0351049468482586
 21
0.0252110113195769
 31
0.0
  0
LINE
  5
2D4
330
1F
100
AcDbEntity
  8
0
100
AcDbLine
 10
0.0326024609276684
 20
0.0252985773789689
 30
0.0
 11
0.0325673749627058
 21
0.0252943926692789
 31
0.0
  0
LINE
  5
2D5
330
1F
100
AcDbEntity
  8
0
100
AcDbLine
 10
0.0321352723249576
 20
0.0252985773789689
 30
0.0
 11
0.0321021837823986
 21
0.0252951563255919
 31
0.0
  0
LINE
  5
2D6
330
1F
100
AcDbEntity
  8
0
100
AcDbLine
 10
0.0319894360507667
 20
0.0252985773789689
 30
0.0
 11
0.0319637919288937
 21
0.0252959512573475
 31
0.0
  0
LINE
  5
2D7
330
1F
100
AcDbEntity
  8
0
100
AcDbLine
 10
0.0303205432139599
 20
0.0252463331577711
 30
0.0
 11
0.0296975589226022
 21
0.0252110113195769
 31
0.0
  0
LINE
  5
2D8
330
1F
100
AcDbEntity
  8
0
100
AcDbLine
 10
-0.0775987484556741
 20
0.0123934374474962
 30
0.0
 11
-0.1177494694255622
 21
0.0123934374474962
 31
0.0
  0
LINE
  5
2D9
330
1F
100
AcDbEntity
  8
0
100
AcDbLine
 10
-0.1364808113748072
 20
0.0353934365534265
 30
0.0
 11
-0.1365433931352063
 21
0.0353934365534265
 31
0.0
  0
LINE
  5
2DA
330
1F
100
AcDbEntity
  8
0
100
AcDbLine
 10
-0.1238230784443451
 20
0.0353934365534265
 30
0.0
 11
-0.1240420256137073
 21
0.0353934370675166
 31
0.0
  0
LINE
  5
2DB
330
1F
100
AcDbEntity
  8
0
100
AcDbLine
 10
-0.1221119170313999
 20
0.0353934365534265
 30
0.0
 11
-0.1222634209412708
 21
0.0353934365534265
 31
0.0
  0
LINE
  5
2DC
330
1F
100
AcDbEntity
  8
0
100
AcDbLine
 10
-0.1520471202710212
 20
0.0354202321493109
 30
0.0
 11
-0.152261389890192
 21
0.0353934365534265
 31
0.0
  0
LINE
  5
2DD
330
1F
100
AcDbEntity
  8
0
100
AcDbLine
 10
-0.149778646417613
 20
0.0353934370675166
 30
0.0
 11
-0.1496933987762021
 21
0.0353934365534265
 31
0.0
  0
LINE
  5
2DE
330
1F
100
AcDbEntity
  8
0
100
AcDbLine
 10
-0.1496933987762021
 20
0.0353934365534265
 30
0.0
 11
-0.1493000943582362
 21
0.0353864652910248
 31
0.0
  0
LINE
  5
2DF
330
1F
100
AcDbEntity
  8
0
100
AcDbLine
 10
-0.1493000943582362
 20
0.0353864652910248
 30
0.0
 11
-0.1486546159492351
 21
0.0353934365534265
 31
0.0
  0
LINE
  5
2E0
330
1F
100
AcDbEntity
  8
0
100
AcDbLine
 10
-0.1396255808449259
 20
0.0354318702731048
 30
0.0
 11
-0.1390510609487806
 21
0.0353934365534265
 31
0.0
  0
LINE
  5
2E1
330
1F
100
AcDbEntity
  8
0
100
AcDbLine
 10
-0.1292977243629557
 20
0.0353284378752806
 30
0.0
 11
-0.1292446975707606
 21
0.0353284378752806
 31
0.0
  0
LINE
  5
2E2
330
1F
100
AcDbEntity
  8
0
100
AcDbLine
 10
-0.1209824669368771
 20
0.0353284378752806
 30
0.0
 11
-0.1209209266967968
 21
0.0353284378752806
 31
0.0
  0
LINE
  5
2E3
330
1F
100
AcDbEntity
  8
0
100
AcDbLine
 10
-0.1211216244212649
 20
0.0353284378752806
 30
0.0
 11
-0.1210494746005191
 21
0.0353284378752806
 31
0.0
  0
LINE
  5
2E4
330
1F
100
AcDbEntity
  8
0
100
AcDbLine
 10
-0.1238315314465481
 20
0.0353284378752806
 30
0.0
 11
-0.1238230784443451
 21
0.0353934365534265
 31
0.0
  0
LINE
  5
2E5
330
1F
100
AcDbEntity
  8
0
100
AcDbLine
 10
-0.1238230784443451
 20
0.0353934365534265
 30
0.0
 11
-0.123756913566541
 21
0.0353934365534265
 31
0.0
  0
LINE
  5
2E6
330
1F
100
AcDbEntity
  8
0
100
AcDbLine
 10
-0.1255525342824221
 20
0.0353284378752806
 30
0.0
 11
-0.1255275226363863
 21
0.0353934372575064
 31
0.0
  0
LINE
  5
2E7
330
1F
100
AcDbEntity
  8
0
100
AcDbLine
 10
-0.1255275226363863
 20
0.0353934372575064
 30
0.0
 11
-0.1254872441458049
 21
0.0353934365534265
 31
0.0
  0
LINE
  5
2E8
330
1F
100
AcDbEntity
  8
0
100
AcDbLine
 10
-0.1240420256137073
 20
0.0353934370675166
 30
0.0
 11
-0.1241049176229234
 21
0.0353934370675166
 31
0.0
  0
LINE
  5
2E9
330
1F
100
AcDbEntity
  8
0
100
AcDbLine
 10
-0.1234309539556059
 20
0.0353934370675166
 30
0.0
 11
-0.123554016000132
 21
0.0353885636892704
 31
0.0
  0
LINE
  5
2EA
330
1F
100
AcDbEntity
  8
0
100
AcDbLine
 10
-0.123554016000132
 20
0.0353885636892704
 30
0.0
 11
-0.1235874646597084
 21
0.0353934370675166
 31
0.0
  0
LINE
  5
2EB
330
1F
100
AcDbEntity
  8
0
100
AcDbLine
 10
-0.129536447588107
 20
0.0353934365534265
 30
0.0
 11
-0.1295732225806782
 21
0.0353934370675166
 31
0.0
  0
LINE
  5
2EC
330
1F
100
AcDbEntity
  8
0
100
AcDbLine
 10
-0.1363662470845884
 20
0.0353934370675166
 30
0.0
 11
-0.1364808113748072
 21
0.0353934365534265
 31
0.0
  0
LINE
  5
2ED
330
1F
100
AcDbEntity
  8
0
100
AcDbLine
 10
-0.1380017348728237
 20
0.0353934370675166
 30
0.0
 11
-0.1382180554745897
 21
0.0353934365534265
 31
0.0
  0
LINE
  5
2EE
330
1F
100
AcDbEntity
  8
0
100
AcDbLine
 10
-0.1508589563617041
 20
0.0353934370675166
 30
0.0
 11
-0.1509868806558231
 21
0.0354022040357188
 31
0.0
  0
LINE
  5
2EF
330
1F
100
AcDbEntity
  8
0
100
AcDbLine
 10
-0.1509868806558231
 20
0.0354022040357188
 30
0.0
 11
-0.151155468615432
 21
0.0353934370675166
 31
0.0
  0
LINE
  5
2F0
330
1F
100
AcDbEntity
  8
0
100
AcDbLine
 10
-0.1258834001338812
 20
0.0354202321493109
 30
0.0
 11
-0.1258834001338812
 21
0.0353934365534265
 31
0.0
  0
LINE
  5
2F1
330
1F
100
AcDbEntity
  8
0
100
AcDbLine
 10
-0.1258834001338812
 20
0.0353934365534265
 30
0.0
 11
-0.1258834001338812
 21
0.0353284378752806
 31
0.0
  0
LINE
  5
2F2
330
1F
100
AcDbEntity
  8
0
100
AcDbLine
 10
-0.1257502186369027
 20
0.0354377195347883
 30
0.0
 11
-0.1257699445631242
 21
0.0353934365534265
 31
0.0
  0
LINE
  5
2F3
330
1F
100
AcDbEntity
  8
0
100
AcDbLine
 10
-0.1257699445631242
 20
0.0353934365534265
 30
0.0
 11
-0.1257502186369027
 21
0.0353284378752806
 31
0.0
  0
LINE
  5
2F4
330
1F
100
AcDbEntity
  8
0
100
AcDbLine
 10
-0.1288820320257303
 20
0.0354202321493109
 30
0.0
 11
-0.1288820320257303
 21
0.0353934365534265
 31
0.0
  0
LINE
  5
2F5
330
1F
100
AcDbEntity
  8
0
100
AcDbLine
 10
-0.1288820320257303
 20
0.0353934365534265
 30
0.0
 11
-0.1288820320257303
 21
0.0353284378752806
 31
0.0
  0
LINE
  5
2F6
330
1F
100
AcDbEntity
  8
0
100
AcDbLine
 10
-0.1550987471890755
 20
0.0373934377827723
 30
0.0
 11
-0.1519665109975246
 21
0.0373934377827723
 31
0.0
  0
LINE
  5
2F7
330
1F
100
AcDbEntity
  8
0
100
AcDbLine
 10
0.1684012511904233
 20
0.0214864449060854
 30
0.0
 11
0.1684012506763332
 21
0.0214438478672753
 31
0.0
  0
LINE
  5
2F8
330
1F
100
AcDbEntity
  8
0
100
AcDbLine
 10
0.1683838356894381
 20
0.0240648186894054
 30
0.0
 11
0.1683838356894381
 21
0.0239359392128252
 31
0.0
  0
LINE
  5
2F9
330
1F
100
AcDbEntity
  8
0
100
AcDbLine
 10
0.1684012506763332
 20
0.0138681504015939
 30
0.0
 11
0.1684295698105887
 21
0.0133316988808665
 31
0.0
  0
LINE
  5
2FA
330
1F
100
AcDbEntity
  8
0
100
AcDbLine
 10
0.1684012513804131
 20
0.0151280437547054
 30
0.0
 11
0.1684012506763332
 21
0.0150676886459267
 31
0.0
  0
LINE
  5
2FB
330
1F
100
AcDbEntity
  8
0
100
AcDbLine
 10
0.1683846605713497
 20
0.0139563574914963
 30
0.0
 11
0.1684012506763332
 21
0.0138681504015939
 31
0.0
  0
LINE
  5
2FC
330
1F
100
AcDbEntity
  8
0
100
AcDbLine
 10
0.1684012511904233
 20
0.0214864449060854
 30
0.0
 11
0.1683807562901644
 21
0.0214199659655293
 31
0.0
  0
LINE
  5
2FD
330
1F
100
AcDbEntity
  8
0
100
AcDbLine
 10
0.1683807562901644
 20
0.0214199659655293
 30
0.0
 11
0.1683790708266395
 21
0.0213885483387745
 31
0.0
  0
LINE
  5
2FE
330
1F
100
AcDbEntity
  8
0
100
AcDbLine
 10
0.1684280462722176
 20
-0.0070549347031268
 30
0.0
 11
0.1684012506763332
 21
-0.0072692043222976
 31
0.0
  0
LINE
  5
2FF
330
1F
100
AcDbEntity
  8
0
100
AcDbLine
 10
0.1683790653403514
 20
0.0194490999712253
 30
0.0
 11
0.1684012511904233
 21
0.0192630073834623
 31
0.0
  0
LINE
  5
300
330
1F
100
AcDbEntity
  8
0
100
AcDbLine
 10
0.1683790708266395
 20
0.0213885483387745
 30
0.0
 11
0.1684012511904233
 21
0.0213053993936909
 31
0.0
  0
LINE
  5
301
330
1F
100
AcDbEntity
  8
0
100
AcDbLine
 10
0.1684020347424087
 20
0.014755620955468
 30
0.0
 11
0.1684012506763332
 21
0.0150676886459267
 31
0.0
  0
LINE
  5
302
330
1F
100
AcDbEntity
  8
0
100
AcDbLine
 10
0.1776290200958841
 20
0.0228934383583299
 30
0.0
 11
0.1764012515704029
 21
0.0202905583763096
 31
0.0
  0
LINE
  5
303
330
1F
100
AcDbEntity
  8
0
100
AcDbLine
 10
0.1819018694935206
 20
0.0248934384634296
 30
0.0
 11
0.1785616358118945
 21
0.0248934384533248
 31
0.0
  0
LINE
  5
304
330
1F
100
AcDbEntity
  8
0
100
AcDbLine
 10
0.1764012515704029
 20
0.0202604794134606
 30
0.0
 11
0.170401251905679
 21
0.007393438378819
 31
0.0
  0
LINE
  5
305
330
1F
100
AcDbEntity
  8
0
100
AcDbLine
 10
0.1819043537380748
 20
0.0249934384390755
 30
0.0
 11
0.1819360253629744
 21
0.0249934384390755
 31
0.0
  0
LINE
  5
306
330
1F
100
AcDbEntity
  8
0
100
AcDbLine
 10
0.1858831667812405
 20
0.0252964143658557
 30
0.0
 11
0.1859209453301892
 21
0.0252985773789689
 31
0.0
  0
LINE
  5
307
330
1F
100
AcDbEntity
  8
0
100
AcDbLine
 10
0.1861021824673711
 20
0.0252951563255919
 30
0.0
 11
0.1861352710099302
 21
0.0252985773789689
 31
0.0
  0
LINE
  5
308
330
1F
100
AcDbEntity
  8
0
100
AcDbLine
 10
0.1864347802992567
 20
0.0252985773789689
 30
0.0
 11
0.1864809292833046
 21
0.02529389612726
 31
0.0
  0
LINE
  5
309
330
1F
100
AcDbEntity
  8
0
100
AcDbLine
 10
0.1864809292833046
 20
0.02529389612726
 30
0.0
 11
0.1865133141709517
 21
0.0252985773789689
 31
0.0
  0
LINE
  5
30A
330
1F
100
AcDbEntity
  8
0
100
AcDbLine
 10
0.1865133141709517
 20
0.0252985773789689
 30
0.0
 11
0.1865673736476784
 21
0.0252943926692789
 31
0.0
  0
LINE
  5
30B
330
1F
100
AcDbEntity
  8
0
100
AcDbLine
 10
0.190898149402731
 20
0.0249934384390755
 30
0.0
 11
0.1908664777778315
 21
0.0249934384390755
 31
0.0
  0
LINE
  5
30C
330
1F
100
AcDbEntity
  8
0
100
AcDbLine
 10
0.1866024596126409
 20
0.0252985773789689
 30
0.0
 11
0.1865673736476784
 21
0.0252943926692789
 31
0.0
  0
LINE
  5
30D
330
1F
100
AcDbEntity
  8
0
100
AcDbLine
 10
0.1861021824673711
 20
0.0252951563255919
 30
0.0
 11
0.1860397081388807
 21
0.0252955151821746
 31
0.0
  0
LINE
  5
30E
330
1F
100
AcDbEntity
  8
0
100
AcDbLine
 10
0.1858203822491195
 20
0.0252967750042681
 30
0.0
 11
0.1857867684634351
 21
0.0252985773789689
 31
0.0
  0
LINE
  5
30F
330
1F
100
AcDbEntity
  8
0
100
AcDbLine
 10
0.1880945304985968
 20
0.0249934384390755
 30
0.0
 11
0.1880664716368669
 21
0.0248934384634296
 31
0.0
  0
LINE
  5
310
330
1F
100
AcDbEntity
  8
0
100
AcDbLine
 10
0.0342543518305201
 20
0.025267788995094
 30
0.0
 11
0.0342049033558336
 21
0.0252710897074095
 31
0.0
  0
LINE
  5
311
330
1F
100
AcDbEntity
  8
0
100
AcDbLine
 10
0.0309728743327133
 20
0.0253366750922574
 30
0.0
 11
0.0305976024150272
 21
0.0252710897074095
 31
0.0
  0
LINE
  5
312
330
1F
100
AcDbEntity
  8
0
100
AcDbLine
 10
0.0305976024150272
 20
0.0252710897074095
 30
0.0
 11
0.0304078399210379
 21
0.0252584229587403
 31
0.0
  0
LINE
  5
313
330
1F
100
AcDbEntity
  8
0
100
AcDbLine
 10
0.0149012528109246
 20
-0.0526065602055707
 30
0.0
 11
0.0149012528109246
 21
-0.0751065630367913
 31
0.0
  0
LINE
  5
314
330
1F
100
AcDbEntity
  8
0
100
AcDbLine
 10
0.027901870808548
 20
0.0248934384634296
 30
0.0
 11
0.0274496353207126
 21
0.0248934384533248
 31
0.0
  0
LINE
  5
315
330
1F
100
AcDbEntity
  8
0
100
AcDbLine
 10
0.0223908552442794
 20
0.0248934384533248
 30
0.0
 11
0.0149012528109246
 21
0.0248934384533248
 31
0.0
  0
LINE
  5
316
330
1F
100
AcDbEntity
  8
0
100
AcDbLine
 10
0.0499012529599362
 20
0.0115256909219381
 30
0.0
 11
0.0499012529599362
 21
0.012361525777308
 31
0.0
  0
LINE
  5
317
330
1F
100
AcDbEntity
  8
0
100
AcDbLine
 10
0.0149012528109246
 20
0.0032611859847114
 30
0.0
 11
0.0149012528109246
 21
0.0024253511293416
 31
0.0
  0
LINE
  5
318
330
1F
100
AcDbEntity
  8
0
100
AcDbLine
 10
0.036866479092859
 20
0.0249934384390755
 30
0.0
 11
0.0368008236516956
 21
0.0249934384390755
 31
0.0
  0
LINE
  5
319
330
1F
100
AcDbEntity
  8
0
100
AcDbLine
 10
0.0368008236516956
 20
0.0249934384390755
 30
0.0
 11
0.0360042805359545
 21
0.0251184206189166
 31
0.0
  0
LINE
  5
31A
330
1F
100
AcDbEntity
  8
0
100
AcDbLine
 10
0.0280617102347799
 20
0.0250521387041807
 30
0.0
 11
0.0287982252349063
 21
0.0251184206189166
 31
0.0
  0
LINE
  5
31B
330
1F
100
AcDbEntity
  8
0
100
AcDbLine
 10
-0.1380009379564491
 20
0.0354202321493109
 30
0.0
 11
-0.1382180554745897
 21
0.0353934365534265
 31
0.0
  0
LINE
  5
31C
330
1F
100
AcDbEntity
  8
0
100
AcDbLine
 10
-0.1362277332942365
 20
0.0353934365534265
 30
0.0
 11
-0.1363872363488881
 21
0.0354202321493109
 31
0.0
  0
LINE
  5
31D
330
1F
100
AcDbEntity
  8
0
100
AcDbLine
 10
-0.1363872363488881
 20
0.0354202321493109
 30
0.0
 11
-0.1364808113748072
 21
0.0353934365534265
 31
0.0
  0
LINE
  5
31E
330
1F
100
AcDbEntity
  8
0
100
AcDbLine
 10
-0.1314413474191486
 20
0.0353934365534265
 30
0.0
 11
-0.1316613613016701
 21
0.0353934370675166
 31
0.0
  0
LINE
  5
31F
330
1F
100
AcDbEntity
  8
0
100
AcDbLine
 10
-0.1310072333806134
 20
0.0354202321493109
 30
0.0
 11
-0.1314413474191486
 21
0.0353934365534265
 31
0.0
  0
LINE
  5
320
330
1F
100
AcDbEntity
  8
0
100
AcDbLine
 10
-0.1292527330637699
 20
0.0353934365534265
 30
0.0
 11
-0.129536447588107
 21
0.0353934365534265
 31
0.0
  0
LINE
  5
321
330
1F
100
AcDbEntity
  8
0
100
AcDbLine
 10
-0.1288820320257303
 20
0.0353934365534265
 30
0.0
 11
-0.1289190506424731
 21
0.0353934370675166
 31
0.0
  0
LINE
  5
322
330
1F
100
AcDbEntity
  8
0
100
AcDbLine
 10
-0.1274248061699063
 20
0.0353934365534265
 30
0.0
 11
-0.1277476622670592
 21
0.0354202321493109
 31
0.0
  0
LINE
  5
323
330
1F
100
AcDbEntity
  8
0
100
AcDbLine
 10
-0.1277476622670592
 20
0.0354202321493109
 30
0.0
 11
-0.12791920523633
 21
0.0353934365534265
 31
0.0
  0
LINE
  5
324
330
1F
100
AcDbEntity
  8
0
100
AcDbLine
 10
-0.1258167477790827
 20
0.0354202321493109
 30
0.0
 11
-0.1258834001338812
 21
0.0353934365534265
 31
0.0
  0
LINE
  5
325
330
1F
100
AcDbEntity
  8
0
100
AcDbLine
 10
-0.1229361043389473
 20
0.0353934365534265
 30
0.0
 11
-0.1231503739581181
 21
0.0354202321493109
 31
0.0
  0
LINE
  5
326
330
1F
100
AcDbEntity
  8
0
100
AcDbLine
 10
-0.1208924071209377
 20
0.0353934365534265
 30
0.0
 11
-0.1210323188678127
 21
0.0353934365534265
 31
0.0
  0
LINE
  5
327
330
1F
100
AcDbEntity
  8
0
100
AcDbLine
 10
-0.1403296079954194
 20
0.0353934365534265
 30
0.0
 11
-0.139659391290336
 21
0.035434804459691
 31
0.0
  0
LINE
  5
328
330
1F
100
AcDbEntity
  8
0
100
AcDbLine
 10
-0.139659391290336
 20
0.035434804459691
 30
0.0
 11
-0.1396255808449259
 21
0.0354318702731048
 31
0.0
  0
LINE
  5
329
330
1F
100
AcDbEntity
  8
0
100
AcDbLine
 10
-0.1301195617636672
 20
0.0353934372575064
 30
0.0
 11
-0.1302340850077984
 21
0.0353934365534265
 31
0.0
  0
LINE
  5
32A
330
1F
100
AcDbEntity
  8
0
100
AcDbLine
 10
-0.1265453836937148
 20
0.0353934372575064
 30
0.0
 11
-0.1266811719945883
 21
0.0353934370675166
 31
0.0
  0
LINE
  5
32B
330
1F
100
AcDbEntity
  8
0
100
AcDbLine
 10
-0.1241328460029604
 20
0.0354202321493109
 30
0.0
 11
-0.1242020672300447
 21
0.0353934370675166
 31
0.0
  0
LINE
  5
32C
330
1F
100
AcDbEntity
  8
0
100
AcDbLine
 10
-0.1242281880008428
 20
0.0354202321493109
 30
0.0
 11
-0.1243385378674352
 21
0.0353934370675166
 31
0.0
  0
LINE
  5
32D
330
1F
100
AcDbEntity
  8
0
100
AcDbLine
 10
-0.1243808324227057
 20
0.0354202321493109
 30
0.0
 11
-0.1245447461915065
 21
0.0353934370675166
 31
0.0
  0
LINE
  5
32E
330
1F
100
AcDbEntity
  8
0
100
AcDbLine
 10
-0.1245705604366449
 20
0.0354202321493109
 30
0.0
 11
-0.12476904194091
 21
0.0353934365534265
 31
0.0
  0
LINE
  5
32F
330
1F
100
AcDbEntity
  8
0
100
AcDbLine
 10
-0.1340802464444925
 20
0.0353934370675166
 30
0.0
 11
-0.1341350827352544
 21
0.0353934365534265
 31
0.0
  0
LINE
  5
330
330
1F
100
AcDbEntity
  8
0
100
AcDbLine
 10
-0.1324547723989125
 20
0.0354202321493109
 30
0.0
 11
-0.1326749764556775
 21
0.0353934365534265
 31
0.0
  0
LINE
  5
331
330
1F
100
AcDbEntity
  8
0
100
AcDbLine
 10
-0.1271617820003345
 20
0.0353934365534265
 30
0.0
 11
-0.1271936829712883
 21
0.0353934370675166
 31
0.0
  0
LINE
  5
332
330
1F
100
AcDbEntity
  8
0
100
AcDbLine
 10
-0.1254188478115263
 20
0.0353934370675166
 30
0.0
 11
-0.1254872441458049
 21
0.0353934365534265
 31
0.0
  0
LINE
  5
333
330
1F
100
AcDbEntity
  8
0
100
AcDbLine
 10
-0.1519665109975246
 20
0.0373934377827723
 30
0.0
 11
-0.1232309832316147
 21
0.0373934377827723
 31
0.0
  0
LINE
  5
334
330
1F
100
AcDbEntity
  8
0
100
AcDbLine
 10
-0.1232309832316147
 20
0.0373934377827723
 30
0.0
 11
-0.1200987470400638
 21
0.0373934377827723
 31
0.0
  0
LINE
  5
335
330
1F
100
AcDbEntity
  8
0
100
AcDbLine
 10
0.1684012506763332
 20
0.0184493072879902
 30
0.0
 11
0.1684280462722176
 21
0.0183174033349228
 31
0.0
  0
LINE
  5
336
330
1F
100
AcDbEntity
  8
0
100
AcDbLine
 10
0.1683688527299094
 20
0.0211980794591712
 30
0.0
 11
0.1684012506763332
 21
0.0211691071235493
 31
0.0
  0
LINE
  5
337
330
1F
100
AcDbEntity
  8
0
100
AcDbLine
 10
0.1683838356894381
 20
0.0239359392128252
 30
0.0
 11
0.1684012506763332
 21
0.0238243066267067
 31
0.0
  0
LINE
  5
338
330
1F
100
AcDbEntity
  8
0
100
AcDbLine
 10
0.1684295698105887
 20
0.0133316988808665
 30
0.0
 11
0.1684012511904233
 21
0.0132742720389872
 31
0.0
  0
LINE
  5
339
330
1F
100
AcDbEntity
  8
0
100
AcDbLine
 10
0.1684012506763332
 20
0.0150676886459267
 30
0.0
 11
0.1684280462722176
 21
0.0147543825954087
 31
0.0
  0
LINE
  5
33A
330
1F
100
AcDbEntity
  8
0
100
AcDbLine
 10
0.1684012511904233
 20
0.0213053993936909
 30
0.0
 11
0.1684012506763332
 21
0.0212352720013534
 31
0.0
  0
LINE
  5
33B
330
1F
100
AcDbEntity
  8
0
100
AcDbLine
 10
0.1683838356894381
 20
0.0175191884870982
 30
0.0
 11
0.1684012511904233
 21
0.0173965299264344
 31
0.0
  0
LINE
  5
33C
330
1F
100
AcDbEntity
  8
0
100
AcDbLine
 10
0.1684012511904233
 20
0.0195733377563682
 30
0.0
 11
0.1684012506763332
 21
0.0194880901149572
 31
0.0
  0
LINE
  5
33D
330
1F
100
AcDbEntity
  8
0
100
AcDbLine
 10
0.1683790653403514
 20
0.0194490999712253
 30
0.0
 11
0.1683692375008366
 21
0.0192419669309918
 31
0.0
  0
LINE
  5
33E
330
1F
100
AcDbEntity
  8
0
100
AcDbLine
 10
0.1683838356894381
 20
0.0196946042897867
 30
0.0
 11
0.1684012511904233
 21
0.0195733377563682
 31
0.0
  0
LINE
  5
33F
330
1F
100
AcDbEntity
  8
0
100
AcDbLine
 10
0.1684280462722176
 20
0.0208605839563791
 30
0.0
 11
0.1684012511904233
 21
0.0208028584035759
 31
0.0
  0
LINE
  5
340
330
1F
100
AcDbEntity
  8
0
100
AcDbLine
 10
0.1683838356894381
 20
0.0177774186973444
 30
0.0
 11
0.1684012511904233
 21
0.017682299565901
 31
0.0
  0
LINE
  5
341
330
1F
100
AcDbEntity
  8
0
100
AcDbLine
 10
0.1684280462722176
 20
0.0183174033349228
 30
0.0
 11
0.1684012511904233
 21
0.0182465204137072
 31
0.0
  0
LINE
  5
342
330
1F
100
AcDbEntity
  8
0
100
AcDbLine
 10
0.1684012511904233
 20
0.0190312022871222
 30
0.0
 11
0.1683692375008366
 21
0.0192419669309918
 31
0.0
  0
LINE
  5
343
330
1F
100
AcDbEntity
  8
0
100
AcDbLine
 10
0.1683846605713497
 20
0.0139563574914963
 30
0.0
 11
0.1684012511904233
 21
0.0140254163616913
 31
0.0
  0
LINE
  5
344
330
1F
100
AcDbEntity
  8
0
100
AcDbLine
 10
0.1684280462722176
 20
0.0218418116097764
 30
0.0
 11
0.1684012506763332
 21
0.0220560812289471
 31
0.0
  0
LINE
  5
345
330
1F
100
AcDbEntity
  8
0
100
AcDbLine
 10
0.1683838356894381
 20
0.02286556350793
 30
0.0
 11
0.1684012513804131
 21
0.0227870450212657
 31
0.0
  0
LINE
  5
346
330
1F
100
AcDbEntity
  8
0
100
AcDbLine
 10
0.1684012513804131
 20
0.0227870450212657
 30
0.0
 11
0.1683838356894381
 21
0.0227066152524452
 31
0.0
  0
LINE
  5
347
330
1F
100
AcDbEntity
  8
0
100
AcDbLine
 10
0.170401251905679
 20
0.007393438378819
 30
0.0
 11
0.170401251905679
 21
-0.0069743254296302
 31
0.0
  0
LINE
  5
348
330
1F
100
AcDbEntity
  8
0
100
AcDbLine
 10
0.2004012512351268
 20
0.0248934384533248
 30
0.0
 11
0.1909006336472853
 21
0.0248934384634296
 31
0.0
  0
LINE
  5
349
330
1F
100
AcDbEntity
  8
0
100
AcDbLine
 10
0.1819360253629744
 20
0.0249934384390755
 30
0.0
 11
0.1822235470123474
 21
0.0249934384390755
 31
0.0
  0
LINE
  5
34A
330
1F
100
AcDbEntity
  8
0
100
AcDbLine
 10
0.1908664777778315
 20
0.0249934384390755
 30
0.0
 11
0.1908008223366681
 21
0.0249934384390755
 31
0.0
  0
LINE
  5
34B
330
1F
100
AcDbEntity
  8
0
100
AcDbLine
 10
0.1908008223366681
 20
0.0249934384390755
 30
0.0
 11
0.1900042792209271
 21
0.0251184206189166
 31
0.0
  0
LINE
  5
34C
330
1F
100
AcDbEntity
  8
0
100
AcDbLine
 10
0.0499012529599362
 20
-0.0026169590484356
 30
0.0
 11
0.0499012529599362
 21
-0.002262410742504
 31
0.0
  0
LINE
  5
34D
330
1F
100
AcDbEntity
  8
0
100
AcDbLine
 10
0.0499012529599362
 20
-0.002262410742504
 30
0.0
 11
0.0499012529599362
 21
-0.0019543501315338
 31
0.0
  0
LINE
  5
34E
330
1F
100
AcDbEntity
  8
0
100
AcDbLine
 10
0.0499012529599362
 20
-0.0019543501315338
 30
0.0
 11
0.0499012529599362
 21
-0.0015369517702535
 31
0.0
  0
LINE
  5
34F
330
1F
100
AcDbEntity
  8
0
100
AcDbLine
 10
0.0499012529599362
 20
0.0174038359550852
 30
0.0
 11
0.0499012529599362
 21
0.0248934384533248
 31
0.0
  0
LINE
  5
350
330
1F
100
AcDbEntity
  8
0
100
AcDbLine
 10
0.0148871795909689
 20
0.0135056981919407
 30
0.0
 11
0.0149012528109246
 21
0.0123296442632365
 31
0.0
  0
LINE
  5
351
330
1F
100
AcDbEntity
  8
0
100
AcDbLine
 10
-0.1378140875491573
 20
0.0353934370675166
 30
0.0
 11
-0.1380009379564491
 21
0.0354202321493109
 31
0.0
  0
LINE
  5
352
330
1F
100
AcDbEntity
  8
0
100
AcDbLine
 10
-0.1283499760239008
 20
0.0354202321493109
 30
0.0
 11
-0.1288820320257303
 21
0.0353934365534265
 31
0.0
  0
LINE
  5
353
330
1F
100
AcDbEntity
  8
0
100
AcDbLine
 10
-0.129632411695587
 20
0.0354202321493109
 30
0.0
 11
-0.1301195617636672
 21
0.0353934372575064
 31
0.0
  0
LINE
  5
354
330
1F
100
AcDbEntity
  8
0
100
AcDbLine
 10
-0.1340015999250565
 20
0.0354202321493109
 30
0.0
 11
-0.1340802464444925
 21
0.0353934370675166
 31
0.0
  0
LINE
  5
355
330
1F
100
AcDbEntity
  8
0
100
AcDbLine
 10
-0.1262556038859952
 20
0.0354202321493109
 30
0.0
 11
-0.1265453836937148
 21
0.0353934372575064
 31
0.0
  0
LINE
  5
356
330
1F
100
AcDbEntity
  8
0
100
AcDbLine
 10
-0.1248220446214285
 20
0.0354202321493109
 30
0.0
 11
-0.124850331260305
 21
0.0353934372575064
 31
0.0
  0
LINE
  5
357
330
1F
100
AcDbEntity
  8
0
100
AcDbLine
 10
0.1683838356894381
 20
0.0227066152524452
 30
0.0
 11
0.1684012506763332
 21
0.0222770256361121
 31
0.0
  0
LINE
  5
358
330
1F
100
AcDbEntity
  8
0
100
AcDbLine
 10
0.1684012506763332
 20
0.0222770256361121
 30
0.0
 11
0.1684012506763332
 21
0.0220560812289471
 31
0.0
  0
LINE
  5
359
330
1F
100
AcDbEntity
  8
0
100
AcDbLine
 10
0.1684012511904233
 20
0.0154579182023524
 30
0.0
 11
0.1683884518220217
 21
0.015405637922774
 31
0.0
  0
LINE
  5
35A
330
1F
100
AcDbEntity
  8
0
100
AcDbLine
 10
0.1683884518220217
 20
0.015405637922774
 30
0.0
 11
0.1683867234547647
 21
0.0152937260485102
 31
0.0
  0
LINE
  5
35B
330
1F
100
AcDbEntity
  8
0
100
AcDbLine
 10
0.1683867234547647
 20
0.0152937260485102
 30
0.0
 11
0.1684012513804131
 21
0.0151280437547054
 31
0.0
  0
LINE
  5
35C
330
1F
100
AcDbEntity
  8
0
100
AcDbLine
 10
0.1684280462722176
 20
0.0147543825954087
 30
0.0
 11
0.1684012511904233
 21
0.0140254163616913
 31
0.0
  0
LINE
  5
35D
330
1F
100
AcDbEntity
  8
0
100
AcDbLine
 10
0.1684012506763332
 20
0.0239598667000818
 30
0.0
 11
0.1684012506763332
 21
0.0238243066267067
 31
0.0
  0
LINE
  5
35E
330
1F
100
AcDbEntity
  8
0
100
AcDbLine
 10
0.1684012513804131
 20
0.0227870450212657
 30
0.0
 11
0.1684012506763332
 21
0.0227287646266236
 31
0.0
  0
LINE
  5
35F
330
1F
100
AcDbEntity
  8
0
100
AcDbLine
 10
0.1684012511904233
 20
0.017682299565901
 30
0.0
 11
0.1684012506763332
 21
0.0175673793979881
 31
0.0
  0
LINE
  5
360
330
1F
100
AcDbEntity
  8
0
100
AcDbLine
 10
0.1684012513804131
 20
0.0186678694565882
 30
0.0
 11
0.1684448881386037
 21
0.018732226060724
 31
0.0
  0
LINE
  5
361
330
1F
100
AcDbEntity
  8
0
100
AcDbLine
 10
0.0372495802677444
 20
0.0249371106006635
 30
0.0
 11
0.0369006349623128
 21
0.0248934384634296
 31
0.0
  0
LINE
  5
362
330
1F
100
AcDbEntity
  8
0
100
AcDbLine
 10
0.0234845962270978
 20
0.0248934384533248
 30
0.0
 11
0.0230536637982251
 21
0.0248934384533248
 31
0.0
  0
LINE
  5
363
330
1F
100
AcDbEntity
  8
0
100
AcDbLine
 10
0.0230536637982251
 20
0.0248934384533248
 30
0.0
 11
0.0227246439976404
 21
0.0248934384533248
 31
0.0
  0
LINE
  5
364
330
1F
100
AcDbEntity
  8
0
100
AcDbLine
 10
0.0227246439976404
 20
0.0248934384533248
 30
0.0
 11
0.0223908552442794
 21
0.0248934384533248
 31
0.0
  0
LINE
  5
365
330
1F
100
AcDbEntity
  8
0
100
AcDbLine
 10
0.0149012528109246
 20
-0.001523218062712
 30
0.0
 11
0.0149012528109246
 21
-0.0019541504915847
 31
0.0
  0
LINE
  5
366
330
1F
100
AcDbEntity
  8
0
100
AcDbLine
 10
0.0149012528109246
 20
-0.0019541504915847
 30
0.0
 11
0.0149012528109246
 21
-0.0022831702868212
 31
0.0
  0
LINE
  5
367
330
1F
100
AcDbEntity
  8
0
100
AcDbLine
 10
0.0149012528109246
 20
-0.0022831702868212
 30
0.0
 11
0.0149012528109246
 21
-0.0026169590484357
 31
0.0
  0
LINE
  5
368
330
1F
100
AcDbEntity
  8
0
100
AcDbLine
 10
0.0149012528109246
 20
0.0123296442632365
 30
0.0
 11
0.0149012528109246
 21
0.011529824546204
 31
0.0
  0
LINE
  5
369
330
1F
100
AcDbEntity
  8
0
100
AcDbLine
 10
-0.1272269872232896
 20
0.0354202321493109
 30
0.0
 11
-0.1274248061699063
 21
0.0353934365534265
 31
0.0
  0
LINE
  5
36A
330
1F
100
AcDbEntity
  8
0
100
AcDbLine
 10
0.1909006336472853
 20
0.0248934384634296
 30
0.0
 11
0.190787733698033
 21
0.0248934384634296
 31
0.0
  0
LINE
  5
36B
330
1F
100
AcDbEntity
  8
0
100
AcDbLine
 10
0.1885582405103
 20
0.0248934384634296
 30
0.0
 11
0.1880664716368669
 21
0.0248934384634296
 31
0.0
  0
LINE
  5
36C
330
1F
100
AcDbEntity
  8
0
100
AcDbLine
 10
0.1822550764437538
 20
0.0249934384390755
 30
0.0
 11
0.1824232954371094
 21
0.0249934384390755
 31
0.0
  0
LINE
  5
36D
330
1F
100
AcDbEntity
  8
0
100
AcDbLine
 10
0.0369006349623128
 20
0.0248934384634296
 30
0.0
 11
0.0367877350130605
 21
0.0248934384634296
 31
0.0
  0
LINE
  5
36E
330
1F
100
AcDbEntity
  8
0
100
AcDbLine
 10
0.0284518988537896
 20
0.0248934384634296
 30
0.0
 11
0.0282206974077702
 21
0.0248934384634296
 31
0.0
  0
LINE
  5
36F
330
1F
100
AcDbEntity
  8
0
100
AcDbLine
 10
0.0282206974077702
 20
0.0248934384634296
 30
0.0
 11
0.027901870808548
 21
0.0248934384634296
 31
0.0
  0
LINE
  5
370
330
1F
100
AcDbEntity
  8
0
100
AcDbLine
 10
0.0499012529599362
 20
-0.0015369517702535
 30
0.0
 11
0.0499012529599362
 21
0.0012480058343793
 31
0.0
  0
LINE
  5
371
330
1F
100
AcDbEntity
  8
0
100
AcDbLine
 10
0.0499153261798919
 20
0.0012811787147088
 30
0.0
 11
0.0499012529599362
 21
0.002457232643413
 31
0.0
  0
LINE
  5
372
330
1F
100
AcDbEntity
  8
0
100
AcDbLine
 10
0.0499012529599362
 20
0.0131679527029237
 30
0.0
 11
0.0499012529599362
 21
0.0134924921781046
 31
0.0
  0
LINE
  5
373
330
1F
100
AcDbEntity
  8
0
100
AcDbLine
 10
0.0149012528109246
 20
0.001294384728545
 30
0.0
 11
0.0149012528109246
 21
-0.001523218062712
 31
0.0
  0
LINE
  5
374
330
1F
100
AcDbEntity
  8
0
100
AcDbLine
 10
0.0149012528109246
 20
0.0174038359550852
 30
0.0
 11
0.0149012528109246
 21
0.0170492876491535
 31
0.0
  0
LINE
  5
375
330
1F
100
AcDbEntity
  8
0
100
AcDbLine
 10
0.0149012528109246
 20
0.0170492876491535
 30
0.0
 11
0.0149012528109246
 21
0.0167412270381833
 31
0.0
  0
LINE
  5
376
330
1F
100
AcDbEntity
  8
0
100
AcDbLine
 10
0.0149012528109246
 20
0.0167412270381833
 30
0.0
 11
0.0149012528109246
 21
0.016323828676903
 31
0.0
  0
LINE
  5
377
330
1F
100
AcDbEntity
  8
0
100
AcDbLine
 10
0.0149012528109246
 20
0.016323828676903
 30
0.0
 11
0.0149012528109246
 21
0.0135388710722702
 31
0.0
  0
LINE
  5
378
330
1F
100
AcDbEntity
  8
0
100
AcDbLine
 10
0.190787733698033
 20
0.0248934384634296
 30
0.0
 11
0.1904199076647905
 21
0.0248934384634296
 31
0.0
  0
LINE
  5
379
330
1F
100
AcDbEntity
  8
0
100
AcDbLine
 10
0.1880664716368669
 20
0.0248934384634296
 30
0.0
 11
0.1859329297131825
 21
0.0248934384634296
 31
0.0
  0
LINE
  5
37A
330
1F
100
AcDbEntity
  8
0
100
AcDbLine
 10
0.1824538213140461
 20
0.0249934384390755
 30
0.0
 11
0.1827982239198788
 21
0.0251184206189166
 31
0.0
  0
LINE
  5
37B
330
1F
100
AcDbEntity
  8
0
100
AcDbLine
 10
0.0499012529599362
 20
0.0248934384533248
 30
0.0
 11
0.0424116505265814
 21
0.0248934384533248
 31
0.0
  0
LINE
  5
37C
330
1F
100
AcDbEntity
  8
0
100
AcDbLine
 10
0.0367877350130605
 20
0.0248934384634296
 30
0.0
 11
0.036419908979818
 21
0.0248934384634296
 31
0.0
  0
LINE
  5
37D
330
1F
100
AcDbEntity
  8
0
100
AcDbLine
 10
0.0274496353207126
 20
0.0248934384533248
 30
0.0
 11
0.0266267386604162
 21
0.0248934384533248
 31
0.0
  0
LINE
  5
37E
330
1F
100
AcDbEntity
  8
0
100
AcDbLine
 10
0.0266267386604162
 20
0.0248934384533248
 30
0.0
 11
0.0265633213542364
 21
0.0248934384533248
 31
0.0
  0
LINE
  5
37F
330
1F
100
AcDbEntity
  8
0
100
AcDbLine
 10
0.0265633213542364
 20
0.0248934384533248
 30
0.0
 11
0.0263021989763485
 21
0.0248934384533248
 31
0.0
  0
LINE
  5
380
330
1F
100
AcDbEntity
  8
0
100
AcDbLine
 10
0.0263021989763485
 20
0.0248934384533248
 30
0.0
 11
0.0234845962270978
 21
0.0248934384533248
 31
0.0
  0
LINE
  5
381
330
1F
100
AcDbEntity
  8
0
100
AcDbLine
 10
0.0499012529599362
 20
0.002457232643413
 30
0.0
 11
0.0499012529599362
 21
0.0032570523604455
 31
0.0
  0
LINE
  5
382
330
1F
100
AcDbEntity
  8
0
100
AcDbLine
 10
0.0499012529599362
 20
0.012361525777308
 30
0.0
 11
0.0499012529599362
 21
0.0127062650416929
 31
0.0
  0
LINE
  5
383
330
1F
100
AcDbEntity
  8
0
100
AcDbLine
 10
0.0499012529599362
 20
0.0127062650416929
 30
0.0
 11
0.0499012529599362
 21
0.0131679527029237
 31
0.0
  0
LINE
  5
384
330
1F
100
AcDbEntity
  8
0
100
AcDbLine
 10
0.0499012529599362
 20
0.0134924921781046
 30
0.0
 11
0.0499012529599362
 21
0.0163100949693615
 31
0.0
  0
LINE
  5
385
330
1F
100
AcDbEntity
  8
0
100
AcDbLine
 10
0.0499012529599362
 20
0.0163100949693615
 30
0.0
 11
0.0499012529599362
 21
0.0167410273982342
 31
0.0
  0
LINE
  5
386
330
1F
100
AcDbEntity
  8
0
100
AcDbLine
 10
0.0499012529599362
 20
0.0167410273982342
 30
0.0
 11
0.0499012529599362
 21
0.0170700471934707
 31
0.0
  0
LINE
  5
387
330
1F
100
AcDbEntity
  8
0
100
AcDbLine
 10
0.0499012529599362
 20
0.0170700471934707
 30
0.0
 11
0.0499012529599362
 21
0.0174038359550852
 31
0.0
  0
LINE
  5
388
330
1F
100
AcDbEntity
  8
0
100
AcDbLine
 10
0.0149012528109246
 20
0.0016189242037258
 30
0.0
 11
0.0149012528109246
 21
0.001294384728545
 31
0.0
  0
LINE
  5
389
330
1F
100
AcDbEntity
  8
0
100
AcDbLine
 10
0.1904199076647905
 20
0.0248934384634296
 30
0.0
 11
0.1901465267629251
 21
0.0248934384634296
 31
0.0
  0
LINE
  5
38A
330
1F
100
AcDbEntity
  8
0
100
AcDbLine
 10
0.1859329297131825
 20
0.0248934384634296
 30
0.0
 11
0.1853968746003079
 21
0.0248934384634296
 31
0.0
  0
LINE
  5
38B
330
1F
100
AcDbEntity
  8
0
100
AcDbLine
 10
0.036419908979818
 20
0.0248934384634296
 30
0.0
 11
0.0361465280779526
 21
0.0248934384634296
 31
0.0
  0
LINE
  5
38C
330
1F
100
AcDbEntity
  8
0
100
AcDbLine
 10
0.0149012528109246
 20
0.0024253511293416
 30
0.0
 11
0.0149012528109246
 21
0.0020806118649566
 31
0.0
  0
LINE
  5
38D
330
1F
100
AcDbEntity
  8
0
100
AcDbLine
 10
0.0149012528109246
 20
0.0020806118649566
 30
0.0
 11
0.0149012528109246
 21
0.0016189242037258
 31
0.0
  0
LINE
  5
38E
330
1F
100
AcDbEntity
  8
0
100
AcDbLine
 10
0.1901465267629251
 20
0.0248934384634296
 30
0.0
 11
0.1898185316343693
 21
0.0248934384634296
 31
0.0
  0
LINE
  5
38F
330
1F
100
AcDbEntity
  8
0
100
AcDbLine
 10
0.1853968746003079
 20
0.0248934384634296
 30
0.0
 11
0.1843763060853919
 21
0.0248934384634296
 31
0.0
  0
LINE
  5
390
330
1F
100
AcDbEntity
  8
0
100
AcDbLine
 10
0.0424116505265814
 20
0.0248934384533248
 30
0.0
 11
0.0420571022099686
 21
0.0248934384533248
 31
0.0
  0
LINE
  5
391
330
1F
100
AcDbEntity
  8
0
100
AcDbLine
 10
0.0420571022099686
 20
0.0248934384533248
 30
0.0
 11
0.0417490416068656
 21
0.0248934384533248
 31
0.0
  0
LINE
  5
392
330
1F
100
AcDbEntity
  8
0
100
AcDbLine
 10
0.0417490416068656
 20
0.0248934384533248
 30
0.0
 11
0.0413316432455849
 21
0.0248934384533248
 31
0.0
  0
LINE
  5
393
330
1F
100
AcDbEntity
  8
0
100
AcDbLine
 10
0.0361465280779526
 20
0.0248934384634296
 30
0.0
 11
0.0358185329493968
 21
0.0248934384634296
 31
0.0
  0
LINE
  5
394
330
1F
100
AcDbEntity
  8
0
100
AcDbLine
 10
0.1684012506763332
 20
0.0227287646266236
 30
0.0
 11
0.1684012506763332
 21
0.0222770256361121
 31
0.0
  0
LINE
  5
395
330
1F
100
AcDbEntity
  8
0
100
AcDbLine
 10
0.1898185316343693
 20
0.0248934384634296
 30
0.0
 11
0.1894407046988151
 21
0.0248934384634296
 31
0.0
  0
LINE
  5
396
330
1F
100
AcDbEntity
  8
0
100
AcDbLine
 10
0.1894407046988151
 20
0.0248934384634296
 30
0.0
 11
0.1885582405103
 21
0.0248934384634296
 31
0.0
  0
LINE
  5
397
330
1F
100
AcDbEntity
  8
0
100
AcDbLine
 10
0.1843763060853919
 20
0.0248934384634296
 30
0.0
 11
0.1839066746941776
 21
0.0248934384634296
 31
0.0
  0
LINE
  5
398
330
1F
100
AcDbEntity
  8
0
100
AcDbLine
 10
0.0385135126240463
 20
0.0249075117477863
 30
0.0
 11
0.0373882237396056
 21
0.0248934384533248
 31
0.0
  0
LINE
  5
399
330
1F
100
AcDbEntity
  8
0
100
AcDbLine
 10
0.0358185329493968
 20
0.0248934384634296
 30
0.0
 11
0.0354407060138426
 21
0.0248934384634296
 31
0.0
  0
LINE
  5
39A
330
1F
100
AcDbEntity
  8
0
100
AcDbLine
 10
0.1839066746941776
 20
0.0248934384634296
 30
0.0
 11
0.1834734201163164
 21
0.0248934384634296
 31
0.0
  0
LINE
  5
39B
330
1F
100
AcDbEntity
  8
0
100
AcDbLine
 10
0.0413316432455849
 20
0.0248934384533248
 30
0.0
 11
0.0385466856799982
 21
0.0248934384533248
 31
0.0
  0
LINE
  5
39C
330
1F
100
AcDbEntity
  8
0
100
AcDbLine
 10
0.0354407060138426
 20
0.0248934384634296
 30
0.0
 11
0.0345582418253274
 21
0.0248934384634296
 31
0.0
  0
LINE
  5
39D
330
1F
100
AcDbEntity
  8
0
100
AcDbLine
 10
0.1834734201163164
 20
0.0248934384634296
 30
0.0
 11
0.1830828595347311
 21
0.0248934384634296
 31
0.0
  0
LINE
  5
39E
330
1F
100
AcDbEntity
  8
0
100
AcDbLine
 10
0.0345582418253274
 20
0.0248934384634296
 30
0.0
 11
0.0340664729518943
 21
0.0248934384634296
 31
0.0
  0
LINE
  5
39F
330
1F
100
AcDbEntity
  8
0
100
AcDbLine
 10
0.1830828595347311
 20
0.0248934384634296
 30
0.0
 11
0.1824518975387621
 21
0.0248934384634296
 31
0.0
  0
LINE
  5
3A0
330
1F
100
AcDbEntity
  8
0
100
AcDbLine
 10
0.0340664729518943
 20
0.0248934384634296
 30
0.0
 11
0.0319329310282099
 21
0.0248934384634296
 31
0.0
  0
LINE
  5
3A1
330
1F
100
AcDbEntity
  8
0
100
AcDbLine
 10
0.1824518975387621
 20
0.0248934384634296
 30
0.0
 11
0.1822206960927427
 21
0.0248934384634296
 31
0.0
  0
LINE
  5
3A2
330
1F
100
AcDbEntity
  8
0
100
AcDbLine
 10
0.1822206960927427
 20
0.0248934384634296
 30
0.0
 11
0.1819018694935206
 21
0.0248934384634296
 31
0.0
  0
LINE
  5
3A3
330
1F
100
AcDbEntity
  8
0
100
AcDbLine
 10
0.0319329310282099
 20
0.0248934384634296
 30
0.0
 11
0.0313968759153354
 21
0.0248934384634296
 31
0.0
  0
LINE
  5
3A4
330
1F
100
AcDbEntity
  8
0
100
AcDbLine
 10
0.0313968759153354
 20
0.0248934384634296
 30
0.0
 11
0.0303763074004193
 21
0.0248934384634296
 31
0.0
  0
LINE
  5
3A5
330
1F
100
AcDbEntity
  8
0
100
AcDbLine
 10
0.0303763074004193
 20
0.0248934384634296
 30
0.0
 11
0.0299066760092051
 21
0.0248934384634296
 31
0.0
  0
LINE
  5
3A6
330
1F
100
AcDbEntity
  8
0
100
AcDbLine
 10
0.0299066760092051
 20
0.0248934384634296
 30
0.0
 11
0.0294734214313439
 21
0.0248934384634296
 31
0.0
  0
LINE
  5
3A7
330
1F
100
AcDbEntity
  8
0
100
AcDbLine
 10
0.0294734214313439
 20
0.0248934384634296
 30
0.0
 11
0.0290828608497585
 21
0.0248934384634296
 31
0.0
  0
LINE
  5
3A8
330
1F
100
AcDbEntity
  8
0
100
AcDbLine
 10
0.0290828608497585
 20
0.0248934384634296
 30
0.0
 11
0.0284518988537896
 21
0.0248934384634296
 31
0.0
  0
LINE
  5
3A9
330
1F
100
AcDbEntity
  8
0
100
AcDbLine
 10
0.0342543518305201
 20
0.025267788995094
 30
0.0
 11
0.0345423357096826
 21
0.0252403204851178
 31
0.0
  0
LINE
  5
3AA
330
1F
100
AcDbEntity
  8
0
100
AcDbLine
 10
0.0499012529599362
 20
-0.0026169590484356
 30
0.0
 11
0.0499012529599362
 21
-0.0526065602055707
 31
0.0
  0
LINE
  5
3AB
330
1F
100
AcDbEntity
  8
0
100
AcDbLine
 10
0.0499012529599362
 20
0.0115256909219381
 30
0.0
 11
0.0499012529599362
 21
0.0032570523604455
 31
0.0
  0
LINE
  5
3AC
330
1F
100
AcDbEntity
  8
0
100
AcDbLine
 10
0.0149012528109246
 20
0.0032611859847114
 30
0.0
 11
0.0149012528109246
 21
0.011529824546204
 31
0.0
  0
LINE
  5
3AD
330
1F
100
AcDbEntity
  8
0
100
AcDbLine
 10
0.0149012528109246
 20
-0.0026169590484357
 30
0.0
 11
0.0149012528109246
 21
-0.0526065602055707
 31
0.0
  0
LINE
  5
3AE
330
1F
100
AcDbEntity
  8
0
100
AcDbLine
 10
0.0321352723249576
 20
0.0252985773789689
 30
0.0
 11
0.0323677241565767
 21
0.0252985773789689
 31
0.0
  0
LINE
  5
3AF
330
1F
100
AcDbEntity
  8
0
100
AcDbLine
 10
0.0321352723249576
 20
0.0252985773789689
 30
0.0
 11
0.0319894360507667
 21
0.0252985773789689
 31
0.0
  0
LINE
  5
3B0
330
1F
100
AcDbEntity
  8
0
100
AcDbLine
 10
0.0317954274522458
 20
0.0252985773789689
 30
0.0
 11
0.0319894360507667
 21
0.0252985773789689
 31
0.0
  0
LINE
  5
3B1
330
1F
100
AcDbEntity
  8
0
100
AcDbLine
 10
-0.1177494694255622
 20
0.0123934374474962
 30
0.0
 11
-0.1574480248035771
 21
0.0123934374474962
 31
0.0
  0
LINE
  5
3B2
330
1F
100
AcDbEntity
  8
0
100
AcDbLine
 10
-0.133172776736385
 20
0.0353934370675166
 30
0.0
 11
-0.1339661765849978
 21
0.0353934370675166
 31
0.0
  0
LINE
  5
3B3
330
1F
100
AcDbEntity
  8
0
100
AcDbLine
 10
-0.1975987457734651
 20
0.0093934374214192
 30
0.0
 11
-0.0775987484556742
 21
0.0093934374214192
 31
0.0
  0
LINE
  5
3B4
330
1F
100
AcDbEntity
  8
0
100
AcDbLine
 10
-0.1574480248035771
 20
0.035263436775696
 30
0.0
 11
-0.1177494694255622
 21
0.035263436775696
 31
0.0
  0
LINE
  5
3B5
330
1F
100
AcDbEntity
  8
0
100
AcDbLine
 10
-0.149778646417613
 20
0.0353934370675166
 30
0.0
 11
-0.1508589563617041
 21
0.0353934370675166
 31
0.0
  0
LINE
  5
3B6
330
1F
100
AcDbEntity
  8
0
100
AcDbLine
 10
-0.1237358788513609
 20
0.0357934373193462
 30
0.0
 11
-0.1243324828735435
 21
0.0357934373193462
 31
0.0
  0
LINE
  5
3B7
330
1F
100
AcDbEntity
  8
0
100
AcDbLine
 10
-0.1251167639084632
 20
0.0357934373193462
 30
0.0
 11
-0.1260684071418126
 21
0.0357934373193462
 31
0.0
  0
LINE
  5
3B8
330
1F
100
AcDbEntity
  8
0
100
AcDbLine
 10
-0.1312689264116029
 20
0.0357934373193462
 30
0.0
 11
-0.1328316516190292
 21
0.0357934373193462
 31
0.0
  0
LINE
  5
3B9
330
1F
100
AcDbEntity
  8
0
100
AcDbLine
 10
-0.1395029762951078
 20
0.0357934373193462
 30
0.0
 11
-0.1411641300767263
 21
0.0357934373193462
 31
0.0
  0
LINE
  5
3BA
330
1F
100
AcDbEntity
  8
0
100
AcDbLine
 10
-0.1427773502477867
 20
0.0357934373193462
 30
0.0
 11
-0.1443175337431488
 21
0.0357934373193462
 31
0.0
  0
LINE
  5
3BB
330
1F
100
AcDbEntity
  8
0
100
AcDbLine
 10
-0.1471098351573246
 20
0.0357934373193462
 30
0.0
 11
-0.1483244743771852
 21
0.0357934373193462
 31
0.0
  0
LINE
  5
3BC
330
1F
100
AcDbEntity
  8
0
100
AcDbLine
 10
-0.1317860363639972
 20
0.0353934365534265
 30
0.0
 11
-0.1316613613016701
 21
0.0353934370675166
 31
0.0
  0
LINE
  5
3BD
330
1F
100
AcDbEntity
  8
0
100
AcDbLine
 10
-0.1355661481339311
 20
0.0353934370675166
 30
0.0
 11
-0.1362277332942365
 21
0.0353934365534265
 31
0.0
  0
LINE
  5
3BE
330
1F
100
AcDbEntity
  8
0
100
AcDbLine
 10
-0.1371957593563156
 20
0.0353934370675166
 30
0.0
 11
-0.1378140875491573
 21
0.0353934370675166
 31
0.0
  0
LINE
  5
3BF
330
1F
100
AcDbEntity
  8
0
100
AcDbLine
 10
-0.123756913566541
 20
0.0353934365534265
 30
0.0
 11
-0.1235874646597084
 21
0.0353934370675166
 31
0.0
  0
LINE
  5
3C0
330
1F
100
AcDbEntity
  8
0
100
AcDbLine
 10
-0.1234309539556059
 20
0.0353934370675166
 30
0.0
 11
-0.1232621175113657
 21
0.0353934370675166
 31
0.0
  0
LINE
  5
3C1
330
1F
100
AcDbEntity
  8
0
100
AcDbLine
 10
-0.151155468615432
 20
0.0353934370675166
 30
0.0
 11
-0.1519471313619514
 21
0.0353934365534265
 31
0.0
  0
LINE
  5
3C2
330
1F
100
AcDbEntity
  8
0
100
AcDbLine
 10
-0.1292527330637699
 20
0.0353934365534265
 30
0.0
 11
-0.1289190506424731
 21
0.0353934370675166
 31
0.0
  0
LINE
  5
3C3
330
1F
100
AcDbEntity
  8
0
100
AcDbLine
 10
-0.1341350827352544
 20
0.0353934365534265
 30
0.0
 11
-0.1347487318921893
 21
0.0353934370675166
 31
0.0
  0
LINE
  5
3C4
330
1F
100
AcDbEntity
  8
0
100
AcDbLine
 10
-0.1266811719945883
 20
0.0353934370675166
 30
0.0
 11
-0.1271617820003345
 21
0.0353934365534265
 31
0.0
  0
LINE
  5
3C5
330
1F
100
AcDbEntity
  8
0
100
AcDbLine
 10
-0.1254188478115263
 20
0.0353934370675166
 30
0.0
 11
-0.1252494093035595
 21
0.0353934365534265
 31
0.0
  0
LINE
  5
3C6
330
1F
100
AcDbEntity
  8
0
100
AcDbLine
 10
-0.1257699445631242
 20
0.0353934365534265
 30
0.0
 11
-0.1255275226363863
 21
0.0353934372575064
 31
0.0
  0
LINE
  5
3C7
330
1F
100
AcDbEntity
  8
0
100
AcDbLine
 10
-0.1403296079954194
 20
0.0353934365534265
 30
0.0
 11
-0.1486546159492351
 21
0.0353934365534265
 31
0.0
  0
LINE
  5
3C8
330
1F
100
AcDbEntity
  8
0
100
AcDbLine
 10
-0.1382180554745897
 20
0.0353934365534265
 30
0.0
 11
-0.1390510609487806
 21
0.0353934365534265
 31
0.0
  0
LINE
  5
3C9
330
1F
100
AcDbEntity
  8
0
100
AcDbLine
 10
-0.1317860363639972
 20
0.0353934365534265
 30
0.0
 11
-0.1324191762154773
 21
0.0353934370675166
 31
0.0
  0
LINE
  5
3CA
330
1F
100
AcDbEntity
  8
0
100
AcDbLine
 10
-0.12791920523633
 20
0.0353934365534265
 30
0.0
 11
-0.1283157691651761
 21
0.0353934370675166
 31
0.0
  0
LINE
  5
3CB
330
1F
100
AcDbEntity
  8
0
100
AcDbLine
 10
-0.1309477056077918
 20
0.0353934370675166
 30
0.0
 11
-0.1302340850077984
 21
0.0353934365534265
 31
0.0
  0
LINE
  5
3CC
330
1F
100
AcDbEntity
  8
0
100
AcDbLine
 10
-0.1326749764556775
 20
0.0353934365534265
 30
0.0
 11
-0.133172776736385
 21
0.0353934370675166
 31
0.0
  0
LINE
  5
3CD
330
1F
100
AcDbEntity
  8
0
100
AcDbLine
 10
-0.1347487318921893
 20
0.0353934370675166
 30
0.0
 11
-0.1355661481339311
 21
0.0353934370675166
 31
0.0
  0
LINE
  5
3CE
330
1F
100
AcDbEntity
  8
0
100
AcDbLine
 10
-0.1365433931352063
 20
0.0353934365534265
 30
0.0
 11
-0.1371957593563156
 21
0.0353934370675166
 31
0.0
  0
LINE
  5
3CF
330
1F
100
AcDbEntity
  8
0
100
AcDbLine
 10
-0.1221119170313999
 20
0.0353934365534265
 30
0.0
 11
-0.1210323188678127
 21
0.0353934365534265
 31
0.0
  0
LINE
  5
3D0
330
1F
100
AcDbEntity
  8
0
100
AcDbLine
 10
-0.1229361043389473
 20
0.0353934365534265
 30
0.0
 11
-0.1222634209412708
 21
0.0353934365534265
 31
0.0
  0
LINE
  5
3D1
330
1F
100
AcDbEntity
  8
0
100
AcDbLine
 10
-0.1252494093035595
 20
0.0353934365534265
 30
0.0
 11
-0.124850331260305
 21
0.0353934372575064
 31
0.0
  0
LINE
  5
3D2
330
1F
100
AcDbEntity
  8
0
100
AcDbLine
 10
-0.1208924071209377
 20
0.0353934365534265
 30
0.0
 11
-0.117949461626209
 21
0.0353934365534265
 31
0.0
  0
LINE
  5
3D3
330
1F
100
AcDbEntity
  8
0
100
AcDbLine
 10
-0.1262233256892135
 20
0.0353934370675166
 30
0.0
 11
-0.1258834001338812
 21
0.0353934365534265
 31
0.0
  0
LINE
  5
3D4
330
1F
100
AcDbEntity
  8
0
100
AcDbLine
 10
-0.1572480341889623
 20
0.0353934361515324
 30
0.0
 11
-0.152261389890192
 21
0.0353934365534265
 31
0.0
  0
LINE
  5
3D5
330
1F
100
AcDbEntity
  8
0
100
AcDbLine
 10
-0.1200987470400638
 20
0.0373934377827723
 30
0.0
 11
-0.1200987470400638
 21
0.0623934372239788
 31
0.0
  0
LINE
  5
3D6
330
1F
100
AcDbEntity
  8
0
100
AcDbLine
 10
-0.1550987471890755
 20
0.0373934377827723
 30
0.0
 11
-0.1550987471890754
 21
0.0623934372239788
 31
0.0
  0
LINE
  5
3D7
330
1F
100
AcDbEntity
  8
0
100
AcDbLine
 10
0.1454012515704029
 20
-0.0124674643478313
 30
0.0
 11
0.1454012515704029
 21
-0.0526065602055707
 31
0.0
  0
LINE
  5
3D8
330
1F
100
AcDbEntity
  8
0
100
AcDbLine
 10
0.1454012515704029
 20
0.0272427161423322
 30
0.0
 11
0.1454012515704029
 21
-0.0124674643478313
 31
0.0
  0
LINE
  5
3D9
330
1F
100
AcDbEntity
  8
0
100
AcDbLine
 10
0.1454012515704029
 20
0.0272427161423322
 30
0.0
 11
0.1454012515704029
 21
0.0673934371122202
 31
0.0
  0
LINE
  5
3DA
330
1F
100
AcDbEntity
  8
0
100
AcDbLine
 10
0.1684012511904233
 20
0.0192630073834623
 30
0.0
 11
0.1684012511904233
 21
0.0190312022871222
 31
0.0
  0
LINE
  5
3DB
330
1F
100
AcDbEntity
  8
0
100
AcDbLine
 10
0.1424012515443259
 20
0.0673934371122202
 30
0.0
 11
0.1424012515443259
 21
-0.0526065602055707
 31
0.0
  0
LINE
  5
3DC
330
1F
100
AcDbEntity
  8
0
100
AcDbLine
 10
0.1682712508986027
 20
0.026610175124692
 30
0.0
 11
0.1682712508986027
 21
-0.0124558392356827
 31
0.0
  0
LINE
  5
3DD
330
1F
100
AcDbEntity
  8
0
100
AcDbLine
 10
0.1684012506763332
 20
0.0178304035675599
 30
0.0
 11
0.1684012511904233
 21
0.017682299565901
 31
0.0
  0
LINE
  5
3DE
330
1F
100
AcDbEntity
  8
0
100
AcDbLine
 10
0.1688012514422529
 20
-0.0070202724217563
 30
0.0
 11
0.1688012514422529
 21
-0.0067031162609114
 31
0.0
  0
LINE
  5
3DF
330
1F
100
AcDbEntity
  8
0
100
AcDbLine
 10
0.1688012514422529
 20
-0.0061970773558916
 30
0.0
 11
0.1688012514422529
 21
-0.0054985491555811
 31
0.0
  0
LINE
  5
3E0
330
1F
100
AcDbEntity
  8
0
100
AcDbLine
 10
0.1688012514422529
 20
-0.0036022195230809
 30
0.0
 11
0.1688012514422529
 21
-0.0024254910795748
 31
0.0
  0
LINE
  5
3E1
330
1F
100
AcDbEntity
  8
0
100
AcDbLine
 10
0.1688012514422529
 20
0.0211293693544798
 30
0.0
 11
0.1688012514422529
 21
0.0204829138841127
 31
0.0
  0
LINE
  5
3E2
330
1F
100
AcDbEntity
  8
0
100
AcDbLine
 10
0.1688012514422529
 20
0.0162496458851255
 30
0.0
 11
0.1688012514422529
 21
0.0148516490779161
 31
0.0
  0
LINE
  5
3E3
330
1F
100
AcDbEntity
  8
0
100
AcDbLine
 10
0.1688012514422529
 20
0.0133538313480253
 30
0.0
 11
0.1688012514422529
 21
0.0117713742437945
 31
0.0
  0
LINE
  5
3E4
330
1F
100
AcDbEntity
  8
0
100
AcDbLine
 10
0.1688012514422529
 20
0.0084565988168636
 30
0.0
 11
0.1688012514422529
 21
0.0067656720425518
 31
0.0
  0
LINE
  5
3E5
330
1F
100
AcDbEntity
  8
0
100
AcDbLine
 10
0.1684012511904233
 20
0.0173965299264344
 30
0.0
 11
0.1684012511904233
 21
0.0154579182023524
 31
0.0
  0
LINE
  5
3E6
330
1F
100
AcDbEntity
  8
0
100
AcDbLine
 10
0.1684012506763332
 20
0.0211691071235493
 30
0.0
 11
0.1684012511904233
 21
0.020887267944971
 31
0.0
  0
LINE
  5
3E7
330
1F
100
AcDbEntity
  8
0
100
AcDbLine
 10
0.1684012511904233
 20
0.0214864449060854
 30
0.0
 11
0.1684012511904233
 21
0.0217418227007065
 31
0.0
  0
LINE
  5
3E8
330
1F
100
AcDbEntity
  8
0
100
AcDbLine
 10
0.1684012506763332
 20
0.0214438478672753
 30
0.0
 11
0.1684012511904233
 21
0.0213053993936909
 31
0.0
  0
LINE
  5
3E9
330
1F
100
AcDbEntity
  8
0
100
AcDbLine
 10
0.1684012506763332
 20
0.0212352720013534
 30
0.0
 11
0.1684012506763332
 21
0.0211691071235493
 31
0.0
  0
LINE
  5
3EA
330
1F
100
AcDbEntity
  8
0
100
AcDbLine
 10
0.1684012506763332
 20
0.0184493072879902
 30
0.0
 11
0.1684012513804131
 21
0.0186678694565882
 31
0.0
  0
LINE
  5
3EB
330
1F
100
AcDbEntity
  8
0
100
AcDbLine
 10
0.1684012513804131
 20
0.0091025696139144
 30
0.0
 11
0.1684012511904233
 21
0.0132742720389872
 31
0.0
  0
LINE
  5
3EC
330
1F
100
AcDbEntity
  8
0
100
AcDbLine
 10
0.1684012511904233
 20
-0.006954945794057
 30
0.0
 11
0.1684012513804131
 21
0.0091025696139144
 31
0.0
  0
LINE
  5
3ED
330
1F
100
AcDbEntity
  8
0
100
AcDbLine
 10
0.1684012506763332
 20
-0.0122558470350358
 30
0.0
 11
0.1684012506763332
 21
-0.0072692043222976
 31
0.0
  0
LINE
  5
3EE
330
1F
100
AcDbEntity
  8
0
100
AcDbLine
 10
0.1684012511904233
 20
0.018768859878681
 30
0.0
 11
0.1684012511904233
 21
0.0190312022871222
 31
0.0
  0
LINE
  5
3EF
330
1F
100
AcDbEntity
  8
0
100
AcDbLine
 10
0.1684012506763332
 20
0.0197427762643349
 30
0.0
 11
0.1684012511904233
 21
0.0208028584035759
 31
0.0
  0
LINE
  5
3F0
330
1F
100
AcDbEntity
  8
0
100
AcDbLine
 10
0.1684012502744392
 20
0.0270427255277168
 30
0.0
 11
0.1684012506763332
 21
0.0240997784469567
 31
0.0
  0
LINE
  5
3F1
330
1F
100
AcDbEntity
  8
0
100
AcDbLine
 10
0.1684012511904233
 20
0.0182465204137072
 30
0.0
 11
0.1684012506763332
 21
0.0178304035675599
 31
0.0
  0
LINE
  5
3F2
330
1F
100
AcDbEntity
  8
0
100
AcDbLine
 10
0.1684012506763332
 20
0.0238243066267067
 30
0.0
 11
0.1684012506763332
 21
0.022904512755135
 31
0.0
  0
LINE
  5
3F3
330
1F
100
AcDbEntity
  8
0
100
AcDbLine
 10
0.170401251905679
 20
-0.0069743254296302
 30
0.0
 11
0.170401251905679
 21
-0.0101065616956868
 31
0.0
  0
LINE
  5
3F4
330
1F
100
AcDbEntity
  8
0
100
AcDbLine
 10
0.1868815578106167
 20
0.0252985773789689
 30
0.0
 11
0.1866024596126409
 21
0.0252985773789689
 31
0.0
  0
LINE
  5
3F5
330
1F
100
AcDbEntity
  8
0
100
AcDbLine
 10
0.0332959025706029
 20
0.0252985773789689
 30
0.0
 11
0.0326024609276684
 21
0.0252985773789689
 31
0.0
  0
LINE
  5
3F6
330
1F
100
AcDbEntity
  8
0
100
AcDbLine
 10
0.0314992260283964
 20
0.0252985773789689
 30
0.0
 11
0.0317954274522458
 21
0.0252985773789689
 31
0.0
  0
LINE
  5
3F7
330
1F
100
AcDbEntity
  8
0
100
AcDbLine
 10
0.1872959012555755
 20
0.0252985773789689
 30
0.0
 11
0.1870157346773708
 21
0.0252985773789689
 31
0.0
  0
ENDSEC
  0
SECTION
  2
OBJECTS
  0
DICTIONARY
  5
C
330
0
100
AcDbDictionary
  3
ACAD_GROUP
350
D
  3
ACAD_LAYOUT
350
1A
  3
ACAD_MATERIAL
350
43
  3
ACAD_MLEADERSTYLE
350
5B
  3
ACAD_MLINESTYLE
350
17
  3
ACAD_PLOTSETTINGS
350
19
  3
ACAD_SCALELIST
350
47
  3
ACAD_VISUALSTYLE
350
2A
  3
ACDBHEADERROUNDTRIPXREC
350
3F8
  3
ACDBVARIABLEDICTIONARY
350
419
  3
DWGPROPS
350
420
  0
DICTIONARY
  5
421
330
8
100
AcDbDictionary
280
     1
  3
ACAD_XREC_ROUNDTRIP
360
422
  0
DICTIONARY
  5
D
102
{ACAD_REACTORS
330
C
102
}
330
C
100
AcDbDictionary
  0
DICTIONARY
  5
1A
102
{ACAD_REACTORS
330
C
102
}
330
C
100
AcDbDictionary
  0
DICTIONARY
  5
43
102
{ACAD_REACTORS
330
C
102
}
330
C
100
AcDbDictionary
  3
BYBLOCK
350
45
  3
BYLAYER
350
44
  3
GLOBAL
350
46
  0
DICTIONARY
  5
5B
102
{ACAD_REACTORS
330
C
102
}
330
C
100
AcDbDictionary
  3
STANDARD
350
5C
  0
DICTIONARY
  5
17
102
{ACAD_REACTORS
330
C
102
}
330
C
100
AcDbDictionary
  3
STANDARD
350
18
  0
DICTIONARY
  5
19
102
{ACAD_REACTORS
330
C
102
}
330
C
100
AcDbDictionary
  0
DICTIONARY
  5
47
102
{ACAD_REACTORS
330
C
102
}
330
C
100
AcDbDictionary
  3
A0
350
48
  3
A1
350
49
  3
A2
350
4A
  3
A3
350
4B
  3
A4
350
4C
  3
A5
350
4D
  3
A6
350
4E
  3
A7
350
4F
  3
A8
350
50
  3
A9
350
51
  3
B1
350
52
  3
B2
350
53
  3
B3
350
54
  3
B4
350
55
  3
B5
350
56
  3
B6
350
57
  3
B7
350
58
  0
DICTIONARY
  5
2A
102
{ACAD_REACTORS
330
C
102
}
330
C
100
AcDbDictionary
  3
2DWIREFRAME
350
2F
  3
BASIC
350
32
  3
BRIGHTEN
350
36
  3
COLORCHANGE
350
3A
  3
CONCEPTUAL
350
34
  3
DIM
350
35
  3
EDGECOLOROFF
350
3D
  3
FACEPATTERN
350
39
  3
FLAT
350
2B
  3
FLATWITHEDGES
350
2C
  3
GOURAUD
350
2D
  3
GOURAUDWITHEDGES
350
2E
  3
HIDDEN
350
31
  3
JITTEROFF
350
3B
  3
LINEPATTERN
350
38
  3
OVERHANGOFF
350
3C
  3
REALISTIC
350
33
  3
SHADED
350
42
  3
SHADED_WITH_EDGES
350
41
  3
SHADES_OF_GRAY
350
3E
  3
SKETCHY
350
3F
  3
THICKEN
350
37
  3
WIREFRAME
350
30
  3
X-RAY
350
40
  0
DICTIONARY
  5
3F8
102
{ACAD_REACTORS
330
C
102
}
330
C
100
AcDbDictionary
  3
CEPSNID
350
402
  3
CEPSNTYPE
350
401
  3
DIMSTYLEDATA
350
418
  3
FINGERPRINTGUID
350
403
  3
HYPERLINKBASE
350
3FB
  3
INSUNITS
350
400
  3
LAYOUTDICT
350
3FD
  3
LWETCUNION
350
3FF
  3
PLOTSETDICT
350
3FE
  3
PSVPSCALE
350
405
  3
PUCSBASE
350
408
  3
PUCSORGBACK
350
40E
  3
PUCSORGBOTTOM
350
40A
  3
PUCSORGFRONT
350
40D
  3
PUCSORGLEFT
350
40B
  3
PUCSORGRIGHT
350
40C
  3
PUCSORGTOP
350
409
  3
PUCSORTHOREF
350
406
  3
PUCSORTHOVIEW
350
407
  3
STYLESHEET
350
3FC
  3
TSTACKALIGN
350
3F9
  3
TSTACKSIZE
350
3FA
  3
UCSBASE
350
411
  3
UCSORGBACK
350
417
  3
UCSORGBOTTOM
350
413
  3
UCSORGFRONT
350
416
  3
UCSORGLEFT
350
414
  3
UCSORGRIGHT
350
415
  3
UCSORGTOP
350
412
  3
UCSORTHOREF
350
40F
  3
UCSORTHOVIEW
350
410
  3
VERSIONGUID
350
404
  0
DICTIONARY
  5
419
102
{ACAD_REACTORS
330
C
102
}
330
C
100
AcDbDictionary
  3
CANNOSCALE
350
423
  3
CMLEADERSTYLE
350
41B
  3
CTABLESTYLE
350
41A
  3
DIMASSOC
350
41E
  3
HIDETEXT
350
41F
  3
MSLTSCALE
350
424
  0
XRECORD
  5
420
102
{ACAD_REACTORS
330
C
102
}
330
C
100
AcDbXrecord
  1
DWGPROPS COOKIE
  2

  3

  4

  6

  7

  8
im_marketing1
  9

300
=
301
=
302
=
303
=
304
=
305
=
306
=
307
=
308
=
309
=
 40
0.0
 41
2460503.478795151
 42
2460503.478813924
  1

 90
        0
  0
XRECORD
  5
422
102
{ACAD_REACTORS
330
421
102
}
330
421
100
AcDbXrecord
102
VTR_0.000_0.000_1.000_1.000_VISUALSTYLE
340
2F
102
VTR_0.000_0.000_1.000_1.000_GRIDDISPLAY
 70
     3
102
VTR_0.000_0.000_1.000_1.000_GRIDMAJOR
 70
     5
102
VTR_0.000_0.000_1.000_1.000_DEFAULTLIGHTING
280
     1
102
VTR_0.000_0.000_1.000_1.000_DEFAULTLIGHTINGTYPE
 70
     1
102
VTR_0.000_0.000_1.000_1.000_BRIGHTNESS
141
0.0
102
VTR_0.000_0.000_1.000_1.000_CONTRAST
142
0.0
  0
MATERIAL
  5
45
102
{ACAD_REACTORS
330
43
102
}
102
{ACAD_XDICTIONARY
360
427
102
}
330
43
100
AcDbMaterial
  1
BYBLOCK
  0
MATERIAL
  5
44
102
{ACAD_REACTORS
330
43
102
}
102
{ACAD_XDICTIONARY
360
425
102
}
330
43
100
AcDbMaterial
  1
BYLAYER
  0
MATERIAL
  5
46
102
{ACAD_REACTORS
330
43
102
}
102
{ACAD_XDICTIONARY
360
429
102
}
330
43
100
AcDbMaterial
  1
GLOBAL
  0
ACAD_PROXY_OBJECT
  5
5C
102
{ACAD_REACTORS
330
5B
102
}
330
5B
100
AcDbProxyObject
 90
      499
 91
      505
 93
      610
310
40901902A4063FBFFFFFE056BD1B81E855B9FC0AD7A3703D0AD73F4214DD185B99185C9900AD7A3703D0AC73F90141901A02B5E8DC0F42B1CFC02B5E8DC0F42B1CFE5764000000000000300FC0
340
14
340
0
340
11
340
0
 94
        0
1001
ACAD_MLEADERVER
1070
     2
  0
MLINESTYLE
  5
18
102
{ACAD_REACTORS
330
17
102
}
330
17
100
AcDbMlineStyle
  2
Standard
 70
     0
  3

 62
   256
 51
90.0
 52
90.0
 71
     2
 49
0.5
 62
   256
  6
BYLAYER
 49
-0.5
 62
   256
  6
BYLAYER
  0
ACAD_PROXY_OBJECT
  5
48
102
{ACAD_REACTORS
330
47
102
}
330
47
100
AcDbProxyObject
 90
      499
 91
      503
 93
       41
310
903313A31580
  0
ACAD_PROXY_OBJECT
  5
49
102
{ACAD_REACTORS
330
47
102
}
330
47
100
AcDbProxyObject
 90
      499
 91
      503
 93
      257
310
90E312F31323822203D2031272D3022000000000000200FC000000000000284000
  0
ACAD_PROXY_OBJECT
  5
4A
102
{ACAD_REACTORS
330
47
102
}
330
47
100
AcDbProxyObject
 90
      499
 91
      503
 93
      249
310
90D312F363422203D2031272D3022000000000000240FC000000000000284000
  0
ACAD_PROXY_OBJECT
  5
4B
102
{ACAD_REACTORS
330
47
102
}
330
47
100
AcDbProxyObject
 90
      499
 91
      503
 93
      249
310
90D312F333222203D2031272D3022000000000000280FC000000000000284000
  0
ACAD_PROXY_OBJECT
  5
4C
102
{ACAD_REACTORS
330
47
102
}
330
47
100
AcDbProxyObject
 90
      499
 91
      503
 93
      249
310
90D312F313622203D2031272D30220000000000002C0FC000000000000284000
  0
ACAD_PROXY_OBJECT
  5
4D
102
{ACAD_REACTORS
330
47
102
}
330
47
100
AcDbProxyObject
 90
      499
 91
      503
 93
      249
310
90D332F333222203D2031272D30220000000000002E0FC000000000000284000
  0
ACAD_PROXY_OBJECT
  5
4E
102
{ACAD_REACTORS
330
47
102
}
330
47
100
AcDbProxyObject
 90
      499
 91
      503
 93
      241
310
90C312F3822203D2031272D3022000000000000300FC000000000000284000
  0
ACAD_PROXY_OBJECT
  5
4F
102
{ACAD_REACTORS
330
47
102
}
330
47
100
AcDbProxyObject
 90
      499
 91
      503
 93
      249
310
90D332F313622203D2031272D3022000000000000320FC000000000000284000
  0
ACAD_PROXY_OBJECT
  5
50
102
{ACAD_REACTORS
330
47
102
}
330
47
100
AcDbProxyObject
 90
      499
 91
      503
 93
      241
310
90C312F3422203D2031272D3022000000000000340FC000000000000284000
  0
ACAD_PROXY_OBJECT
  5
51
102
{ACAD_REACTORS
330
47
102
}
330
47
100
AcDbProxyObject
 90
      499
 91
      503
 93
      241
310
90C332F3822203D2031272D3022000000000000360FC000000000000284000
  0
ACAD_PROXY_OBJECT
  5
52
102
{ACAD_REACTORS
330
47
102
}
330
47
100
AcDbProxyObject
 90
      499
 91
      503
 93
      241
310
90C312F3222203D2031272D3022000000000000380FC000000000000284000
  0
ACAD_PROXY_OBJECT
  5
53
102
{ACAD_REACTORS
330
47
102
}
330
47
100
AcDbProxyObject
 90
      499
 91
      503
 93
      241
310
90C332F3422203D2031272D30220000000000003A0FC000000000000284000
  0
ACAD_PROXY_OBJECT
  5
54
102
{ACAD_REACTORS
330
47
102
}
330
47
100
AcDbProxyObject
 90
      499
 91
      503
 93
      161
310
90A3122203D2031272D30224000000000000284000
  0
ACAD_PROXY_OBJECT
  5
55
102
{ACAD_REACTORS
330
47
102
}
330
47
100
AcDbProxyObject
 90
      499
 91
      503
 93
      257
310
90E312D312F3222203D2031272D30220000000000003E0FC000000000000284000
  0
ACAD_PROXY_OBJECT
  5
56
102
{ACAD_REACTORS
330
47
102
}
330
47
100
AcDbProxyObject
 90
      499
 91
      503
 93
      225
310
90A3322203D2031272D302200000000000002100000000000000284000
  0
ACAD_PROXY_OBJECT
  5
57
102
{ACAD_REACTORS
330
47
102
}
330
47
100
AcDbProxyObject
 90
      499
 91
      503
 93
      225
310
90A3622203D2031272D302200000000000006100000000000000284000
  0
ACAD_PROXY_OBJECT
  5
58
102
{ACAD_REACTORS
330
47
102
}
330
47
100
AcDbProxyObject
 90
      499
 91
      503
 93
      249
310
90D31272D3022203D2031272D30220000000000000A100000000000000284000
  0
ACAD_PROXY_OBJECT
  5
2F
102
{ACAD_REACTORS
330
2A
102
}
330
2A
100
AcDbProxyObject
 90
      499
 91
      501
 93
      436
310
42CC9915DA5C99599C985B595049028333333333333E33F0000000000000F90107901411070040501600405405064090741402480A0340
1001
ACAD
1000
AcDbSavedByObjectVersion
1070
     0
  0
ACAD_PROXY_OBJECT
  5
32
102
{ACAD_REACTORS
330
2A
102
}
330
2A
100
AcDbProxyObject
 90
      499
 91
      501
 93
      388
310
4150985CDA58D07406404333333333333E33F0000000000000F90107A41107004050150841D405064090741402480A0350
1001
ACAD
1000
AcDbSavedByObjectVersion
1070
     0
  0
ACAD_PROXY_OBJECT
  5
36
102
{ACAD_REACTORS
330
2A
102
}
330
2A
100
AcDbProxyObject
 90
      499
 91
      501
 93
      428
310
42109C9A59DA1D195B90C409028333333333333E33F0000000000000F9010790141107004050150841D405064090741402480A029950
1001
ACAD
1000
AcDbSavedByObjectVersion
1070
     0
  0
ACAD_PROXY_OBJECT
  5
3A
102
{ACAD_REACTORS
330
2A
102
}
330
2A
100
AcDbProxyObject
 90
      499
 91
      501
 93
      452
310
42D0DBDB1BDC90DA185B99D95104090240C333333333333E33F0000000000000F90108901411070040501508421405064090741402480A0350
1001
ACAD
1000
AcDbSavedByObjectVersion
1070
     0
  0
ACAD_PROXY_OBJECT
  5
34
102
{ACAD_REACTORS
330
2A
102
}
330
2A
100
AcDbProxyObject
 90
      499
 91
      501
 93
      500
310
4290DBDB98D95C1D1D585B10940D028333333333333E33F0000000000000F90107902409070040501000000000018199010841D405064090740C02480A0340
1001
ACAD
1000
AcDbSavedByObjectVersion
1070
     0
  0
ACAD_PROXY_OBJECT
  5
35
102
{ACAD_REACTORS
330
2A
102
}
330
2A
100
AcDbProxyObject
 90
      499
 91
      501
 93
      412
310
40D11A5B50B409028333333333333E33F0000000000000F9010790141107004050150841D405064090741402480A02677FFFFFD0
1001
ACAD
1000
AcDbSavedByObjectVersion
1070
     0
  0
ACAD_PROXY_OBJECT
  5
3D
102
{ACAD_REACTORS
330
2A
102
}
330
2A
100
AcDbProxyObject
 90
      499
 91
      501
 93
      452
310
43115919D950DBDB1BDC93D999916409028333333333333E33F0000000000000F9010790141107004050150841D405064090741402480A0350
1001
ACAD
1000
AcDbSavedByObjectVersion
1070
     0
  0
ACAD_PROXY_OBJECT
  5
39
102
{ACAD_REACTORS
330
2A
102
}
330
2A
100
AcDbProxyObject
 90
      499
 91
      501
 93
      444
310
42D19858D95C185D1D195C9B90F409028333333333333E33F0000000000000F9010790141107004050150841D405064090741402480A0350
1001
ACAD
1000
AcDbSavedByObjectVersion
1070
     0
  0
ACAD_PROXY_OBJECT
  5
2B
102
{ACAD_REACTORS
330
2A
102
}
330
2A
100
AcDbProxyObject
 90
      499
 91
      501
 93
      380
310
41119B185D240901404333333333333E33F0000000000000F9010740A907004050150841D405064090741402480A1B50
1001
ACAD
1000
AcDbSavedByObjectVersion
1070
     0
  0
ACAD_PROXY_OBJECT
  5
2C
102
{ACAD_REACTORS
330
2A
102
}
330
2A
100
AcDbProxyObject
 90
      499
 91
      501
 93
      468
310
43519B185D15DA5D1A115919D95CD0140901404333333333333E33F0000000000000F90107409019070040501600405405064090741402480A1B50
1001
ACAD
1000
AcDbSavedByObjectVersion
1070
     0
  0
ACAD_PROXY_OBJECT
  5
2D
102
{ACAD_REACTORS
330
2A
102
}
330
2A
100
AcDbProxyObject
 90
      499
 91
      501
 93
      404
310
41D1DBDD5C985D5910240902404333333333333E33F0000000000000F9010740A9070040501641D405064090741402480A1B50
1001
ACAD
1000
AcDbSavedByObjectVersion
1070
     0
  0
ACAD_PROXY_OBJECT
  5
2E
102
{ACAD_REACTORS
330
2A
102
}
330
2A
100
AcDbProxyObject
 90
      499
 91
      501
 93
      492
310
4411DBDD5C985D5915DA5D1A115919D95CD0340902404333333333333E33F0000000000000F90107409019070040501600405405064090741402480A1B50
1001
ACAD
1000
AcDbSavedByObjectVersion
1070
     0
  0
ACAD_PROXY_OBJECT
  5
31
102
{ACAD_REACTORS
330
2A
102
}
330
2A
100
AcDbProxyObject
 90
      499
 91
      501
 93
      476
310
41921A5919195B90640502408333333333333E33F0000000000000F901079024090700405020000000000001110200405405064090740C02480A0340
1001
ACAD
1000
AcDbSavedByObjectVersion
1070
     0
  0
ACAD_PROXY_OBJECT
  5
3B
102
{ACAD_REACTORS
330
2A
102
}
330
2A
100
AcDbProxyObject
 90
      499
 91
      501
 93
      428
310
42529A5D1D195C93D999914409028333333333333E33F0000000000000F9010790141107004050150A41D405064090741402480A0350
1001
ACAD
1000
AcDbSavedByObjectVersion
1070
     0
  0
ACAD_PROXY_OBJECT
  5
38
102
{ACAD_REACTORS
330
2A
102
}
330
2A
100
AcDbProxyObject
 90
      499
 91
      501
 93
      444
310
42D31A5B995C185D1D195C9B90E409028333333333333E33F0000000000000F9010790141107004050750841D405064090741402483A0350
1001
ACAD
1000
AcDbSavedByObjectVersion
1070
     0
  0
ACAD_PROXY_OBJECT
  5
3C
102
{ACAD_REACTORS
330
2A
102
}
330
2A
100
AcDbProxyObject
 90
      499
 91
      501
 93
      444
310
42D3DD995C9A185B99D3D999915409028333333333333E33F0000000000000F9010790141107004050150941D405064090741402480A0350
1001
ACAD
1000
AcDbSavedByObjectVersion
1070
     0
  0
ACAD_PROXY_OBJECT
  5
33
102
{ACAD_REACTORS
330
2A
102
}
330
2A
100
AcDbProxyObject
 90
      499
 91
      501
 93
      428
310
425499585B1A5CDD1A58D08409038333333333333E33F0000000000000F9010740A907004050150800405405064090740C02480A1B40
1001
ACAD
1000
AcDbSavedByObjectVersion
1070
     0
  0
ACAD_PROXY_OBJECT
  5
42
102
{ACAD_REACTORS
330
2A
102
}
330
2A
100
AcDbProxyObject
 90
      499
 91
      501
 93
      420
310
4194DA1859195911B40902404333333333333E33F0000000000000F9010740A41107004050150800405405064090840C02480A0B40
1001
ACAD
1000
AcDbSavedByObjectVersion
1070
     0
  0
ACAD_PROXY_OBJECT
  5
41
102
{ACAD_REACTORS
330
2A
102
}
330
2A
100
AcDbProxyObject
 90
      499
 91
      501
 93
      516
310
4454DA18591959081DDA5D1A08195919D95CD1A40902404333333333333E33F0000000000000F901074090142907004050250800405405064090740C02480A0B40
1001
ACAD
1000
AcDbSavedByObjectVersion
1070
     0
  0
ACAD_PROXY_OBJECT
  5
3E
102
{ACAD_REACTORS
330
2A
102
}
330
2A
100
AcDbProxyObject
 90
      499
 91
      501
 93
      532
310
4394DA1859195CC81BD98811DC985E5174090240C333333333333E33F0000000000000F901079024090741D01000000000000111010841D405064090740C02480A0340
1001
ACAD
1000
AcDbSavedByObjectVersion
1070
     0
  0
ACAD_PROXY_OBJECT
  5
3F
102
{ACAD_REACTORS
330
2A
102
}
330
2A
100
AcDbProxyObject
 90
      499
 91
      501
 93
      476
310
41D4DAD95D18DA1E51840502408333333333333E33F0000000000000F901079024090741D01000000000000111010B41D405064090741802480A0340
1001
ACAD
1000
AcDbSavedByObjectVersion
1070
     0
  0
ACAD_PROXY_OBJECT
  5
37
102
{ACAD_REACTORS
330
2A
102
}
330
2A
100
AcDbProxyObject
 90
      499
 91
      501
 93
      412
310
41D51A1A58DAD95B90D409028333333333333E33F0000000000000F9010790141107004050150C41D405064090741402480A0350
1001
ACAD
1000
AcDbSavedByObjectVersion
1070
     0
  0
ACAD_PROXY_OBJECT
  5
30
102
{ACAD_REACTORS
330
2A
102
}
330
2A
100
AcDbProxyObject
 90
      499
 91
      501
 93
      420
310
4255DA5C99599C985B595059028333333333333E33F0000000000000F90107901411070040501600405405064090740C02480A0340
1001
ACAD
1000
AcDbSavedByObjectVersion
1070
     0
  0
ACAD_PROXY_OBJECT
  5
40
102
{ACAD_REACTORS
330
2A
102
}
330
2A
100
AcDbProxyObject
 90
      499
 91
      501
 93
      404
310
41560B54985E51940902404000000000000E03F0000000000000F9010740501907004050150841D405064090740C02480A1B40
1001
ACAD
1000
AcDbSavedByObjectVersion
1070
     0
  0
XRECORD
  5
402
102
{ACAD_REACTORS
330
3F8
102
}
330
3F8
100
AcDbXrecord
340
0
  0
XRECORD
  5
401
102
{ACAD_REACTORS
330
3F8
102
}
330
3F8
100
AcDbXrecord
 90
        0
  0
XRECORD
  5
418
102
{ACAD_REACTORS
330
3F8
102
}
330
3F8
100
AcDbXrecord
1000
DSTYLE
1002
{
1070
   171
 70
     2
1070
   143
 40
25.4
1070
   274
 70
     2
1070
    41
 40
0.18
1070
   141
 40
0.09
1070
   271
 70
     4
1070
    43
 40
0.38
1070
   278
 70
    46
1070
    44
 40
0.18
1070
    42
 40
0.0625
1070
   147
 40
0.09
1070
    77
 70
     0
1070
   272
 70
     4
1070
    73
 70
     1
1070
   172
 70
     0
1070
    74
 70
     1
1070
   283
 70
     1
1070
   340
340
11
1070
   140
 40
0.18
1070
   284
 70
     0
1070
    78
 70
     0
1002
}
  0
XRECORD
  5
403
102
{ACAD_REACTORS
330
3F8
102
}
330
3F8
100
AcDbXrecord
  1
{e6e8f4c5-05ed-4540-ae61-a85a1ca08bcd}
  0
XRECORD
  5
3FB
102
{ACAD_REACTORS
330
3F8
102
}
330
3F8
100
AcDbXrecord
  1

  0
XRECORD
  5
400
102
{ACAD_REACTORS
330
3F8
102
}
330
3F8
100
AcDbXrecord
 90
        6
  0
XRECORD
  5
3FD
102
{ACAD_REACTORS
330
3F8
102
}
330
3F8
100
AcDbXrecord
340
1A
  0
XRECORD
  5
3FF
102
{ACAD_REACTORS
330
3F8
102
}
330
3F8
100
AcDbXrecord
 90
    10781
  0
XRECORD
  5
3FE
102
{ACAD_REACTORS
330
3F8
102
}
330
3F8
100
AcDbXrecord
340
19
  0
XRECORD
  5
405
102
{ACAD_REACTORS
330
3F8
102
}
330
3F8
100
AcDbXrecord
 40
0.0
  0
XRECORD
  5
408
102
{ACAD_REACTORS
330
3F8
102
}
330
3F8
100
AcDbXrecord
340
0
  0
XRECORD
  5
40E
102
{ACAD_REACTORS
330
3F8
102
}
330
3F8
100
AcDbXrecord
 10
0.0
 20
0.0
 30
0.0
  0
XRECORD
  5
40A
102
{ACAD_REACTORS
330
3F8
102
}
330
3F8
100
AcDbXrecord
 10
0.0
 20
0.0
 30
0.0
  0
XRECORD
  5
40D
102
{ACAD_REACTORS
330
3F8
102
}
330
3F8
100
AcDbXrecord
 10
0.0
 20
0.0
 30
0.0
  0
XRECORD
  5
40B
102
{ACAD_REACTORS
330
3F8
102
}
330
3F8
100
AcDbXrecord
 10
0.0
 20
0.0
 30
0.0
  0
XRECORD
  5
40C
102
{ACAD_REACTORS
330
3F8
102
}
330
3F8
100
AcDbXrecord
 10
0.0
 20
0.0
 30
0.0
  0
XRECORD
  5
409
102
{ACAD_REACTORS
330
3F8
102
}
330
3F8
100
AcDbXrecord
 10
0.0
 20
0.0
 30
0.0
  0
XRECORD
  5
406
102
{ACAD_REACTORS
330
3F8
102
}
330
3F8
100
AcDbXrecord
340
0
  0
XRECORD
  5
407
102
{ACAD_REACTORS
330
3F8
102
}
330
3F8
100
AcDbXrecord
 70
     0
  0
XRECORD
  5
3FC
102
{ACAD_REACTORS
330
3F8
102
}
330
3F8
100
AcDbXrecord
  1

  0
XRECORD
  5
3F9
102
{ACAD_REACTORS
330
3F8
102
}
330
3F8
100
AcDbXrecord
 90
        1
  0
XRECORD
  5
3FA
102
{ACAD_REACTORS
330
3F8
102
}
330
3F8
100
AcDbXrecord
 90
       70
  0
XRECORD
  5
411
102
{ACAD_REACTORS
330
3F8
102
}
330
3F8
100
AcDbXrecord
340
0
  0
XRECORD
  5
417
102
{ACAD_REACTORS
330
3F8
102
}
330
3F8
100
AcDbXrecord
 10
0.0
 20
0.0
 30
0.0
  0
XRECORD
  5
413
102
{ACAD_REACTORS
330
3F8
102
}
330
3F8
100
AcDbXrecord
 10
0.0
 20
0.0
 30
0.0
  0
XRECORD
  5
416
102
{ACAD_REACTORS
330
3F8
102
}
330
3F8
100
AcDbXrecord
 10
0.0
 20
0.0
 30
0.0
  0
XRECORD
  5
414
102
{ACAD_REACTORS
330
3F8
102
}
330
3F8
100
AcDbXrecord
 10
0.0
 20
0.0
 30
0.0
  0
XRECORD
  5
415
102
{ACAD_REACTORS
330
3F8
102
}
330
3F8
100
AcDbXrecord
 10
0.0
 20
0.0
 30
0.0
  0
XRECORD
  5
412
102
{ACAD_REACTORS
330
3F8
102
}
330
3F8
100
AcDbXrecord
 10
0.0
 20
0.0
 30
0.0
  0
XRECORD
  5
40F
102
{ACAD_REACTORS
330
3F8
102
}
330
3F8
100
AcDbXrecord
340
0
  0
XRECORD
  5
410
102
{ACAD_REACTORS
330
3F8
102
}
330
3F8
100
AcDbXrecord
 70
     0
  0
XRECORD
  5
404
102
{ACAD_REACTORS
330
3F8
102
}
330
3F8
100
AcDbXrecord
  1
{FAEB1C32-E019-11D5-929B-00C0DF256EC4}
  0
DICTIONARYVAR
  5
423
102
{ACAD_REACTORS
330
419
102
}
330
419
100
DictionaryVariables
280
     0
  1
1:1
  0
DICTIONARYVAR
  5
41B
102
{ACAD_REACTORS
330
419
102
}
330
419
100
DictionaryVariables
280
     0
  1
Standard
  0
DICTIONARYVAR
  5
41A
102
{ACAD_REACTORS
330
419
102
}
330
419
100
DictionaryVariables
280
     0
  1
Standard
  0
DICTIONARYVAR
  5
41E
102
{ACAD_REACTORS
330
419
102
}
330
419
100
DictionaryVariables
280
     0
  1
2
  0
DICTIONARYVAR
  5
41F
102
{ACAD_REACTORS
330
419
102
}
330
419
100
DictionaryVariables
280
     0
  1
1
  0
DICTIONARYVAR
  5
424
102
{ACAD_REACTORS
330
419
102
}
330
419
100
DictionaryVariables
280
     0
  1
1
  0
DICTIONARY
  5
427
330
45
100
AcDbDictionary
280
     1
  3
ACAD_XREC_ROUNDTRIP
360
428
  0
DICTIONARY
  5
425
330
44
100
AcDbDictionary
280
     1
  3
ACAD_XREC_ROUNDTRIP
360
426
  0
DICTIONARY
  5
429
330
46
100
AcDbDictionary
280
     1
  3
ACAD_XREC_ROUNDTRIP
360
42A
  0
XRECORD
  5
428
102
{ACAD_REACTORS
330
427
102
}
330
427
100
AcDbXrecord
102
MATERIAL
148
0.0
149
0.0
149
0.0
 93
        0
 94
      127
282
     0
 72
     1
 77
     1
171
     1
175
     1
179
     1
273
     0
  0
XRECORD
  5
426
102
{ACAD_REACTORS
330
425
102
}
330
425
100
AcDbXrecord
102
MATERIAL
148
0.0
149
0.0
149
0.0
 93
        0
 94
      127
282
     0
 72
     1
 77
     1
171
     1
175
     1
179
     1
273
     0
  0
XRECORD
  5
42A
102
{ACAD_REACTORS
330
429
102
}
330
429
100
AcDbXrecord
102
MATERIAL
148
0.0
149
0.0
149
0.0
 93
        0
 94
      127
282
     0
 72
     1
 77
     1
171
     1
175
     1
179
     1
273
     0
  0
ENDSEC
  0
EOF
