  0
SECTION
  2
HEADER
  9
$ACADVER
  1
AC1032
  9
$ACADMAINTVER
 90
      228
  9
$DWGCODEPAGE
  3
ANSI_1252
  9
$REQUIREDVERSIONS
160
                 0
  9
$INSBASE
 10
0.0
 20
0.0
 30
0.0
  9
$EXTMIN
 10
1.000000000000000E+20
 20
1.000000000000000E+20
 30
1.000000000000000E+20
  9
$EXTMAX
 10
-1.000000000000000E+20
 20
-1.000000000000000E+20
 30
-1.000000000000000E+20
  9
$LIMMIN
 10
0.0
 20
0.0
  9
$LIMMAX
 10
12.0
 20
9.0
  9
$ORTHOMODE
 70
     0
  9
$REGENMODE
 70
     1
  9
$FILLMODE
 70
     1
  9
$QTEXTMODE
 70
     0
  9
$MIRRTEXT
 70
     0
  9
$LTSCALE
 40
1.0
  9
$ATTMODE
 70
     1
  9
$TEXTSIZE
 40
0.2
  9
$TRACEWID
 40
0.05
  9
$TEXTSTYLE
  7
Standard
  9
$CLAYER
  8
0
  9
$CELTYPE
  6
ByLayer
  9
$CECOLOR
 62
   256
  9
$CELTSCALE
 40
1.0
  9
$DISPSILH
 70
     0
  9
$DIMSCALE
 40
1.0
  9
$DIMASZ
 40
0.18
  9
$DIMEXO
 40
0.0625
  9
$DIMDLI
 40
0.38
  9
$DIMRND
 40
0.0
  9
$DIMDLE
 40
0.0
  9
$DIMEXE
 40
0.18
  9
$DIMTP
 40
0.0
  9
$DIMTM
 40
0.0
  9
$DIMTXT
 40
0.18
  9
$DIMCEN
 40
0.09
  9
$DIMTSZ
 40
0.0
  9
$DIMTOL
 70
     0
  9
$DIMLIM
 70
     0
  9
$DIMTIH
 70
     1
  9
$DIMTOH
 70
     1
  9
$DIMSE1
 70
     0
  9
$DIMSE2
 70
     0
  9
$DIMTAD
 70
     0
  9
$DIMZIN
 70
     0
  9
$DIMBLK
  1

  9
$DIMASO
 70
     1
  9
$DIMSHO
 70
     1
  9
$DIMPOST
  1

  9
$DIMAPOST
  1

  9
$DIMALT
 70
     0
  9
$DIMALTD
 70
     2
  9
$DIMALTF
 40
25.4
  9
$DIMLFAC
 40
1.0
  9
$DIMTOFL
 70
     0
  9
$DIMTVP
 40
0.0
  9
$DIMTIX
 70
     0
  9
$DIMSOXD
 70
     0
  9
$DIMSAH
 70
     0
  9
$DIMBLK1
  1

  9
$DIMBLK2
  1

  9
$DIMSTYLE
  2
Standard
  9
$DIMCLRD
 70
     0
  9
$DIMCLRE
 70
     0
  9
$DIMCLRT
 70
     0
  9
$DIMTFAC
 40
1.0
  9
$DIMGAP
 40
0.09
  9
$DIMJUST
 70
     0
  9
$DIMSD1
 70
     0
  9
$DIMSD2
 70
     0
  9
$DIMTOLJ
 70
     1
  9
$DIMTZIN
 70
     0
  9
$DIMALTZ
 70
     0
  9
$DIMALTTZ
 70
     0
  9
$DIMUPT
 70
     0
  9
$DIMDEC
 70
     4
  9
$DIMTDEC
 70
     4
  9
$DIMALTU
 70
     2
  9
$DIMALTTD
 70
     2
  9
$DIMTXSTY
  7
Standard
  9
$DIMAUNIT
 70
     0
  9
$DIMADEC
 70
     0
  9
$DIMALTRND
 40
0.0
  9
$DIMAZIN
 70
     0
  9
$DIMDSEP
 70
    46
  9
$DIMATFIT
 70
     3
  9
$DIMFRAC
 70
     0
  9
$DIMLDRBLK
  1

  9
$DIMLUNIT
 70
     2
  9
$DIMLWD
 70
    -2
  9
$DIMLWE
 70
    -2
  9
$DIMTMOVE
 70
     0
  9
$DIMFXL
 40
1.0
  9
$DIMFXLON
 70
     0
  9
$DIMJOGANG
 40
0.7853981633974483
  9
$DIMTFILL
 70
     0
  9
$DIMTFILLCLR
 70
     0
  9
$DIMARCSYM
 70
     0
  9
$DIMLTYPE
  6

  9
$DIMLTEX1
  6

  9
$DIMLTEX2
  6

  9
$DIMTXTDIRECTION
 70
     0
  9
$LUNITS
 70
     2
  9
$LUPREC
 70
     4
  9
$SKETCHINC
 40
0.1
  9
$FILLETRAD
 40
0.0
  9
$AUNITS
 70
     0
  9
$AUPREC
 70
     0
  9
$MENU
  1
.
  9
$ELEVATION
 40
0.0
  9
$PELEVATION
 40
0.0
  9
$THICKNESS
 40
0.0
  9
$LIMCHECK
 70
     0
  9
$CHAMFERA
 40
0.0
  9
$CHAMFERB
 40
0.0
  9
$CHAMFERC
 40
0.0
  9
$CHAMFERD
 40
0.0
  9
$SKPOLY
 70
     0
  9
$TDCREATE
 40
2460146.665439815
  9
$TDUCREATE
 40
2460146.623773148
  9
$TDUPDATE
 40
2460146.665439815
  9
$TDUUPDATE
 40
2460146.623773148
  9
$TDINDWG
 40
0.0000000000
  9
$TDUSRTIMER
 40
0.0000000000
  9
$USRTIMER
 70
     1
  9
$ANGBASE
 50
0.0
  9
$ANGDIR
 70
     0
  9
$PDMODE
 70
     0
  9
$PDSIZE
 40
0.0
  9
$PLINEWID
 40
0.0
  9
$SPLFRAME
 70
     0
  9
$SPLINETYPE
 70
     6
  9
$SPLINESEGS
 70
     8
  9
$HANDSEED
  5
17D
  9
$SURFTAB1
 70
     6
  9
$SURFTAB2
 70
     6
  9
$SURFTYPE
 70
     6
  9
$SURFU
 70
     6
  9
$SURFV
 70
     6
  9
$UCSBASE
  2

  9
$UCSNAME
  2

  9
$UCSORG
 10
0.0
 20
0.0
 30
0.0
  9
$UCSXDIR
 10
1.0
 20
0.0
 30
0.0
  9
$UCSYDIR
 10
0.0
 20
1.0
 30
0.0
  9
$UCSORTHOREF
  2

  9
$UCSORTHOVIEW
 70
     0
  9
$UCSORGTOP
 10
0.0
 20
0.0
 30
0.0
  9
$UCSORGBOTTOM
 10
0.0
 20
0.0
 30
0.0
  9
$UCSORGLEFT
 10
0.0
 20
0.0
 30
0.0
  9
$UCSORGRIGHT
 10
0.0
 20
0.0
 30
0.0
  9
$UCSORGFRONT
 10
0.0
 20
0.0
 30
0.0
  9
$UCSORGBACK
 10
0.0
 20
0.0
 30
0.0
  9
$PUCSBASE
  2

  9
$PUCSNAME
  2

  9
$PUCSORG
 10
0.0
 20
0.0
 30
0.0
  9
$PUCSXDIR
 10
1.0
 20
0.0
 30
0.0
  9
$PUCSYDIR
 10
0.0
 20
1.0
 30
0.0
  9
$PUCSORTHOREF
  2

  9
$PUCSORTHOVIEW
 70
     0
  9
$PUCSORGTOP
 10
0.0
 20
0.0
 30
0.0
  9
$PUCSORGBOTTOM
 10
0.0
 20
0.0
 30
0.0
  9
$PUCSORGLEFT
 10
0.0
 20
0.0
 30
0.0
  9
$PUCSORGRIGHT
 10
0.0
 20
0.0
 30
0.0
  9
$PUCSORGFRONT
 10
0.0
 20
0.0
 30
0.0
  9
$PUCSORGBACK
 10
0.0
 20
0.0
 30
0.0
  9
$USERI1
 70
     0
  9
$USERI2
 70
     0
  9
$USERI3
 70
     0
  9
$USERI4
 70
     0
  9
$USERI5
 70
     0
  9
$USERR1
 40
0.0
  9
$USERR2
 40
0.0
  9
$USERR3
 40
0.0
  9
$USERR4
 40
0.0
  9
$USERR5
 40
0.0
  9
$WORLDVIEW
 70
     1
  9
$SHADEDGE
 70
     3
  9
$SHADEDIF
 70
    70
  9
$TILEMODE
 70
     1
  9
$MAXACTVP
 70
    64
  9
$PINSBASE
 10
0.0
 20
0.0
 30
0.0
  9
$PLIMCHECK
 70
     0
  9
$PEXTMIN
 10
1.000000000000000E+20
 20
1.000000000000000E+20
 30
1.000000000000000E+20
  9
$PEXTMAX
 10
-1.000000000000000E+20
 20
-1.000000000000000E+20
 30
-1.000000000000000E+20
  9
$PLIMMIN
 10
0.0
 20
0.0
  9
$PLIMMAX
 10
12.0
 20
9.0
  9
$UNITMODE
 70
     0
  9
$VISRETAIN
 70
     1
  9
$PLINEGEN
 70
     0
  9
$PSLTSCALE
 70
     1
  9
$TREEDEPTH
 70
  3020
  9
$CMLSTYLE
  2
Standard
  9
$CMLJUST
 70
     0
  9
$CMLSCALE
 40
1.0
  9
$PROXYGRAPHICS
 70
     1
  9
$MEASUREMENT
 70
     0
  9
$CELWEIGHT
370
    -1
  9
$ENDCAPS
280
     0
  9
$JOINSTYLE
280
     0
  9
$LWDISPLAY
290
     1
  9
$INSUNITS
 70
     4
  9
$HYPERLINKBASE
  1

  9
$STYLESHEET
  1

  9
$XEDIT
290
     1
  9
$CEPSNTYPE
380
     0
  9
$PSTYLEMODE
290
     1
  9
$FINGERPRINTGUID
  2
{FD7141F1-ADAA-3A43-9460-942ABFD5FDB7}
  9
$VERSIONGUID
  2
{C92C5AB9-F4E6-0546-96A1-D3E5E80E0ED9}
  9
$EXTNAMES
290
     1
  9
$PSVPSCALE
 40
0.0
  9
$OLESTARTUP
290
     0
  9
$SORTENTS
280
   127
  9
$INDEXCTL
280
     0
  9
$HIDETEXT
280
     1
  9
$XCLIPFRAME
280
     2
  9
$HALOGAP
280
     0
  9
$OBSCOLOR
 70
   257
  9
$OBSLTYPE
280
     0
  9
$INTERSECTIONDISPLAY
280
     0
  9
$INTERSECTIONCOLOR
 70
   257
  9
$DIMASSOC
280
     2
  9
$PROJECTNAME
  1

  9
$CAMERADISPLAY
290
     0
  9
$LENSLENGTH
 40
50.0
  9
$CAMERAHEIGHT
 40
0.0
  9
$STEPSPERSEC
 40
2.0
  9
$STEPSIZE
 40
6.0
  9
$3DDWFPREC
 40
2.0
  9
$PSOLWIDTH
 40
0.25
  9
$PSOLHEIGHT
 40
4.0
  9
$LOFTANG1
 40
1.570796326794896
  9
$LOFTANG2
 40
1.570796326794896
  9
$LOFTMAG1
 40
0.0
  9
$LOFTMAG2
 40
0.0
  9
$LOFTPARAM
 70
     7
  9
$LOFTNORMALS
280
     1
  9
$LATITUDE
 40
37.795
  9
$LONGITUDE
 40
-122.394
  9
$NORTHDIRECTION
 40
0.0
  9
$TIMEZONE
 70
 -8000
  9
$LIGHTGLYPHDISPLAY
280
     1
  9
$TILEMODELIGHTSYNCH
280
     1
  9
$CMATERIAL
347
11
  9
$SOLIDHIST
280
     0
  9
$SHOWHIST
280
     1
  9
$DWFFRAME
280
     2
  9
$DGNFRAME
280
     0
  9
$REALWORLDSCALE
290
     1
  9
$INTERFERECOLOR
 62
     1
  9
$INTERFEREOBJVS
345
33
  9
$INTERFEREVPVS
346
30
  9
$CSHADOW
280
     0
  9
$SHADOWPLANELOCATION
 40
0.0
  0
ENDSEC
  0
SECTION
  2
CLASSES
  0
CLASS
  1
ACDBDICTIONARYWDFLT
  2
AcDbDictionaryWithDefault
  3
ObjectDBX Classes
 90
        0
 91
        1
280
     0
281
     0
  0
CLASS
  1
MATERIAL
  2
AcDbMaterial
  3
ObjectDBX Classes
 90
     1153
 91
        3
280
     0
281
     0
  0
CLASS
  1
VISUALSTYLE
  2
AcDbVisualStyle
  3
ObjectDBX Classes
 90
     4095
 91
       24
280
     0
281
     0
  0
CLASS
  1
SCALE
  2
AcDbScale
  3
ObjectDBX Classes
 90
     1153
 91
       17
280
     0
281
     0
  0
CLASS
  1
TABLESTYLE
  2
AcDbTableStyle
  3
ObjectDBX Classes
 90
     4095
 91
        1
280
     0
281
     0
  0
CLASS
  1
MLEADERSTYLE
  2
AcDbMLeaderStyle
  3
ACDB_MLEADERSTYLE_CLASS
 90
     4095
 91
        1
280
     0
281
     0
  0
CLASS
  1
ACDBSECTIONVIEWSTYLE
  2
AcDbSectionViewStyle
  3
ObjectDBX Classes
 90
     1025
 91
        1
280
     0
281
     0
  0
CLASS
  1
ACDBDETAILVIEWSTYLE
  2
AcDbDetailViewStyle
  3
ObjectDBX Classes
 90
     1025
 91
        1
280
     0
281
     0
  0
CLASS
  1
DICTIONARYVAR
  2
AcDbDictionaryVar
  3
ObjectDBX Classes
 90
        0
 91
        5
280
     0
281
     0
  0
CLASS
  1
CELLSTYLEMAP
  2
AcDbCellStyleMap
  3
ObjectDBX Classes
 90
     1152
 91
        1
280
     0
281
     0
  0
ENDSEC
  0
SECTION
  2
TABLES
  0
TABLE
  2
VPORT
  5
8
330
0
100
AcDbSymbolTable
 70
     1
  0
VPORT
  5
57
330
8
100
AcDbSymbolTableRecord
100
AcDbViewportTableRecord
  2
*Active
 70
     0
 10
0.0
 20
0.0
 11
1.0
 21
1.0
 12
0.0
 22
0.0
 13
0.0
 23
0.0
 14
1.0
 24
1.0
 15
0.0
 25
0.0
 16
0.0
 26
0.0
 36
1.0
 17
49.99999998749409
 27
-49.99999998749409
 37
0.0
 40
101.9999999744879
 41
1.0
 42
50.0
 43
0.0
 44
0.0
 50
0.0
 51
0.0
 71
     0
 72
   100
 73
     1
 74
     1
 75
     0
 76
     0
 77
     0
 78
     0
281
     0
 65
     1
110
0.0
120
0.0
130
0.0
111
1.0
121
0.0
131
0.0
112
0.0
122
1.0
132
0.0
 79
     0
146
0.0
 60
     3
 61
     5
292
     1
282
     1
141
0.0
142
0.0
 63
   250
421
  3355443
  0
ENDTAB
  0
TABLE
  2
LTYPE
  5
5
330
0
100
AcDbSymbolTable
 70
     1
  0
LTYPE
  5
5B
330
5
100
AcDbSymbolTableRecord
100
AcDbLinetypeTableRecord
  2
ByBlock
 70
     0
  3

 72
    65
 73
     0
 40
0.0
  0
LTYPE
  5
5C
330
5
100
AcDbSymbolTableRecord
100
AcDbLinetypeTableRecord
  2
ByLayer
 70
     0
  3

 72
    65
 73
     0
 40
0.0
  0
LTYPE
  5
5D
330
5
100
AcDbSymbolTableRecord
100
AcDbLinetypeTableRecord
  2
Continuous
 70
     0
  3
Solid line
 72
    65
 73
     0
 40
0.0
  0
ENDTAB
  0
TABLE
  2
LAYER
  5
2
330
0
100
AcDbSymbolTable
 70
     2
  0
LAYER
  5
54
330
2
100
AcDbSymbolTableRecord
100
AcDbLayerTableRecord
  2
0
 70
     0
 62
     7
  6
Continuous
370
    -3
390
F
347
21
348
0
  0
LAYER
  5
78
330
2
100
AcDbSymbolTableRecord
100
AcDbLayerTableRecord
  2
Camada 1
 70
     0
 62
     7
  6
Continuous
370
     0
390
F
347
21
348
0
  0
ENDTAB
  0
TABLE
  2
STYLE
  5
3
330
0
100
AcDbSymbolTable
 70
     2
  0
STYLE
  5
55
330
3
100
AcDbSymbolTableRecord
100
AcDbTextStyleTableRecord
  2
Standard
 70
     0
 40
0.0
 41
1.0
 50
0.0
 71
     0
 42
0.2
  3
txt
  4

  0
STYLE
  5
5A
330
3
100
AcDbSymbolTableRecord
100
AcDbTextStyleTableRecord
  2
Annotative
 70
     0
 40
0.0
 41
1.0
 50
0.0
 71
     0
 42
0.2
  3
txt
  4

1001
AcadAnnotative
1000
AnnotativeData
1002
{
1070
     1
1070
     1
1002
}
  0
ENDTAB
  0
TABLE
  2
VIEW
  5
6
330
0
100
AcDbSymbolTable
 70
     0
  0
ENDTAB
  0
TABLE
  2
UCS
  5
7
330
0
100
AcDbSymbolTable
 70
     0
  0
ENDTAB
  0
TABLE
  2
APPID
  5
9
330
0
100
AcDbSymbolTable
 70
     2
  0
APPID
  5
56
330
9
100
AcDbSymbolTableRecord
100
AcDbRegAppTableRecord
  2
ACAD
 70
     0
  0
APPID
  5
5E
330
9
100
AcDbSymbolTableRecord
100
AcDbRegAppTableRecord
  2
AcadAnnotative
 70
     0
  0
ENDTAB
  0
TABLE
  2
DIMSTYLE
  5
A
330
0
100
AcDbSymbolTable
 70
     2
100
AcDbDimStyleTable
 71
     0
  0
DIMSTYLE
105
58
330
A
100
AcDbSymbolTableRecord
100
AcDbDimStyleTableRecord
  2
Standard
 70
     0
340
55
  0
DIMSTYLE
105
59
330
A
100
AcDbSymbolTableRecord
100
AcDbDimStyleTableRecord
  2
Annotative
 70
     0
340
55
1001
AcadAnnotative
1000
AnnotativeData
1002
{
1070
     1
1070
     1
1002
}
  0
ENDTAB
  0
TABLE
  2
BLOCK_RECORD
  5
1
330
0
100
AcDbSymbolTable
 70
     5
  0
BLOCK_RECORD
  5
70
330
1
100
AcDbSymbolTableRecord
100
AcDbBlockTableRecord
  2
*Model_Space
340
73
 70
     0
280
     1
281
     0
  0
BLOCK_RECORD
  5
6C
330
1
100
AcDbSymbolTableRecord
100
AcDbBlockTableRecord
  2
*Paper_Space
340
6F
 70
     0
280
     1
281
     0
  0
BLOCK_RECORD
  5
74
330
1
100
AcDbSymbolTableRecord
100
AcDbBlockTableRecord
  2
*Paper_Space0
340
77
 70
     0
280
     1
281
     0
  0
BLOCK_RECORD
  5
79
330
1
100
AcDbSymbolTableRecord
100
AcDbBlockTableRecord
  2
Block_0
340
0
102
{BLKREFS
331
7A
102
}
 70
     0
280
     1
281
     0
  0
BLOCK_RECORD
  5
154
330
1
100
AcDbSymbolTableRecord
100
AcDbBlockTableRecord
  2
Block_1
340
0
102
{BLKREFS
331
155
102
}
 70
     0
280
     1
281
     0
  0
BLOCK_RECORD
  5
158
330
1
100
AcDbSymbolTableRecord
100
AcDbBlockTableRecord
  2
Block_2
340
0
102
{BLKREFS
331
159
102
}
 70
     0
280
     1
281
     0
  0
BLOCK_RECORD
  5
15E
330
1
100
AcDbSymbolTableRecord
100
AcDbBlockTableRecord
  2
Block_3
340
0
102
{BLKREFS
331
15F
102
}
 70
     0
280
     1
281
     0
  0
ENDTAB
  0
ENDSEC
  0
SECTION
  2
BLOCKS
  0
BLOCK
  5
71
330
70
100
AcDbEntity
  8
0
100
AcDbBlockBegin
  2
*Model_Space
 70
     0
 10
0.0
 20
0.0
 30
0.0
  3
*Model_Space
  1

  0
ENDBLK
  5
72
330
70
100
AcDbEntity
  8
0
100
AcDbBlockEnd
  0
BLOCK
  5
6D
330
6C
100
AcDbEntity
 67
     1
  8
0
100
AcDbBlockBegin
  2
*Paper_Space
 70
     0
 10
0.0
 20
0.0
 30
0.0
  3
*Paper_Space
  1

  0
ENDBLK
  5
6E
330
6C
100
AcDbEntity
 67
     1
  8
0
100
AcDbBlockEnd
  0
BLOCK
  5
75
330
74
100
AcDbEntity
 67
     1
  8
0
100
AcDbBlockBegin
  2
*Paper_Space0
 70
     0
 10
0.0
 20
0.0
 30
0.0
  3
*Paper_Space0
  1

  0
ENDBLK
  5
76
330
74
100
AcDbEntity
 67
     1
  8
0
100
AcDbBlockEnd
  0
BLOCK
  5
7B
330
79
100
AcDbEntity
  8
0
100
AcDbBlockBegin
  2
Block_0
 70
     0
 10
0.0
 20
0.0
 30
0.0
  3
Block_0
  1

  0
SPLINE
  5
7D
330
79
100
AcDbEntity
  8
Camada 1
 62
   250
420
  1907995
370
     9
100
AcDbSpline
210
0.0
220
0.0
230
1.0
 70
     9
 71
     3
 72
    23
 73
    19
 74
     0
 42
0.0000000001
 43
0.0000000001
 40
0.0
 40
0.0
 40
0.0
 40
0.0
 40
1.0
 40
1.0
 40
1.0
 40
2.0
 40
2.0
 40
2.0
 40
3.0
 40
3.0
 40
3.0
 40
4.0
 40
4.0
 40
4.0
 40
5.0
 40
5.0
 40
5.0
 40
6.0
 40
6.0
 40
6.0
 40
6.0
 10
68.14024982402886
 20
-37.69227123769733
 30
0.0
 10
67.68547901462762
 20
-37.35865987772936
 30
0.0
 10
67.41388917843483
 20
-36.82444513469096
 30
0.0
 10
67.41388917843483
 20
-36.26357724591527
 30
0.0
 10
67.41388917843483
 20
-35.64279817612157
 30
0.0
 10
67.7475005384028
 20
-35.05870040753205
 30
0.0
 10
68.2843491825168
 20
-34.73907208201524
 30
0.0
 10
68.2843491825168
 20
-34.73907208201524
 30
0.0
 10
68.34664456756637
 20
-34.84253526031409
 30
0.0
 10
68.34664456756637
 20
-34.84253526031409
 30
0.0
 10
67.84621947287075
 20
-35.14026273866877
 30
0.0
 10
67.53503251838207
 20
-35.68502919549246
 30
0.0
 10
67.53503251838207
 20
-36.26357724591527
 30
0.0
 10
67.53503251838207
 20
-36.78644285557683
 30
0.0
 10
67.78841863460868
 20
-37.28449180098517
 30
0.0
 10
68.21203369674147
 20
-37.59541294894315
 30
0.0
 10
68.21203369674147
 20
-37.59541294894315
 30
0.0
 10
68.14024982402886
 20
-37.69227123769733
 30
0.0
 10
68.14024982402886
 20
-37.69227123769733
 30
0.0
  0
SPLINE
  5
7E
330
79
100
AcDbEntity
  8
Camada 1
 62
   250
420
  1907995
370
     9
100
AcDbSpline
210
0.0
220
0.0
230
1.0
 70
    11
 71
     3
 72
    35
 73
    31
 74
     0
 42
0.0000000001
 43
0.0000000001
 40
0.0
 40
0.0
 40
0.0
 40
0.0
 40
1.0
 40
1.0
 40
1.0
 40
2.0
 40
2.0
 40
2.0
 40
3.0
 40
3.0
 40
3.0
 40
4.0
 40
4.0
 40
4.0
 40
5.0
 40
5.0
 40
5.0
 40
6.0
 40
6.0
 40
6.0
 40
7.0
 40
7.0
 40
7.0
 40
8.0
 40
8.0
 40
8.0
 40
9.0
 40
9.0
 40
9.0
 40
10.0
 40
10.0
 40
10.0
 40
10.0
 10
68.14864286659688
 20
-37.77513038251301
 30
0.0
 10
68.14864286659688
 20
-37.77513038251301
 30
0.0
 10
68.0955459984499
 20
-37.73569435908336
 30
0.0
 10
68.0955459984499
 20
-37.73569435908336
 30
0.0
 10
67.63133502984506
 20
-37.39159572327686
 30
0.0
 10
67.35425185868995
 20
-36.84103790598673
 30
0.0
 10
67.35425185868995
 20
-36.26315839926129
 30
0.0
 10
67.35425185868995
 20
-35.623676215414
 30
0.0
 10
67.69474196947697
 20
-35.02156804069989
 30
0.0
 10
68.24272226889651
 20
-34.69190350497191
 30
0.0
 10
68.24272226889651
 20
-34.69190350497191
 30
0.0
 10
68.29942766206233
 20
-34.65762251728472
 30
0.0
 10
68.29942766206233
 20
-34.65762251728472
 30
0.0
 10
68.29942766206233
 20
-34.65762251728472
 30
0.0
 10
68.42830355562388
 20
-34.87413401846622
 30
0.0
 10
68.42830355562388
 20
-34.87413401846622
 30
0.0
 10
68.42830355562388
 20
-34.87413401846622
 30
0.0
 10
68.37211366603091
 20
-34.90789950257929
 30
0.0
 10
68.37211366603091
 20
-34.90789950257929
 30
0.0
 10
67.89913913666349
 20
-35.19219972377399
 30
0.0
 10
67.60530209934569
 20
-35.71131182303523
 30
0.0
 10
67.60530209934569
 20
-36.26315839926129
 30
0.0
 10
67.60530209934569
 20
-36.76190810734038
 30
0.0
 10
67.84449575779416
 20
-37.23668689921721
 30
0.0
 10
68.24478428319299
 20
-37.53310145440689
 30
0.0
 10
68.24478428319299
 20
-37.53310145440689
 30
0.0
 10
68.29762339955291
 20
-37.57227972604884
 30
0.0
 10
68.29762339955291
 20
-37.57227972604884
 30
0.0
 10
68.29762339955291
 20
-37.57227972604884
 30
0.0
 10
68.14864286659688
 20
-37.77513038251301
 30
0.0
 10
68.14864286659688
 20
-37.77513038251301
 30
0.0
  0
SPLINE
  5
7F
330
79
100
AcDbEntity
  8
Camada 1
 62
   250
420
  1907995
370
     9
100
AcDbSpline
210
0.0
220
0.0
230
1.0
 70
     9
 71
     3
 72
    23
 73
    19
 74
     0
 42
0.0000000001
 43
0.0000000001
 40
0.0
 40
0.0
 40
0.0
 40
0.0
 40
1.0
 40
1.0
 40
1.0
 40
2.0
 40
2.0
 40
2.0
 40
3.0
 40
3.0
 40
3.0
 40
4.0
 40
4.0
 40
4.0
 40
5.0
 40
5.0
 40
5.0
 40
6.0
 40
6.0
 40
6.0
 40
6.0
 10
70.24377826821003
 20
-37.70475608988556
 30
0.0
 10
70.24377826821003
 20
-37.70475608988556
 30
0.0
 10
70.17276765085862
 20
-37.60710038154049
 30
0.0
 10
70.17276765085862
 20
-37.60710038154049
 30
0.0
 10
70.60695053626338
 20
-37.2964450401126
 30
0.0
 10
70.86587831591305
 20
-36.79417540919053
 30
0.0
 10
70.86587831591305
 20
-36.26365779334872
 30
0.0
 10
70.86587831591305
 20
-35.57716007258198
 30
0.0
 10
70.43143767872121
 20
-34.95426260528743
 30
0.0
 10
69.78530227686853
 20
-34.71382046162072
 30
0.0
 10
69.78530227686853
 20
-34.71382046162072
 30
0.0
 10
69.82779910277016
 20
-34.60085268617151
 30
0.0
 10
69.82779910277016
 20
-34.60085268617151
 30
0.0
 10
70.52116751961165
 20
-34.85924885276036
 30
0.0
 10
70.98727940764733
 20
-35.52753479881791
 30
0.0
 10
70.98727940764733
 20
-36.26365779334872
 30
0.0
 10
70.98727940764733
 20
-36.83270930136547
 30
0.0
 10
70.70908468190989
 20
-37.37141053644832
 30
0.0
 10
70.24377826821003
 20
-37.70475608988556
 30
0.0
  0
SPLINE
  5
80
330
79
100
AcDbEntity
  8
Camada 1
 62
   250
420
  1907995
370
     9
100
AcDbSpline
210
0.0
220
0.0
230
1.0
 70
    11
 71
     3
 72
    35
 73
    31
 74
     0
 42
0.0000000001
 43
0.0000000001
 40
0.0
 40
0.0
 40
0.0
 40
0.0
 40
1.0
 40
1.0
 40
1.0
 40
2.0
 40
2.0
 40
2.0
 40
3.0
 40
3.0
 40
3.0
 40
4.0
 40
4.0
 40
4.0
 40
5.0
 40
5.0
 40
5.0
 40
6.0
 40
6.0
 40
6.0
 40
7.0
 40
7.0
 40
7.0
 40
8.0
 40
8.0
 40
8.0
 40
9.0
 40
9.0
 40
9.0
 40
10.0
 40
10.0
 40
10.0
 40
10.0
 10
70.23153505832216
 20
-37.78724471650799
 30
0.0
 10
70.23153505832216
 20
-37.78724471650799
 30
0.0
 10
70.08410103608851
 20
-37.58310530110788
 30
0.0
 10
70.08410103608851
 20
-37.58310530110788
 30
0.0
 10
70.08410103608851
 20
-37.58310530110788
 30
0.0
 10
70.13771340780961
 20
-37.54444253304005
 30
0.0
 10
70.13771340780961
 20
-37.54444253304005
 30
0.0
 10
70.54960076362864
 20
-37.24802797785102
 30
0.0
 10
70.79523821675488
 20
-36.7688674055929
 30
0.0
 10
70.79523821675488
 20
-36.26264289568717
 30
0.0
 10
70.79523821675488
 20
-35.60769560461249
 30
0.0
 10
70.38335086093583
 20
-35.01357773529913
 30
0.0
 10
69.77041711116203
 20
-34.78392089297377
 30
0.0
 10
69.77041711116203
 20
-34.78392089297377
 30
0.0
 10
69.70855668225377
 20
-34.76072323213333
 30
0.0
 10
69.70855668225377
 20
-34.76072323213333
 30
0.0
 10
69.70855668225377
 20
-34.76072323213333
 30
0.0
 10
69.79696201097539
 20
-34.52488034691727
 30
0.0
 10
69.79696201097539
 20
-34.52488034691727
 30
0.0
 10
69.79696201097539
 20
-34.52488034691727
 30
0.0
 10
69.85882597414508
 20
-34.54807800775835
 30
0.0
 10
69.85882597414508
 20
-34.54807800775835
 30
0.0
 10
70.56944765123732
 20
-34.81433560385442
 30
0.0
 10
71.04680396098602
 20
-35.50330613082859
 30
0.0
 10
71.04680396098602
 20
-36.26264289568717
 30
0.0
 10
71.04680396098602
 20
-36.84954371496161
 30
0.0
 10
70.76198823621656
 20
-37.40525656799484
 30
0.0
 10
70.28514743004326
 20
-37.74883970022658
 30
0.0
 10
70.28514743004326
 20
-37.74883970022658
 30
0.0
 10
70.23153505832216
 20
-37.78724471650799
 30
0.0
 10
70.23153505832216
 20
-37.78724471650799
 30
0.0
  0
SPLINE
  5
81
330
79
100
AcDbEntity
  8
Camada 1
 62
   250
420
  1907995
370
     9
100
AcDbSpline
210
0.0
220
0.0
230
1.0
 70
    11
 71
     3
 72
    17
 73
    13
 74
     0
 42
0.0000000001
 43
0.0000000001
 40
0.0
 40
0.0
 40
0.0
 40
0.0
 40
1.0
 40
1.0
 40
1.0
 40
2.0
 40
2.0
 40
2.0
 40
3.0
 40
3.0
 40
3.0
 40
4.0
 40
4.0
 40
4.0
 40
4.0
 10
60.17181305146661
 20
-16.75957200716003
 30
0.0
 10
60.17181305146661
 20
-16.75957200716003
 30
0.0
 10
78.19506649218535
 20
-16.75957200716003
 30
0.0
 10
78.19506649218535
 20
-16.75957200716003
 30
0.0
 10
78.19506649218535
 20
-16.75957200716003
 30
0.0
 10
78.19506649218535
 20
-17.71740181233186
 30
0.0
 10
78.19506649218535
 20
-17.71740181233186
 30
0.0
 10
78.19506649218535
 20
-17.71740181233186
 30
0.0
 10
60.17181305146661
 20
-17.71740181233186
 30
0.0
 10
60.17181305146661
 20
-17.71740181233186
 30
0.0
 10
60.17181305146661
 20
-17.71740181233186
 30
0.0
 10
60.17181305146661
 20
-16.75957200716003
 30
0.0
 10
60.17181305146661
 20
-16.75957200716003
 30
0.0
  0
SPLINE
  5
82
330
79
100
AcDbEntity
  8
Camada 1
 62
   250
420
  1907995
370
     9
100
AcDbSpline
210
0.0
220
0.0
230
1.0
 70
    11
 71
     3
 72
    17
 73
    13
 74
     0
 42
0.0000000001
 43
0.0000000001
 40
0.0
 40
0.0
 40
0.0
 40
0.0
 40
1.0
 40
1.0
 40
1.0
 40
2.0
 40
2.0
 40
2.0
 40
3.0
 40
3.0
 40
3.0
 40
4.0
 40
4.0
 40
4.0
 40
4.0
 10
60.0504039049893
 20
-17.8372322291128
 30
0.0
 10
60.0504039049893
 20
-17.8372322291128
 30
0.0
 10
78.31622594161863
 20
-17.8372322291128
 30
0.0
 10
78.31622594161863
 20
-17.8372322291128
 30
0.0
 10
78.31622594161863
 20
-17.8372322291128
 30
0.0
 10
78.31622594161863
 20
-16.63895222553058
 30
0.0
 10
78.31622594161863
 20
-16.63895222553058
 30
0.0
 10
78.31622594161863
 20
-16.63895222553058
 30
0.0
 10
60.0504039049893
 20
-16.63895222553058
 30
0.0
 10
60.0504039049893
 20
-16.63895222553058
 30
0.0
 10
60.0504039049893
 20
-16.63895222553058
 30
0.0
 10
60.0504039049893
 20
-17.8372322291128
 30
0.0
 10
60.0504039049893
 20
-17.8372322291128
 30
0.0
  0
SPLINE
  5
83
330
79
100
AcDbEntity
  8
Camada 1
 62
   250
420
  1907995
370
     9
100
AcDbSpline
210
0.0
220
0.0
230
1.0
 70
    11
 71
     3
 72
    35
 73
    31
 74
     0
 42
0.0000000001
 43
0.0000000001
 40
0.0
 40
0.0
 40
0.0
 40
0.0
 40
1.0
 40
1.0
 40
1.0
 40
2.0
 40
2.0
 40
2.0
 40
3.0
 40
3.0
 40
3.0
 40
4.0
 40
4.0
 40
4.0
 40
5.0
 40
5.0
 40
5.0
 40
6.0
 40
6.0
 40
6.0
 40
7.0
 40
7.0
 40
7.0
 40
8.0
 40
8.0
 40
8.0
 40
9.0
 40
9.0
 40
9.0
 40
10.0
 40
10.0
 40
10.0
 40
10.0
 10
69.93035209507062
 20
-15.8969492683562
 30
0.0
 10
69.93035209507062
 20
-15.8969492683562
 30
0.0
 10
69.80946650691173
 20
-15.8969492683562
 30
0.0
 10
69.80946650691173
 20
-15.8969492683562
 30
0.0
 10
69.80946650691173
 20
-15.8969492683562
 30
0.0
 10
69.80946650691173
 20
-9.839846708959429
 30
0.0
 10
69.80946650691173
 20
-9.839846708959429
 30
0.0
 10
69.80946650691173
 20
-9.497254310158883
 30
0.0
 10
69.52837207356857
 20
-9.218270219574202
 30
0.0
 10
69.18340352548141
 20
-9.218270219574202
 30
0.0
 10
68.83843497739295
 20
-9.218270219574202
 30
0.0
 10
68.55734054405108
 20
-9.497254310158883
 30
0.0
 10
68.55734054405108
 20
-9.839846708959429
 30
0.0
 10
68.55734054405108
 20
-9.839846708959429
 30
0.0
 10
68.55734054405108
 20
-15.8969492683562
 30
0.0
 10
68.55734054405108
 20
-15.8969492683562
 30
0.0
 10
68.55734054405108
 20
-15.8969492683562
 30
0.0
 10
68.43645495589091
 20
-15.8969492683562
 30
0.0
 10
68.43645495589091
 20
-15.8969492683562
 30
0.0
 10
68.43645495589091
 20
-15.8969492683562
 30
0.0
 10
68.43645495589091
 20
-9.839846708959429
 30
0.0
 10
68.43645495589091
 20
-9.839846708959429
 30
0.0
 10
68.43645495589091
 20
-9.431004046125663
 30
0.0
 10
68.77138729376754
 20
-9.097916244475483
 30
0.0
 10
69.18340352548141
 20
-9.097916244475483
 30
0.0
 10
69.59514589591958
 20
-9.097916244475483
 30
0.0
 10
69.93035209507062
 20
-9.431004046125663
 30
0.0
 10
69.93035209507062
 20
-9.839846708959429
 30
0.0
 10
69.93035209507062
 20
-9.839846708959429
 30
0.0
 10
69.93035209507062
 20
-15.8969492683562
 30
0.0
 10
69.93035209507062
 20
-15.8969492683562
 30
0.0
  0
SPLINE
  5
84
330
79
100
AcDbEntity
  8
Camada 1
 62
   250
420
  1907995
370
     9
100
AcDbSpline
210
0.0
220
0.0
230
1.0
 70
    11
 71
     3
 72
    35
 73
    31
 74
     0
 42
0.0000000001
 43
0.0000000001
 40
0.0
 40
0.0
 40
0.0
 40
0.0
 40
1.0
 40
1.0
 40
1.0
 40
2.0
 40
2.0
 40
2.0
 40
3.0
 40
3.0
 40
3.0
 40
4.0
 40
4.0
 40
4.0
 40
5.0
 40
5.0
 40
5.0
 40
6.0
 40
6.0
 40
6.0
 40
7.0
 40
7.0
 40
7.0
 40
8.0
 40
8.0
 40
8.0
 40
9.0
 40
9.0
 40
9.0
 40
10.0
 40
10.0
 40
10.0
 40
10.0
 10
69.99002163378889
 20
-15.95618385093381
 30
0.0
 10
69.99002163378889
 20
-15.95618385093381
 30
0.0
 10
69.73819813777196
 20
-15.95618385093381
 30
0.0
 10
69.73819813777196
 20
-15.95618385093381
 30
0.0
 10
69.73819813777196
 20
-15.95618385093381
 30
0.0
 10
69.73819813777196
 20
-9.845146730082113
 30
0.0
 10
69.73819813777196
 20
-9.845146730082113
 30
0.0
 10
69.73819813777196
 20
-9.539453110557031
 30
0.0
 10
69.48920991141268
 20
-9.290980387772513
 30
0.0
 10
69.18325854010054
 20
-9.290980387772513
 30
0.0
 10
68.87756492057547
 20
-9.290980387772513
 30
0.0
 10
68.62883444600324
 20
-9.539453110557031
 30
0.0
 10
68.62883444600324
 20
-9.845146730082113
 30
0.0
 10
68.62883444600324
 20
-9.845146730082113
 30
0.0
 10
68.62883444600324
 20
-15.95618385093381
 30
0.0
 10
68.62883444600324
 20
-15.95618385093381
 30
0.0
 10
68.62883444600324
 20
-15.95618385093381
 30
0.0
 10
68.37701094998632
 20
-15.95618385093381
 30
0.0
 10
68.37701094998632
 20
-15.95618385093381
 30
0.0
 10
68.37701094998632
 20
-15.95618385093381
 30
0.0
 10
68.37701094998632
 20
-9.845146730082113
 30
0.0
 10
68.37701094998632
 20
-9.845146730082113
 30
0.0
 10
68.37701094998632
 20
-9.400524897298883
 30
0.0
 10
68.73863670731731
 20
-9.038641388180829
 30
0.0
 10
69.18325854010054
 20
-9.038641388180829
 30
0.0
 10
69.62813812467212
 20
-9.038641388180829
 30
0.0
 10
69.99002163378889
 20
-9.400524897298883
 30
0.0
 10
69.99002163378889
 20
-9.845146730082113
 30
0.0
 10
69.99002163378889
 20
-9.845146730082113
 30
0.0
 10
69.99002163378889
 20
-15.95618385093381
 30
0.0
 10
69.99002163378889
 20
-15.95618385093381
 30
0.0
  0
SPLINE
  5
85
330
79
100
AcDbEntity
  8
Camada 1
 62
   250
420
  1907995
370
     9
100
AcDbSpline
210
0.0
220
0.0
230
1.0
 70
    11
 71
     3
 72
    17
 73
    13
 74
     0
 42
0.0000000001
 43
0.0000000001
 40
0.0
 40
0.0
 40
0.0
 40
0.0
 40
1.0
 40
1.0
 40
1.0
 40
2.0
 40
2.0
 40
2.0
 40
3.0
 40
3.0
 40
3.0
 40
4.0
 40
4.0
 40
4.0
 40
4.0
 10
68.19420049497111
 20
-16.35838940524952
 30
0.0
 10
68.19420049497111
 20
-16.35838940524952
 30
0.0
 10
70.17267099393847
 20
-16.35838940524952
 30
0.0
 10
70.17267099393847
 20
-16.35838940524952
 30
0.0
 10
70.17267099393847
 20
-16.35838940524952
 30
0.0
 10
70.17267099393847
 20
-15.95746455512608
 30
0.0
 10
70.17267099393847
 20
-15.95746455512608
 30
0.0
 10
70.17267099393847
 20
-15.95746455512608
 30
0.0
 10
68.19420049497111
 20
-15.95746455512608
 30
0.0
 10
68.19420049497111
 20
-15.95746455512608
 30
0.0
 10
68.19420049497111
 20
-15.95746455512608
 30
0.0
 10
68.19420049497111
 20
-16.35838940524952
 30
0.0
 10
68.19420049497111
 20
-16.35838940524952
 30
0.0
  0
SPLINE
  5
86
330
79
100
AcDbEntity
  8
Camada 1
 62
   250
420
  1907995
370
     9
100
AcDbSpline
210
0.0
220
0.0
230
1.0
 70
    11
 71
     3
 72
    17
 73
    13
 74
     0
 42
0.0000000001
 43
0.0000000001
 40
0.0
 40
0.0
 40
0.0
 40
0.0
 40
1.0
 40
1.0
 40
1.0
 40
2.0
 40
2.0
 40
2.0
 40
3.0
 40
3.0
 40
3.0
 40
4.0
 40
4.0
 40
4.0
 40
4.0
 10
70.29383044337174
 20
-16.47847757381816
 30
0.0
 10
70.29383044337174
 20
-16.47847757381816
 30
0.0
 10
68.07305715502389
 20
-16.47847757381816
 30
0.0
 10
68.07305715502389
 20
-16.47847757381816
 30
0.0
 10
68.07305715502389
 20
-16.47847757381816
 30
0.0
 10
68.07305715502389
 20
-15.83684477349728
 30
0.0
 10
68.07305715502389
 20
-15.83684477349728
 30
0.0
 10
68.07305715502389
 20
-15.83684477349728
 30
0.0
 10
70.29383044337174
 20
-15.83684477349728
 30
0.0
 10
70.29383044337174
 20
-15.83684477349728
 30
0.0
 10
70.29383044337174
 20
-15.83684477349728
 30
0.0
 10
70.29383044337174
 20
-16.47847757381816
 30
0.0
 10
70.29383044337174
 20
-16.47847757381816
 30
0.0
  0
SPLINE
  5
87
330
79
100
AcDbEntity
  8
Camada 1
 62
   250
420
  1907995
370
     9
100
AcDbSpline
210
0.0
220
0.0
230
1.0
 70
    11
 71
     3
 72
    17
 73
    13
 74
     0
 42
0.0000000001
 43
0.0000000001
 40
0.0
 40
0.0
 40
0.0
 40
0.0
 40
1.0
 40
1.0
 40
1.0
 40
2.0
 40
2.0
 40
2.0
 40
3.0
 40
3.0
 40
3.0
 40
4.0
 40
4.0
 40
4.0
 40
4.0
 10
68.26566217794989
 20
-16.2879104009589
 30
0.0
 10
68.26566217794989
 20
-16.2879104009589
 30
0.0
 10
70.1008549022512
 20
-16.2879104009589
 30
0.0
 10
70.1008549022512
 20
-16.2879104009589
 30
0.0
 10
70.1008549022512
 20
-16.2879104009589
 30
0.0
 10
70.1008549022512
 20
-16.02732334417941
 30
0.0
 10
70.1008549022512
 20
-16.02732334417941
 30
0.0
 10
70.1008549022512
 20
-16.02732334417941
 30
0.0
 10
68.26566217794989
 20
-16.02732334417941
 30
0.0
 10
68.26566217794989
 20
-16.02732334417941
 30
0.0
 10
68.26566217794989
 20
-16.02732334417941
 30
0.0
 10
68.26566217794989
 20
-16.2879104009589
 30
0.0
 10
68.26566217794989
 20
-16.2879104009589
 30
0.0
  0
SPLINE
  5
88
330
79
100
AcDbEntity
  8
Camada 1
 62
   250
420
  1907995
370
     9
100
AcDbSpline
210
0.0
220
0.0
230
1.0
 70
    11
 71
     3
 72
    17
 73
    13
 74
     0
 42
0.0000000001
 43
0.0000000001
 40
0.0
 40
0.0
 40
0.0
 40
0.0
 40
1.0
 40
1.0
 40
1.0
 40
2.0
 40
2.0
 40
2.0
 40
3.0
 40
3.0
 40
3.0
 40
4.0
 40
4.0
 40
4.0
 40
4.0
 10
70.35319390184223
 20
-16.53767188267872
 30
0.0
 10
70.35319390184223
 20
-16.53767188267872
 30
0.0
 10
68.01332317835885
 20
-16.53767188267872
 30
0.0
 10
68.01332317835885
 20
-16.53767188267872
 30
0.0
 10
68.01332317835885
 20
-16.53767188267872
 30
0.0
 10
68.01332317835885
 20
-15.77756186245896
 30
0.0
 10
68.01332317835885
 20
-15.77756186245896
 30
0.0
 10
68.01332317835885
 20
-15.77756186245896
 30
0.0
 10
70.35319390184223
 20
-15.77756186245896
 30
0.0
 10
70.35319390184223
 20
-15.77756186245896
 30
0.0
 10
70.35319390184223
 20
-15.77756186245896
 30
0.0
 10
70.35319390184223
 20
-16.53767188267872
 30
0.0
 10
70.35319390184223
 20
-16.53767188267872
 30
0.0
  0
LWPOLYLINE
  5
89
330
79
100
AcDbEntity
  8
Camada 1
 62
   250
420
  1907995
370
     9
100
AcDbPolyline
 90
        4
 70
     1
 43
0.0
 10
70.18534915996763
 20
-16.69912921307994
 10
68.18126457715489
 20
-16.69912921307994
 10
68.18126457715489
 20
-16.4183005862688
 10
70.18534915996763
 20
-16.4183005862688
  0
SPLINE
  5
8A
330
79
100
AcDbEntity
  8
Camada 1
 62
   250
420
  1907995
370
     9
100
AcDbSpline
210
0.0
220
0.0
230
1.0
 70
    11
 71
     3
 72
    17
 73
    13
 74
     0
 42
0.0000000001
 43
0.0000000001
 40
0.0
 40
0.0
 40
0.0
 40
0.0
 40
1.0
 40
1.0
 40
1.0
 40
2.0
 40
2.0
 40
2.0
 40
3.0
 40
3.0
 40
3.0
 40
4.0
 40
4.0
 40
4.0
 40
4.0
 10
68.25354784395556
 20
-16.62633849744882
 30
0.0
 10
68.25354784395556
 20
-16.62633849744882
 30
0.0
 10
70.11271148445847
 20
-16.62633849744882
 30
0.0
 10
70.11271148445847
 20
-16.62633849744882
 30
0.0
 10
70.11271148445847
 20
-16.62633849744882
 30
0.0
 10
70.11271148445847
 20
-16.49127656099719
 30
0.0
 10
70.11271148445847
 20
-16.49127656099719
 30
0.0
 10
70.11271148445847
 20
-16.49127656099719
 30
0.0
 10
68.25354784395556
 20
-16.49127656099719
 30
0.0
 10
68.25354784395556
 20
-16.49127656099719
 30
0.0
 10
68.25354784395556
 20
-16.49127656099719
 30
0.0
 10
68.25354784395556
 20
-16.62633849744882
 30
0.0
 10
68.25354784395556
 20
-16.62633849744882
 30
0.0
  0
SPLINE
  5
8B
330
79
100
AcDbEntity
  8
Camada 1
 62
   250
420
  1907995
370
     9
100
AcDbSpline
210
0.0
220
0.0
230
1.0
 70
    11
 71
     3
 72
    17
 73
    13
 74
     0
 42
0.0000000001
 43
0.0000000001
 40
0.0
 40
0.0
 40
0.0
 40
0.0
 40
1.0
 40
1.0
 40
1.0
 40
2.0
 40
2.0
 40
2.0
 40
3.0
 40
3.0
 40
3.0
 40
4.0
 40
4.0
 40
4.0
 40
4.0
 10
70.24468039946474
 20
-16.75830741245445
 30
0.0
 10
70.24468039946474
 20
-16.75830741245445
 30
0.0
 10
68.12157892894929
 20
-16.75830741245445
 30
0.0
 10
68.12157892894929
 20
-16.75830741245445
 30
0.0
 10
68.12157892894929
 20
-16.75830741245445
 30
0.0
 10
68.12157892894929
 20
-16.35930764599156
 30
0.0
 10
68.12157892894929
 20
-16.35930764599156
 30
0.0
 10
68.12157892894929
 20
-16.35930764599156
 30
0.0
 10
70.24468039946474
 20
-16.35930764599156
 30
0.0
 10
70.24468039946474
 20
-16.35930764599156
 30
0.0
 10
70.24468039946474
 20
-16.35930764599156
 30
0.0
 10
70.24468039946474
 20
-16.75830741245445
 30
0.0
 10
70.24468039946474
 20
-16.75830741245445
 30
0.0
  0
SPLINE
  5
8C
330
79
100
AcDbEntity
  8
Camada 1
 62
   250
420
  1907995
370
     9
100
AcDbSpline
210
0.0
220
0.0
230
1.0
 70
    11
 71
     3
 72
    17
 73
    13
 74
     0
 42
0.0000000001
 43
0.0000000001
 40
0.0
 40
0.0
 40
0.0
 40
0.0
 40
1.0
 40
1.0
 40
1.0
 40
2.0
 40
2.0
 40
2.0
 40
3.0
 40
3.0
 40
3.0
 40
4.0
 40
4.0
 40
4.0
 40
4.0
 10
68.30242402658817
 20
-16.57877523798122
 30
0.0
 10
68.30242402658817
 20
-16.57877523798122
 30
0.0
 10
70.0642058200204
 20
-16.57877523798122
 30
0.0
 10
70.0642058200204
 20
-16.57877523798122
 30
0.0
 10
70.0642058200204
 20
-16.57877523798122
 30
0.0
 10
70.0642058200204
 20
-16.5389203678976
 30
0.0
 10
70.0642058200204
 20
-16.5389203678976
 30
0.0
 10
70.0642058200204
 20
-16.5389203678976
 30
0.0
 10
68.30242402658817
 20
-16.5389203678976
 30
0.0
 10
68.30242402658817
 20
-16.5389203678976
 30
0.0
 10
68.30242402658817
 20
-16.5389203678976
 30
0.0
 10
68.30242402658817
 20
-16.57877523798122
 30
0.0
 10
68.30242402658817
 20
-16.57877523798122
 30
0.0
  0
SPLINE
  5
8D
330
79
100
AcDbEntity
  8
Camada 1
 62
   250
420
  1907995
370
     9
100
AcDbSpline
210
0.0
220
0.0
230
1.0
 70
    11
 71
     3
 72
    17
 73
    13
 74
     0
 42
0.0000000001
 43
0.0000000001
 40
0.0
 40
0.0
 40
0.0
 40
0.0
 40
1.0
 40
1.0
 40
1.0
 40
2.0
 40
2.0
 40
2.0
 40
3.0
 40
3.0
 40
3.0
 40
4.0
 40
4.0
 40
4.0
 40
4.0
 10
70.30649249991359
 20
-16.81949124292233
 30
0.0
 10
70.30649249991359
 20
-16.81949124292233
 30
0.0
 10
68.06037898899472
 20
-16.81949124292233
 30
0.0
 10
68.06037898899472
 20
-16.81949124292233
 30
0.0
 10
68.06037898899472
 20
-16.81949124292233
 30
0.0
 10
68.06037898899472
 20
-16.29794661117008
 30
0.0
 10
68.06037898899472
 20
-16.29794661117008
 30
0.0
 10
68.06037898899472
 20
-16.29794661117008
 30
0.0
 10
70.30649249991359
 20
-16.29794661117008
 30
0.0
 10
70.30649249991359
 20
-16.29794661117008
 30
0.0
 10
70.30649249991359
 20
-16.29794661117008
 30
0.0
 10
70.30649249991359
 20
-16.81949124292233
 30
0.0
 10
70.30649249991359
 20
-16.81949124292233
 30
0.0
  0
SPLINE
  5
8E
330
79
100
AcDbEntity
  8
Camada 1
 62
   250
420
  1907995
370
     9
100
AcDbSpline
210
0.0
220
0.0
230
1.0
 70
    11
 71
     3
 72
    17
 73
    13
 74
     0
 42
0.0000000001
 43
0.0000000001
 40
0.0
 40
0.0
 40
0.0
 40
0.0
 40
1.0
 40
1.0
 40
1.0
 40
2.0
 40
2.0
 40
2.0
 40
3.0
 40
3.0
 40
3.0
 40
4.0
 40
4.0
 40
4.0
 40
4.0
 10
70.12508357024116
 20
-16.64412337075974
 30
0.0
 10
70.12508357024116
 20
-16.64412337075974
 30
0.0
 10
68.24143350996123
 20
-16.64412337075974
 30
0.0
 10
68.24143350996123
 20
-16.64412337075974
 30
0.0
 10
68.24143350996123
 20
-16.64412337075974
 30
0.0
 10
68.24143350996123
 20
-16.47323393589857
 30
0.0
 10
68.24143350996123
 20
-16.47323393589857
 30
0.0
 10
68.24143350996123
 20
-16.47323393589857
 30
0.0
 10
70.12508357024116
 20
-16.47323393589857
 30
0.0
 10
70.12508357024116
 20
-16.47323393589857
 30
0.0
 10
70.12508357024116
 20
-16.47323393589857
 30
0.0
 10
70.12508357024116
 20
-16.64412337075974
 30
0.0
 10
70.12508357024116
 20
-16.64412337075974
 30
0.0
  0
SPLINE
  5
8F
330
79
100
AcDbEntity
  8
Camada 1
 62
   250
420
  1907995
370
     9
100
AcDbSpline
210
0.0
220
0.0
230
1.0
 70
    11
 71
     3
 72
    17
 73
    13
 74
     0
 42
0.0000000001
 43
0.0000000001
 40
0.0
 40
0.0
 40
0.0
 40
0.0
 40
1.0
 40
1.0
 40
1.0
 40
2.0
 40
2.0
 40
2.0
 40
3.0
 40
3.0
 40
3.0
 40
4.0
 40
4.0
 40
4.0
 40
4.0
 10
68.13292000758244
 20
-16.74670858203423
 30
0.0
 10
68.13292000758244
 20
-16.74670858203423
 30
0.0
 10
70.23411257619276
 20
-16.74670858203423
 30
0.0
 10
70.23411257619276
 20
-16.74670858203423
 30
0.0
 10
70.23411257619276
 20
-16.74670858203423
 30
0.0
 10
70.23411257619276
 20
-16.37090647641178
 30
0.0
 10
70.23411257619276
 20
-16.37090647641178
 30
0.0
 10
70.23411257619276
 20
-16.37090647641178
 30
0.0
 10
68.13292000758244
 20
-16.37090647641178
 30
0.0
 10
68.13292000758244
 20
-16.37090647641178
 30
0.0
 10
68.13292000758244
 20
-16.37090647641178
 30
0.0
 10
68.13292000758244
 20
-16.74670858203423
 30
0.0
 10
68.13292000758244
 20
-16.74670858203423
 30
0.0
  0
SPLINE
  5
90
330
79
100
AcDbEntity
  8
Camada 1
 62
   250
420
  1907995
370
     9
100
AcDbSpline
210
0.0
220
0.0
230
1.0
 70
    11
 71
     3
 72
    17
 73
    13
 74
     0
 42
0.0000000001
 43
0.0000000001
 40
0.0
 40
0.0
 40
0.0
 40
0.0
 40
1.0
 40
1.0
 40
1.0
 40
2.0
 40
2.0
 40
2.0
 40
3.0
 40
3.0
 40
3.0
 40
4.0
 40
4.0
 40
4.0
 40
4.0
 10
70.36608149119904
 20
-16.87867749703986
 30
0.0
 10
70.36608149119904
 20
-16.87867749703986
 30
0.0
 10
68.00095109257617
 20
-16.87867749703986
 30
0.0
 10
68.00095109257617
 20
-16.87867749703986
 30
0.0
 10
68.00095109257617
 20
-16.87867749703986
 30
0.0
 10
68.00095109257617
 20
-16.23893756140551
 30
0.0
 10
68.00095109257617
 20
-16.23893756140551
 30
0.0
 10
68.00095109257617
 20
-16.23893756140551
 30
0.0
 10
70.36608149119904
 20
-16.23893756140551
 30
0.0
 10
70.36608149119904
 20
-16.23893756140551
 30
0.0
 10
70.36608149119904
 20
-16.23893756140551
 30
0.0
 10
70.36608149119904
 20
-16.87867749703986
 30
0.0
 10
70.36608149119904
 20
-16.87867749703986
 30
0.0
  0
LWPOLYLINE
  5
91
330
79
100
AcDbEntity
  8
Camada 1
 62
   250
420
  1907995
370
     9
100
AcDbPolyline
 90
        4
 70
     1
 43
0.0
 10
61.20037961271676
 20
-17.97395344269425
 10
62.14184217940585
 20
-17.97395344269425
 10
62.14184217940585
 20
-17.77705524156343
 10
61.20037961271676
 20
-17.77705524156343
  0
SPLINE
  5
92
330
79
100
AcDbEntity
  8
Camada 1
 62
   250
420
  1907995
370
     9
100
AcDbSpline
210
0.0
220
0.0
230
1.0
 70
    11
 71
     3
 72
    17
 73
    13
 74
     0
 42
0.0000000001
 43
0.0000000001
 40
0.0
 40
0.0
 40
0.0
 40
0.0
 40
1.0
 40
1.0
 40
1.0
 40
2.0
 40
2.0
 40
2.0
 40
3.0
 40
3.0
 40
3.0
 40
4.0
 40
4.0
 40
4.0
 40
4.0
 10
61.27285619335773
 20
-17.90117883654918
 30
0.0
 10
61.27285619335773
 20
-17.90117883654918
 30
0.0
 10
62.0695669673482
 20
-17.90117883654918
 30
0.0
 10
62.0695669673482
 20
-17.90117883654918
 30
0.0
 10
62.0695669673482
 20
-17.90117883654918
 30
0.0
 10
62.0695669673482
 20
-17.84962847912455
 30
0.0
 10
62.0695669673482
 20
-17.84962847912455
 30
0.0
 10
62.0695669673482
 20
-17.84962847912455
 30
0.0
 10
61.27285619335773
 20
-17.84962847912455
 30
0.0
 10
61.27285619335773
 20
-17.84962847912455
 30
0.0
 10
61.27285619335773
 20
-17.84962847912455
 30
0.0
 10
61.27285619335773
 20
-17.90117883654918
 30
0.0
 10
61.27285619335773
 20
-17.90117883654918
 30
0.0
  0
SPLINE
  5
93
330
79
100
AcDbEntity
  8
Camada 1
 62
   250
420
  1907995
370
     9
100
AcDbSpline
210
0.0
220
0.0
230
1.0
 70
    11
 71
     3
 72
    17
 73
    13
 74
     0
 42
0.0000000001
 43
0.0000000001
 40
0.0
 40
0.0
 40
0.0
 40
0.0
 40
1.0
 40
1.0
 40
1.0
 40
2.0
 40
2.0
 40
2.0
 40
3.0
 40
3.0
 40
3.0
 40
4.0
 40
4.0
 40
4.0
 40
4.0
 10
62.20153588235447
 20
-18.03314775155481
 30
0.0
 10
62.20153588235447
 20
-18.03314775155481
 30
0.0
 10
61.14088727835145
 20
-18.03314775155481
 30
0.0
 10
61.14088727835145
 20
-18.03314775155481
 30
0.0
 10
61.14088727835145
 20
-18.03314775155481
 30
0.0
 10
61.14088727835145
 20
-17.71765956411892
 30
0.0
 10
61.14088727835145
 20
-17.71765956411892
 30
0.0
 10
61.14088727835145
 20
-17.71765956411892
 30
0.0
 10
62.20153588235447
 20
-17.71765956411892
 30
0.0
 10
62.20153588235447
 20
-17.71765956411892
 30
0.0
 10
62.20153588235447
 20
-17.71765956411892
 30
0.0
 10
62.20153588235447
 20
-18.03314775155481
 30
0.0
 10
62.20153588235447
 20
-18.03314775155481
 30
0.0
  0
LWPOLYLINE
  5
94
330
79
100
AcDbEntity
  8
Camada 1
 62
   250
420
  1907995
370
     9
100
AcDbPolyline
 90
        4
 70
     1
 43
0.0
 10
62.4023486887519
 20
-17.97395344269425
 10
63.09597485738045
 20
-17.97395344269425
 10
63.09597485738045
 20
-17.77705524156343
 10
62.4023486887519
 20
-17.77705524156343
  0
SPLINE
  5
95
330
79
100
AcDbEntity
  8
Camada 1
 62
   250
420
  1907995
370
     9
100
AcDbSpline
210
0.0
220
0.0
230
1.0
 70
    11
 71
     3
 72
    17
 73
    13
 74
     0
 42
0.0000000001
 43
0.0000000001
 40
0.0
 40
0.0
 40
0.0
 40
0.0
 40
1.0
 40
1.0
 40
1.0
 40
2.0
 40
2.0
 40
2.0
 40
3.0
 40
3.0
 40
3.0
 40
4.0
 40
4.0
 40
4.0
 40
4.0
 10
62.47501052848949
 20
-17.90117883654918
 30
0.0
 10
62.47501052848949
 20
-17.90117883654918
 30
0.0
 10
63.0237640832702
 20
-17.90117883654918
 30
0.0
 10
63.0237640832702
 20
-17.90117883654918
 30
0.0
 10
63.0237640832702
 20
-17.90117883654918
 30
0.0
 10
63.0237640832702
 20
-17.84962847912455
 30
0.0
 10
63.0237640832702
 20
-17.84962847912455
 30
0.0
 10
63.0237640832702
 20
-17.84962847912455
 30
0.0
 10
62.47501052848949
 20
-17.84962847912455
 30
0.0
 10
62.47501052848949
 20
-17.84962847912455
 30
0.0
 10
62.47501052848949
 20
-17.84962847912455
 30
0.0
 10
62.47501052848949
 20
-17.90117883654918
 30
0.0
 10
62.47501052848949
 20
-17.90117883654918
 30
0.0
  0
SPLINE
  5
96
330
79
100
AcDbEntity
  8
Camada 1
 62
   250
420
  1907995
370
     9
100
AcDbSpline
210
0.0
220
0.0
230
1.0
 70
    11
 71
     3
 72
    17
 73
    13
 74
     0
 42
0.0000000001
 43
0.0000000001
 40
0.0
 40
0.0
 40
0.0
 40
0.0
 40
1.0
 40
1.0
 40
1.0
 40
2.0
 40
2.0
 40
2.0
 40
3.0
 40
3.0
 40
3.0
 40
4.0
 40
4.0
 40
4.0
 40
4.0
 10
63.15573299827648
 20
-18.03314775155481
 30
0.0
 10
63.15573299827648
 20
-18.03314775155481
 30
0.0
 10
62.34304161348386
 20
-18.03314775155481
 30
0.0
 10
62.34304161348386
 20
-18.03314775155481
 30
0.0
 10
62.34304161348386
 20
-18.03314775155481
 30
0.0
 10
62.34304161348386
 20
-17.71765956411892
 30
0.0
 10
62.34304161348386
 20
-17.71765956411892
 30
0.0
 10
62.34304161348386
 20
-17.71765956411892
 30
0.0
 10
63.15573299827648
 20
-17.71765956411892
 30
0.0
 10
63.15573299827648
 20
-17.71765956411892
 30
0.0
 10
63.15573299827648
 20
-17.71765956411892
 30
0.0
 10
63.15573299827648
 20
-18.03314775155481
 30
0.0
 10
63.15573299827648
 20
-18.03314775155481
 30
0.0
  0
LWPOLYLINE
  5
97
330
79
100
AcDbEntity
  8
Camada 1
 62
   250
420
  1907995
370
     9
100
AcDbPolyline
 90
        4
 70
     1
 43
0.0
 10
63.35648942146952
 20
-17.97395344269425
 10
64.18578163230222
 20
-17.97395344269425
 10
64.18578163230222
 20
-17.77705524156343
 10
63.35648942146952
 20
-17.77705524156343
  0
SPLINE
  5
98
330
79
100
AcDbEntity
  8
Camada 1
 62
   250
420
  1907995
370
     9
100
AcDbSpline
210
0.0
220
0.0
230
1.0
 70
    11
 71
     3
 72
    17
 73
    13
 74
     0
 42
0.0000000001
 43
0.0000000001
 40
0.0
 40
0.0
 40
0.0
 40
0.0
 40
1.0
 40
1.0
 40
1.0
 40
2.0
 40
2.0
 40
2.0
 40
3.0
 40
3.0
 40
3.0
 40
4.0
 40
4.0
 40
4.0
 40
4.0
 10
63.4294620227944
 20
-17.90117883654918
 30
0.0
 10
63.4294620227944
 20
-17.90117883654918
 30
0.0
 10
64.11379639100437
 20
-17.90117883654918
 30
0.0
 10
64.11379639100437
 20
-17.90117883654918
 30
0.0
 10
64.11379639100437
 20
-17.90117883654918
 30
0.0
 10
64.11379639100437
 20
-17.84962847912455
 30
0.0
 10
64.11379639100437
 20
-17.84962847912455
 30
0.0
 10
64.11379639100437
 20
-17.84962847912455
 30
0.0
 10
63.4294620227944
 20
-17.84962847912455
 30
0.0
 10
63.4294620227944
 20
-17.84962847912455
 30
0.0
 10
63.4294620227944
 20
-17.84962847912455
 30
0.0
 10
63.4294620227944
 20
-17.90117883654918
 30
0.0
 10
63.4294620227944
 20
-17.90117883654918
 30
0.0
  0
SPLINE
  5
99
330
79
100
AcDbEntity
  8
Camada 1
 62
   250
420
  1907995
370
     9
100
AcDbSpline
210
0.0
220
0.0
230
1.0
 70
    11
 71
     3
 72
    17
 73
    13
 74
     0
 42
0.0000000001
 43
0.0000000001
 40
0.0
 40
0.0
 40
0.0
 40
0.0
 40
1.0
 40
1.0
 40
1.0
 40
2.0
 40
2.0
 40
2.0
 40
3.0
 40
3.0
 40
3.0
 40
4.0
 40
4.0
 40
4.0
 40
4.0
 10
64.24576530601065
 20
-18.03314775155481
 30
0.0
 10
64.24576530601065
 20
-18.03314775155481
 30
0.0
 10
63.2974931111224
 20
-18.03314775155481
 30
0.0
 10
63.2974931111224
 20
-18.03314775155481
 30
0.0
 10
63.2974931111224
 20
-18.03314775155481
 30
0.0
 10
63.2974931111224
 20
-17.71765956411892
 30
0.0
 10
63.2974931111224
 20
-17.71765956411892
 30
0.0
 10
63.2974931111224
 20
-17.71765956411892
 30
0.0
 10
64.24576530601065
 20
-17.71765956411892
 30
0.0
 10
64.24576530601065
 20
-17.71765956411892
 30
0.0
 10
64.24576530601065
 20
-17.71765956411892
 30
0.0
 10
64.24576530601065
 20
-18.03314775155481
 30
0.0
 10
64.24576530601065
 20
-18.03314775155481
 30
0.0
  0
LWPOLYLINE
  5
9A
330
79
100
AcDbEntity
  8
Camada 1
 62
   250
420
  1907995
370
     9
100
AcDbPolyline
 90
        4
 70
     1
 43
0.0
 10
64.44681169996541
 20
-17.97395344269425
 10
65.38775070833736
 20
-17.97395344269425
 10
65.38775070833736
 20
-17.77705524156343
 10
64.44681169996541
 20
-17.77705524156343
  0
SPLINE
  5
9B
330
79
100
AcDbEntity
  8
Camada 1
 62
   250
420
  1907995
370
     9
100
AcDbSpline
210
0.0
220
0.0
230
1.0
 70
    11
 71
     3
 72
    17
 73
    13
 74
     0
 42
0.0000000001
 43
0.0000000001
 40
0.0
 40
0.0
 40
0.0
 40
0.0
 40
1.0
 40
1.0
 40
1.0
 40
2.0
 40
2.0
 40
2.0
 40
3.0
 40
3.0
 40
3.0
 40
4.0
 40
4.0
 40
4.0
 40
4.0
 10
64.51923995214695
 20
-17.90117883654918
 30
0.0
 10
64.51923995214695
 20
-17.90117883654918
 30
0.0
 10
65.31543522256329
 20
-17.90117883654918
 30
0.0
 10
65.31543522256329
 20
-17.90117883654918
 30
0.0
 10
65.31543522256329
 20
-17.90117883654918
 30
0.0
 10
65.31543522256329
 20
-17.84962847912455
 30
0.0
 10
65.31543522256329
 20
-17.84962847912455
 30
0.0
 10
65.31543522256329
 20
-17.84962847912455
 30
0.0
 10
64.51923995214695
 20
-17.84962847912455
 30
0.0
 10
64.51923995214695
 20
-17.84962847912455
 30
0.0
 10
64.51923995214695
 20
-17.84962847912455
 30
0.0
 10
64.51923995214695
 20
-17.90117883654918
 30
0.0
 10
64.51923995214695
 20
-17.90117883654918
 30
0.0
  0
SPLINE
  5
9C
330
79
100
AcDbEntity
  8
Camada 1
 62
   250
420
  1907995
370
     9
100
AcDbSpline
210
0.0
220
0.0
230
1.0
 70
    11
 71
     3
 72
    17
 73
    13
 74
     0
 42
0.0000000001
 43
0.0000000001
 40
0.0
 40
0.0
 40
0.0
 40
0.0
 40
1.0
 40
1.0
 40
1.0
 40
2.0
 40
2.0
 40
2.0
 40
3.0
 40
3.0
 40
3.0
 40
4.0
 40
4.0
 40
4.0
 40
4.0
 10
65.44740413756958
 20
-18.03314775155481
 30
0.0
 10
65.44740413756958
 20
-18.03314775155481
 30
0.0
 10
64.38727103714066
 20
-18.03314775155481
 30
0.0
 10
64.38727103714066
 20
-18.03314775155481
 30
0.0
 10
64.38727103714066
 20
-18.03314775155481
 30
0.0
 10
64.38727103714066
 20
-17.71765956411892
 30
0.0
 10
64.38727103714066
 20
-17.71765956411892
 30
0.0
 10
64.38727103714066
 20
-17.71765956411892
 30
0.0
 10
65.44740413756958
 20
-17.71765956411892
 30
0.0
 10
65.44740413756958
 20
-17.71765956411892
 30
0.0
 10
65.44740413756958
 20
-17.71765956411892
 30
0.0
 10
65.44740413756958
 20
-18.03314775155481
 30
0.0
 10
65.44740413756958
 20
-18.03314775155481
 30
0.0
  0
LWPOLYLINE
  5
9D
330
79
100
AcDbEntity
  8
Camada 1
 62
   250
420
  1907995
370
     9
100
AcDbPolyline
 90
        4
 70
     1
 43
0.0
 10
65.64851496946982
 20
-17.97395344269425
 10
66.34214113809966
 20
-17.97395344269425
 10
66.34214113809966
 20
-17.77705524156343
 10
65.64851496946982
 20
-17.77705524156343
  0
SPLINE
  5
9E
330
79
100
AcDbEntity
  8
Camada 1
 62
   250
420
  1907995
370
     9
100
AcDbSpline
210
0.0
220
0.0
230
1.0
 70
    11
 71
     3
 72
    17
 73
    13
 74
     0
 42
0.0000000001
 43
0.0000000001
 40
0.0
 40
0.0
 40
0.0
 40
0.0
 40
1.0
 40
1.0
 40
1.0
 40
2.0
 40
2.0
 40
2.0
 40
3.0
 40
3.0
 40
3.0
 40
4.0
 40
4.0
 40
4.0
 40
4.0
 10
65.72113653549165
 20
-17.90117883654918
 30
0.0
 10
65.72113653549165
 20
-17.90117883654918
 30
0.0
 10
66.27014784205943
 20
-17.90117883654918
 30
0.0
 10
66.27014784205943
 20
-17.90117883654918
 30
0.0
 10
66.27014784205943
 20
-17.90117883654918
 30
0.0
 10
66.27014784205943
 20
-17.84962847912455
 30
0.0
 10
66.27014784205943
 20
-17.84962847912455
 30
0.0
 10
66.27014784205943
 20
-17.84962847912455
 30
0.0
 10
65.72113653549165
 20
-17.84962847912455
 30
0.0
 10
65.72113653549165
 20
-17.84962847912455
 30
0.0
 10
65.72113653549165
 20
-17.84962847912455
 30
0.0
 10
65.72113653549165
 20
-17.90117883654918
 30
0.0
 10
65.72113653549165
 20
-17.90117883654918
 30
0.0
  0
SPLINE
  5
9F
330
79
100
AcDbEntity
  8
Camada 1
 62
   250
420
  1907995
370
     9
100
AcDbSpline
210
0.0
220
0.0
230
1.0
 70
    11
 71
     3
 72
    17
 73
    13
 74
     0
 42
0.0000000001
 43
0.0000000001
 40
0.0
 40
0.0
 40
0.0
 40
0.0
 40
1.0
 40
1.0
 40
1.0
 40
2.0
 40
2.0
 40
2.0
 40
3.0
 40
3.0
 40
3.0
 40
4.0
 40
4.0
 40
4.0
 40
4.0
 10
66.4021167570657
 20
-18.03314775155481
 30
0.0
 10
66.4021167570657
 20
-18.03314775155481
 30
0.0
 10
65.58916762048537
 20
-18.03314775155481
 30
0.0
 10
65.58916762048537
 20
-18.03314775155481
 30
0.0
 10
65.58916762048537
 20
-18.03314775155481
 30
0.0
 10
65.58916762048537
 20
-17.71765956411892
 30
0.0
 10
65.58916762048537
 20
-17.71765956411892
 30
0.0
 10
65.58916762048537
 20
-17.71765956411892
 30
0.0
 10
66.4021167570657
 20
-17.71765956411892
 30
0.0
 10
66.4021167570657
 20
-17.71765956411892
 30
0.0
 10
66.4021167570657
 20
-17.71765956411892
 30
0.0
 10
66.4021167570657
 20
-18.03314775155481
 30
0.0
 10
66.4021167570657
 20
-18.03314775155481
 30
0.0
  0
LWPOLYLINE
  5
A0
330
79
100
AcDbEntity
  8
Camada 1
 62
   250
420
  1907995
370
     9
100
AcDbPolyline
 90
        4
 70
     1
 43
0.0
 10
66.60317926050651
 20
-17.97395344269425
 10
67.4322056648072
 20
-17.97395344269425
 10
67.4322056648072
 20
-17.77705524156343
 10
66.60317926050651
 20
-17.77705524156343
  0
SPLINE
  5
A1
330
79
100
AcDbEntity
  8
Camada 1
 62
   250
420
  1907995
370
     9
100
AcDbSpline
210
0.0
220
0.0
230
1.0
 70
    11
 71
     3
 72
    17
 73
    13
 74
     0
 42
0.0000000001
 43
0.0000000001
 40
0.0
 40
0.0
 40
0.0
 40
0.0
 40
1.0
 40
1.0
 40
1.0
 40
2.0
 40
2.0
 40
2.0
 40
3.0
 40
3.0
 40
3.0
 40
4.0
 40
4.0
 40
4.0
 40
4.0
 10
66.67559140320071
 20
-17.90117883654918
 30
0.0
 10
66.67559140320071
 20
-17.90117883654918
 30
0.0
 10
67.35992239800653
 20
-17.90117883654918
 30
0.0
 10
67.35992239800653
 20
-17.90117883654918
 30
0.0
 10
67.35992239800653
 20
-17.90117883654918
 30
0.0
 10
67.35992239800653
 20
-17.84962847912455
 30
0.0
 10
67.35992239800653
 20
-17.84962847912455
 30
0.0
 10
67.35992239800653
 20
-17.84962847912455
 30
0.0
 10
66.67559140320071
 20
-17.84962847912455
 30
0.0
 10
66.67559140320071
 20
-17.84962847912455
 30
0.0
 10
66.67559140320071
 20
-17.84962847912455
 30
0.0
 10
66.67559140320071
 20
-17.90117883654918
 30
0.0
 10
66.67559140320071
 20
-17.90117883654918
 30
0.0
  0
SPLINE
  5
A2
330
79
100
AcDbEntity
  8
Camada 1
 62
   250
420
  1907995
370
     9
100
AcDbSpline
210
0.0
220
0.0
230
1.0
 70
    11
 71
     3
 72
    17
 73
    13
 74
     0
 42
0.0000000001
 43
0.0000000001
 40
0.0
 40
0.0
 40
0.0
 40
0.0
 40
1.0
 40
1.0
 40
1.0
 40
2.0
 40
2.0
 40
2.0
 40
3.0
 40
3.0
 40
3.0
 40
4.0
 40
4.0
 40
4.0
 40
4.0
 10
67.4918913130128
 20
-18.03314775155481
 30
0.0
 10
67.4918913130128
 20
-18.03314775155481
 30
0.0
 10
66.54362248819443
 20
-18.03314775155481
 30
0.0
 10
66.54362248819443
 20
-18.03314775155481
 30
0.0
 10
66.54362248819443
 20
-18.03314775155481
 30
0.0
 10
66.54362248819443
 20
-17.71765956411892
 30
0.0
 10
66.54362248819443
 20
-17.71765956411892
 30
0.0
 10
66.54362248819443
 20
-17.71765956411892
 30
0.0
 10
67.4918913130128
 20
-17.71765956411892
 30
0.0
 10
67.4918913130128
 20
-17.71765956411892
 30
0.0
 10
67.4918913130128
 20
-17.71765956411892
 30
0.0
 10
67.4918913130128
 20
-18.03314775155481
 30
0.0
 10
67.4918913130128
 20
-18.03314775155481
 30
0.0
  0
LWPOLYLINE
  5
A3
330
79
100
AcDbEntity
  8
Camada 1
 62
   250
420
  1907995
370
     9
100
AcDbPolyline
 90
        4
 70
     1
 43
0.0
 10
67.69324378721406
 20
-17.97395344269425
 10
68.38686995584389
 20
-17.97395344269425
 10
68.38686995584389
 20
-17.77705524156343
 10
67.69324378721406
 20
-17.77705524156343
  0
SPLINE
  5
A4
330
79
100
AcDbEntity
  8
Camada 1
 62
   250
420
  1907995
370
     9
100
AcDbSpline
210
0.0
220
0.0
230
1.0
 70
    11
 71
     3
 72
    17
 73
    13
 74
     0
 42
0.0000000001
 43
0.0000000001
 40
0.0
 40
0.0
 40
0.0
 40
0.0
 40
1.0
 40
1.0
 40
1.0
 40
2.0
 40
2.0
 40
2.0
 40
3.0
 40
3.0
 40
3.0
 40
4.0
 40
4.0
 40
4.0
 40
4.0
 10
67.76562371093487
 20
-17.90117883654918
 30
0.0
 10
67.76562371093487
 20
-17.90117883654918
 30
0.0
 10
68.31463501750265
 20
-17.90117883654918
 30
0.0
 10
68.31463501750265
 20
-17.90117883654918
 30
0.0
 10
68.31463501750265
 20
-17.90117883654918
 30
0.0
 10
68.31463501750265
 20
-17.84962847912455
 30
0.0
 10
68.31463501750265
 20
-17.84962847912455
 30
0.0
 10
68.31463501750265
 20
-17.84962847912455
 30
0.0
 10
67.76562371093487
 20
-17.84962847912455
 30
0.0
 10
67.76562371093487
 20
-17.84962847912455
 30
0.0
 10
67.76562371093487
 20
-17.84962847912455
 30
0.0
 10
67.76562371093487
 20
-17.90117883654918
 30
0.0
 10
67.76562371093487
 20
-17.90117883654918
 30
0.0
  0
SPLINE
  5
A5
330
79
100
AcDbEntity
  8
Camada 1
 62
   250
420
  1907995
370
     9
100
AcDbSpline
210
0.0
220
0.0
230
1.0
 70
    11
 71
     3
 72
    17
 73
    13
 74
     0
 42
0.0000000001
 43
0.0000000001
 40
0.0
 40
0.0
 40
0.0
 40
0.0
 40
1.0
 40
1.0
 40
1.0
 40
2.0
 40
2.0
 40
2.0
 40
3.0
 40
3.0
 40
3.0
 40
4.0
 40
4.0
 40
4.0
 40
4.0
 10
68.44660393250892
 20
-18.03314775155481
 30
0.0
 10
68.44660393250892
 20
-18.03314775155481
 30
0.0
 10
67.63365479592988
 20
-18.03314775155481
 30
0.0
 10
67.63365479592988
 20
-18.03314775155481
 30
0.0
 10
67.63365479592988
 20
-18.03314775155481
 30
0.0
 10
67.63365479592988
 20
-17.71765956411892
 30
0.0
 10
67.63365479592988
 20
-17.71765956411892
 30
0.0
 10
67.63365479592988
 20
-17.71765956411892
 30
0.0
 10
68.44660393250892
 20
-17.71765956411892
 30
0.0
 10
68.44660393250892
 20
-17.71765956411892
 30
0.0
 10
68.44660393250892
 20
-17.71765956411892
 30
0.0
 10
68.44660393250892
 20
-18.03314775155481
 30
0.0
 10
68.44660393250892
 20
-18.03314775155481
 30
0.0
  0
LWPOLYLINE
  5
A6
330
79
100
AcDbEntity
  8
Camada 1
 62
   250
420
  1907995
370
     9
100
AcDbPolyline
 90
        4
 70
     1
 43
0.0
 10
68.76879366640963
 20
-17.97395344269425
 10
69.59809393198472
 20
-17.97395344269425
 10
69.59809393198472
 20
-17.77705524156343
 10
68.76879366640963
 20
-17.77705524156343
  0
SPLINE
  5
A7
330
79
100
AcDbEntity
  8
Camada 1
 62
   250
420
  1907995
370
     9
100
AcDbSpline
210
0.0
220
0.0
230
1.0
 70
    11
 71
     3
 72
    17
 73
    13
 74
     0
 42
0.0000000001
 43
0.0000000001
 40
0.0
 40
0.0
 40
0.0
 40
0.0
 40
1.0
 40
1.0
 40
1.0
 40
2.0
 40
2.0
 40
2.0
 40
3.0
 40
3.0
 40
3.0
 40
4.0
 40
4.0
 40
4.0
 40
4.0
 10
68.84122191859116
 20
-17.90117883654918
 30
0.0
 10
68.84122191859116
 20
-17.90117883654918
 30
0.0
 10
69.52555291339698
 20
-17.90117883654918
 30
0.0
 10
69.52555291339698
 20
-17.90117883654918
 30
0.0
 10
69.52555291339698
 20
-17.90117883654918
 30
0.0
 10
69.52555291339698
 20
-17.84962847912455
 30
0.0
 10
69.52555291339698
 20
-17.84962847912455
 30
0.0
 10
69.52555291339698
 20
-17.84962847912455
 30
0.0
 10
68.84122191859116
 20
-17.84962847912455
 30
0.0
 10
68.84122191859116
 20
-17.84962847912455
 30
0.0
 10
68.84122191859116
 20
-17.84962847912455
 30
0.0
 10
68.84122191859116
 20
-17.90117883654918
 30
0.0
 10
68.84122191859116
 20
-17.90117883654918
 30
0.0
  0
SPLINE
  5
A8
330
79
100
AcDbEntity
  8
Camada 1
 62
   250
420
  1907995
370
     9
100
AcDbSpline
210
0.0
220
0.0
230
1.0
 70
    11
 71
     3
 72
    17
 73
    13
 74
     0
 42
0.0000000001
 43
0.0000000001
 40
0.0
 40
0.0
 40
0.0
 40
0.0
 40
1.0
 40
1.0
 40
1.0
 40
2.0
 40
2.0
 40
2.0
 40
3.0
 40
3.0
 40
3.0
 40
4.0
 40
4.0
 40
4.0
 40
4.0
 10
69.65752182840326
 20
-18.03314775155481
 30
0.0
 10
69.65752182840326
 20
-18.03314775155481
 30
0.0
 10
68.70925300358489
 20
-18.03314775155481
 30
0.0
 10
68.70925300358489
 20
-18.03314775155481
 30
0.0
 10
68.70925300358489
 20
-18.03314775155481
 30
0.0
 10
68.70925300358489
 20
-17.71765956411892
 30
0.0
 10
68.70925300358489
 20
-17.71765956411892
 30
0.0
 10
68.70925300358489
 20
-17.71765956411892
 30
0.0
 10
69.65752182840326
 20
-17.71765956411892
 30
0.0
 10
69.65752182840326
 20
-17.71765956411892
 30
0.0
 10
69.65752182840326
 20
-17.71765956411892
 30
0.0
 10
69.65752182840326
 20
-18.03314775155481
 30
0.0
 10
69.65752182840326
 20
-18.03314775155481
 30
0.0
  0
LWPOLYLINE
  5
A9
330
79
100
AcDbEntity
  8
Camada 1
 62
   250
420
  1907995
370
     9
100
AcDbPolyline
 90
        4
 70
     1
 43
0.0
 10
69.71923727193194
 20
-18.09457322432306
 10
68.64765032646367
 20
-18.09457322432306
 10
68.64765032646367
 20
-17.65696707299544
 10
69.71923727193194
 20
-17.65696707299544
  0
SPLINE
  5
AA
330
79
100
AcDbEntity
  8
Camada 1
 62
   250
420
  1907995
370
     9
100
AcDbSpline
210
0.0
220
0.0
230
1.0
 70
    11
 71
     3
 72
    17
 73
    13
 74
     0
 42
0.0000000001
 43
0.0000000001
 40
0.0
 40
0.0
 40
0.0
 40
0.0
 40
1.0
 40
1.0
 40
1.0
 40
2.0
 40
2.0
 40
2.0
 40
3.0
 40
3.0
 40
3.0
 40
4.0
 40
4.0
 40
4.0
 40
4.0
 10
68.72033633043099
 20
-18.02180667292165
 30
0.0
 10
68.72033633043099
 20
-18.02180667292165
 30
0.0
 10
69.64695400513128
 20
-18.02180667292165
 30
0.0
 10
69.64695400513128
 20
-18.02180667292165
 30
0.0
 10
69.64695400513128
 20
-18.02180667292165
 30
0.0
 10
69.64695400513128
 20
-17.7295161463262
 30
0.0
 10
69.64695400513128
 20
-17.7295161463262
 30
0.0
 10
69.64695400513128
 20
-17.7295161463262
 30
0.0
 10
68.72033633043099
 20
-17.7295161463262
 30
0.0
 10
68.72033633043099
 20
-17.7295161463262
 30
0.0
 10
68.72033633043099
 20
-17.7295161463262
 30
0.0
 10
68.72033633043099
 20
-18.02180667292165
 30
0.0
 10
68.72033633043099
 20
-18.02180667292165
 30
0.0
  0
SPLINE
  5
AB
330
79
100
AcDbEntity
  8
Camada 1
 62
   250
420
  1907995
370
     9
100
AcDbSpline
210
0.0
220
0.0
230
1.0
 70
    11
 71
     3
 72
    17
 73
    13
 74
     0
 42
0.0000000001
 43
0.0000000001
 40
0.0
 40
0.0
 40
0.0
 40
0.0
 40
1.0
 40
1.0
 40
1.0
 40
2.0
 40
2.0
 40
2.0
 40
3.0
 40
3.0
 40
3.0
 40
4.0
 40
4.0
 40
4.0
 40
4.0
 10
69.77892292013755
 20
-18.15377558792792
 30
0.0
 10
69.77892292013755
 20
-18.15377558792792
 30
0.0
 10
68.588367415426
 20
-18.15377558792792
 30
0.0
 10
68.588367415426
 20
-18.15377558792792
 30
0.0
 10
68.588367415426
 20
-18.15377558792792
 30
0.0
 10
68.588367415426
 20
-17.59754723132057
 30
0.0
 10
68.588367415426
 20
-17.59754723132057
 30
0.0
 10
68.588367415426
 20
-17.59754723132057
 30
0.0
 10
69.77892292013755
 20
-17.59754723132057
 30
0.0
 10
69.77892292013755
 20
-17.59754723132057
 30
0.0
 10
69.77892292013755
 20
-17.59754723132057
 30
0.0
 10
69.77892292013755
 20
-18.15377558792792
 30
0.0
 10
69.77892292013755
 20
-18.15377558792792
 30
0.0
  0
LWPOLYLINE
  5
AC
330
79
100
AcDbEntity
  8
Camada 1
 62
   250
420
  1907995
370
     9
100
AcDbPolyline
 90
        4
 70
     1
 43
0.0
 10
68.64737646518929
 20
-17.97395344269425
 10
69.58884708662269
 20
-17.97395344269425
 10
69.58884708662269
 20
-17.77705524156343
 10
68.64737646518929
 20
-17.77705524156343
  0
SPLINE
  5
AD
330
79
100
AcDbEntity
  8
Camada 1
 62
   250
420
  1907995
370
     9
100
AcDbSpline
210
0.0
220
0.0
230
1.0
 70
    11
 71
     3
 72
    17
 73
    13
 74
     0
 42
0.0000000001
 43
0.0000000001
 40
0.0
 40
0.0
 40
0.0
 40
0.0
 40
1.0
 40
1.0
 40
1.0
 40
2.0
 40
2.0
 40
2.0
 40
3.0
 40
3.0
 40
3.0
 40
4.0
 40
4.0
 40
4.0
 40
4.0
 10
68.72007857864393
 20
-17.90117883654918
 30
0.0
 10
68.72007857864393
 20
-17.90117883654918
 30
0.0
 10
69.51653160084863
 20
-17.90117883654918
 30
0.0
 10
69.51653160084863
 20
-17.90117883654918
 30
0.0
 10
69.51653160084863
 20
-17.90117883654918
 30
0.0
 10
69.51653160084863
 20
-17.84962847912455
 30
0.0
 10
69.51653160084863
 20
-17.84962847912455
 30
0.0
 10
69.51653160084863
 20
-17.84962847912455
 30
0.0
 10
68.72007857864393
 20
-17.84962847912455
 30
0.0
 10
68.72007857864393
 20
-17.84962847912455
 30
0.0
 10
68.72007857864393
 20
-17.84962847912455
 30
0.0
 10
68.72007857864393
 20
-17.90117883654918
 30
0.0
 10
68.72007857864393
 20
-17.90117883654918
 30
0.0
  0
SPLINE
  5
AE
330
79
100
AcDbEntity
  8
Camada 1
 62
   250
420
  1907995
370
     9
100
AcDbSpline
210
0.0
220
0.0
230
1.0
 70
    11
 71
     3
 72
    17
 73
    13
 74
     0
 42
0.0000000001
 43
0.0000000001
 40
0.0
 40
0.0
 40
0.0
 40
0.0
 40
1.0
 40
1.0
 40
1.0
 40
2.0
 40
2.0
 40
2.0
 40
3.0
 40
3.0
 40
3.0
 40
4.0
 40
4.0
 40
4.0
 40
4.0
 10
69.64850051585362
 20
-18.03314775155481
 30
0.0
 10
69.64850051585362
 20
-18.03314775155481
 30
0.0
 10
68.58810966363894
 20
-18.03314775155481
 30
0.0
 10
68.58810966363894
 20
-18.03314775155481
 30
0.0
 10
68.58810966363894
 20
-18.03314775155481
 30
0.0
 10
68.58810966363894
 20
-17.71765956411892
 30
0.0
 10
68.58810966363894
 20
-17.71765956411892
 30
0.0
 10
68.58810966363894
 20
-17.71765956411892
 30
0.0
 10
69.64850051585362
 20
-17.71765956411892
 30
0.0
 10
69.64850051585362
 20
-17.71765956411892
 30
0.0
 10
69.64850051585362
 20
-17.71765956411892
 30
0.0
 10
69.64850051585362
 20
-18.03314775155481
 30
0.0
 10
69.64850051585362
 20
-18.03314775155481
 30
0.0
  0
LWPOLYLINE
  5
AF
330
79
100
AcDbEntity
  8
Camada 1
 62
   250
420
  1907995
370
     9
100
AcDbPolyline
 90
        4
 70
     1
 43
0.0
 10
69.84962745724249
 20
-17.97395344269425
 10
70.54325362587104
 20
-17.97395344269425
 10
70.54325362587104
 20
-17.77705524156343
 10
69.84962745724249
 20
-17.77705524156343
  0
SPLINE
  5
B0
330
79
100
AcDbEntity
  8
Camada 1
 62
   250
420
  1907995
370
     9
100
AcDbSpline
210
0.0
220
0.0
230
1.0
 70
    11
 71
     3
 72
    17
 73
    13
 74
     0
 42
0.0000000001
 43
0.0000000001
 40
0.0
 40
0.0
 40
0.0
 40
0.0
 40
1.0
 40
1.0
 40
1.0
 40
2.0
 40
2.0
 40
2.0
 40
3.0
 40
3.0
 40
3.0
 40
4.0
 40
4.0
 40
4.0
 40
4.0
 10
69.92197516198991
 20
-17.90117883654918
 30
0.0
 10
69.92197516198991
 20
-17.90117883654918
 30
0.0
 10
70.47072871677063
 20
-17.90117883654918
 30
0.0
 10
70.47072871677063
 20
-17.90117883654918
 30
0.0
 10
70.47072871677063
 20
-17.90117883654918
 30
0.0
 10
70.47072871677063
 20
-17.84962847912455
 30
0.0
 10
70.47072871677063
 20
-17.84962847912455
 30
0.0
 10
70.47072871677063
 20
-17.84962847912455
 30
0.0
 10
69.92197516198991
 20
-17.84962847912455
 30
0.0
 10
69.92197516198991
 20
-17.84962847912455
 30
0.0
 10
69.92197516198991
 20
-17.84962847912455
 30
0.0
 10
69.92197516198991
 20
-17.90117883654918
 30
0.0
 10
69.92197516198991
 20
-17.90117883654918
 30
0.0
  0
SPLINE
  5
B1
330
79
100
AcDbEntity
  8
Camada 1
 62
   250
420
  1907995
370
     9
100
AcDbSpline
210
0.0
220
0.0
230
1.0
 70
    11
 71
     3
 72
    17
 73
    13
 74
     0
 42
0.0000000001
 43
0.0000000001
 40
0.0
 40
0.0
 40
0.0
 40
0.0
 40
1.0
 40
1.0
 40
1.0
 40
2.0
 40
2.0
 40
2.0
 40
3.0
 40
3.0
 40
3.0
 40
4.0
 40
4.0
 40
4.0
 40
4.0
 10
70.60269763177562
 20
-18.03314775155481
 30
0.0
 10
70.60269763177562
 20
-18.03314775155481
 30
0.0
 10
69.79000624698365
 20
-18.03314775155481
 30
0.0
 10
69.79000624698365
 20
-18.03314775155481
 30
0.0
 10
69.79000624698365
 20
-18.03314775155481
 30
0.0
 10
69.79000624698365
 20
-17.71765956411892
 30
0.0
 10
69.79000624698365
 20
-17.71765956411892
 30
0.0
 10
69.79000624698365
 20
-17.71765956411892
 30
0.0
 10
70.60269763177562
 20
-17.71765956411892
 30
0.0
 10
70.60269763177562
 20
-17.71765956411892
 30
0.0
 10
70.60269763177562
 20
-17.71765956411892
 30
0.0
 10
70.60269763177562
 20
-18.03314775155481
 30
0.0
 10
70.60269763177562
 20
-18.03314775155481
 30
0.0
  0
LWPOLYLINE
  5
B2
330
79
100
AcDbEntity
  8
Camada 1
 62
   250
420
  1907995
370
     9
100
AcDbPolyline
 90
        4
 70
     1
 43
0.0
 10
70.80376013521643
 20
-17.97395344269425
 10
71.63306040079152
 20
-17.97395344269425
 10
71.63306040079152
 20
-17.77705524156343
 10
70.80376013521643
 20
-17.77705524156343
  0
SPLINE
  5
B3
330
79
100
AcDbEntity
  8
Camada 1
 62
   250
420
  1907995
370
     9
100
AcDbSpline
210
0.0
220
0.0
230
1.0
 70
    11
 71
     3
 72
    17
 73
    13
 74
     0
 42
0.0000000001
 43
0.0000000001
 40
0.0
 40
0.0
 40
0.0
 40
0.0
 40
1.0
 40
1.0
 40
1.0
 40
2.0
 40
2.0
 40
2.0
 40
3.0
 40
3.0
 40
3.0
 40
4.0
 40
4.0
 40
4.0
 40
4.0
 10
70.87668778148604
 20
-17.90117883654918
 30
0.0
 10
70.87668778148604
 20
-17.90117883654918
 30
0.0
 10
71.56101877629186
 20
-17.90117883654918
 30
0.0
 10
71.56101877629186
 20
-17.90117883654918
 30
0.0
 10
71.56101877629186
 20
-17.90117883654918
 30
0.0
 10
71.56101877629186
 20
-17.84962847912455
 30
0.0
 10
71.56101877629186
 20
-17.84962847912455
 30
0.0
 10
71.56101877629186
 20
-17.84962847912455
 30
0.0
 10
70.87668778148604
 20
-17.84962847912455
 30
0.0
 10
70.87668778148604
 20
-17.84962847912455
 30
0.0
 10
70.87668778148604
 20
-17.84962847912455
 30
0.0
 10
70.87668778148604
 20
-17.90117883654918
 30
0.0
 10
70.87668778148604
 20
-17.90117883654918
 30
0.0
  0
SPLINE
  5
B4
330
79
100
AcDbEntity
  8
Camada 1
 62
   250
420
  1907995
370
     9
100
AcDbSpline
210
0.0
220
0.0
230
1.0
 70
    11
 71
     3
 72
    17
 73
    13
 74
     0
 42
0.0000000001
 43
0.0000000001
 40
0.0
 40
0.0
 40
0.0
 40
0.0
 40
1.0
 40
1.0
 40
1.0
 40
2.0
 40
2.0
 40
2.0
 40
3.0
 40
3.0
 40
3.0
 40
4.0
 40
4.0
 40
4.0
 40
4.0
 10
71.69298769129814
 20
-18.03314775155481
 30
0.0
 10
71.69298769129814
 20
-18.03314775155481
 30
0.0
 10
70.74471886647977
 20
-18.03314775155481
 30
0.0
 10
70.74471886647977
 20
-18.03314775155481
 30
0.0
 10
70.74471886647977
 20
-18.03314775155481
 30
0.0
 10
70.74471886647977
 20
-17.71765956411892
 30
0.0
 10
70.74471886647977
 20
-17.71765956411892
 30
0.0
 10
70.74471886647977
 20
-17.71765956411892
 30
0.0
 10
71.69298769129814
 20
-17.71765956411892
 30
0.0
 10
71.69298769129814
 20
-17.71765956411892
 30
0.0
 10
71.69298769129814
 20
-17.71765956411892
 30
0.0
 10
71.69298769129814
 20
-18.03314775155481
 30
0.0
 10
71.69298769129814
 20
-18.03314775155481
 30
0.0
  0
LWPOLYLINE
  5
B5
330
79
100
AcDbEntity
  8
Camada 1
 62
   250
420
  1907995
370
     9
100
AcDbPolyline
 90
        4
 70
     1
 43
0.0
 10
71.89382466192526
 20
-17.97395344269425
 10
72.83502142208428
 20
-17.97395344269425
 10
72.83502142208428
 20
-17.77705524156343
 10
71.89382466192526
 20
-17.77705524156343
  0
SPLINE
  5
B6
330
79
100
AcDbEntity
  8
Camada 1
 62
   250
420
  1907995
370
     9
100
AcDbSpline
210
0.0
220
0.0
230
1.0
 70
    11
 71
     3
 72
    17
 73
    13
 74
     0
 42
0.0000000001
 43
0.0000000001
 40
0.0
 40
0.0
 40
0.0
 40
0.0
 40
1.0
 40
1.0
 40
1.0
 40
2.0
 40
2.0
 40
2.0
 40
3.0
 40
3.0
 40
3.0
 40
4.0
 40
4.0
 40
4.0
 40
4.0
 10
71.96646233743314
 20
-17.90117883654918
 30
0.0
 10
71.96646233743314
 20
-17.90117883654918
 30
0.0
 10
72.76291535963657
 20
-17.90117883654918
 30
0.0
 10
72.76291535963657
 20
-17.90117883654918
 30
0.0
 10
72.76291535963657
 20
-17.90117883654918
 30
0.0
 10
72.76291535963657
 20
-17.84962847912455
 30
0.0
 10
72.76291535963657
 20
-17.84962847912455
 30
0.0
 10
72.76291535963657
 20
-17.84962847912455
 30
0.0
 10
71.96646233743314
 20
-17.84962847912455
 30
0.0
 10
71.96646233743314
 20
-17.84962847912455
 30
0.0
 10
71.96646233743314
 20
-17.84962847912455
 30
0.0
 10
71.96646233743314
 20
-17.90117883654918
 30
0.0
 10
71.96646233743314
 20
-17.90117883654918
 30
0.0
  0
SPLINE
  5
B7
330
79
100
AcDbEntity
  8
Camada 1
 62
   250
420
  1907995
370
     9
100
AcDbSpline
210
0.0
220
0.0
230
1.0
 70
    11
 71
     3
 72
    17
 73
    13
 74
     0
 42
0.0000000001
 43
0.0000000001
 40
0.0
 40
0.0
 40
0.0
 40
0.0
 40
1.0
 40
1.0
 40
1.0
 40
2.0
 40
2.0
 40
2.0
 40
3.0
 40
3.0
 40
3.0
 40
4.0
 40
4.0
 40
4.0
 40
4.0
 10
72.89488427464283
 20
-18.03314775155481
 30
0.0
 10
72.89488427464283
 20
-18.03314775155481
 30
0.0
 10
71.83449342242687
 20
-18.03314775155481
 30
0.0
 10
71.83449342242687
 20
-18.03314775155481
 30
0.0
 10
71.83449342242687
 20
-18.03314775155481
 30
0.0
 10
71.83449342242687
 20
-17.71765956411892
 30
0.0
 10
71.83449342242687
 20
-17.71765956411892
 30
0.0
 10
71.83449342242687
 20
-17.71765956411892
 30
0.0
 10
72.89488427464283
 20
-17.71765956411892
 30
0.0
 10
72.89488427464283
 20
-17.71765956411892
 30
0.0
 10
72.89488427464283
 20
-17.71765956411892
 30
0.0
 10
72.89488427464283
 20
-18.03314775155481
 30
0.0
 10
72.89488427464283
 20
-18.03314775155481
 30
0.0
  0
LWPOLYLINE
  5
B8
330
79
100
AcDbEntity
  8
Camada 1
 62
   250
420
  1907995
370
     9
100
AcDbPolyline
 90
        4
 70
     1
 43
0.0
 10
73.09578568321673
 20
-17.97395344269425
 10
73.78941185184658
 20
-17.97395344269425
 10
73.78941185184658
 20
-17.77705524156343
 10
73.09578568321673
 20
-17.77705524156343
  0
SPLINE
  5
B9
330
79
100
AcDbEntity
  8
Camada 1
 62
   250
420
  1907995
370
     9
100
AcDbSpline
210
0.0
220
0.0
230
1.0
 70
    11
 71
     3
 72
    17
 73
    13
 74
     0
 42
0.0000000001
 43
0.0000000001
 40
0.0
 40
0.0
 40
0.0
 40
0.0
 40
1.0
 40
1.0
 40
1.0
 40
2.0
 40
2.0
 40
2.0
 40
3.0
 40
3.0
 40
3.0
 40
4.0
 40
4.0
 40
4.0
 40
4.0
 10
73.16835892077785
 20
-17.90117883654918
 30
0.0
 10
73.16835892077785
 20
-17.90117883654918
 30
0.0
 10
73.71711247555857
 20
-17.90117883654918
 30
0.0
 10
73.71711247555857
 20
-17.90117883654918
 30
0.0
 10
73.71711247555857
 20
-17.90117883654918
 30
0.0
 10
73.71711247555857
 20
-17.84962847912455
 30
0.0
 10
73.71711247555857
 20
-17.84962847912455
 30
0.0
 10
73.71711247555857
 20
-17.84962847912455
 30
0.0
 10
73.16835892077785
 20
-17.84962847912455
 30
0.0
 10
73.16835892077785
 20
-17.84962847912455
 30
0.0
 10
73.16835892077785
 20
-17.84962847912455
 30
0.0
 10
73.16835892077785
 20
-17.90117883654918
 30
0.0
 10
73.16835892077785
 20
-17.90117883654918
 30
0.0
  0
SPLINE
  5
BA
330
79
100
AcDbEntity
  8
Camada 1
 62
   250
420
  1907995
370
     9
100
AcDbSpline
210
0.0
220
0.0
230
1.0
 70
    11
 71
     3
 72
    17
 73
    13
 74
     0
 42
0.0000000001
 43
0.0000000001
 40
0.0
 40
0.0
 40
0.0
 40
0.0
 40
1.0
 40
1.0
 40
1.0
 40
2.0
 40
2.0
 40
2.0
 40
3.0
 40
3.0
 40
3.0
 40
4.0
 40
4.0
 40
4.0
 40
4.0
 10
73.84908139056484
 20
-18.03314775155481
 30
0.0
 10
73.84908139056484
 20
-18.03314775155481
 30
0.0
 10
73.03639000577286
 20
-18.03314775155481
 30
0.0
 10
73.03639000577286
 20
-18.03314775155481
 30
0.0
 10
73.03639000577286
 20
-18.03314775155481
 30
0.0
 10
73.03639000577286
 20
-17.71765956411892
 30
0.0
 10
73.03639000577286
 20
-17.71765956411892
 30
0.0
 10
73.03639000577286
 20
-17.71765956411892
 30
0.0
 10
73.84908139056484
 20
-17.71765956411892
 30
0.0
 10
73.84908139056484
 20
-17.71765956411892
 30
0.0
 10
73.84908139056484
 20
-17.71765956411892
 30
0.0
 10
73.84908139056484
 20
-18.03314775155481
 30
0.0
 10
73.84908139056484
 20
-18.03314775155481
 30
0.0
  0
LWPOLYLINE
  5
BB
330
79
100
AcDbEntity
  8
Camada 1
 62
   250
420
  1907995
370
     9
100
AcDbPolyline
 90
        4
 70
     1
 43
0.0
 10
74.05044997425342
 20
-17.97395344269425
 10
74.87947637855412
 20
-17.97395344269425
 10
74.87947637855412
 20
-17.77705524156343
 10
74.05044997425342
 20
-17.77705524156343
  0
SPLINE
  5
BC
330
79
100
AcDbEntity
  8
Camada 1
 62
   250
420
  1907995
370
     9
100
AcDbSpline
210
0.0
220
0.0
230
1.0
 70
    11
 71
     3
 72
    17
 73
    13
 74
     0
 42
0.0000000001
 43
0.0000000001
 40
0.0
 40
0.0
 40
0.0
 40
0.0
 40
1.0
 40
1.0
 40
1.0
 40
2.0
 40
2.0
 40
2.0
 40
3.0
 40
3.0
 40
3.0
 40
4.0
 40
4.0
 40
4.0
 40
4.0
 10
74.12281378848691
 20
-17.90117883654918
 30
0.0
 10
74.12281378848691
 20
-17.90117883654918
 30
0.0
 10
74.80714478329402
 20
-17.90117883654918
 30
0.0
 10
74.80714478329402
 20
-17.90117883654918
 30
0.0
 10
74.80714478329402
 20
-17.90117883654918
 30
0.0
 10
74.80714478329402
 20
-17.84962847912455
 30
0.0
 10
74.80714478329402
 20
-17.84962847912455
 30
0.0
 10
74.80714478329402
 20
-17.84962847912455
 30
0.0
 10
74.12281378848691
 20
-17.84962847912455
 30
0.0
 10
74.12281378848691
 20
-17.84962847912455
 30
0.0
 10
74.12281378848691
 20
-17.84962847912455
 30
0.0
 10
74.12281378848691
 20
-17.90117883654918
 30
0.0
 10
74.12281378848691
 20
-17.90117883654918
 30
0.0
  0
SPLINE
  5
BD
330
79
100
AcDbEntity
  8
Camada 1
 62
   250
420
  1907995
370
     9
100
AcDbSpline
210
0.0
220
0.0
230
1.0
 70
    11
 71
     3
 72
    17
 73
    13
 74
     0
 42
0.0000000001
 43
0.0000000001
 40
0.0
 40
0.0
 40
0.0
 40
0.0
 40
1.0
 40
1.0
 40
1.0
 40
2.0
 40
2.0
 40
2.0
 40
3.0
 40
3.0
 40
3.0
 40
4.0
 40
4.0
 40
4.0
 40
4.0
 10
74.93911369829901
 20
-18.03314775155481
 30
0.0
 10
74.93911369829901
 20
-18.03314775155481
 30
0.0
 10
73.99084487348192
 20
-18.03314775155481
 30
0.0
 10
73.99084487348192
 20
-18.03314775155481
 30
0.0
 10
73.99084487348192
 20
-18.03314775155481
 30
0.0
 10
73.99084487348192
 20
-17.71765956411892
 30
0.0
 10
73.99084487348192
 20
-17.71765956411892
 30
0.0
 10
73.99084487348192
 20
-17.71765956411892
 30
0.0
 10
74.93911369829901
 20
-17.71765956411892
 30
0.0
 10
74.93911369829901
 20
-17.71765956411892
 30
0.0
 10
74.93911369829901
 20
-17.71765956411892
 30
0.0
 10
74.93911369829901
 20
-18.03314775155481
 30
0.0
 10
74.93911369829901
 20
-18.03314775155481
 30
0.0
  0
LWPOLYLINE
  5
BE
330
79
100
AcDbEntity
  8
Camada 1
 62
   250
420
  1907995
370
     9
100
AcDbPolyline
 90
        4
 70
     1
 43
0.0
 10
75.14025674917391
 20
-17.97395344269425
 10
75.83388291780375
 20
-17.97395344269425
 10
75.83388291780375
 20
-17.77705524156343
 10
75.14025674917391
 20
-17.77705524156343
  0
SPLINE
  5
BF
330
79
100
AcDbEntity
  8
Camada 1
 62
   250
420
  1907995
370
     9
100
AcDbSpline
210
0.0
220
0.0
230
1.0
 70
    11
 71
     3
 72
    17
 73
    13
 74
     0
 42
0.0000000001
 43
0.0000000001
 40
0.0
 40
0.0
 40
0.0
 40
0.0
 40
1.0
 40
1.0
 40
1.0
 40
2.0
 40
2.0
 40
2.0
 40
3.0
 40
3.0
 40
3.0
 40
4.0
 40
4.0
 40
4.0
 40
4.0
 10
75.2125883444353
 20
-17.90117883654918
 30
0.0
 10
75.2125883444353
 20
-17.90117883654918
 30
0.0
 10
75.76159965100308
 20
-17.90117883654918
 30
0.0
 10
75.76159965100308
 20
-17.90117883654918
 30
0.0
 10
75.76159965100308
 20
-17.90117883654918
 30
0.0
 10
75.76159965100308
 20
-17.84962847912455
 30
0.0
 10
75.76159965100308
 20
-17.84962847912455
 30
0.0
 10
75.76159965100308
 20
-17.84962847912455
 30
0.0
 10
75.2125883444353
 20
-17.84962847912455
 30
0.0
 10
75.2125883444353
 20
-17.84962847912455
 30
0.0
 10
75.2125883444353
 20
-17.84962847912455
 30
0.0
 10
75.2125883444353
 20
-17.90117883654918
 30
0.0
 10
75.2125883444353
 20
-17.90117883654918
 30
0.0
  0
SPLINE
  5
C0
330
79
100
AcDbEntity
  8
Camada 1
 62
   250
420
  1907995
370
     9
100
AcDbSpline
210
0.0
220
0.0
230
1.0
 70
    11
 71
     3
 72
    17
 73
    13
 74
     0
 42
0.0000000001
 43
0.0000000001
 40
0.0
 40
0.0
 40
0.0
 40
0.0
 40
1.0
 40
1.0
 40
1.0
 40
2.0
 40
2.0
 40
2.0
 40
3.0
 40
3.0
 40
3.0
 40
4.0
 40
4.0
 40
4.0
 40
4.0
 10
75.89356856600807
 20
-18.03314775155481
 30
0.0
 10
75.89356856600807
 20
-18.03314775155481
 30
0.0
 10
75.08061942942903
 20
-18.03314775155481
 30
0.0
 10
75.08061942942903
 20
-18.03314775155481
 30
0.0
 10
75.08061942942903
 20
-18.03314775155481
 30
0.0
 10
75.08061942942903
 20
-17.71765956411892
 30
0.0
 10
75.08061942942903
 20
-17.71765956411892
 30
0.0
 10
75.08061942942903
 20
-17.71765956411892
 30
0.0
 10
75.89356856600807
 20
-17.71765956411892
 30
0.0
 10
75.89356856600807
 20
-17.71765956411892
 30
0.0
 10
75.89356856600807
 20
-17.71765956411892
 30
0.0
 10
75.89356856600807
 20
-18.03314775155481
 30
0.0
 10
75.89356856600807
 20
-18.03314775155481
 30
0.0
  0
LWPOLYLINE
  5
C1
330
79
100
AcDbEntity
  8
Camada 1
 62
   250
420
  1907995
370
     9
100
AcDbPolyline
 90
        4
 70
     1
 43
0.0
 10
76.09438942714915
 20
-17.97395344269425
 10
76.92368969272424
 20
-17.97395344269425
 10
76.92368969272424
 20
-17.77705524156343
 10
76.09438942714915
 20
-17.77705524156343
  0
SPLINE
  5
C2
330
79
100
AcDbEntity
  8
Camada 1
 62
   250
420
  1907995
370
     9
100
AcDbSpline
210
0.0
220
0.0
230
1.0
 70
    11
 71
     3
 72
    17
 73
    13
 74
     0
 42
0.0000000001
 43
0.0000000001
 40
0.0
 40
0.0
 40
0.0
 40
0.0
 40
1.0
 40
1.0
 40
1.0
 40
2.0
 40
2.0
 40
2.0
 40
3.0
 40
3.0
 40
3.0
 40
4.0
 40
4.0
 40
4.0
 40
4.0
 10
76.16730096393142
 20
-17.90117883654918
 30
0.0
 10
76.16730096393142
 20
-17.90117883654918
 30
0.0
 10
76.85163195873724
 20
-17.90117883654918
 30
0.0
 10
76.85163195873724
 20
-17.90117883654918
 30
0.0
 10
76.85163195873724
 20
-17.90117883654918
 30
0.0
 10
76.85163195873724
 20
-17.84962847912455
 30
0.0
 10
76.85163195873724
 20
-17.84962847912455
 30
0.0
 10
76.85163195873724
 20
-17.84962847912455
 30
0.0
 10
76.16730096393142
 20
-17.84962847912455
 30
0.0
 10
76.16730096393142
 20
-17.84962847912455
 30
0.0
 10
76.16730096393142
 20
-17.84962847912455
 30
0.0
 10
76.16730096393142
 20
-17.90117883654918
 30
0.0
 10
76.16730096393142
 20
-17.90117883654918
 30
0.0
  0
SPLINE
  5
C3
330
79
100
AcDbEntity
  8
Camada 1
 62
   250
420
  1907995
370
     9
100
AcDbSpline
210
0.0
220
0.0
230
1.0
 70
    11
 71
     3
 72
    17
 73
    13
 74
     0
 42
0.0000000001
 43
0.0000000001
 40
0.0
 40
0.0
 40
0.0
 40
0.0
 40
1.0
 40
1.0
 40
1.0
 40
2.0
 40
2.0
 40
2.0
 40
3.0
 40
3.0
 40
3.0
 40
4.0
 40
4.0
 40
4.0
 40
4.0
 10
76.98360087374351
 20
-18.03314775155481
 30
0.0
 10
76.98360087374351
 20
-18.03314775155481
 30
0.0
 10
76.03533204892515
 20
-18.03314775155481
 30
0.0
 10
76.03533204892515
 20
-18.03314775155481
 30
0.0
 10
76.03533204892515
 20
-18.03314775155481
 30
0.0
 10
76.03533204892515
 20
-17.71765956411892
 30
0.0
 10
76.03533204892515
 20
-17.71765956411892
 30
0.0
 10
76.03533204892515
 20
-17.71765956411892
 30
0.0
 10
76.98360087374351
 20
-17.71765956411892
 30
0.0
 10
76.98360087374351
 20
-17.71765956411892
 30
0.0
 10
76.98360087374351
 20
-17.71765956411892
 30
0.0
 10
76.98360087374351
 20
-18.03314775155481
 30
0.0
 10
76.98360087374351
 20
-18.03314775155481
 30
0.0
  0
SPLINE
  5
C4
330
79
100
AcDbEntity
  8
Camada 1
 62
   250
420
  1907995
370
     9
100
AcDbSpline
210
0.0
220
0.0
230
1.0
 70
    11
 71
     3
 72
    17
 73
    13
 74
     0
 42
0.0000000001
 43
0.0000000001
 40
0.0
 40
0.0
 40
0.0
 40
0.0
 40
1.0
 40
1.0
 40
1.0
 40
2.0
 40
2.0
 40
2.0
 40
3.0
 40
3.0
 40
3.0
 40
4.0
 40
4.0
 40
4.0
 40
4.0
 10
68.51832336727476
 20
-35.27085429256263
 30
0.0
 10
68.51832336727476
 20
-35.27085429256263
 30
0.0
 10
69.84830647933252
 20
-35.27085429256263
 30
0.0
 10
69.84830647933252
 20
-35.27085429256263
 30
0.0
 10
69.84830647933252
 20
-35.27085429256263
 30
0.0
 10
69.84830647933252
 20
-17.93568535705003
 30
0.0
 10
69.84830647933252
 20
-17.93568535705003
 30
0.0
 10
69.84830647933252
 20
-17.93568535705003
 30
0.0
 10
68.51832336727476
 20
-17.93568535705003
 30
0.0
 10
68.51832336727476
 20
-17.93568535705003
 30
0.0
 10
68.51832336727476
 20
-17.93568535705003
 30
0.0
 10
68.51832336727476
 20
-35.27085429256263
 30
0.0
 10
68.51832336727476
 20
-35.27085429256263
 30
0.0
  0
SPLINE
  5
C5
330
79
100
AcDbEntity
  8
Camada 1
 62
   250
420
  1907995
370
     9
100
AcDbSpline
210
0.0
220
0.0
230
1.0
 70
    11
 71
     3
 72
    17
 73
    13
 74
     0
 42
0.0000000001
 43
0.0000000001
 40
0.0
 40
0.0
 40
0.0
 40
0.0
 40
1.0
 40
1.0
 40
1.0
 40
2.0
 40
2.0
 40
2.0
 40
3.0
 40
3.0
 40
3.0
 40
4.0
 40
4.0
 40
4.0
 40
4.0
 10
69.96944981927976
 20
-35.39094246113062
 30
0.0
 10
69.96944981927976
 20
-35.39094246113062
 30
0.0
 10
68.39718002732881
 20
-35.39094246113062
 30
0.0
 10
68.39718002732881
 20
-35.39094246113062
 30
0.0
 10
68.39718002732881
 20
-35.39094246113062
 30
0.0
 10
68.39718002732881
 20
-17.81532332720765
 30
0.0
 10
68.39718002732881
 20
-17.81532332720765
 30
0.0
 10
68.39718002732881
 20
-17.81532332720765
 30
0.0
 10
69.96944981927976
 20
-17.81532332720765
 30
0.0
 10
69.96944981927976
 20
-17.81532332720765
 30
0.0
 10
69.96944981927976
 20
-17.81532332720765
 30
0.0
 10
69.96944981927976
 20
-35.39094246113062
 30
0.0
 10
69.96944981927976
 20
-35.39094246113062
 30
0.0
  0
SPLINE
  5
C6
330
79
100
AcDbEntity
  8
Camada 1
 62
   250
420
  1907995
370
     9
100
AcDbSpline
210
0.0
220
0.0
230
1.0
 70
    11
 71
     3
 72
    17
 73
    13
 74
     0
 42
0.0000000001
 43
0.0000000001
 40
0.0
 40
0.0
 40
0.0
 40
0.0
 40
1.0
 40
1.0
 40
1.0
 40
2.0
 40
2.0
 40
2.0
 40
3.0
 40
3.0
 40
3.0
 40
4.0
 40
4.0
 40
4.0
 40
4.0
 10
68.58991392614836
 20
-35.19812801487763
 30
0.0
 10
68.58991392614836
 20
-35.19812801487763
 30
0.0
 10
69.77711865762685
 20
-35.19812801487763
 30
0.0
 10
69.77711865762685
 20
-35.19812801487763
 30
0.0
 10
69.77711865762685
 20
-35.19812801487763
 30
0.0
 10
69.77711865762685
 20
-18.00814582820431
 30
0.0
 10
69.77711865762685
 20
-18.00814582820431
 30
0.0
 10
69.77711865762685
 20
-18.00814582820431
 30
0.0
 10
68.58991392614836
 20
-18.00814582820431
 30
0.0
 10
68.58991392614836
 20
-18.00814582820431
 30
0.0
 10
68.58991392614836
 20
-18.00814582820431
 30
0.0
 10
68.58991392614836
 20
-35.19812801487763
 30
0.0
 10
68.58991392614836
 20
-35.19812801487763
 30
0.0
  0
SPLINE
  5
C7
330
79
100
AcDbEntity
  8
Camada 1
 62
   250
420
  1907995
370
     9
100
AcDbSpline
210
0.0
220
0.0
230
1.0
 70
    11
 71
     3
 72
    17
 73
    13
 74
     0
 42
0.0000000001
 43
0.0000000001
 40
0.0
 40
0.0
 40
0.0
 40
0.0
 40
1.0
 40
1.0
 40
1.0
 40
2.0
 40
2.0
 40
2.0
 40
3.0
 40
3.0
 40
3.0
 40
4.0
 40
4.0
 40
4.0
 40
4.0
 10
70.02894215364506
 20
-35.45020926268161
 30
0.0
 10
70.02894215364506
 20
-35.45020926268161
 30
0.0
 10
68.33757492655731
 20
-35.45020926268161
 30
0.0
 10
68.33757492655731
 20
-35.45020926268161
 30
0.0
 10
68.33757492655731
 20
-35.45020926268161
 30
0.0
 10
68.33757492655731
 20
-17.75658008397445
 30
0.0
 10
68.33757492655731
 20
-17.75658008397445
 30
0.0
 10
68.33757492655731
 20
-17.75658008397445
 30
0.0
 10
70.02894215364506
 20
-17.75658008397445
 30
0.0
 10
70.02894215364506
 20
-17.75658008397445
 30
0.0
 10
70.02894215364506
 20
-17.75658008397445
 30
0.0
 10
70.02894215364506
 20
-35.45020926268161
 30
0.0
 10
70.02894215364506
 20
-35.45020926268161
 30
0.0
  0
LWPOLYLINE
  5
C8
330
79
100
AcDbEntity
  8
Camada 1
 62
   250
420
  1907995
370
     9
100
AcDbPolyline
 90
        8
 70
     1
 43
0.0
 10
69.96953036671385
 20
-53.04999665401897
 10
69.84837091727928
 20
-53.04999665401897
 10
69.84837091727928
 20
-40.01701515317511
 10
68.51838780522152
 20
-40.01701515317511
 10
68.51838780522152
 20
-53.04999665401897
 10
68.39698671348852
 20
-53.04999665401897
 10
68.39698671348852
 20
-39.89691892986345
 10
69.96953036671385
 20
-39.89691892986345
  0
LWPOLYLINE
  5
C9
330
79
100
AcDbEntity
  8
Camada 1
 62
   250
420
  1907995
370
     9
100
AcDbPolyline
 90
        8
 70
     1
 43
0.0
 10
70.02894215364506
 20
-53.10929970191517
 10
69.77711865762685
 20
-53.10929970191517
 10
69.77711865762685
 20
-40.08974143085947
 10
68.58991392614836
 20
-40.08974143085947
 10
68.58991392614836
 20
-53.10929970191517
 10
68.33757492655731
 20
-53.10929970191517
 10
68.33757492655731
 20
-39.83766018305549
 10
70.02894215364506
 20
-39.83766018305549
  0
SPLINE
  5
CA
330
79
100
AcDbEntity
  8
Camada 1
 62
   250
420
  1907995
370
     9
100
AcDbSpline
210
0.0
220
0.0
230
1.0
 70
    11
 71
     3
 72
    17
 73
    13
 74
     0
 42
0.0000000001
 43
0.0000000001
 40
0.0
 40
0.0
 40
0.0
 40
0.0
 40
1.0
 40
1.0
 40
1.0
 40
2.0
 40
2.0
 40
2.0
 40
3.0
 40
3.0
 40
3.0
 40
4.0
 40
4.0
 40
4.0
 40
4.0
 10
68.24462318832607
 20
-39.8968947656331
 30
0.0
 10
68.24462318832607
 20
-39.8968947656331
 30
0.0
 10
70.1222805195556
 20
-39.8968947656331
 30
0.0
 10
70.1222805195556
 20
-39.8968947656331
 30
0.0
 10
70.1222805195556
 20
-39.8968947656331
 30
0.0
 10
70.1222805195556
 20
-35.39121632240437
 30
0.0
 10
70.1222805195556
 20
-35.39121632240437
 30
0.0
 10
70.1222805195556
 20
-35.39121632240437
 30
0.0
 10
68.24462318832607
 20
-35.39121632240437
 30
0.0
 10
68.24462318832607
 20
-35.39121632240437
 30
0.0
 10
68.24462318832607
 20
-35.39121632240437
 30
0.0
 10
68.24462318832607
 20
-39.8968947656331
 30
0.0
 10
68.24462318832607
 20
-39.8968947656331
 30
0.0
  0
SPLINE
  5
CB
330
79
100
AcDbEntity
  8
Camada 1
 62
   250
420
  1907995
370
     9
100
AcDbSpline
210
0.0
220
0.0
230
1.0
 70
    11
 71
     3
 72
    17
 73
    13
 74
     0
 42
0.0000000001
 43
0.0000000001
 40
0.0
 40
0.0
 40
0.0
 40
0.0
 40
1.0
 40
1.0
 40
1.0
 40
2.0
 40
2.0
 40
2.0
 40
3.0
 40
3.0
 40
3.0
 40
4.0
 40
4.0
 40
4.0
 40
4.0
 10
70.24314999822845
 20
-40.01724874073182
 30
0.0
 10
70.24314999822845
 20
-40.01724874073182
 30
0.0
 10
68.1234637388928
 20
-40.01724874073182
 30
0.0
 10
68.1234637388928
 20
-40.01724874073182
 30
0.0
 10
68.1234637388928
 20
-40.01724874073182
 30
0.0
 10
68.1234637388928
 20
-35.27058848603191
 30
0.0
 10
68.1234637388928
 20
-35.27058848603191
 30
0.0
 10
68.1234637388928
 20
-35.27058848603191
 30
0.0
 10
70.24314999822845
 20
-35.27058848603191
 30
0.0
 10
70.24314999822845
 20
-35.27058848603191
 30
0.0
 10
70.24314999822845
 20
-35.27058848603191
 30
0.0
 10
70.24314999822845
 20
-40.01724874073182
 30
0.0
 10
70.24314999822845
 20
-40.01724874073182
 30
0.0
  0
SPLINE
  5
CC
330
79
100
AcDbEntity
  8
Camada 1
 62
   250
420
  1907995
370
     9
100
AcDbSpline
210
0.0
220
0.0
230
1.0
 70
    11
 71
     3
 72
    17
 73
    13
 74
     0
 42
0.0000000001
 43
0.0000000001
 40
0.0
 40
0.0
 40
0.0
 40
0.0
 40
1.0
 40
1.0
 40
1.0
 40
2.0
 40
2.0
 40
2.0
 40
3.0
 40
3.0
 40
3.0
 40
4.0
 40
4.0
 40
4.0
 40
4.0
 10
68.31643928001334
 20
-39.82425709012522
 30
0.0
 10
68.31643928001334
 20
-39.82425709012522
 30
0.0
 10
70.05059330376315
 20
-39.82425709012522
 30
0.0
 10
70.05059330376315
 20
-39.82425709012522
 30
0.0
 10
70.05059330376315
 20
-39.82425709012522
 30
0.0
 10
70.05059330376315
 20
-35.46335460382483
 30
0.0
 10
70.05059330376315
 20
-35.46335460382483
 30
0.0
 10
70.05059330376315
 20
-35.46335460382483
 30
0.0
 10
68.31643928001334
 20
-35.46335460382483
 30
0.0
 10
68.31643928001334
 20
-35.46335460382483
 30
0.0
 10
68.31643928001334
 20
-35.46335460382483
 30
0.0
 10
68.31643928001334
 20
-39.82425709012522
 30
0.0
 10
68.31643928001334
 20
-39.82425709012522
 30
0.0
  0
SPLINE
  5
CD
330
79
100
AcDbEntity
  8
Camada 1
 62
   250
420
  1907995
370
     9
100
AcDbSpline
210
0.0
220
0.0
230
1.0
 70
    11
 71
     3
 72
    17
 73
    13
 74
     0
 42
0.0000000001
 43
0.0000000001
 40
0.0
 40
0.0
 40
0.0
 40
0.0
 40
1.0
 40
1.0
 40
1.0
 40
2.0
 40
2.0
 40
2.0
 40
3.0
 40
3.0
 40
3.0
 40
4.0
 40
4.0
 40
4.0
 40
4.0
 10
70.30267455156714
 20
-40.0763383379292
 30
0.0
 10
70.30267455156714
 20
-40.0763383379292
 30
0.0
 10
68.06410028042101
 20
-40.0763383379292
 30
0.0
 10
68.06410028042101
 20
-40.0763383379292
 30
0.0
 10
68.06410028042101
 20
-40.0763383379292
 30
0.0
 10
68.06410028042101
 20
-35.2115311078079
 30
0.0
 10
68.06410028042101
 20
-35.2115311078079
 30
0.0
 10
68.06410028042101
 20
-35.2115311078079
 30
0.0
 10
70.30267455156714
 20
-35.2115311078079
 30
0.0
 10
70.30267455156714
 20
-35.2115311078079
 30
0.0
 10
70.30267455156714
 20
-35.2115311078079
 30
0.0
 10
70.30267455156714
 20
-40.0763383379292
 30
0.0
 10
70.30267455156714
 20
-40.0763383379292
 30
0.0
  0
LWPOLYLINE
  5
CE
330
79
100
AcDbEntity
  8
Camada 1
 62
   250
420
  1907995
370
     9
100
AcDbPolyline
 90
        8
 70
     1
 43
0.0
 10
69.96953036671385
 20
-81.4927815142987
 10
68.39698671348852
 20
-81.4927815142987
 10
68.39698671348852
 20
-55.54030179163369
 10
68.51838780522152
 20
-55.54030179163369
 10
68.51838780522152
 20
-81.37242753919997
 10
69.84837091727928
 20
-81.37242753919997
 10
69.84837091727928
 20
-55.54030179163369
 10
69.96953036671385
 20
-55.54030179163369
  0
LWPOLYLINE
  5
CF
330
79
100
AcDbEntity
  8
Camada 1
 62
   250
420
  1907995
370
     9
100
AcDbPolyline
 90
        8
 70
     1
 43
0.0
 10
70.02894215364506
 20
-81.55195165893017
 10
68.33757492655731
 20
-81.55195165893017
 10
68.33757492655731
 20
-55.48113164700285
 10
68.58991392614836
 20
-55.48113164700285
 10
68.58991392614836
 20
-81.29987041112554
 10
69.77711865762685
 20
-81.29987041112554
 10
69.77711865762685
 20
-55.48113164700285
 10
70.02894215364506
 20
-55.48113164700285
  0
SPLINE
  5
D0
330
79
100
AcDbEntity
  8
Camada 1
 62
   250
420
  1907995
370
     9
100
AcDbSpline
210
0.0
220
0.0
230
1.0
 70
    11
 71
     3
 72
    17
 73
    13
 74
     0
 42
0.0000000001
 43
0.0000000001
 40
0.0
 40
0.0
 40
0.0
 40
0.0
 40
1.0
 40
1.0
 40
1.0
 40
2.0
 40
2.0
 40
2.0
 40
3.0
 40
3.0
 40
3.0
 40
4.0
 40
4.0
 40
4.0
 40
4.0
 10
68.27101052753265
 20
-81.5848170254735
 30
0.0
 10
68.27101052753265
 20
-81.5848170254735
 30
0.0
 10
70.09561931907592
 20
-81.5848170254735
 30
0.0
 10
70.09561931907592
 20
-81.5848170254735
 30
0.0
 10
70.09561931907592
 20
-81.5848170254735
 30
0.0
 10
70.09561931907592
 20
-82.48722012798491
 30
0.0
 10
70.09561931907592
 20
-82.48722012798491
 30
0.0
 10
70.09561931907592
 20
-82.48722012798491
 30
0.0
 10
68.27101052753265
 20
-82.48722012798491
 30
0.0
 10
68.27101052753265
 20
-82.48722012798491
 30
0.0
 10
68.27101052753265
 20
-82.48722012798491
 30
0.0
 10
68.27101052753265
 20
-81.5848170254735
 30
0.0
 10
68.27101052753265
 20
-81.5848170254735
 30
0.0
  0
SPLINE
  5
D1
330
79
100
AcDbEntity
  8
Camada 1
 62
   250
420
  1907995
370
     9
100
AcDbSpline
210
0.0
220
0.0
230
1.0
 70
    11
 71
     3
 72
    17
 73
    13
 74
     0
 42
0.0000000001
 43
0.0000000001
 40
0.0
 40
0.0
 40
0.0
 40
0.0
 40
1.0
 40
1.0
 40
1.0
 40
2.0
 40
2.0
 40
2.0
 40
3.0
 40
3.0
 40
3.0
 40
4.0
 40
4.0
 40
4.0
 40
4.0
 10
68.15012493937249
 20
-82.60757611676988
 30
0.0
 10
68.15012493937249
 20
-82.60757611676988
 30
0.0
 10
70.21648879774875
 20
-82.60757611676988
 30
0.0
 10
70.21648879774875
 20
-82.60757611676988
 30
0.0
 10
70.21648879774875
 20
-82.60757611676988
 30
0.0
 10
70.21648879774875
 20
-81.46446103668919
 30
0.0
 10
70.21648879774875
 20
-81.46446103668919
 30
0.0
 10
70.21648879774875
 20
-81.46446103668919
 30
0.0
 10
68.15012493937249
 20
-81.46446103668919
 30
0.0
 10
68.15012493937249
 20
-81.46446103668919
 30
0.0
 10
68.15012493937249
 20
-81.46446103668919
 30
0.0
 10
68.15012493937249
 20
-82.60757611676988
 30
0.0
 10
68.15012493937249
 20
-82.60757611676988
 30
0.0
  0
SPLINE
  5
D2
330
79
100
AcDbEntity
  8
Camada 1
 62
   250
420
  1907995
370
     9
100
AcDbSpline
210
0.0
220
0.0
230
1.0
 70
    11
 71
     3
 72
    17
 73
    13
 74
     0
 42
0.0000000001
 43
0.0000000001
 40
0.0
 40
0.0
 40
0.0
 40
0.0
 40
1.0
 40
1.0
 40
1.0
 40
2.0
 40
2.0
 40
2.0
 40
3.0
 40
3.0
 40
3.0
 40
4.0
 40
4.0
 40
4.0
 40
4.0
 10
68.92953412465406
 20
-81.93822895827565
 30
0.0
 10
68.92953412465406
 20
-81.93822895827565
 30
0.0
 10
69.43682186068141
 20
-81.93822895827565
 30
0.0
 10
69.43682186068141
 20
-81.93822895827565
 30
0.0
 10
69.43682186068141
 20
-81.93822895827565
 30
0.0
 10
69.43682186068141
 20
-81.53968227112573
 30
0.0
 10
69.43682186068141
 20
-81.53968227112573
 30
0.0
 10
69.43682186068141
 20
-81.53968227112573
 30
0.0
 10
68.92953412465406
 20
-81.53968227112573
 30
0.0
 10
68.92953412465406
 20
-81.53968227112573
 30
0.0
 10
68.92953412465406
 20
-81.53968227112573
 30
0.0
 10
68.92953412465406
 20
-81.93822895827565
 30
0.0
 10
68.92953412465406
 20
-81.93822895827565
 30
0.0
  0
SPLINE
  5
D3
330
79
100
AcDbEntity
  8
Camada 1
 62
   250
420
  1907995
370
     9
100
AcDbSpline
210
0.0
220
0.0
230
1.0
 70
    11
 71
     3
 72
    17
 73
    13
 74
     0
 42
0.0000000001
 43
0.0000000001
 40
0.0
 40
0.0
 40
0.0
 40
0.0
 40
1.0
 40
1.0
 40
1.0
 40
2.0
 40
2.0
 40
2.0
 40
3.0
 40
3.0
 40
3.0
 40
4.0
 40
4.0
 40
4.0
 40
4.0
 10
69.55796520062735
 20
-82.05858494706061
 30
0.0
 10
69.55796520062735
 20
-82.05858494706061
 30
0.0
 10
68.80864853649389
 20
-82.05858494706061
 30
0.0
 10
68.80864853649389
 20
-82.05858494706061
 30
0.0
 10
68.80864853649389
 20
-82.05858494706061
 30
0.0
 10
68.80864853649389
 20
-81.419328296027
 30
0.0
 10
68.80864853649389
 20
-81.419328296027
 30
0.0
 10
68.80864853649389
 20
-81.419328296027
 30
0.0
 10
69.55796520062735
 20
-81.419328296027
 30
0.0
 10
69.55796520062735
 20
-81.419328296027
 30
0.0
 10
69.55796520062735
 20
-81.419328296027
 30
0.0
 10
69.55796520062735
 20
-82.05858494706061
 30
0.0
 10
69.55796520062735
 20
-82.05858494706061
 30
0.0
  0
SPLINE
  5
D4
330
79
100
AcDbEntity
  8
Camada 1
 62
   250
420
  1907995
370
     9
100
AcDbSpline
210
0.0
220
0.0
230
1.0
 70
    11
 71
     3
 72
    17
 73
    13
 74
     0
 42
0.0000000001
 43
0.0000000001
 40
0.0
 40
0.0
 40
0.0
 40
0.0
 40
1.0
 40
1.0
 40
1.0
 40
2.0
 40
2.0
 40
2.0
 40
3.0
 40
3.0
 40
3.0
 40
4.0
 40
4.0
 40
4.0
 40
4.0
 10
68.99999701945799
 20
-81.86769759815312
 30
0.0
 10
68.99999701945799
 20
-81.86769759815312
 30
0.0
 10
69.3665200607431
 20
-81.86769759815312
 30
0.0
 10
69.3665200607431
 20
-81.86769759815312
 30
0.0
 10
69.3665200607431
 20
-81.86769759815312
 30
0.0
 10
69.3665200607431
 20
-81.60968805924488
 30
0.0
 10
69.3665200607431
 20
-81.60968805924488
 30
0.0
 10
69.3665200607431
 20
-81.60968805924488
 30
0.0
 10
68.99999701945799
 20
-81.60968805924488
 30
0.0
 10
68.99999701945799
 20
-81.60968805924488
 30
0.0
 10
68.99999701945799
 20
-81.60968805924488
 30
0.0
 10
68.99999701945799
 20
-81.86769759815312
 30
0.0
 10
68.99999701945799
 20
-81.86769759815312
 30
0.0
  0
SPLINE
  5
D5
330
79
100
AcDbEntity
  8
Camada 1
 62
   250
420
  1907995
370
     9
100
AcDbSpline
210
0.0
220
0.0
230
1.0
 70
    11
 71
     3
 72
    17
 73
    13
 74
     0
 42
0.0000000001
 43
0.0000000001
 40
0.0
 40
0.0
 40
0.0
 40
0.0
 40
1.0
 40
1.0
 40
1.0
 40
2.0
 40
2.0
 40
2.0
 40
3.0
 40
3.0
 40
3.0
 40
4.0
 40
4.0
 40
4.0
 40
4.0
 10
69.61757030140013
 20
-82.11771683166064
 30
0.0
 10
69.61757030140013
 20
-82.11771683166064
 30
0.0
 10
68.74894677880224
 20
-82.11771683166064
 30
0.0
 10
68.74894677880224
 20
-82.11771683166064
 30
0.0
 10
68.74894677880224
 20
-82.11771683166064
 30
0.0
 10
68.74894677880224
 20
-81.35992657752442
 30
0.0
 10
68.74894677880224
 20
-81.35992657752442
 30
0.0
 10
68.74894677880224
 20
-81.35992657752442
 30
0.0
 10
69.61757030140013
 20
-81.35992657752442
 30
0.0
 10
69.61757030140013
 20
-81.35992657752442
 30
0.0
 10
69.61757030140013
 20
-81.35992657752442
 30
0.0
 10
69.61757030140013
 20
-82.11771683166064
 30
0.0
 10
69.61757030140013
 20
-82.11771683166064
 30
0.0
  0
SPLINE
  5
D6
330
79
100
AcDbEntity
  8
Camada 1
 62
   250
420
  1907995
370
     9
100
AcDbSpline
210
0.0
220
0.0
230
1.0
 70
     9
 71
     3
 72
    62
 73
    58
 74
     0
 42
0.0000000001
 43
0.0000000001
 40
0.0
 40
0.0
 40
0.0
 40
0.0
 40
1.0
 40
1.0
 40
1.0
 40
2.0
 40
2.0
 40
2.0
 40
3.0
 40
3.0
 40
3.0
 40
4.0
 40
4.0
 40
4.0
 40
5.0
 40
5.0
 40
5.0
 40
6.0
 40
6.0
 40
6.0
 40
7.0
 40
7.0
 40
7.0
 40
8.0
 40
8.0
 40
8.0
 40
9.0
 40
9.0
 40
9.0
 40
10.0
 40
10.0
 40
10.0
 40
11.0
 40
11.0
 40
11.0
 40
12.0
 40
12.0
 40
12.0
 40
13.0
 40
13.0
 40
13.0
 40
14.0
 40
14.0
 40
14.0
 40
15.0
 40
15.0
 40
15.0
 40
16.0
 40
16.0
 40
16.0
 40
17.0
 40
17.0
 40
17.0
 40
18.0
 40
18.0
 40
18.0
 40
19.0
 40
19.0
 40
19.0
 40
19.0
 10
70.04363400550999
 20
-55.48028187157941
 30
0.0
 10
70.04363400550999
 20
-55.48028187157941
 30
0.0
 10
71.69376094665931
 20
-55.48028187157941
 30
0.0
 10
71.69376094665931
 20
-55.48028187157941
 30
0.0
 10
71.69376094665931
 20
-55.48028187157941
 30
0.0
 10
71.69350319487225
 20
-55.23957392138196
 30
0.0
 10
71.69350319487225
 20
-55.23957392138196
 30
0.0
 10
71.69350319487225
 20
-55.23957392138196
 30
0.0
 10
72.04533438429244
 20
-55.23957392138196
 30
0.0
 10
72.04533438429244
 20
-55.23957392138196
 30
0.0
 10
72.04533438429244
 20
-55.23957392138196
 30
0.0
 10
72.04533438429244
 20
-54.99886194381269
 30
0.0
 10
72.04533438429244
 20
-54.99886194381269
 30
0.0
 10
72.04533438429244
 20
-54.99886194381269
 30
0.0
 10
72.47080203739535
 20
-54.99886194381269
 30
0.0
 10
72.47080203739535
 20
-54.99886194381269
 30
0.0
 10
72.47080203739535
 20
-54.99886194381269
 30
0.0
 10
72.47080203739535
 20
-55.23957392138196
 30
0.0
 10
72.47080203739535
 20
-55.23957392138196
 30
0.0
 10
72.47080203739535
 20
-55.23957392138196
 30
0.0
 10
72.88491250237907
 20
-55.23957392138196
 30
0.0
 10
72.88491250237907
 20
-55.23957392138196
 30
0.0
 10
72.88491250237907
 20
-55.23957392138196
 30
0.0
 10
72.88491250237907
 20
-53.28088989944771
 30
0.0
 10
72.88491250237907
 20
-53.28088989944771
 30
0.0
 10
72.88491250237907
 20
-53.28088989944771
 30
0.0
 10
71.28994444367449
 20
-53.28088989944771
 30
0.0
 10
71.28994444367449
 20
-53.28088989944771
 30
0.0
 10
71.28994444367449
 20
-53.28088989944771
 30
0.0
 10
71.28994444367449
 20
-53.03991614271954
 30
0.0
 10
71.28994444367449
 20
-53.03991614271954
 30
0.0
 10
71.28994444367449
 20
-53.03991614271954
 30
0.0
 10
70.02831388366345
 20
-53.03991614271954
 30
0.0
 10
70.02831388366345
 20
-53.03991614271954
 30
0.0
 10
69.97104465846281
 20
-53.16475660986337
 30
0.0
 10
69.7585766384408
 20
-53.52160187701699
 30
0.0
 10
69.20060845727144
 20
-53.52160187701699
 30
0.0
 10
68.74954282980917
 20
-53.52160187701699
 30
0.0
 10
68.55105784424023
 20
-53.16370143848478
 30
0.0
 10
68.49615671358256
 20
-53.03991614271954
 30
0.0
 10
68.49615671358256
 20
-53.03991614271954
 30
0.0
 10
66.27327308247751
 20
-53.03991614271954
 30
0.0
 10
66.27327308247751
 20
-53.03991614271954
 30
0.0
 10
66.27327308247751
 20
-53.03991614271954
 30
0.0
 10
66.27327308247751
 20
-55.48028187157941
 30
0.0
 10
66.27327308247751
 20
-55.48028187157941
 30
0.0
 10
66.27327308247751
 20
-55.48028187157941
 30
0.0
 10
68.47663201570899
 20
-55.48028187157941
 30
0.0
 10
68.47663201570899
 20
-55.48028187157941
 30
0.0
 10
68.4827052921922
 20
-55.38025001394643
 30
0.0
 10
68.51437654303478
 20
-55.18176905574868
 30
0.0
 10
68.66322820009727
 20
-55.02419813901251
 30
0.0
 10
68.80073877852659
 20
-54.87903152703175
 30
0.0
 10
69.00212347170122
 20
-54.80512925681765
 30
0.0
 10
69.26237222925957
 20
-54.80512925681765
 30
0.0
 10
69.90610731759462
 20
-54.80512925681765
 30
0.0
 10
70.02251446845335
 20
-55.30476498666541
 30
0.0
 10
70.04363400550999
 20
-55.48028187157941
 30
0.0
  0
SPLINE
  5
D7
330
79
100
AcDbEntity
  8
Camada 1
 62
   250
420
  1907995
370
     9
100
AcDbSpline
210
0.0
220
0.0
230
1.0
 70
    11
 71
     3
 72
    77
 73
    73
 74
     0
 42
0.0000000001
 43
0.0000000001
 40
0.0
 40
0.0
 40
0.0
 40
0.0
 40
1.0
 40
1.0
 40
1.0
 40
2.0
 40
2.0
 40
2.0
 40
3.0
 40
3.0
 40
3.0
 40
4.0
 40
4.0
 40
4.0
 40
5.0
 40
5.0
 40
5.0
 40
6.0
 40
6.0
 40
6.0
 40
7.0
 40
7.0
 40
7.0
 40
8.0
 40
8.0
 40
8.0
 40
9.0
 40
9.0
 40
9.0
 40
10.0
 40
10.0
 40
10.0
 40
11.0
 40
11.0
 40
11.0
 40
12.0
 40
12.0
 40
12.0
 40
13.0
 40
13.0
 40
13.0
 40
14.0
 40
14.0
 40
14.0
 40
15.0
 40
15.0
 40
15.0
 40
16.0
 40
16.0
 40
16.0
 40
17.0
 40
17.0
 40
17.0
 40
18.0
 40
18.0
 40
18.0
 40
19.0
 40
19.0
 40
19.0
 40
20.0
 40
20.0
 40
20.0
 40
21.0
 40
21.0
 40
21.0
 40
22.0
 40
22.0
 40
22.0
 40
23.0
 40
23.0
 40
23.0
 40
24.0
 40
24.0
 40
24.0
 40
24.0
 10
71.81492039609259
 20
-55.60063987404996
 30
0.0
 10
71.81492039609259
 20
-55.60063987404996
 30
0.0
 10
69.92775846771269
 20
-55.60063987404996
 30
0.0
 10
69.92775846771269
 20
-55.60063987404996
 30
0.0
 10
69.92775846771269
 20
-55.60063987404996
 30
0.0
 10
69.92750071592564
 20
-55.54072466565949
 30
0.0
 10
69.92750071592564
 20
-55.54072466565949
 30
0.0
 10
69.92750071592564
 20
-55.51565024961856
 30
0.0
 10
69.91720675392804
 20
-54.92548725928821
 30
0.0
 10
69.26237222925957
 20
-54.92548725928821
 30
0.0
 10
69.03749990448405
 20
-54.92548725928821
 30
0.0
 10
68.86619162296891
 20
-54.98619183252719
 30
0.0
 10
68.7521847856278
 20
-55.10575644277803
 30
0.0
 10
68.58430782477855
 20
-55.28259430560137
 30
0.0
 10
68.59724374259477
 20
-55.53412783085785
 30
0.0
 10
68.59751760386789
 20
-55.53676575930401
 30
0.0
 10
68.59751760386789
 20
-55.53676575930401
 30
0.0
 10
68.60094892453374
 20
-55.60037406751987
 30
0.0
 10
68.60094892453374
 20
-55.60037406751987
 30
0.0
 10
68.60094892453374
 20
-55.60037406751987
 30
0.0
 10
68.53680094851404
 20
-55.60063987404996
 30
0.0
 10
68.53680094851404
 20
-55.60063987404996
 30
0.0
 10
68.53680094851404
 20
-55.60063987404996
 30
0.0
 10
66.15185588125718
 20
-55.60063987404996
 30
0.0
 10
66.15185588125718
 20
-55.60063987404996
 30
0.0
 10
66.15185588125718
 20
-55.60063987404996
 30
0.0
 10
66.15185588125718
 20
-52.91982394677972
 30
0.0
 10
66.15185588125718
 20
-52.91982394677972
 30
0.0
 10
66.15185588125718
 20
-52.91982394677972
 30
0.0
 10
68.58061875232562
 20
-52.91982394677972
 30
0.0
 10
68.58061875232562
 20
-52.91982394677972
 30
0.0
 10
68.58061875232562
 20
-52.91982394677972
 30
0.0
 10
68.59408628320202
 20
-52.96126157393091
 30
0.0
 10
68.59408628320202
 20
-52.96126157393091
 30
0.0
 10
68.60041731147358
 20
-52.97894576295049
 30
0.0
 10
68.74690087399182
 20
-53.40098209538819
 30
0.0
 10
69.20060845727144
 20
-53.40098209538819
 30
0.0
 10
69.78523783892177
 20
-53.40098209538819
 30
0.0
 10
69.9285478325612
 20
-52.96627565166499
 30
0.0
 10
69.92986881046988
 20
-52.96205093877942
 30
0.0
 10
69.92986881046988
 20
-52.96205093877942
 30
0.0
 10
69.94306248007318
 20
-52.91982394677972
 30
0.0
 10
69.94306248007318
 20
-52.91982394677972
 30
0.0
 10
69.94306248007318
 20
-52.91982394677972
 30
0.0
 10
71.41108778362043
 20
-52.91982394677972
 30
0.0
 10
71.41108778362043
 20
-52.91982394677972
 30
0.0
 10
71.41108778362043
 20
-52.91982394677972
 30
0.0
 10
71.41108778362043
 20
-53.160535924349
 30
0.0
 10
71.41108778362043
 20
-53.160535924349
 30
0.0
 10
71.41108778362043
 20
-53.160535924349
 30
0.0
 10
73.00579809053797
 20
-53.160535924349
 30
0.0
 10
73.00579809053797
 20
-53.160535924349
 30
0.0
 10
73.00579809053797
 20
-53.160535924349
 30
0.0
 10
73.00579809053797
 20
-55.35992789648068
 30
0.0
 10
73.00579809053797
 20
-55.35992789648068
 30
0.0
 10
73.00579809053797
 20
-55.35992789648068
 30
0.0
 10
72.34991644923519
 20
-55.35992789648068
 30
0.0
 10
72.34991644923519
 20
-55.35992789648068
 30
0.0
 10
72.34991644923519
 20
-55.35992789648068
 30
0.0
 10
72.34991644923519
 20
-55.11921591891141
 30
0.0
 10
72.34991644923519
 20
-55.11921591891141
 30
0.0
 10
72.34991644923519
 20
-55.11921591891141
 30
0.0
 10
72.16647772423967
 20
-55.11921591891141
 30
0.0
 10
72.16647772423967
 20
-55.11921591891141
 30
0.0
 10
72.16647772423967
 20
-55.11921591891141
 30
0.0
 10
72.16647772423967
 20
-55.35992789648068
 30
0.0
 10
72.16647772423967
 20
-55.35992789648068
 30
0.0
 10
72.16647772423967
 20
-55.35992789648068
 30
0.0
 10
71.81464653481949
 20
-55.35992789648068
 30
0.0
 10
71.81464653481949
 20
-55.35992789648068
 30
0.0
 10
71.81464653481949
 20
-55.35992789648068
 30
0.0
 10
71.81492039609259
 20
-55.60063987404996
 30
0.0
 10
71.81492039609259
 20
-55.60063987404996
 30
0.0
  0
SPLINE
  5
D8
330
79
100
AcDbEntity
  8
Camada 1
 62
   250
420
  1907995
370
     9
100
AcDbSpline
210
0.0
220
0.0
230
1.0
 70
     9
 71
     3
 72
    62
 73
    58
 74
     0
 42
0.0000000001
 43
0.0000000001
 40
0.0
 40
0.0
 40
0.0
 40
0.0
 40
1.0
 40
1.0
 40
1.0
 40
2.0
 40
2.0
 40
2.0
 40
3.0
 40
3.0
 40
3.0
 40
4.0
 40
4.0
 40
4.0
 40
5.0
 40
5.0
 40
5.0
 40
6.0
 40
6.0
 40
6.0
 40
7.0
 40
7.0
 40
7.0
 40
8.0
 40
8.0
 40
8.0
 40
9.0
 40
9.0
 40
9.0
 40
10.0
 40
10.0
 40
10.0
 40
11.0
 40
11.0
 40
11.0
 40
12.0
 40
12.0
 40
12.0
 40
13.0
 40
13.0
 40
13.0
 40
14.0
 40
14.0
 40
14.0
 40
15.0
 40
15.0
 40
15.0
 40
16.0
 40
16.0
 40
16.0
 40
17.0
 40
17.0
 40
17.0
 40
18.0
 40
18.0
 40
18.0
 40
19.0
 40
19.0
 40
19.0
 40
19.0
 10
70.09956614331589
 20
-55.40818789124783
 30
0.0
 10
70.09956614331589
 20
-55.40818789124783
 30
0.0
 10
71.62391021234966
 20
-55.40818789124783
 30
0.0
 10
71.62391021234966
 20
-55.40818789124783
 30
0.0
 10
71.62391021234966
 20
-55.40818789124783
 30
0.0
 10
71.6236524605626
 20
-55.16873648101231
 30
0.0
 10
71.6236524605626
 20
-55.16873648101231
 30
0.0
 10
71.6236524605626
 20
-55.16873648101231
 30
0.0
 10
71.97471039462159
 20
-55.16873648101231
 30
0.0
 10
71.97471039462159
 20
-55.16873648101231
 30
0.0
 10
71.97471039462159
 20
-55.16873648101231
 30
0.0
 10
71.97471039462159
 20
-54.92902731898972
 30
0.0
 10
71.97471039462159
 20
-54.92902731898972
 30
0.0
 10
71.97471039462159
 20
-54.92902731898972
 30
0.0
 10
72.53145425480242
 20
-54.92902731898972
 30
0.0
 10
72.53145425480242
 20
-54.92902731898972
 30
0.0
 10
72.53145425480242
 20
-54.92902731898972
 30
0.0
 10
72.53145425480242
 20
-55.16873648101231
 30
0.0
 10
72.53145425480242
 20
-55.16873648101231
 30
0.0
 10
72.53145425480242
 20
-55.16873648101231
 30
0.0
 10
72.81266145455179
 20
-55.16873648101231
 30
0.0
 10
72.81266145455179
 20
-55.16873648101231
 30
0.0
 10
72.81266145455179
 20
-55.16873648101231
 30
0.0
 10
72.81266145455179
 20
-53.35184413359605
 30
0.0
 10
72.81266145455179
 20
-53.35184413359605
 30
0.0
 10
72.81266145455179
 20
-53.35184413359605
 30
0.0
 10
71.22078641729189
 20
-53.35184413359605
 30
0.0
 10
71.22078641729189
 20
-53.35184413359605
 30
0.0
 10
71.22078641729189
 20
-53.35184413359605
 30
0.0
 10
71.22078641729189
 20
-53.11213497157346
 30
0.0
 10
71.22078641729189
 20
-53.11213497157346
 30
0.0
 10
71.22078641729189
 20
-53.11213497157346
 30
0.0
 10
70.06837817707406
 20
-53.11213497157346
 30
0.0
 10
70.06837817707406
 20
-53.11213497157346
 30
0.0
 10
69.98821737127947
 20
-53.26240426346541
 30
0.0
 10
69.74979696819218
 20
-53.59103779204452
 30
0.0
 10
69.20130116519853
 20
-53.59103779204452
 30
0.0
 10
68.75178204845989
 20
-53.59103779204452
 30
0.0
 10
68.53320853298126
 20
-53.26291976703952
 30
0.0
 10
68.45665625220679
 20
-53.11213497157346
 30
0.0
 10
68.45665625220679
 20
-53.11213497157346
 30
0.0
 10
66.3454113638986
 20
-53.11213497157346
 30
0.0
 10
66.3454113638986
 20
-53.11213497157346
 30
0.0
 10
66.3454113638986
 20
-53.11213497157346
 30
0.0
 10
66.3454113638986
 20
-55.40818789124783
 30
0.0
 10
66.3454113638986
 20
-55.40818789124783
 30
0.0
 10
66.3454113638986
 20
-55.40818789124783
 30
0.0
 10
68.41902449128721
 20
-55.40818789124783
 30
0.0
 10
68.41902449128721
 20
-55.40818789124783
 30
0.0
 10
68.43448959851459
 20
-55.29039532453301
 30
0.0
 10
68.48140042377086
 20
-55.11821713073656
 30
0.0
 10
68.61672011200891
 20
-54.97490713709712
 30
0.0
 10
68.76724715568727
 20
-54.81664753980506
 30
0.0
 10
68.98478966401765
 20
-54.73648673401047
 30
0.0
 10
69.26290384232101
 20
-54.73648673401047
 30
0.0
 10
69.90006626008477
 20
-54.73648673401047
 30
0.0
 10
70.05987236809855
 20
-55.19451165972398
 30
0.0
 10
70.09956614331589
 20
-55.40818789124783
 30
0.0
  0
SPLINE
  5
D9
330
79
100
AcDbEntity
  8
Camada 1
 62
   250
420
  1907995
370
     9
100
AcDbSpline
210
0.0
220
0.0
230
1.0
 70
    11
 71
     3
 72
    77
 73
    73
 74
     0
 42
0.0000000001
 43
0.0000000001
 40
0.0
 40
0.0
 40
0.0
 40
0.0
 40
1.0
 40
1.0
 40
1.0
 40
2.0
 40
2.0
 40
2.0
 40
3.0
 40
3.0
 40
3.0
 40
4.0
 40
4.0
 40
4.0
 40
5.0
 40
5.0
 40
5.0
 40
6.0
 40
6.0
 40
6.0
 40
7.0
 40
7.0
 40
7.0
 40
8.0
 40
8.0
 40
8.0
 40
9.0
 40
9.0
 40
9.0
 40
10.0
 40
10.0
 40
10.0
 40
11.0
 40
11.0
 40
11.0
 40
12.0
 40
12.0
 40
12.0
 40
13.0
 40
13.0
 40
13.0
 40
14.0
 40
14.0
 40
14.0
 40
15.0
 40
15.0
 40
15.0
 40
16.0
 40
16.0
 40
16.0
 40
17.0
 40
17.0
 40
17.0
 40
18.0
 40
18.0
 40
18.0
 40
19.0
 40
19.0
 40
19.0
 40
20.0
 40
20.0
 40
20.0
 40
21.0
 40
21.0
 40
21.0
 40
22.0
 40
22.0
 40
22.0
 40
23.0
 40
23.0
 40
23.0
 40
24.0
 40
24.0
 40
24.0
 40
24.0
 10
71.87650696372775
 20
-55.6597536354777
 30
0.0
 10
71.87650696372775
 20
-55.6597536354777
 30
0.0
 10
69.86140349201567
 20
-55.6597536354777
 30
0.0
 10
69.86140349201567
 20
-55.6597536354777
 30
0.0
 10
69.86140349201567
 20
-55.6597536354777
 30
0.0
 10
69.86088798844154
 20
-55.53448626693689
 30
0.0
 10
69.86088798844154
 20
-55.53448626693689
 30
0.0
 10
69.86088798844154
 20
-55.51180410966992
 30
0.0
 10
69.85418644197673
 20
-54.98779472645328
 30
0.0
 10
69.26290384232101
 20
-54.98779472645328
 30
0.0
 10
69.05799117156037
 20
-54.98779472645328
 30
0.0
 10
68.90256684392531
 20
-55.04140709817438
 30
0.0
 10
68.80127039158676
 20
-55.14734308268128
 30
0.0
 10
68.65486737650262
 20
-55.30096456676007
 30
0.0
 10
68.66491969620049
 20
-55.5239184436649
 30
0.0
 10
68.66517744798755
 20
-55.52623820974908
 30
0.0
 10
68.66517744798755
 20
-55.52623820974908
 30
0.0
 10
68.67265224981354
 20
-55.65872262832947
 30
0.0
 10
68.67265224981354
 20
-55.65872262832947
 30
0.0
 10
68.67265224981354
 20
-55.65872262832947
 30
0.0
 10
68.53939457587197
 20
-55.6597536354777
 30
0.0
 10
68.53939457587197
 20
-55.6597536354777
 30
0.0
 10
68.53939457587197
 20
-55.6597536354777
 30
0.0
 10
66.0922991089451
 20
-55.6597536354777
 30
0.0
 10
66.0922991089451
 20
-55.6597536354777
 30
0.0
 10
66.0922991089451
 20
-55.6597536354777
 30
0.0
 10
66.0922991089451
 20
-52.8605692273436
 30
0.0
 10
66.0922991089451
 20
-52.8605692273436
 30
0.0
 10
66.0922991089451
 20
-52.8605692273436
 30
0.0
 10
68.63012320493854
 20
-52.8605692273436
 30
0.0
 10
68.63012320493854
 20
-52.8605692273436
 30
0.0
 10
68.63012320493854
 20
-52.8605692273436
 30
0.0
 10
68.65873365330978
 20
-52.94691607602953
 30
0.0
 10
68.65873365330978
 20
-52.94691607602953
 30
0.0
 10
68.67265224981354
 20
-52.98635209945853
 30
0.0
 10
68.80848744162697
 20
-53.33947204781465
 30
0.0
 10
69.20130116519853
 20
-53.33947204781465
 30
0.0
 10
69.72943457701068
 20
-53.33947204781465
 30
0.0
 10
69.8611457402286
 20
-52.96444319755337
 30
0.0
 10
69.86655852775813
 20
-52.94846258675187
 30
0.0
 10
69.86655852775813
 20
-52.94846258675187
 30
0.0
 10
69.8938802171928
 20
-52.8605692273436
 30
0.0
 10
69.8938802171928
 20
-52.8605692273436
 30
0.0
 10
69.8938802171928
 20
-52.8605692273436
 30
0.0
 10
71.47364092045833
 20
-52.8605692273436
 30
0.0
 10
71.47364092045833
 20
-52.8605692273436
 30
0.0
 10
71.47364092045833
 20
-52.8605692273436
 30
0.0
 10
71.47364092045833
 20
-53.10027838936618
 30
0.0
 10
71.47364092045833
 20
-53.10027838936618
 30
0.0
 10
71.47364092045833
 20
-53.10027838936618
 30
0.0
 10
73.06525820592987
 20
-53.10027838936618
 30
0.0
 10
73.06525820592987
 20
-53.10027838936618
 30
0.0
 10
73.06525820592987
 20
-53.10027838936618
 30
0.0
 10
73.06525820592987
 20
-55.42030222524218
 30
0.0
 10
73.06525820592987
 20
-55.42030222524218
 30
0.0
 10
73.06525820592987
 20
-55.42030222524218
 30
0.0
 10
72.27859975163728
 20
-55.42030222524218
 30
0.0
 10
72.27859975163728
 20
-55.42030222524218
 30
0.0
 10
72.27859975163728
 20
-55.42030222524218
 30
0.0
 10
72.27859975163728
 20
-55.18085081500665
 30
0.0
 10
72.27859975163728
 20
-55.18085081500665
 30
0.0
 10
72.27859975163728
 20
-55.18085081500665
 30
0.0
 10
72.22756489778676
 20
-55.18085081500665
 30
0.0
 10
72.22756489778676
 20
-55.18085081500665
 30
0.0
 10
72.22756489778676
 20
-55.18085081500665
 30
0.0
 10
72.22756489778676
 20
-55.42030222524218
 30
0.0
 10
72.22756489778676
 20
-55.42030222524218
 30
0.0
 10
72.22756489778676
 20
-55.42030222524218
 30
0.0
 10
71.87650696372775
 20
-55.42030222524218
 30
0.0
 10
71.87650696372775
 20
-55.42030222524218
 30
0.0
 10
71.87650696372775
 20
-55.42030222524218
 30
0.0
 10
71.87650696372775
 20
-55.6597536354777
 30
0.0
 10
71.87650696372775
 20
-55.6597536354777
 30
0.0
  0
LWPOLYLINE
  5
DA
330
79
100
AcDbEntity
  8
Camada 1
 62
   250
420
  1907995
370
     9
100
AcDbPolyline
 90
        4
 70
     1
 43
0.0
 10
68.02977096427376
 20
-52.98029090508952
 10
66.75786255175248
 20
-52.98029090508952
 10
66.75786255175248
 20
-52.61922495242153
 10
68.02977096427376
 20
-52.61922495242153
  0
SPLINE
  5
DB
330
79
100
AcDbEntity
  8
Camada 1
 62
   250
420
  1907995
370
     9
100
AcDbSpline
210
0.0
220
0.0
230
1.0
 70
    11
 71
     3
 72
    17
 73
    13
 74
     0
 42
0.0000000001
 43
0.0000000001
 40
0.0
 40
0.0
 40
0.0
 40
0.0
 40
1.0
 40
1.0
 40
1.0
 40
2.0
 40
2.0
 40
2.0
 40
3.0
 40
3.0
 40
3.0
 40
4.0
 40
4.0
 40
4.0
 40
4.0
 10
66.82998472368625
 20
-52.90748005259987
 30
0.0
 10
66.82998472368625
 20
-52.90748005259987
 30
0.0
 10
67.95713328876589
 20
-52.90748005259987
 30
0.0
 10
67.95713328876589
 20
-52.90748005259987
 30
0.0
 10
67.95713328876589
 20
-52.90748005259987
 30
0.0
 10
67.95713328876589
 20
-52.6919995585666
 30
0.0
 10
67.95713328876589
 20
-52.6919995585666
 30
0.0
 10
67.95713328876589
 20
-52.6919995585666
 30
0.0
 10
66.82998472368625
 20
-52.6919995585666
 30
0.0
 10
66.82998472368625
 20
-52.6919995585666
 30
0.0
 10
66.82998472368625
 20
-52.6919995585666
 30
0.0
 10
66.82998472368625
 20
-52.90748005259987
 30
0.0
 10
66.82998472368625
 20
-52.90748005259987
 30
0.0
  0
SPLINE
  5
DC
330
79
100
AcDbEntity
  8
Camada 1
 62
   250
420
  1907995
370
     9
100
AcDbSpline
210
0.0
220
0.0
230
1.0
 70
    11
 71
     3
 72
    17
 73
    13
 74
     0
 42
0.0000000001
 43
0.0000000001
 40
0.0
 40
0.0
 40
0.0
 40
0.0
 40
1.0
 40
1.0
 40
1.0
 40
2.0
 40
2.0
 40
2.0
 40
3.0
 40
3.0
 40
3.0
 40
4.0
 40
4.0
 40
4.0
 40
4.0
 10
68.08910220377216
 20
-53.03944896760551
 30
0.0
 10
68.08910220377216
 20
-53.03944896760551
 30
0.0
 10
66.69801580867996
 20
-53.03944896760551
 30
0.0
 10
66.69801580867996
 20
-53.03944896760551
 30
0.0
 10
66.69801580867996
 20
-53.03944896760551
 30
0.0
 10
66.69801580867996
 20
-52.56003064356033
 30
0.0
 10
66.69801580867996
 20
-52.56003064356033
 30
0.0
 10
66.69801580867996
 20
-52.56003064356033
 30
0.0
 10
68.08910220377216
 20
-52.56003064356033
 30
0.0
 10
68.08910220377216
 20
-52.56003064356033
 30
0.0
 10
68.08910220377216
 20
-52.56003064356033
 30
0.0
 10
68.08910220377216
 20
-53.03944896760551
 30
0.0
 10
68.08910220377216
 20
-53.03944896760551
 30
0.0
  0
SPLINE
  5
DD
330
79
100
AcDbEntity
  8
Camada 1
 62
   250
420
  1907995
370
     9
100
AcDbSpline
210
0.0
220
0.0
230
1.0
 70
    11
 71
     3
 72
    17
 73
    13
 74
     0
 42
0.0000000001
 43
0.0000000001
 40
0.0
 40
0.0
 40
0.0
 40
0.0
 40
1.0
 40
1.0
 40
1.0
 40
2.0
 40
2.0
 40
2.0
 40
3.0
 40
3.0
 40
3.0
 40
4.0
 40
4.0
 40
4.0
 40
4.0
 10
66.87873203042532
 20
-52.85967112346072
 30
0.0
 10
66.87873203042532
 20
-52.85967112346072
 30
0.0
 10
67.90835376305342
 20
-52.85967112346072
 30
0.0
 10
67.90835376305342
 20
-52.85967112346072
 30
0.0
 10
67.90835376305342
 20
-52.85967112346072
 30
0.0
 10
67.90835376305342
 20
-52.73931714836136
 30
0.0
 10
67.90835376305342
 20
-52.73931714836136
 30
0.0
 10
67.90835376305342
 20
-52.73931714836136
 30
0.0
 10
66.87873203042532
 20
-52.73931714836136
 30
0.0
 10
66.87873203042532
 20
-52.73931714836136
 30
0.0
 10
66.87873203042532
 20
-52.73931714836136
 30
0.0
 10
66.87873203042532
 20
-52.85967112346072
 30
0.0
 10
66.87873203042532
 20
-52.85967112346072
 30
0.0
  0
SPLINE
  5
DE
330
79
100
AcDbEntity
  8
Camada 1
 62
   250
420
  1907995
370
     9
100
AcDbSpline
210
0.0
220
0.0
230
1.0
 70
    11
 71
     3
 72
    17
 73
    13
 74
     0
 42
0.0000000001
 43
0.0000000001
 40
0.0
 40
0.0
 40
0.0
 40
0.0
 40
1.0
 40
1.0
 40
1.0
 40
2.0
 40
2.0
 40
2.0
 40
3.0
 40
3.0
 40
3.0
 40
4.0
 40
4.0
 40
4.0
 40
4.0
 10
68.15065655243393
 20
-53.10011729449927
 30
0.0
 10
68.15065655243393
 20
-53.10011729449927
 30
0.0
 10
66.6367031023192
 20
-53.10011729449927
 30
0.0
 10
66.6367031023192
 20
-53.10011729449927
 30
0.0
 10
66.6367031023192
 20
-53.10011729449927
 30
0.0
 10
66.6367031023192
 20
-52.498339364262
 30
0.0
 10
66.6367031023192
 20
-52.498339364262
 30
0.0
 10
66.6367031023192
 20
-52.498339364262
 30
0.0
 10
68.15065655243393
 20
-52.498339364262
 30
0.0
 10
68.15065655243393
 20
-52.498339364262
 30
0.0
 10
68.15065655243393
 20
-52.498339364262
 30
0.0
 10
68.15065655243393
 20
-53.10011729449927
 30
0.0
 10
68.15065655243393
 20
-53.10011729449927
 30
0.0
  0
SPLINE
  5
DF
330
79
100
AcDbEntity
  8
Camada 1
 62
   250
420
  1907995
370
     9
100
AcDbSpline
210
0.0
220
0.0
230
1.0
 70
    11
 71
     3
 72
    17
 73
    13
 74
     0
 42
0.0000000001
 43
0.0000000001
 40
0.0
 40
0.0
 40
0.0
 40
0.0
 40
1.0
 40
1.0
 40
1.0
 40
2.0
 40
2.0
 40
2.0
 40
3.0
 40
3.0
 40
3.0
 40
4.0
 40
4.0
 40
4.0
 40
4.0
 10
67.97002087812268
 20
-52.92423391876256
 30
0.0
 10
67.97002087812268
 20
-52.92423391876256
 30
0.0
 10
66.8173548861165
 20
-52.92423391876256
 30
0.0
 10
66.8173548861165
 20
-52.92423391876256
 30
0.0
 10
66.8173548861165
 20
-52.92423391876256
 30
0.0
 10
66.8173548861165
 20
-52.67498794061687
 30
0.0
 10
66.8173548861165
 20
-52.67498794061687
 30
0.0
 10
66.8173548861165
 20
-52.67498794061687
 30
0.0
 10
67.97002087812268
 20
-52.67498794061687
 30
0.0
 10
67.97002087812268
 20
-52.67498794061687
 30
0.0
 10
67.97002087812268
 20
-52.67498794061687
 30
0.0
 10
67.97002087812268
 20
-52.92423391876256
 30
0.0
 10
67.97002087812268
 20
-52.92423391876256
 30
0.0
  0
SPLINE
  5
E0
330
79
100
AcDbEntity
  8
Camada 1
 62
   250
420
  1907995
370
     9
100
AcDbSpline
210
0.0
220
0.0
230
1.0
 70
    11
 71
     3
 72
    17
 73
    13
 74
     0
 42
0.0000000001
 43
0.0000000001
 40
0.0
 40
0.0
 40
0.0
 40
0.0
 40
1.0
 40
1.0
 40
1.0
 40
2.0
 40
2.0
 40
2.0
 40
3.0
 40
3.0
 40
3.0
 40
4.0
 40
4.0
 40
4.0
 40
4.0
 10
66.70935688731313
 20
-53.02733463361117
 30
0.0
 10
66.70935688731313
 20
-53.02733463361117
 30
0.0
 10
68.07827662871311
 20
-53.02733463361117
 30
0.0
 10
68.07827662871311
 20
-53.02733463361117
 30
0.0
 10
68.07827662871311
 20
-53.02733463361117
 30
0.0
 10
68.07827662871311
 20
-52.57111397040707
 30
0.0
 10
68.07827662871311
 20
-52.57111397040707
 30
0.0
 10
68.07827662871311
 20
-52.57111397040707
 30
0.0
 10
66.70935688731313
 20
-52.57111397040707
 30
0.0
 10
66.70935688731313
 20
-52.57111397040707
 30
0.0
 10
66.70935688731313
 20
-52.57111397040707
 30
0.0
 10
66.70935688731313
 20
-53.02733463361117
 30
0.0
 10
66.70935688731313
 20
-53.02733463361117
 30
0.0
  0
SPLINE
  5
E1
330
79
100
AcDbEntity
  8
Camada 1
 62
   250
420
  1907995
370
     9
100
AcDbSpline
210
0.0
220
0.0
230
1.0
 70
    11
 71
     3
 72
    17
 73
    13
 74
     0
 42
0.0000000001
 43
0.0000000001
 40
0.0
 40
0.0
 40
0.0
 40
0.0
 40
1.0
 40
1.0
 40
1.0
 40
2.0
 40
2.0
 40
2.0
 40
3.0
 40
3.0
 40
3.0
 40
4.0
 40
4.0
 40
4.0
 40
4.0
 10
68.21024554371938
 20
-53.1593035486168
 30
0.0
 10
68.21024554371938
 20
-53.1593035486168
 30
0.0
 10
66.57738797230686
 20
-53.1593035486168
 30
0.0
 10
66.57738797230686
 20
-53.1593035486168
 30
0.0
 10
66.57738797230686
 20
-53.1593035486168
 30
0.0
 10
66.57738797230686
 20
-52.4391450554008
 30
0.0
 10
66.57738797230686
 20
-52.4391450554008
 30
0.0
 10
66.57738797230686
 20
-52.4391450554008
 30
0.0
 10
68.21024554371938
 20
-52.4391450554008
 30
0.0
 10
68.21024554371938
 20
-52.4391450554008
 30
0.0
 10
68.21024554371938
 20
-52.4391450554008
 30
0.0
 10
68.21024554371938
 20
-53.1593035486168
 30
0.0
 10
68.21024554371938
 20
-53.1593035486168
 30
0.0
  0
SPLINE
  5
E2
330
79
100
AcDbEntity
  8
Camada 1
 62
   250
420
  1907995
370
     9
100
AcDbSpline
210
0.0
220
0.0
230
1.0
 70
    11
 71
     3
 72
    65
 73
    61
 74
     0
 42
0.0000000001
 43
0.0000000001
 40
0.0
 40
0.0
 40
0.0
 40
0.0
 40
1.0
 40
1.0
 40
1.0
 40
2.0
 40
2.0
 40
2.0
 40
3.0
 40
3.0
 40
3.0
 40
4.0
 40
4.0
 40
4.0
 40
5.0
 40
5.0
 40
5.0
 40
6.0
 40
6.0
 40
6.0
 40
7.0
 40
7.0
 40
7.0
 40
8.0
 40
8.0
 40
8.0
 40
9.0
 40
9.0
 40
9.0
 40
10.0
 40
10.0
 40
10.0
 40
11.0
 40
11.0
 40
11.0
 40
12.0
 40
12.0
 40
12.0
 40
13.0
 40
13.0
 40
13.0
 40
14.0
 40
14.0
 40
14.0
 40
15.0
 40
15.0
 40
15.0
 40
16.0
 40
16.0
 40
16.0
 40
17.0
 40
17.0
 40
17.0
 40
18.0
 40
18.0
 40
18.0
 40
19.0
 40
19.0
 40
19.0
 40
20.0
 40
20.0
 40
20.0
 40
20.0
 10
44.26380770649978
 20
-15.90074305247294
 30
0.0
 10
44.26380770649978
 20
-15.90074305247294
 30
0.0
 10
42.69284278297083
 20
-15.90074305247294
 30
0.0
 10
42.69284278297083
 20
-15.90074305247294
 30
0.0
 10
42.69284278297083
 20
-15.90074305247294
 30
0.0
 10
42.69284278297083
 20
-12.35922544268696
 30
0.0
 10
42.69284278297083
 20
-12.35922544268696
 30
0.0
 10
42.69046663368324
 20
-12.35632573508191
 30
0.0
 10
42.28427398141049
 20
-10.69853067826694
 30
0.0
 10
40.86032423346058
 20
-10.69853067826694
 30
0.0
 10
39.38649951470291
 20
-10.69853067826694
 30
0.0
 10
26.84786580469834
 20
-10.57976348760698
 30
0.0
 10
26.72170435964584
 20
-10.5784425096983
 30
0.0
 10
26.65571990214303
 20
-10.59322296374099
 30
0.0
 10
24.80894445690756
 20
-10.9917636098335
 30
0.0
 10
24.80894445690756
 20
-12.87944909653053
 30
0.0
 10
24.80894445690756
 20
-12.87944909653053
 30
0.0
 10
24.68806692349137
 20
-12.87944909653053
 30
0.0
 10
24.68806692349137
 20
-12.87944909653053
 30
0.0
 10
24.68806692349137
 20
-10.89252917179206
 30
0.0
 10
26.68976730227287
 20
-10.46363019802263
 30
0.0
 10
26.71035522626934
 20
-10.45966726429532
 30
0.0
 10
26.84918678260734
 20
-10.45966726429532
 30
0.0
 10
39.38702307302037
 20
-10.5784425096983
 30
0.0
 10
40.86032423346058
 20
-10.5784425096983
 30
0.0
 10
42.38060871184688
 20
-10.5784425096983
 30
0.0
 10
42.80792090117691
 20
-12.32808580490585
 30
0.0
 10
42.81188383490389
 20
-12.34576596655359
 30
0.0
 10
42.81188383490389
 20
-12.34576596655359
 30
0.0
 10
42.81372837113035
 20
-15.78065488390494
 30
0.0
 10
42.81372837113035
 20
-15.78065488390494
 30
0.0
 10
42.81372837113035
 20
-15.78065488390494
 30
0.0
 10
44.14292211833993
 20
-15.78065488390494
 30
0.0
 10
44.14292211833993
 20
-15.78065488390494
 30
0.0
 10
44.14292211833993
 20
-15.78065488390494
 30
0.0
 10
44.14292211833993
 20
-12.71950605787892
 30
0.0
 10
44.14292211833993
 20
-12.71950605787892
 30
0.0
 10
44.14212469874871
 20
-12.68677963565776
 30
0.0
 10
44.0317988791175
 20
-9.338197293275285
 30
0.0
 10
41.38371340143994
 20
-9.338197293275285
 30
0.0
 10
41.38371340143994
 20
-9.338197293275285
 30
0.0
 10
26.52058547300129
 20
-9.338197293275285
 30
0.0
 10
26.52058547300129
 20
-9.338197293275285
 30
0.0
 10
26.50052110732261
 20
-9.343215398381195
 30
0.0
 10
23.39925160468288
 20
-9.964260274705612
 30
0.0
 10
23.39925160468288
 20
-12.91930396661415
 30
0.0
 10
23.39925160468288
 20
-12.91930396661415
 30
0.0
 10
23.27810826473598
 20
-12.91930396661415
 30
0.0
 10
23.27810826473598
 20
-12.91930396661415
 30
0.0
 10
23.27810826473598
 20
-9.86396261054255
 30
0.0
 10
26.47703347572141
 20
-9.225229517826079
 30
0.0
 10
26.50923633962479
 20
-9.219164296085885
 30
0.0
 10
26.50923633962479
 20
-9.219164296085885
 30
0.0
 10
41.38371340143994
 20
-9.218101069963624
 30
0.0
 10
41.38371340143994
 20
-9.218101069963624
 30
0.0
 10
44.14978475967198
 20
-9.218101069963624
 30
0.0
 10
44.26274448037784
 20
-12.68308250846117
 30
0.0
 10
44.26380770649978
 20
-12.7181850799696
 30
0.0
 10
44.26380770649978
 20
-12.7181850799696
 30
0.0
 10
44.26380770649978
 20
-15.90074305247294
 30
0.0
 10
44.26380770649978
 20
-15.90074305247294
 30
0.0
  0
SPLINE
  5
E3
330
79
100
AcDbEntity
  8
Camada 1
 62
   250
420
  1907995
370
     9
100
AcDbSpline
210
0.0
220
0.0
230
1.0
 70
    11
 71
     3
 72
    80
 73
    76
 74
     0
 42
0.0000000001
 43
0.0000000001
 40
0.0
 40
0.0
 40
0.0
 40
0.0
 40
1.0
 40
1.0
 40
1.0
 40
2.0
 40
2.0
 40
2.0
 40
3.0
 40
3.0
 40
3.0
 40
4.0
 40
4.0
 40
4.0
 40
5.0
 40
5.0
 40
5.0
 40
6.0
 40
6.0
 40
6.0
 40
7.0
 40
7.0
 40
7.0
 40
8.0
 40
8.0
 40
8.0
 40
9.0
 40
9.0
 40
9.0
 40
10.0
 40
10.0
 40
10.0
 40
11.0
 40
11.0
 40
11.0
 40
12.0
 40
12.0
 40
12.0
 40
13.0
 40
13.0
 40
13.0
 40
14.0
 40
14.0
 40
14.0
 40
15.0
 40
15.0
 40
15.0
 40
16.0
 40
16.0
 40
16.0
 40
17.0
 40
17.0
 40
17.0
 40
18.0
 40
18.0
 40
18.0
 40
19.0
 40
19.0
 40
19.0
 40
20.0
 40
20.0
 40
20.0
 40
21.0
 40
21.0
 40
21.0
 40
22.0
 40
22.0
 40
22.0
 40
23.0
 40
23.0
 40
23.0
 40
24.0
 40
24.0
 40
24.0
 40
25.0
 40
25.0
 40
25.0
 40
25.0
 10
44.32335642406818
 20
-15.96005012774098
 30
0.0
 10
44.32335642406818
 20
-15.96005012774098
 30
0.0
 10
42.62142137370814
 20
-15.96005012774098
 30
0.0
 10
42.62142137370814
 20
-15.96005012774098
 30
0.0
 10
42.62142137370814
 20
-15.96005012774098
 30
0.0
 10
42.62142137370814
 20
-12.36879447778409
 30
0.0
 10
42.62142137370814
 20
-12.36879447778409
 30
0.0
 10
42.54564234829451
 20
-12.0955775834355
 30
0.0
 10
42.11236159414411
 20
-10.76841363154998
 30
0.0
 10
40.8560793837165
 20
-10.76841363154998
 30
0.0
 10
39.38689419712684
 20
-10.76841363154998
 30
0.0
 10
26.84263022152242
 20
-10.64984780947398
 30
0.0
 10
26.72535315838236
 20
-10.64855905053869
 30
0.0
 10
26.5487931842043
 20
-10.68954158469069
 30
0.0
 10
24.88036586617025
 20
-11.1101925012723
 30
0.0
 10
24.88036586617025
 20
-12.87888526449634
 30
0.0
 10
24.88036586617025
 20
-12.87888526449634
 30
0.0
 10
24.88036586617025
 20
-12.94486972199948
 30
0.0
 10
24.88036586617025
 20
-12.94486972199948
 30
0.0
 10
24.88036586617025
 20
-12.94486972199948
 30
0.0
 10
24.62751136300445
 20
-12.94486972199948
 30
0.0
 10
24.62751136300445
 20
-12.94486972199948
 30
0.0
 10
24.62751136300445
 20
-12.94486972199948
 30
0.0
 10
24.62751136300445
 20
-12.87888526449634
 30
0.0
 10
24.62751136300445
 20
-12.87888526449634
 30
0.0
 10
24.62751136300445
 20
-10.84522366411216
 30
0.0
 10
26.6817931063588
 20
-10.40292159741246
 30
0.0
 10
26.70267100111571
 20
-10.39905532060529
 30
0.0
 10
26.74777756386194
 20
-10.39828206524412
 30
0.0
 10
27.46381202848403
 20
-10.40446810813482
 30
0.0
 10
28.55951487553542
 20
-10.41452042783268
 30
0.0
 10
32.18530926496622
 20
-10.44777040837099
 30
0.0
 10
39.72996182578478
 20
-10.51659013553241
 30
0.0
 10
40.8560793837165
 20
-10.51659013553241
 30
0.0
 10
42.43197381017423
 20
-10.51659013553241
 30
0.0
 10
42.8668010750473
 20
-12.31389334712706
 30
0.0
 10
42.87066735185415
 20
-12.33219372401274
 30
0.0
 10
42.87066735185415
 20
-12.33219372401274
 30
0.0
 10
42.87401812508687
 20
-15.70822663172341
 30
0.0
 10
42.87401812508687
 20
-15.70822663172341
 30
0.0
 10
42.87401812508687
 20
-15.70822663172341
 30
0.0
 10
44.07050192090237
 20
-15.70822663172341
 30
0.0
 10
44.07050192090237
 20
-15.70822663172341
 30
0.0
 10
44.07050192090237
 20
-15.70822663172341
 30
0.0
 10
44.07050192090237
 20
-12.71933690826835
 30
0.0
 10
44.07050192090237
 20
-12.71933690826835
 30
0.0
 10
44.06972866554088
 20
-12.68737568666533
 30
0.0
 10
43.97178298643505
 20
-9.410577216996106
 30
0.0
 10
41.37905775978491
 20
-9.410577216996106
 30
0.0
 10
41.37905775978491
 20
-9.410577216996106
 30
0.0
 10
26.53203931804161
 20
-9.410577216996106
 30
0.0
 10
26.53203931804161
 20
-9.410577216996106
 30
0.0
 10
26.17144456785918
 20
-9.490222519216576
 30
0.0
 10
23.47175234955389
 20
-10.17661552832015
 30
0.0
 10
23.47175234955389
 20
-12.91857903971305
 30
0.0
 10
23.47175234955389
 20
-12.91857903971305
 30
0.0
 10
23.47175234955389
 20
-12.98456349721619
 30
0.0
 10
23.47175234955389
 20
-12.98456349721619
 30
0.0
 10
23.47175234955389
 20
-12.98456349721619
 30
0.0
 10
23.21864009460103
 20
-12.98456349721619
 30
0.0
 10
23.21864009460103
 20
-12.98456349721619
 30
0.0
 10
23.21864009460103
 20
-12.98456349721619
 30
0.0
 10
23.21864009460103
 20
-12.91857903971305
 30
0.0
 10
23.21864009460103
 20
-12.91857903971305
 30
0.0
 10
23.21864009460103
 20
-9.827104104984135
 30
0.0
 10
26.46837462662265
 20
-9.167259529954051
 30
0.0
 10
26.50136685537422
 20
-9.161073487063353
 30
0.0
 10
26.50136685537422
 20
-9.161073487063353
 30
0.0
 10
41.37905775978491
 20
-9.159011472766239
 30
0.0
 10
41.37905775978491
 20
-9.159011472766239
 30
0.0
 10
44.21149214845764
 20
-9.159011472766239
 30
0.0
 10
44.32258316870668
 20
-12.68067414020052
 30
0.0
 10
44.32335642406818
 20
-12.71624388682299
 30
0.0
 10
44.32335642406818
 20
-12.71624388682299
 30
0.0
 10
44.32335642406818
 20
-15.96005012774098
 30
0.0
 10
44.32335642406818
 20
-15.96005012774098
 30
0.0
  0
SPLINE
  5
E4
330
79
100
AcDbEntity
  8
Camada 1
 62
   250
420
  1907995
370
     9
100
AcDbSpline
210
0.0
220
0.0
230
1.0
 70
    11
 71
     3
 72
    17
 73
    13
 74
     0
 42
0.0000000001
 43
0.0000000001
 40
0.0
 40
0.0
 40
0.0
 40
0.0
 40
1.0
 40
1.0
 40
1.0
 40
2.0
 40
2.0
 40
2.0
 40
3.0
 40
3.0
 40
3.0
 40
4.0
 40
4.0
 40
4.0
 40
4.0
 10
23.39920327622281
 20
-35.18850259657739
 30
0.0
 10
23.39920327622281
 20
-35.18850259657739
 30
0.0
 10
24.56712495212811
 20
-35.18850259657739
 30
0.0
 10
24.56712495212811
 20
-35.18850259657739
 30
0.0
 10
24.56712495212811
 20
-35.18850259657739
 30
0.0
 10
24.56712495212811
 20
-12.9794567899338
 30
0.0
 10
24.56712495212811
 20
-12.9794567899338
 30
0.0
 10
24.56712495212811
 20
-12.9794567899338
 30
0.0
 10
23.39920327622281
 20
-12.9794567899338
 30
0.0
 10
23.39920327622281
 20
-12.9794567899338
 30
0.0
 10
23.39920327622281
 20
-12.9794567899338
 30
0.0
 10
23.39920327622281
 20
-35.18850259657739
 30
0.0
 10
23.39920327622281
 20
-35.18850259657739
 30
0.0
  0
SPLINE
  5
E5
330
79
100
AcDbEntity
  8
Camada 1
 62
   250
420
  1907995
370
     9
100
AcDbSpline
210
0.0
220
0.0
230
1.0
 70
    11
 71
     3
 72
    17
 73
    13
 74
     0
 42
0.0000000001
 43
0.0000000001
 40
0.0
 40
0.0
 40
0.0
 40
0.0
 40
1.0
 40
1.0
 40
1.0
 40
2.0
 40
2.0
 40
2.0
 40
3.0
 40
3.0
 40
3.0
 40
4.0
 40
4.0
 40
4.0
 40
4.0
 10
24.68801054028796
 20
-35.30833301335833
 30
0.0
 10
24.68801054028796
 20
-35.30833301335833
 30
0.0
 10
23.27805188153256
 20
-35.30833301335833
 30
0.0
 10
23.27805188153256
 20
-35.30833301335833
 30
0.0
 10
23.27805188153256
 20
-35.30833301335833
 30
0.0
 10
23.27805188153256
 20
-12.85936056662214
 30
0.0
 10
23.27805188153256
 20
-12.85936056662214
 30
0.0
 10
23.27805188153256
 20
-12.85936056662214
 30
0.0
 10
24.68801054028796
 20
-12.85936056662214
 30
0.0
 10
24.68801054028796
 20
-12.85936056662214
 30
0.0
 10
24.68801054028796
 20
-12.85936056662214
 30
0.0
 10
24.68801054028796
 20
-35.30833301335833
 30
0.0
 10
24.68801054028796
 20
-35.30833301335833
 30
0.0
  0
SPLINE
  5
E6
330
79
100
AcDbEntity
  8
Camada 1
 62
   250
420
  1907995
370
     9
100
AcDbSpline
210
0.0
220
0.0
230
1.0
 70
    11
 71
     3
 72
    17
 73
    13
 74
     0
 42
0.0000000001
 43
0.0000000001
 40
0.0
 40
0.0
 40
0.0
 40
0.0
 40
1.0
 40
1.0
 40
1.0
 40
2.0
 40
2.0
 40
2.0
 40
3.0
 40
3.0
 40
3.0
 40
4.0
 40
4.0
 40
4.0
 40
4.0
 10
23.47046359061828
 20
-35.11564744299886
 30
0.0
 10
23.47046359061828
 20
-35.11564744299886
 30
0.0
 10
24.49580019978556
 20
-35.11564744299886
 30
0.0
 10
24.49580019978556
 20
-35.11564744299886
 30
0.0
 10
24.49580019978556
 20
-35.11564744299886
 30
0.0
 10
24.49580019978556
 20
-13.05209446544168
 30
0.0
 10
24.49580019978556
 20
-13.05209446544168
 30
0.0
 10
24.49580019978556
 20
-13.05209446544168
 30
0.0
 10
23.47046359061828
 20
-13.05209446544168
 30
0.0
 10
23.47046359061828
 20
-13.05209446544168
 30
0.0
 10
23.47046359061828
 20
-13.05209446544168
 30
0.0
 10
23.47046359061828
 20
-35.11564744299886
 30
0.0
 10
23.47046359061828
 20
-35.11564744299886
 30
0.0
  0
SPLINE
  5
E7
330
79
100
AcDbEntity
  8
Camada 1
 62
   250
420
  1907995
370
     9
100
AcDbSpline
210
0.0
220
0.0
230
1.0
 70
    11
 71
     3
 72
    17
 73
    13
 74
     0
 42
0.0000000001
 43
0.0000000001
 40
0.0
 40
0.0
 40
0.0
 40
0.0
 40
1.0
 40
1.0
 40
1.0
 40
2.0
 40
2.0
 40
2.0
 40
3.0
 40
3.0
 40
3.0
 40
4.0
 40
4.0
 40
4.0
 40
4.0
 10
24.7476236958028
 20
-35.36772869080285
 30
0.0
 10
24.7476236958028
 20
-35.36772869080285
 30
0.0
 10
23.21864009460103
 20
-35.36772869080285
 30
0.0
 10
23.21864009460103
 20
-35.36772869080285
 30
0.0
 10
23.21864009460103
 20
-35.36772869080285
 30
0.0
 10
23.21864009460103
 20
-12.80027096942475
 30
0.0
 10
23.21864009460103
 20
-12.80027096942475
 30
0.0
 10
23.21864009460103
 20
-12.80027096942475
 30
0.0
 10
24.7476236958028
 20
-12.80027096942475
 30
0.0
 10
24.7476236958028
 20
-12.80027096942475
 30
0.0
 10
24.7476236958028
 20
-12.80027096942475
 30
0.0
 10
24.7476236958028
 20
-35.36772869080285
 30
0.0
 10
24.7476236958028
 20
-35.36772869080285
 30
0.0
  0
SPLINE
  5
E8
330
79
100
AcDbEntity
  8
Camada 1
 62
   250
420
  1907995
370
     9
100
AcDbSpline
210
0.0
220
0.0
230
1.0
 70
    11
 71
     3
 72
    17
 73
    13
 74
     0
 42
0.0000000001
 43
0.0000000001
 40
0.0
 40
0.0
 40
0.0
 40
0.0
 40
1.0
 40
1.0
 40
1.0
 40
2.0
 40
2.0
 40
2.0
 40
3.0
 40
3.0
 40
3.0
 40
4.0
 40
4.0
 40
4.0
 40
4.0
 10
23.03655456648693
 20
-39.83037869506915
 30
0.0
 10
23.03655456648693
 20
-39.83037869506915
 30
0.0
 10
25.05040149823646
 20
-39.83037869506915
 30
0.0
 10
25.05040149823646
 20
-39.83037869506915
 30
0.0
 10
25.05040149823646
 20
-39.83037869506915
 30
0.0
 10
25.05040149823646
 20
-35.30859881988906
 30
0.0
 10
25.05040149823646
 20
-35.30859881988906
 30
0.0
 10
25.05040149823646
 20
-35.30859881988906
 30
0.0
 10
23.03655456648693
 20
-35.30859881988906
 30
0.0
 10
23.03655456648693
 20
-35.30859881988906
 30
0.0
 10
23.03655456648693
 20
-35.30859881988906
 30
0.0
 10
23.03655456648693
 20
-39.83037869506915
 30
0.0
 10
23.03655456648693
 20
-39.83037869506915
 30
0.0
  0
SPLINE
  5
E9
330
79
100
AcDbEntity
  8
Camada 1
 62
   250
420
  1907995
370
     9
100
AcDbSpline
210
0.0
220
0.0
230
1.0
 70
    11
 71
     3
 72
    17
 73
    13
 74
     0
 42
0.0000000001
 43
0.0000000001
 40
0.0
 40
0.0
 40
0.0
 40
0.0
 40
1.0
 40
1.0
 40
1.0
 40
2.0
 40
2.0
 40
2.0
 40
3.0
 40
3.0
 40
3.0
 40
4.0
 40
4.0
 40
4.0
 40
4.0
 10
25.17127903165297
 20
-39.95047491838081
 30
0.0
 10
25.17127903165297
 20
-39.95047491838081
 30
0.0
 10
22.91540317179667
 20
-39.95047491838081
 30
0.0
 10
22.91540317179667
 20
-39.95047491838081
 30
0.0
 10
22.91540317179667
 20
-39.95047491838081
 30
0.0
 10
22.91540317179667
 20
-35.18876840310748
 30
0.0
 10
22.91540317179667
 20
-35.18876840310748
 30
0.0
 10
22.91540317179667
 20
-35.18876840310748
 30
0.0
 10
25.17127903165297
 20
-35.18876840310748
 30
0.0
 10
25.17127903165297
 20
-35.18876840310748
 30
0.0
 10
25.17127903165297
 20
-35.18876840310748
 30
0.0
 10
25.17127903165297
 20
-39.95047491838081
 30
0.0
 10
25.17127903165297
 20
-39.95047491838081
 30
0.0
  0
SPLINE
  5
EA
330
79
100
AcDbEntity
  8
Camada 1
 62
   250
420
  1907995
370
     9
100
AcDbSpline
210
0.0
220
0.0
230
1.0
 70
    11
 71
     3
 72
    17
 73
    13
 74
     0
 42
0.0000000001
 43
0.0000000001
 40
0.0
 40
0.0
 40
0.0
 40
0.0
 40
1.0
 40
1.0
 40
1.0
 40
2.0
 40
2.0
 40
2.0
 40
3.0
 40
3.0
 40
3.0
 40
4.0
 40
4.0
 40
4.0
 40
4.0
 10
23.10832232971348
 20
-39.75775712904797
 30
0.0
 10
23.10832232971348
 20
-39.75775712904797
 30
0.0
 10
24.97856929706346
 20
-39.75775712904797
 30
0.0
 10
24.97856929706346
 20
-39.75775712904797
 30
0.0
 10
24.97856929706346
 20
-39.75775712904797
 30
0.0
 10
24.97856929706346
 20
-35.38087403194607
 30
0.0
 10
24.97856929706346
 20
-35.38087403194607
 30
0.0
 10
24.97856929706346
 20
-35.38087403194607
 30
0.0
 10
23.10832232971348
 20
-35.38087403194607
 30
0.0
 10
23.10832232971348
 20
-35.38087403194607
 30
0.0
 10
23.10832232971348
 20
-35.38087403194607
 30
0.0
 10
23.10832232971348
 20
-39.75775712904797
 30
0.0
 10
23.10832232971348
 20
-39.75775712904797
 30
0.0
  0
SPLINE
  5
EB
330
79
100
AcDbEntity
  8
Camada 1
 62
   250
420
  1907995
370
     9
100
AcDbSpline
210
0.0
220
0.0
230
1.0
 70
    11
 71
     3
 72
    17
 73
    13
 74
     0
 42
0.0000000001
 43
0.0000000001
 40
0.0
 40
0.0
 40
0.0
 40
0.0
 40
1.0
 40
1.0
 40
1.0
 40
2.0
 40
2.0
 40
2.0
 40
3.0
 40
3.0
 40
3.0
 40
4.0
 40
4.0
 40
4.0
 40
4.0
 10
25.23090829665483
 20
-40.00958062506489
 30
0.0
 10
25.23090829665483
 20
-40.00958062506489
 30
0.0
 10
22.8559833301218
 20
-40.00958062506489
 30
0.0
 10
22.8559833301218
 20
-40.00958062506489
 30
0.0
 10
22.8559833301218
 20
-40.00958062506489
 30
0.0
 10
22.8559833301218
 20
-35.12956603950326
 30
0.0
 10
22.8559833301218
 20
-35.12956603950326
 30
0.0
 10
22.8559833301218
 20
-35.12956603950326
 30
0.0
 10
25.23090829665483
 20
-35.12956603950326
 30
0.0
 10
25.23090829665483
 20
-35.12956603950326
 30
0.0
 10
25.23090829665483
 20
-35.12956603950326
 30
0.0
 10
25.23090829665483
 20
-40.00958062506489
 30
0.0
 10
25.23090829665483
 20
-40.00958062506489
 30
0.0
  0
LWPOLYLINE
  5
EC
330
79
100
AcDbEntity
  8
Camada 1
 62
   250
420
  1907995
370
     9
100
AcDbPolyline
 90
        8
 70
     1
 43
0.0
 10
24.8491698451854
 20
-53.17557815755058
 10
24.72828425702554
 20
-53.17557815755058
 10
24.72828425702554
 20
-39.95018494762037
 10
23.39909050981598
 20
-39.95018494762037
 10
23.39909050981598
 20
-53.17557815755058
 10
23.27820492165612
 20
-53.17557815755058
 10
23.27820492165612
 20
-39.83009677905174
 10
24.8491698451854
 20
-39.83009677905174
  0
LWPOLYLINE
  5
ED
330
79
100
AcDbEntity
  8
Camada 1
 62
   250
420
  1907995
370
     9
100
AcDbPolyline
 90
        8
 70
     1
 43
0.0
 10
24.90871856275348
 20
-53.23482482224369
 10
24.65689506673623
 20
-53.23482482224369
 10
24.65689506673623
 20
-40.02272596620811
 10
23.47046359061828
 20
-40.02272596620811
 10
23.47046359061828
 20
-53.23482482224369
 10
23.21864009460103
 20
-53.23482482224369
 10
23.21864009460103
 20
-39.77116022197824
 10
24.90871856275348
 20
-39.77116022197824
  0
SPLINE
  5
EE
330
79
100
AcDbEntity
  8
Camada 1
 62
   250
420
  1907995
370
     9
100
AcDbSpline
210
0.0
220
0.0
230
1.0
 70
     9
 71
     3
 72
    17
 73
    13
 74
     0
 42
0.0000000001
 43
0.0000000001
 40
0.0
 40
0.0
 40
0.0
 40
0.0
 40
1.0
 40
1.0
 40
1.0
 40
2.0
 40
2.0
 40
2.0
 40
3.0
 40
3.0
 40
3.0
 40
4.0
 40
4.0
 40
4.0
 40
4.0
 10
24.04344581338831
 20
-53.0655423086798
 30
0.0
 10
23.41579604751858
 20
-53.0655423086798
 30
0.0
 10
22.90534279735546
 20
-53.57309585123788
 30
0.0
 10
22.90534279735546
 20
-54.19651687685021
 30
0.0
 10
22.90534279735546
 20
-54.81993790246253
 30
0.0
 10
23.41579604751858
 20
-55.3274914450206
 30
0.0
 10
24.04344581338831
 20
-55.3274914450206
 30
0.0
 10
24.6713533310451
 20
-55.3274914450206
 30
0.0
 10
25.18180658120822
 20
-54.81993790246253
 30
0.0
 10
25.18180658120822
 20
-54.19651687685021
 30
0.0
 10
25.18180658120822
 20
-53.57309585123788
 30
0.0
 10
24.6713533310451
 20
-53.0655423086798
 30
0.0
 10
24.04344581338831
 20
-53.0655423086798
 30
0.0
  0
SPLINE
  5
EF
330
79
100
AcDbEntity
  8
Camada 1
 62
   250
420
  1907995
370
     9
100
AcDbSpline
210
0.0
220
0.0
230
1.0
 70
     9
 71
     3
 72
    17
 73
    13
 74
     0
 42
0.0000000001
 43
0.0000000001
 40
0.0
 40
0.0
 40
0.0
 40
0.0
 40
1.0
 40
1.0
 40
1.0
 40
2.0
 40
2.0
 40
2.0
 40
3.0
 40
3.0
 40
3.0
 40
4.0
 40
4.0
 40
4.0
 40
4.0
 10
24.04344581338831
 20
-55.44758364096043
 30
0.0
 10
23.34928803169798
 20
-55.44758364096043
 30
0.0
 10
22.78445720919593
 20
-54.88644994565465
 30
0.0
 10
22.78445720919593
 20
-54.19651687685021
 30
0.0
 10
22.78445720919593
 20
-53.50658380804577
 30
0.0
 10
23.34928803169798
 20
-52.94545414011182
 30
0.0
 10
24.04344581338831
 20
-52.94545414011182
 30
0.0
 10
24.7378613468657
 20
-52.94545414011182
 30
0.0
 10
25.30269216936807
 20
-53.50658380804577
 30
0.0
 10
25.30269216936807
 20
-54.19651687685021
 30
0.0
 10
25.30269216936807
 20
-54.88644994565465
 30
0.0
 10
24.7378613468657
 20
-55.44758364096043
 30
0.0
 10
24.04344581338831
 20
-55.44758364096043
 30
0.0
  0
SPLINE
  5
F0
330
79
100
AcDbEntity
  8
Camada 1
 62
   250
420
  1907995
370
     9
100
AcDbSpline
210
0.0
220
0.0
230
1.0
 70
    11
 71
     3
 72
    17
 73
    13
 74
     0
 42
0.0000000001
 43
0.0000000001
 40
0.0
 40
0.0
 40
0.0
 40
0.0
 40
1.0
 40
1.0
 40
1.0
 40
2.0
 40
2.0
 40
2.0
 40
3.0
 40
3.0
 40
3.0
 40
4.0
 40
4.0
 40
4.0
 40
4.0
 10
24.04344581338831
 20
-53.13765239849871
 30
0.0
 10
23.45525623517827
 20
-53.13765239849871
 30
0.0
 10
22.97686891828165
 20
-53.6126889421626
 30
0.0
 10
22.97686891828165
 20
-54.19649673999168
 30
0.0
 10
22.97686891828165
 20
-54.78056228960782
 30
0.0
 10
23.45525623517827
 20
-55.25559883327171
 30
0.0
 10
24.04344581338831
 20
-55.25559883327171
 30
0.0
 10
24.63163539159836
 20
-55.25559883327171
 30
0.0
 10
25.11028046028203
 20
-54.78056228960782
 30
0.0
 10
25.11028046028203
 20
-54.19649673999168
 30
0.0
 10
25.11028046028203
 20
-53.6126889421626
 30
0.0
 10
24.63163539159836
 20
-53.13765239849871
 30
0.0
 10
24.04344581338831
 20
-53.13765239849871
 30
0.0
  0
SPLINE
  5
F1
330
79
100
AcDbEntity
  8
Camada 1
 62
   250
420
  1907995
370
     9
100
AcDbSpline
210
0.0
220
0.0
230
1.0
 70
     9
 71
     3
 72
    17
 73
    13
 74
     0
 42
0.0000000001
 43
0.0000000001
 40
0.0
 40
0.0
 40
0.0
 40
0.0
 40
1.0
 40
1.0
 40
1.0
 40
2.0
 40
2.0
 40
2.0
 40
3.0
 40
3.0
 40
3.0
 40
4.0
 40
4.0
 40
4.0
 40
4.0
 10
24.04344581338831
 20
-55.50690682571516
 30
0.0
 10
23.31632802192012
 20
-55.50690682571516
 30
0.0
 10
22.72478767047734
 20
-54.91897499929185
 30
0.0
 10
22.72478767047734
 20
-54.19649673999168
 30
0.0
 10
22.72478767047734
 20
-53.47401848069151
 30
0.0
 10
23.31632802192012
 20
-52.88634440605591
 30
0.0
 10
24.04344581338831
 20
-52.88634440605591
 30
0.0
 10
24.77082135664389
 20
-52.88634440605591
 30
0.0
 10
25.36236170808634
 20
-53.47401848069151
 30
0.0
 10
25.36236170808634
 20
-54.19649673999168
 30
0.0
 10
25.36236170808634
 20
-54.91897499929185
 30
0.0
 10
24.77082135664389
 20
-55.50690682571516
 30
0.0
 10
24.04344581338831
 20
-55.50690682571516
 30
0.0
  0
LWPOLYLINE
  5
F2
330
79
100
AcDbEntity
  8
Camada 1
 62
   250
420
  1907995
370
     9
100
AcDbPolyline
 90
        4
 70
     1
 43
0.0
 10
24.56263846008365
 20
-53.12360895347262
 10
23.33849467561232
 20
-53.12360895347262
 10
23.33849467561232
 20
-52.59546748691809
 10
24.56263846008365
 20
-52.59546748691809
  0
SPLINE
  5
F3
330
79
100
AcDbEntity
  8
Camada 1
 62
   250
420
  1907995
370
     9
100
AcDbSpline
210
0.0
220
0.0
230
1.0
 70
    11
 71
     3
 72
    17
 73
    13
 74
     0
 42
0.0000000001
 43
0.0000000001
 40
0.0
 40
0.0
 40
0.0
 40
0.0
 40
1.0
 40
1.0
 40
1.0
 40
2.0
 40
2.0
 40
2.0
 40
3.0
 40
3.0
 40
3.0
 40
4.0
 40
4.0
 40
4.0
 40
4.0
 10
23.41092292779354
 20
-53.05079004623866
 30
0.0
 10
23.41092292779354
 20
-53.05079004623866
 30
0.0
 10
24.49038741225603
 20
-53.05079004623866
 30
0.0
 10
24.49038741225603
 20
-53.05079004623866
 30
0.0
 10
24.49038741225603
 20
-53.05079004623866
 30
0.0
 10
24.49038741225603
 20
-52.66828639415141
 30
0.0
 10
24.49038741225603
 20
-52.66828639415141
 30
0.0
 10
24.49038741225603
 20
-52.66828639415141
 30
0.0
 10
23.41092292779354
 20
-52.66828639415141
 30
0.0
 10
23.41092292779354
 20
-52.66828639415141
 30
0.0
 10
23.41092292779354
 20
-52.66828639415141
 30
0.0
 10
23.41092292779354
 20
-53.05079004623866
 30
0.0
 10
23.41092292779354
 20
-53.05079004623866
 30
0.0
  0
SPLINE
  5
F4
330
79
100
AcDbEntity
  8
Camada 1
 62
   250
420
  1907995
370
     9
100
AcDbSpline
210
0.0
220
0.0
230
1.0
 70
    11
 71
     3
 72
    17
 73
    13
 74
     0
 42
0.0000000001
 43
0.0000000001
 40
0.0
 40
0.0
 40
0.0
 40
0.0
 40
1.0
 40
1.0
 40
1.0
 40
2.0
 40
2.0
 40
2.0
 40
3.0
 40
3.0
 40
3.0
 40
4.0
 40
4.0
 40
4.0
 40
4.0
 10
24.62235632726199
 20
-53.18275896124494
 30
0.0
 10
24.62235632726199
 20
-53.18275896124494
 30
0.0
 10
23.27895401278758
 20
-53.18275896124494
 30
0.0
 10
23.27895401278758
 20
-53.18275896124494
 30
0.0
 10
23.27895401278758
 20
-53.18275896124494
 30
0.0
 10
23.27895401278758
 20
-52.53631747914577
 30
0.0
 10
23.27895401278758
 20
-52.53631747914577
 30
0.0
 10
23.27895401278758
 20
-52.53631747914577
 30
0.0
 10
24.62235632726199
 20
-52.53631747914577
 30
0.0
 10
24.62235632726199
 20
-52.53631747914577
 30
0.0
 10
24.62235632726199
 20
-52.53631747914577
 30
0.0
 10
24.62235632726199
 20
-53.18275896124494
 30
0.0
 10
24.62235632726199
 20
-53.18275896124494
 30
0.0
  0
SPLINE
  5
F5
330
79
100
AcDbEntity
  8
Camada 1
 62
   250
420
  1907995
370
     9
100
AcDbSpline
210
0.0
220
0.0
230
1.0
 70
    11
 71
     3
 72
    17
 73
    13
 74
     0
 42
0.0000000001
 43
0.0000000001
 40
0.0
 40
0.0
 40
0.0
 40
0.0
 40
1.0
 40
1.0
 40
1.0
 40
2.0
 40
2.0
 40
2.0
 40
3.0
 40
3.0
 40
3.0
 40
4.0
 40
4.0
 40
4.0
 40
4.0
 10
23.20758093198496
 20
-55.44731783442971
 30
0.0
 10
23.20758093198496
 20
-55.44731783442971
 30
0.0
 10
24.80863032191708
 20
-55.44731783442971
 30
0.0
 10
24.80863032191708
 20
-55.44731783442971
 30
0.0
 10
24.80863032191708
 20
-55.44731783442971
 30
0.0
 10
24.80863032191708
 20
-82.36712793204508
 30
0.0
 10
24.80863032191708
 20
-82.36712793204508
 30
0.0
 10
24.80863032191708
 20
-82.36712793204508
 30
0.0
 10
23.20758093198496
 20
-82.36712793204508
 30
0.0
 10
23.20758093198496
 20
-82.36712793204508
 30
0.0
 10
23.20758093198496
 20
-82.36712793204508
 30
0.0
 10
23.20758093198496
 20
-55.44731783442971
 30
0.0
 10
23.20758093198496
 20
-55.44731783442971
 30
0.0
  0
SPLINE
  5
F6
330
79
100
AcDbEntity
  8
Camada 1
 62
   250
420
  1907995
370
     9
100
AcDbSpline
210
0.0
220
0.0
230
1.0
 70
    11
 71
     3
 72
    17
 73
    13
 74
     0
 42
0.0000000001
 43
0.0000000001
 40
0.0
 40
0.0
 40
0.0
 40
0.0
 40
1.0
 40
1.0
 40
1.0
 40
2.0
 40
2.0
 40
2.0
 40
3.0
 40
3.0
 40
3.0
 40
4.0
 40
4.0
 40
4.0
 40
4.0
 10
23.08696115035584
 20
-82.48748392083005
 30
0.0
 10
23.08696115035584
 20
-82.48748392083005
 30
0.0
 10
24.92977366186399
 20
-82.48748392083005
 30
0.0
 10
24.92977366186399
 20
-82.48748392083005
 30
0.0
 10
24.92977366186399
 20
-82.48748392083005
 30
0.0
 10
24.92977366186399
 20
-55.32775322417886
 30
0.0
 10
24.92977366186399
 20
-55.32775322417886
 30
0.0
 10
24.92977366186399
 20
-55.32775322417886
 30
0.0
 10
23.08696115035584
 20
-55.32775322417886
 30
0.0
 10
23.08696115035584
 20
-55.32775322417886
 30
0.0
 10
23.08696115035584
 20
-55.32775322417886
 30
0.0
 10
23.08696115035584
 20
-82.48748392083005
 30
0.0
 10
23.08696115035584
 20
-82.48748392083005
 30
0.0
  0
LWPOLYLINE
  5
F7
330
79
100
AcDbEntity
  8
Camada 1
 62
   250
420
  1907995
370
     9
100
AcDbPolyline
 90
        4
 70
     1
 43
0.0
 10
23.1474039444356
 20
-81.55182479672225
 10
24.86933086778423
 20
-81.55182479672225
 10
24.86933086778423
 20
-81.43173260078242
 10
23.1474039444356
 20
-81.43173260078242
  0
LWPOLYLINE
  5
F8
330
79
100
AcDbEntity
  8
Camada 1
 62
   250
420
  1907995
370
     9
100
AcDbPolyline
 90
        4
 70
     1
 43
0.0
 10
24.92882320214889
 20
-81.61123456996786
 10
23.08744443495657
 20
-81.61123456996786
 10
23.08744443495657
 20
-81.37281416688058
 10
24.92882320214889
 20
-81.37281416688058
  0
SPLINE
  5
F9
330
79
100
AcDbEntity
  8
Camada 1
 62
   250
420
  1907995
370
     9
100
AcDbSpline
210
0.0
220
0.0
230
1.0
 70
    11
 71
     3
 72
    17
 73
    13
 74
     0
 42
0.0000000001
 43
0.0000000001
 40
0.0
 40
0.0
 40
0.0
 40
0.0
 40
1.0
 40
1.0
 40
1.0
 40
2.0
 40
2.0
 40
2.0
 40
3.0
 40
3.0
 40
3.0
 40
4.0
 40
4.0
 40
4.0
 40
4.0
 10
24.4990301518681
 20
-81.85957438948703
 30
0.0
 10
24.4990301518681
 20
-81.85957438948703
 30
0.0
 10
24.80889612844749
 20
-81.85957438948703
 30
0.0
 10
24.80889612844749
 20
-81.85957438948703
 30
0.0
 10
24.80889612844749
 20
-81.85957438948703
 30
0.0
 10
24.80889612844749
 20
-81.55182278303602
 30
0.0
 10
24.80889612844749
 20
-81.55182278303602
 30
0.0
 10
24.80889612844749
 20
-81.55182278303602
 30
0.0
 10
24.4990301518681
 20
-81.55182278303602
 30
0.0
 10
24.4990301518681
 20
-81.55182278303602
 30
0.0
 10
24.4990301518681
 20
-81.55182278303602
 30
0.0
 10
24.4990301518681
 20
-81.85957438948703
 30
0.0
 10
24.4990301518681
 20
-81.85957438948703
 30
0.0
  0
SPLINE
  5
FA
330
79
100
AcDbEntity
  8
Camada 1
 62
   250
420
  1907995
370
     9
100
AcDbSpline
210
0.0
220
0.0
230
1.0
 70
    11
 71
     3
 72
    17
 73
    13
 74
     0
 42
0.0000000001
 43
0.0000000001
 40
0.0
 40
0.0
 40
0.0
 40
0.0
 40
1.0
 40
1.0
 40
1.0
 40
2.0
 40
2.0
 40
2.0
 40
3.0
 40
3.0
 40
3.0
 40
4.0
 40
4.0
 40
4.0
 40
4.0
 10
24.92978171660733
 20
-81.97966658542684
 30
0.0
 10
24.92978171660733
 20
-81.97966658542684
 30
0.0
 10
24.378418424982
 20
-81.97966658542684
 30
0.0
 10
24.378418424982
 20
-81.97966658542684
 30
0.0
 10
24.378418424982
 20
-81.97966658542684
 30
0.0
 10
24.378418424982
 20
-81.43199639362691
 30
0.0
 10
24.378418424982
 20
-81.43199639362691
 30
0.0
 10
24.378418424982
 20
-81.43199639362691
 30
0.0
 10
24.92978171660733
 20
-81.43199639362691
 30
0.0
 10
24.92978171660733
 20
-81.43199639362691
 30
0.0
 10
24.92978171660733
 20
-81.43199639362691
 30
0.0
 10
24.92978171660733
 20
-81.97966658542684
 30
0.0
 10
24.92978171660733
 20
-81.97966658542684
 30
0.0
  0
SPLINE
  5
FB
330
79
100
AcDbEntity
  8
Camada 1
 62
   250
420
  1907995
370
     9
100
AcDbSpline
210
0.0
220
0.0
230
1.0
 70
    11
 71
     3
 72
    17
 73
    13
 74
     0
 42
0.0000000001
 43
0.0000000001
 40
0.0
 40
0.0
 40
0.0
 40
0.0
 40
1.0
 40
1.0
 40
1.0
 40
2.0
 40
2.0
 40
2.0
 40
3.0
 40
3.0
 40
3.0
 40
4.0
 40
4.0
 40
4.0
 40
4.0
 10
24.56874395554089
 20
-81.78959880665566
 30
0.0
 10
24.56874395554089
 20
-81.78959880665566
 30
0.0
 10
24.73911788682793
 20
-81.78959880665566
 30
0.0
 10
24.73911788682793
 20
-81.78959880665566
 30
0.0
 10
24.73911788682793
 20
-81.78959880665566
 30
0.0
 10
24.73911788682793
 20
-81.62154464145279
 30
0.0
 10
24.73911788682793
 20
-81.62154464145279
 30
0.0
 10
24.73911788682793
 20
-81.62154464145279
 30
0.0
 10
24.56874395554089
 20
-81.62154464145279
 30
0.0
 10
24.56874395554089
 20
-81.62154464145279
 30
0.0
 10
24.56874395554089
 20
-81.62154464145279
 30
0.0
 10
24.56874395554089
 20
-81.78959880665566
 30
0.0
 10
24.56874395554089
 20
-81.78959880665566
 30
0.0
  0
SPLINE
  5
FC
330
79
100
AcDbEntity
  8
Camada 1
 62
   250
420
  1907995
370
     9
100
AcDbSpline
210
0.0
220
0.0
230
1.0
 70
    11
 71
     3
 72
    17
 73
    13
 74
     0
 42
0.0000000001
 43
0.0000000001
 40
0.0
 40
0.0
 40
0.0
 40
0.0
 40
1.0
 40
1.0
 40
1.0
 40
2.0
 40
2.0
 40
2.0
 40
3.0
 40
3.0
 40
3.0
 40
4.0
 40
4.0
 40
4.0
 40
4.0
 10
24.98913712033512
 20
-82.03884478480135
 30
0.0
 10
24.98913712033512
 20
-82.03884478480135
 30
0.0
 10
24.31846697024632
 20
-82.03884478480135
 30
0.0
 10
24.31846697024632
 20
-82.03884478480135
 30
0.0
 10
24.31846697024632
 20
-82.03884478480135
 30
0.0
 10
24.31846697024632
 20
-81.37255641509351
 30
0.0
 10
24.31846697024632
 20
-81.37255641509351
 30
0.0
 10
24.31846697024632
 20
-81.37255641509351
 30
0.0
 10
24.98913712033512
 20
-81.37255641509351
 30
0.0
 10
24.98913712033512
 20
-81.37255641509351
 30
0.0
 10
24.98913712033512
 20
-81.37255641509351
 30
0.0
 10
24.98913712033512
 20
-82.03884478480135
 30
0.0
 10
24.98913712033512
 20
-82.03884478480135
 30
0.0
  0
SPLINE
  5
FD
330
79
100
AcDbEntity
  8
Camada 1
 62
   250
420
  1907995
370
     9
100
AcDbSpline
210
0.0
220
0.0
230
1.0
 70
    11
 71
     3
 72
    17
 73
    13
 74
     0
 42
0.0000000001
 43
0.0000000001
 40
0.0
 40
0.0
 40
0.0
 40
0.0
 40
1.0
 40
1.0
 40
1.0
 40
2.0
 40
2.0
 40
2.0
 40
3.0
 40
3.0
 40
3.0
 40
4.0
 40
4.0
 40
4.0
 40
4.0
 10
19.18992327869675
 20
-35.00321933535413
 30
0.0
 10
19.18992327869675
 20
-35.00321933535413
 30
0.0
 10
20.14142205559702
 20
-35.00321933535413
 30
0.0
 10
20.14142205559702
 20
-35.00321933535413
 30
0.0
 10
20.14142205559702
 20
-35.00321933535413
 30
0.0
 10
20.14142205559702
 20
-38.64952110134763
 30
0.0
 10
20.14142205559702
 20
-38.64952110134763
 30
0.0
 10
20.14142205559702
 20
-38.64952110134763
 30
0.0
 10
19.18992327869675
 20
-38.64952110134763
 30
0.0
 10
19.18992327869675
 20
-38.64952110134763
 30
0.0
 10
19.18992327869675
 20
-38.64952110134763
 30
0.0
 10
19.18992327869675
 20
-35.00321933535413
 30
0.0
 10
19.18992327869675
 20
-35.00321933535413
 30
0.0
  0
SPLINE
  5
FE
330
79
100
AcDbEntity
  8
Camada 1
 62
   250
420
  1907995
370
     9
100
AcDbSpline
210
0.0
220
0.0
230
1.0
 70
    11
 71
     3
 72
    17
 73
    13
 74
     0
 42
0.0000000001
 43
0.0000000001
 40
0.0
 40
0.0
 40
0.0
 40
0.0
 40
1.0
 40
1.0
 40
1.0
 40
2.0
 40
2.0
 40
2.0
 40
3.0
 40
3.0
 40
3.0
 40
4.0
 40
4.0
 40
4.0
 40
4.0
 10
19.0690376905369
 20
-38.76987507644635
 30
0.0
 10
19.0690376905369
 20
-38.76987507644635
 30
0.0
 10
20.26229958901352
 20
-38.76987507644635
 30
0.0
 10
20.26229958901352
 20
-38.76987507644635
 30
0.0
 10
20.26229958901352
 20
-38.76987507644635
 30
0.0
 10
20.26229958901352
 20
-34.88312311204247
 30
0.0
 10
20.26229958901352
 20
-34.88312311204247
 30
0.0
 10
20.26229958901352
 20
-34.88312311204247
 30
0.0
 10
19.0690376905369
 20
-34.88312311204247
 30
0.0
 10
19.0690376905369
 20
-34.88312311204247
 30
0.0
 10
19.0690376905369
 20
-34.88312311204247
 30
0.0
 10
19.0690376905369
 20
-38.76987507644635
 30
0.0
 10
19.0690376905369
 20
-38.76987507644635
 30
0.0
  0
SPLINE
  5
FF
330
79
100
AcDbEntity
  8
Camada 1
 62
   250
420
  1907995
370
     9
100
AcDbSpline
210
0.0
220
0.0
230
1.0
 70
    11
 71
     3
 72
    17
 73
    13
 74
     0
 42
0.0000000001
 43
0.0000000001
 40
0.0
 40
0.0
 40
0.0
 40
0.0
 40
1.0
 40
1.0
 40
1.0
 40
2.0
 40
2.0
 40
2.0
 40
3.0
 40
3.0
 40
3.0
 40
4.0
 40
4.0
 40
4.0
 40
4.0
 10
20.26256539554393
 20
-37.58426518415028
 30
0.0
 10
20.26256539554393
 20
-37.58426518415028
 30
0.0
 10
21.71263667617
 20
-37.58426518415028
 30
0.0
 10
21.71263667617
 20
-37.58426518415028
 30
0.0
 10
21.71263667617
 20
-37.58426518415028
 30
0.0
 10
21.71263667617
 20
-36.14369044593059
 30
0.0
 10
21.71263667617
 20
-36.14369044593059
 30
0.0
 10
21.71263667617
 20
-36.14369044593059
 30
0.0
 10
20.26256539554393
 20
-36.14369044593059
 30
0.0
 10
20.26256539554393
 20
-36.14369044593059
 30
0.0
 10
20.26256539554393
 20
-36.14369044593059
 30
0.0
 10
20.26256539554393
 20
-37.58426518415028
 30
0.0
 10
20.26256539554393
 20
-37.58426518415028
 30
0.0
  0
SPLINE
  5
100
330
79
100
AcDbEntity
  8
Camada 1
 62
   250
420
  1907995
370
     9
100
AcDbSpline
210
0.0
220
0.0
230
1.0
 70
    11
 71
     3
 72
    17
 73
    13
 74
     0
 42
0.0000000001
 43
0.0000000001
 40
0.0
 40
0.0
 40
0.0
 40
0.0
 40
1.0
 40
1.0
 40
1.0
 40
2.0
 40
2.0
 40
2.0
 40
3.0
 40
3.0
 40
3.0
 40
4.0
 40
4.0
 40
4.0
 40
4.0
 10
21.83299870601207
 20
-37.70436140746195
 30
0.0
 10
21.83299870601207
 20
-37.70436140746195
 30
0.0
 10
20.14115624906661
 20
-37.70436140746195
 30
0.0
 10
20.14115624906661
 20
-37.70436140746195
 30
0.0
 10
20.14115624906661
 20
-37.70436140746195
 30
0.0
 10
20.14115624906661
 20
-36.02360227736259
 30
0.0
 10
20.14115624906661
 20
-36.02360227736259
 30
0.0
 10
20.14115624906661
 20
-36.02360227736259
 30
0.0
 10
21.83299870601207
 20
-36.02360227736259
 30
0.0
 10
21.83299870601207
 20
-36.02360227736259
 30
0.0
 10
21.83299870601207
 20
-36.02360227736259
 30
0.0
 10
21.83299870601207
 20
-37.70436140746195
 30
0.0
 10
21.83299870601207
 20
-37.70436140746195
 30
0.0
  0
SPLINE
  5
101
330
79
100
AcDbEntity
  8
Camada 1
 62
   250
420
  1907995
370
     9
100
AcDbSpline
210
0.0
220
0.0
230
1.0
 70
    11
 71
     3
 72
    17
 73
    13
 74
     0
 42
0.0000000001
 43
0.0000000001
 40
0.0
 40
0.0
 40
0.0
 40
0.0
 40
1.0
 40
1.0
 40
1.0
 40
2.0
 40
2.0
 40
2.0
 40
3.0
 40
3.0
 40
3.0
 40
4.0
 40
4.0
 40
4.0
 40
4.0
 10
20.33413984493019
 20
-37.51248131143704
 30
0.0
 10
20.33413984493019
 20
-37.51248131143704
 30
0.0
 10
21.64119915742062
 20
-37.51248131143704
 30
0.0
 10
21.64119915742062
 20
-37.51248131143704
 30
0.0
 10
21.64119915742062
 20
-37.51248131143704
 30
0.0
 10
21.64119915742062
 20
-36.21547431864384
 30
0.0
 10
21.64119915742062
 20
-36.21547431864384
 30
0.0
 10
21.64119915742062
 20
-36.21547431864384
 30
0.0
 10
20.33413984493019
 20
-36.21547431864384
 30
0.0
 10
20.33413984493019
 20
-36.21547431864384
 30
0.0
 10
20.33413984493019
 20
-36.21547431864384
 30
0.0
 10
20.33413984493019
 20
-37.51248131143704
 30
0.0
 10
20.33413984493019
 20
-37.51248131143704
 30
0.0
  0
SPLINE
  5
102
330
79
100
AcDbEntity
  8
Camada 1
 62
   250
420
  1907995
370
     9
100
AcDbSpline
210
0.0
220
0.0
230
1.0
 70
    11
 71
     3
 72
    17
 73
    13
 74
     0
 42
0.0000000001
 43
0.0000000001
 40
0.0
 40
0.0
 40
0.0
 40
0.0
 40
1.0
 40
1.0
 40
1.0
 40
2.0
 40
2.0
 40
2.0
 40
3.0
 40
3.0
 40
3.0
 40
4.0
 40
4.0
 40
4.0
 40
4.0
 10
21.8927649016508
 20
-37.76378930387985
 30
0.0
 10
21.8927649016508
 20
-37.76378930387985
 30
0.0
 10
20.08180084533883
 20
-37.76378930387985
 30
0.0
 10
20.08180084533883
 20
-37.76378930387985
 30
0.0
 10
20.08180084533883
 20
-37.76378930387985
 30
0.0
 10
20.08180084533883
 20
-35.96468182977515
 30
0.0
 10
20.08180084533883
 20
-35.96468182977515
 30
0.0
 10
20.08180084533883
 20
-35.96468182977515
 30
0.0
 10
21.8927649016508
 20
-35.96468182977515
 30
0.0
 10
21.8927649016508
 20
-35.96468182977515
 30
0.0
 10
21.8927649016508
 20
-35.96468182977515
 30
0.0
 10
21.8927649016508
 20
-37.76378930387985
 30
0.0
 10
21.8927649016508
 20
-37.76378930387985
 30
0.0
  0
SPLINE
  5
103
330
79
100
AcDbEntity
  8
Camada 1
 62
   250
420
  1907995
370
     9
100
AcDbSpline
210
0.0
220
0.0
230
1.0
 70
    11
 71
     3
 72
    17
 73
    13
 74
     0
 42
0.0000000001
 43
0.0000000001
 40
0.0
 40
0.0
 40
0.0
 40
0.0
 40
1.0
 40
1.0
 40
1.0
 40
2.0
 40
2.0
 40
2.0
 40
3.0
 40
3.0
 40
3.0
 40
4.0
 40
4.0
 40
4.0
 40
4.0
 10
21.83299870601207
 20
-37.34408884701365
 30
0.0
 10
21.83299870601207
 20
-37.34408884701365
 30
0.0
 10
22.93573334400576
 20
-37.34408884701365
 30
0.0
 10
22.93573334400576
 20
-37.34408884701365
 30
0.0
 10
22.93573334400576
 20
-37.34408884701365
 30
0.0
 10
22.93573334400576
 20
-36.33875216557797
 30
0.0
 10
22.93573334400576
 20
-36.33875216557797
 30
0.0
 10
22.93573334400576
 20
-36.33875216557797
 30
0.0
 10
21.83299870601207
 20
-36.33875216557797
 30
0.0
 10
21.83299870601207
 20
-36.33875216557797
 30
0.0
 10
21.83299870601207
 20
-36.33875216557797
 30
0.0
 10
21.83299870601207
 20
-37.34408884701365
 30
0.0
 10
21.83299870601207
 20
-37.34408884701365
 30
0.0
  0
SPLINE
  5
104
330
79
100
AcDbEntity
  8
Camada 1
 62
   250
420
  1907995
370
     9
100
AcDbSpline
210
0.0
220
0.0
230
1.0
 70
    11
 71
     3
 72
    17
 73
    13
 74
     0
 42
0.0000000001
 43
0.0000000001
 40
0.0
 40
0.0
 40
0.0
 40
0.0
 40
1.0
 40
1.0
 40
1.0
 40
2.0
 40
2.0
 40
2.0
 40
3.0
 40
3.0
 40
3.0
 40
4.0
 40
4.0
 40
4.0
 40
4.0
 10
23.05661087742227
 20
-37.46417701558165
 30
0.0
 10
23.05661087742227
 20
-37.46417701558165
 30
0.0
 10
21.71237892438294
 20
-37.46417701558165
 30
0.0
 10
21.71237892438294
 20
-37.46417701558165
 30
0.0
 10
21.71237892438294
 20
-37.46417701558165
 30
0.0
 10
21.71237892438294
 20
-36.21865594226631
 30
0.0
 10
21.71237892438294
 20
-36.21865594226631
 30
0.0
 10
21.71237892438294
 20
-36.21865594226631
 30
0.0
 10
23.05661087742227
 20
-36.21865594226631
 30
0.0
 10
23.05661087742227
 20
-36.21865594226631
 30
0.0
 10
23.05661087742227
 20
-36.21865594226631
 30
0.0
 10
23.05661087742227
 20
-37.46417701558165
 30
0.0
 10
23.05661087742227
 20
-37.46417701558165
 30
0.0
  0
SPLINE
  5
105
330
79
100
AcDbEntity
  8
Camada 1
 62
   250
420
  1907995
370
     9
100
AcDbSpline
210
0.0
220
0.0
230
1.0
 70
    11
 71
     3
 72
    17
 73
    13
 74
     0
 42
0.0000000001
 43
0.0000000001
 40
0.0
 40
0.0
 40
0.0
 40
0.0
 40
1.0
 40
1.0
 40
1.0
 40
2.0
 40
2.0
 40
2.0
 40
3.0
 40
3.0
 40
3.0
 40
4.0
 40
4.0
 40
4.0
 40
4.0
 10
21.90436373207135
 20
-37.27277214941445
 30
0.0
 10
21.90436373207135
 20
-37.27277214941445
 30
0.0
 10
22.86448913909699
 20
-37.27277214941445
 30
0.0
 10
22.86448913909699
 20
-37.27277214941445
 30
0.0
 10
22.86448913909699
 20
-37.27277214941445
 30
0.0
 10
22.86448913909699
 20
-36.41059242149495
 30
0.0
 10
22.86448913909699
 20
-36.41059242149495
 30
0.0
 10
22.86448913909699
 20
-36.41059242149495
 30
0.0
 10
21.90436373207135
 20
-36.41059242149495
 30
0.0
 10
21.90436373207135
 20
-36.41059242149495
 30
0.0
 10
21.90436373207135
 20
-36.41059242149495
 30
0.0
 10
21.90436373207135
 20
-37.27277214941445
 30
0.0
 10
21.90436373207135
 20
-37.27277214941445
 30
0.0
  0
SPLINE
  5
106
330
79
100
AcDbEntity
  8
Camada 1
 62
   250
420
  1907995
370
     9
100
AcDbSpline
210
0.0
220
0.0
230
1.0
 70
    11
 71
     3
 72
    17
 73
    13
 74
     0
 42
0.0000000001
 43
0.0000000001
 40
0.0
 40
0.0
 40
0.0
 40
0.0
 40
1.0
 40
1.0
 40
1.0
 40
2.0
 40
2.0
 40
2.0
 40
3.0
 40
3.0
 40
3.0
 40
4.0
 40
4.0
 40
4.0
 40
4.0
 10
23.11631263511424
 20
-37.52330688649608
 30
0.0
 10
23.11631263511424
 20
-37.52330688649608
 30
0.0
 10
21.65305573962822
 20
-37.52330688649608
 30
0.0
 10
21.65305573962822
 20
-37.52330688649608
 30
0.0
 10
21.65305573962822
 20
-37.52330688649608
 30
0.0
 10
21.65305573962822
 20
-36.15928442905151
 30
0.0
 10
21.65305573962822
 20
-36.15928442905151
 30
0.0
 10
21.65305573962822
 20
-36.15928442905151
 30
0.0
 10
23.11631263511424
 20
-36.15928442905151
 30
0.0
 10
23.11631263511424
 20
-36.15928442905151
 30
0.0
 10
23.11631263511424
 20
-36.15928442905151
 30
0.0
 10
23.11631263511424
 20
-37.52330688649608
 30
0.0
 10
23.11631263511424
 20
-37.52330688649608
 30
0.0
  0
LWPOLYLINE
  5
107
330
79
100
AcDbEntity
  8
Camada 1
 62
   250
420
  1907995
370
     9
100
AcDbPolyline
 90
        4
 70
     1
 43
0.0
 10
35.4297518306085
 20
-17.97896349305585
 10
36.36858049622327
 20
-17.97896349305585
 10
36.36858049622327
 20
-17.78259690498648
 10
35.4297518306085
 20
-17.78259690498648
  0
SPLINE
  5
108
330
79
100
AcDbEntity
  8
Camada 1
 62
   250
420
  1907995
370
     9
100
AcDbSpline
210
0.0
220
0.0
230
1.0
 70
    11
 71
     3
 72
    17
 73
    13
 74
     0
 42
0.0000000001
 43
0.0000000001
 40
0.0
 40
0.0
 40
0.0
 40
0.0
 40
1.0
 40
1.0
 40
1.0
 40
2.0
 40
2.0
 40
2.0
 40
3.0
 40
3.0
 40
3.0
 40
4.0
 40
4.0
 40
4.0
 40
4.0
 10
35.50231701342627
 20
-17.90607612050458
 30
0.0
 10
35.50231701342627
 20
-17.90607612050458
 30
0.0
 10
36.29645026954616
 20
-17.90607612050458
 30
0.0
 10
36.29645026954616
 20
-17.90607612050458
 30
0.0
 10
36.29645026954616
 20
-17.90607612050458
 30
0.0
 10
36.29645026954616
 20
-17.85529901844177
 30
0.0
 10
36.29645026954616
 20
-17.85529901844177
 30
0.0
 10
36.29645026954616
 20
-17.85529901844177
 30
0.0
 10
35.50231701342627
 20
-17.85529901844177
 30
0.0
 10
35.50231701342627
 20
-17.85529901844177
 30
0.0
 10
35.50231701342627
 20
-17.85529901844177
 30
0.0
 10
35.50231701342627
 20
-17.90607612050458
 30
0.0
 10
35.50231701342627
 20
-17.90607612050458
 30
0.0
  0
SPLINE
  5
109
330
79
100
AcDbEntity
  8
Camada 1
 62
   250
420
  1907995
370
     9
100
AcDbSpline
210
0.0
220
0.0
230
1.0
 70
    11
 71
     3
 72
    17
 73
    13
 74
     0
 42
0.0000000001
 43
0.0000000001
 40
0.0
 40
0.0
 40
0.0
 40
0.0
 40
1.0
 40
1.0
 40
1.0
 40
2.0
 40
2.0
 40
2.0
 40
3.0
 40
3.0
 40
3.0
 40
4.0
 40
4.0
 40
4.0
 40
4.0
 10
36.42841918455211
 20
-18.03804503551021
 30
0.0
 10
36.42841918455211
 20
-18.03804503551021
 30
0.0
 10
35.37034809842032
 20
-18.03804503551021
 30
0.0
 10
35.37034809842032
 20
-18.03804503551021
 30
0.0
 10
35.37034809842032
 20
-18.03804503551021
 30
0.0
 10
35.37034809842032
 20
-17.7233301034355
 30
0.0
 10
35.37034809842032
 20
-17.7233301034355
 30
0.0
 10
35.37034809842032
 20
-17.7233301034355
 30
0.0
 10
36.42841918455211
 20
-17.7233301034355
 30
0.0
 10
36.42841918455211
 20
-17.7233301034355
 30
0.0
 10
36.42841918455211
 20
-17.7233301034355
 30
0.0
 10
36.42841918455211
 20
-18.03804503551021
 30
0.0
 10
36.42841918455211
 20
-18.03804503551021
 30
0.0
  0
LWPOLYLINE
  5
10A
330
79
100
AcDbEntity
  8
Camada 1
 62
   250
420
  1907995
370
     9
100
AcDbPolyline
 90
        4
 70
     1
 43
0.0
 10
36.62882119903859
 20
-17.97896349305585
 10
37.32086863797173
 20
-17.97896349305585
 10
37.32086863797173
 20
-17.78259690498648
 10
36.62882119903859
 20
-17.78259690498648
  0
SPLINE
  5
10B
330
79
100
AcDbEntity
  8
Camada 1
 62
   250
420
  1907995
370
     9
100
AcDbSpline
210
0.0
220
0.0
230
1.0
 70
    11
 71
     3
 72
    17
 73
    13
 74
     0
 42
0.0000000001
 43
0.0000000001
 40
0.0
 40
0.0
 40
0.0
 40
0.0
 40
1.0
 40
1.0
 40
1.0
 40
2.0
 40
2.0
 40
2.0
 40
3.0
 40
3.0
 40
3.0
 40
4.0
 40
4.0
 40
4.0
 40
4.0
 10
36.70137832711333
 20
-17.90607612050458
 30
0.0
 10
36.70137832711333
 20
-17.90607612050458
 30
0.0
 10
37.24858537117106
 20
-17.90607612050458
 30
0.0
 10
37.24858537117106
 20
-17.90607612050458
 30
0.0
 10
37.24858537117106
 20
-17.90607612050458
 30
0.0
 10
37.24858537117106
 20
-17.85529901844177
 30
0.0
 10
37.24858537117106
 20
-17.85529901844177
 30
0.0
 10
37.24858537117106
 20
-17.85529901844177
 30
0.0
 10
36.70137832711333
 20
-17.85529901844177
 30
0.0
 10
36.70137832711333
 20
-17.85529901844177
 30
0.0
 10
36.70137832711333
 20
-17.85529901844177
 30
0.0
 10
36.70137832711333
 20
-17.90607612050458
 30
0.0
 10
36.70137832711333
 20
-17.90607612050458
 30
0.0
  0
SPLINE
  5
10C
330
79
100
AcDbEntity
  8
Camada 1
 62
   250
420
  1907995
370
     9
100
AcDbSpline
210
0.0
220
0.0
230
1.0
 70
    11
 71
     3
 72
    17
 73
    13
 74
     0
 42
0.0000000001
 43
0.0000000001
 40
0.0
 40
0.0
 40
0.0
 40
0.0
 40
1.0
 40
1.0
 40
1.0
 40
2.0
 40
2.0
 40
2.0
 40
3.0
 40
3.0
 40
3.0
 40
4.0
 40
4.0
 40
4.0
 40
4.0
 10
37.38055428617701
 20
-18.03804503551021
 30
0.0
 10
37.38055428617701
 20
-18.03804503551021
 30
0.0
 10
36.56940941210738
 20
-18.03804503551021
 30
0.0
 10
36.56940941210738
 20
-18.03804503551021
 30
0.0
 10
36.56940941210738
 20
-18.03804503551021
 30
0.0
 10
36.56940941210738
 20
-17.7233301034355
 30
0.0
 10
36.56940941210738
 20
-17.7233301034355
 30
0.0
 10
36.56940941210738
 20
-17.7233301034355
 30
0.0
 10
37.38055428617701
 20
-17.7233301034355
 30
0.0
 10
37.38055428617701
 20
-17.7233301034355
 30
0.0
 10
37.38055428617701
 20
-17.7233301034355
 30
0.0
 10
37.38055428617701
 20
-18.03804503551021
 30
0.0
 10
37.38055428617701
 20
-18.03804503551021
 30
0.0
  0
LWPOLYLINE
  5
10D
330
79
100
AcDbEntity
  8
Camada 1
 62
   250
420
  1907995
370
     9
100
AcDbPolyline
 90
        4
 70
     1
 43
0.0
 10
37.58110934078704
 20
-17.97896349305585
 10
38.40829120886192
 20
-17.97896349305585
 10
38.40829120886192
 20
-17.78259690498648
 10
37.58110934078704
 20
-17.78259690498648
  0
SPLINE
  5
10E
330
79
100
AcDbEntity
  8
Camada 1
 62
   250
420
  1907995
370
     9
100
AcDbSpline
210
0.0
220
0.0
230
1.0
 70
    11
 71
     3
 72
    17
 73
    13
 74
     0
 42
0.0000000001
 43
0.0000000001
 40
0.0
 40
0.0
 40
0.0
 40
0.0
 40
1.0
 40
1.0
 40
1.0
 40
2.0
 40
2.0
 40
2.0
 40
3.0
 40
3.0
 40
3.0
 40
4.0
 40
4.0
 40
4.0
 40
4.0
 10
37.65377118052529
 20
-17.90607612050458
 30
0.0
 10
37.65377118052529
 20
-17.90607612050458
 30
0.0
 10
38.33604016103463
 20
-17.90607612050458
 30
0.0
 10
38.33604016103463
 20
-17.90607612050458
 30
0.0
 10
38.33604016103463
 20
-17.90607612050458
 30
0.0
 10
38.33604016103463
 20
-17.85529901844177
 30
0.0
 10
38.33604016103463
 20
-17.85529901844177
 30
0.0
 10
38.33604016103463
 20
-17.85529901844177
 30
0.0
 10
37.65377118052529
 20
-17.85529901844177
 30
0.0
 10
37.65377118052529
 20
-17.85529901844177
 30
0.0
 10
37.65377118052529
 20
-17.85529901844177
 30
0.0
 10
37.65377118052529
 20
-17.90607612050458
 30
0.0
 10
37.65377118052529
 20
-17.90607612050458
 30
0.0
  0
SPLINE
  5
10F
330
79
100
AcDbEntity
  8
Camada 1
 62
   250
420
  1907995
370
     9
100
AcDbSpline
210
0.0
220
0.0
230
1.0
 70
    11
 71
     3
 72
    17
 73
    13
 74
     0
 42
0.0000000001
 43
0.0000000001
 40
0.0
 40
0.0
 40
0.0
 40
0.0
 40
1.0
 40
1.0
 40
1.0
 40
2.0
 40
2.0
 40
2.0
 40
3.0
 40
3.0
 40
3.0
 40
4.0
 40
4.0
 40
4.0
 40
4.0
 10
38.46800907604058
 20
-18.03804503551021
 30
0.0
 10
38.46800907604058
 20
-18.03804503551021
 30
0.0
 10
37.52180226551933
 20
-18.03804503551021
 30
0.0
 10
37.52180226551933
 20
-18.03804503551021
 30
0.0
 10
37.52180226551933
 20
-18.03804503551021
 30
0.0
 10
37.52180226551933
 20
-17.7233301034355
 30
0.0
 10
37.52180226551933
 20
-17.7233301034355
 30
0.0
 10
37.52180226551933
 20
-17.7233301034355
 30
0.0
 10
38.46800907604058
 20
-17.7233301034355
 30
0.0
 10
38.46800907604058
 20
-17.7233301034355
 30
0.0
 10
38.46800907604058
 20
-17.7233301034355
 30
0.0
 10
38.46800907604058
 20
-18.03804503551021
 30
0.0
 10
38.46800907604058
 20
-18.03804503551021
 30
0.0
  0
SPLINE
  5
110
330
79
100
AcDbEntity
  8
Camada 1
 62
   250
420
  1907995
370
     9
100
AcDbSpline
210
0.0
220
0.0
230
1.0
 70
    11
 71
     3
 72
    17
 73
    13
 74
     0
 42
0.0000000001
 43
0.0000000001
 40
0.0
 40
0.0
 40
0.0
 40
0.0
 40
1.0
 40
1.0
 40
1.0
 40
2.0
 40
2.0
 40
2.0
 40
3.0
 40
3.0
 40
3.0
 40
4.0
 40
4.0
 40
4.0
 40
4.0
 10
34.40382722517667
 20
-17.72241991743712
 30
0.0
 10
34.40382722517667
 20
-17.72241991743712
 30
0.0
 10
52.38406028167633
 20
-17.72241991743712
 30
0.0
 10
52.38406028167633
 20
-17.72241991743712
 30
0.0
 10
52.38406028167633
 20
-17.72241991743712
 30
0.0
 10
52.38406028167633
 20
-16.76696626155321
 30
0.0
 10
52.38406028167633
 20
-16.76696626155321
 30
0.0
 10
52.38406028167633
 20
-16.76696626155321
 30
0.0
 10
34.40382722517667
 20
-16.76696626155321
 30
0.0
 10
34.40382722517667
 20
-16.76696626155321
 30
0.0
 10
34.40382722517667
 20
-16.76696626155321
 30
0.0
 10
34.40382722517667
 20
-17.72241991743712
 30
0.0
 10
34.40382722517667
 20
-17.72241991743712
 30
0.0
  0
SPLINE
  5
111
330
79
100
AcDbEntity
  8
Camada 1
 62
   250
420
  1907995
370
     9
100
AcDbSpline
210
0.0
220
0.0
230
1.0
 70
    11
 71
     3
 72
    17
 73
    13
 74
     0
 42
0.0000000001
 43
0.0000000001
 40
0.0
 40
0.0
 40
0.0
 40
0.0
 40
1.0
 40
1.0
 40
1.0
 40
2.0
 40
2.0
 40
2.0
 40
3.0
 40
3.0
 40
3.0
 40
4.0
 40
4.0
 40
4.0
 40
4.0
 10
52.50468006330578
 20
-17.84250808600576
 30
0.0
 10
52.50468006330578
 20
-17.84250808600576
 30
0.0
 10
34.28267583048642
 20
-17.84250808600576
 30
0.0
 10
34.28267583048642
 20
-17.84250808600576
 30
0.0
 10
34.28267583048642
 20
-17.84250808600576
 30
0.0
 10
34.28267583048642
 20
-16.64687003824155
 30
0.0
 10
34.28267583048642
 20
-16.64687003824155
 30
0.0
 10
34.28267583048642
 20
-16.64687003824155
 30
0.0
 10
52.50468006330578
 20
-16.64687003824155
 30
0.0
 10
52.50468006330578
 20
-16.64687003824155
 30
0.0
 10
52.50468006330578
 20
-16.64687003824155
 30
0.0
 10
52.50468006330578
 20
-17.84250808600576
 30
0.0
 10
52.50468006330578
 20
-17.84250808600576
 30
0.0
  0
SPLINE
  5
112
330
79
100
AcDbEntity
  8
Camada 1
 62
   250
420
  1907995
370
     9
100
AcDbSpline
210
0.0
220
0.0
230
1.0
 70
    11
 71
     3
 72
    17
 73
    13
 74
     0
 42
0.0000000001
 43
0.0000000001
 40
0.0
 40
0.0
 40
0.0
 40
0.0
 40
1.0
 40
1.0
 40
1.0
 40
2.0
 40
2.0
 40
2.0
 40
3.0
 40
3.0
 40
3.0
 40
4.0
 40
4.0
 40
4.0
 40
4.0
 10
34.47620714889782
 20
-17.6509018512546
 30
0.0
 10
34.47620714889782
 20
-17.6509018512546
 30
0.0
 10
52.31185756230911
 20
-17.6509018512546
 30
0.0
 10
52.31185756230911
 20
-17.6509018512546
 30
0.0
 10
52.31185756230911
 20
-17.6509018512546
 30
0.0
 10
52.31185756230911
 20
-16.83846821824904
 30
0.0
 10
52.31185756230911
 20
-16.83846821824904
 30
0.0
 10
52.31185756230911
 20
-16.83846821824904
 30
0.0
 10
34.47620714889782
 20
-16.83846821824904
 30
0.0
 10
34.47620714889782
 20
-16.83846821824904
 30
0.0
 10
34.47620714889782
 20
-16.83846821824904
 30
0.0
 10
34.47620714889782
 20
-17.6509018512546
 30
0.0
 10
34.47620714889782
 20
-17.6509018512546
 30
0.0
  0
SPLINE
  5
113
330
79
100
AcDbEntity
  8
Camada 1
 62
   250
420
  1907995
370
     9
100
AcDbSpline
210
0.0
220
0.0
230
1.0
 70
    11
 71
     3
 72
    17
 73
    13
 74
     0
 42
0.0000000001
 43
0.0000000001
 40
0.0
 40
0.0
 40
0.0
 40
0.0
 40
1.0
 40
1.0
 40
1.0
 40
2.0
 40
2.0
 40
2.0
 40
3.0
 40
3.0
 40
3.0
 40
4.0
 40
4.0
 40
4.0
 40
4.0
 10
52.56445431368786
 20
-17.90169434012329
 30
0.0
 10
52.56445431368786
 20
-17.90169434012329
 30
0.0
 10
34.22335264573201
 20
-17.90169434012329
 30
0.0
 10
34.22335264573201
 20
-17.90169434012329
 30
0.0
 10
34.22335264573201
 20
-17.90169434012329
 30
0.0
 10
34.22335264573201
 20
-16.58767572938035
 30
0.0
 10
34.22335264573201
 20
-16.58767572938035
 30
0.0
 10
34.22335264573201
 20
-16.58767572938035
 30
0.0
 10
52.56445431368786
 20
-16.58767572938035
 30
0.0
 10
52.56445431368786
 20
-16.58767572938035
 30
0.0
 10
52.56445431368786
 20
-16.58767572938035
 30
0.0
 10
52.56445431368786
 20
-17.90169434012329
 30
0.0
 10
52.56445431368786
 20
-17.90169434012329
 30
0.0
  0
SPLINE
  5
114
330
79
100
AcDbEntity
  8
Camada 1
 62
   250
420
  1907995
370
     9
100
AcDbSpline
210
0.0
220
0.0
230
1.0
 70
    11
 71
     3
 72
    17
 73
    13
 74
     0
 42
0.0000000001
 43
0.0000000001
 40
0.0
 40
0.0
 40
0.0
 40
0.0
 40
1.0
 40
1.0
 40
1.0
 40
2.0
 40
2.0
 40
2.0
 40
3.0
 40
3.0
 40
3.0
 40
4.0
 40
4.0
 40
4.0
 40
4.0
 10
42.40694772259338
 20
-16.36683077627763
 30
0.0
 10
42.40694772259338
 20
-16.36683077627763
 30
0.0
 10
44.38040817119849
 20
-16.36683077627763
 30
0.0
 10
44.38040817119849
 20
-16.36683077627763
 30
0.0
 10
44.38040817119849
 20
-16.36683077627763
 30
0.0
 10
44.38040817119849
 20
-15.96670334574572
 30
0.0
 10
44.38040817119849
 20
-15.96670334574572
 30
0.0
 10
44.38040817119849
 20
-15.96670334574572
 30
0.0
 10
42.40694772259338
 20
-15.96670334574572
 30
0.0
 10
42.40694772259338
 20
-15.96670334574572
 30
0.0
 10
42.40694772259338
 20
-15.96670334574572
 30
0.0
 10
42.40694772259338
 20
-16.36683077627763
 30
0.0
 10
42.40694772259338
 20
-16.36683077627763
 30
0.0
  0
SPLINE
  5
115
330
79
100
AcDbEntity
  8
Camada 1
 62
   250
420
  1907995
370
     9
100
AcDbSpline
210
0.0
220
0.0
230
1.0
 70
    11
 71
     3
 72
    17
 73
    13
 74
     0
 42
0.0000000001
 43
0.0000000001
 40
0.0
 40
0.0
 40
0.0
 40
0.0
 40
1.0
 40
1.0
 40
1.0
 40
2.0
 40
2.0
 40
2.0
 40
3.0
 40
3.0
 40
3.0
 40
4.0
 40
4.0
 40
4.0
 40
4.0
 10
44.50129375935834
 20
-16.48666119305921
 30
0.0
 10
44.50129375935834
 20
-16.48666119305921
 30
0.0
 10
42.28606213443385
 20
-16.48666119305921
 30
0.0
 10
42.28606213443385
 20
-16.48666119305921
 30
0.0
 10
42.28606213443385
 20
-16.48666119305921
 30
0.0
 10
42.28606213443385
 20
-15.84661517717773
 30
0.0
 10
42.28606213443385
 20
-15.84661517717773
 30
0.0
 10
42.28606213443385
 20
-15.84661517717773
 30
0.0
 10
44.50129375935834
 20
-15.84661517717773
 30
0.0
 10
44.50129375935834
 20
-15.84661517717773
 30
0.0
 10
44.50129375935834
 20
-15.84661517717773
 30
0.0
 10
44.50129375935834
 20
-16.48666119305921
 30
0.0
 10
44.50129375935834
 20
-16.48666119305921
 30
0.0
  0
SPLINE
  5
116
330
79
100
AcDbEntity
  8
Camada 1
 62
   250
420
  1907995
370
     9
100
AcDbSpline
210
0.0
220
0.0
230
1.0
 70
    11
 71
     3
 72
    17
 73
    13
 74
     0
 42
0.0000000001
 43
0.0000000001
 40
0.0
 40
0.0
 40
0.0
 40
0.0
 40
1.0
 40
1.0
 40
1.0
 40
2.0
 40
2.0
 40
2.0
 40
3.0
 40
3.0
 40
3.0
 40
4.0
 40
4.0
 40
4.0
 40
4.0
 10
42.47862688364313
 20
-16.29667396172084
 30
0.0
 10
42.47862688364313
 20
-16.29667396172084
 30
0.0
 10
44.30892232398934
 20
-16.29667396172084
 30
0.0
 10
44.30892232398934
 20
-16.29667396172084
 30
0.0
 10
44.30892232398934
 20
-16.29667396172084
 30
0.0
 10
44.30892232398934
 20
-16.03711791209021
 30
0.0
 10
44.30892232398934
 20
-16.03711791209021
 30
0.0
 10
44.30892232398934
 20
-16.03711791209021
 30
0.0
 10
42.47862688364313
 20
-16.03711791209021
 30
0.0
 10
42.47862688364313
 20
-16.03711791209021
 30
0.0
 10
42.47862688364313
 20
-16.03711791209021
 30
0.0
 10
42.47862688364313
 20
-16.29667396172084
 30
0.0
 10
42.47862688364313
 20
-16.29667396172084
 30
0.0
  0
SPLINE
  5
117
330
79
100
AcDbEntity
  8
Camada 1
 62
   250
420
  1907995
370
     9
100
AcDbSpline
210
0.0
220
0.0
230
1.0
 70
    11
 71
     3
 72
    17
 73
    13
 74
     0
 42
0.0000000001
 43
0.0000000001
 40
0.0
 40
0.0
 40
0.0
 40
0.0
 40
1.0
 40
1.0
 40
1.0
 40
2.0
 40
2.0
 40
2.0
 40
3.0
 40
3.0
 40
3.0
 40
4.0
 40
4.0
 40
4.0
 40
4.0
 10
44.56100357179365
 20
-16.54591993986717
 30
0.0
 10
44.56100357179365
 20
-16.54591993986717
 30
0.0
 10
42.22680338762589
 20
-16.54591993986717
 30
0.0
 10
42.22680338762589
 20
-16.54591993986717
 30
0.0
 10
42.22680338762589
 20
-16.54591993986717
 30
0.0
 10
42.22680338762589
 20
-15.78761418215682
 30
0.0
 10
42.22680338762589
 20
-15.78761418215682
 30
0.0
 10
42.22680338762589
 20
-15.78761418215682
 30
0.0
 10
44.56100357179365
 20
-15.78761418215682
 30
0.0
 10
44.56100357179365
 20
-15.78761418215682
 30
0.0
 10
44.56100357179365
 20
-15.78761418215682
 30
0.0
 10
44.56100357179365
 20
-16.54591993986717
 30
0.0
 10
44.56100357179365
 20
-16.54591993986717
 30
0.0
  0
LWPOLYLINE
  5
118
330
79
100
AcDbEntity
  8
Camada 1
 62
   250
420
  1907995
370
     9
100
AcDbPolyline
 90
        4
 70
     1
 43
0.0
 10
44.39334408901472
 20
-16.70678927400385
 10
42.39427761130787
 20
-16.70678927400385
 10
42.39427761130787
 20
-16.42675001203993
 10
44.39334408901472
 20
-16.42675001203993
  0
SPLINE
  5
119
330
79
100
AcDbEntity
  8
Camada 1
 62
   250
420
  1907995
370
     9
100
AcDbSpline
210
0.0
220
0.0
230
1.0
 70
    11
 71
     3
 72
    17
 73
    13
 74
     0
 42
0.0000000001
 43
0.0000000001
 40
0.0
 40
0.0
 40
0.0
 40
0.0
 40
1.0
 40
1.0
 40
1.0
 40
2.0
 40
2.0
 40
2.0
 40
3.0
 40
3.0
 40
3.0
 40
4.0
 40
4.0
 40
4.0
 40
4.0
 10
42.46677030143554
 20
-16.63407344682534
 30
0.0
 10
42.46677030143554
 20
-16.63407344682534
 30
0.0
 10
44.321036657984
 20
-16.63407344682534
 30
0.0
 10
44.321036657984
 20
-16.63407344682534
 30
0.0
 10
44.321036657984
 20
-16.63407344682534
 30
0.0
 10
44.321036657984
 20
-16.49978236997206
 30
0.0
 10
44.321036657984
 20
-16.49978236997206
 30
0.0
 10
44.321036657984
 20
-16.49978236997206
 30
0.0
 10
42.46677030143554
 20
-16.49978236997206
 30
0.0
 10
42.46677030143554
 20
-16.49978236997206
 30
0.0
 10
42.46677030143554
 20
-16.49978236997206
 30
0.0
 10
42.46677030143554
 20
-16.63407344682534
 30
0.0
 10
42.46677030143554
 20
-16.63407344682534
 30
0.0
  0
SPLINE
  5
11A
330
79
100
AcDbEntity
  8
Camada 1
 62
   250
420
  1907995
370
     9
100
AcDbSpline
210
0.0
220
0.0
230
1.0
 70
    11
 71
     3
 72
    17
 73
    13
 74
     0
 42
0.0000000001
 43
0.0000000001
 40
0.0
 40
0.0
 40
0.0
 40
0.0
 40
1.0
 40
1.0
 40
1.0
 40
2.0
 40
2.0
 40
2.0
 40
3.0
 40
3.0
 40
3.0
 40
4.0
 40
4.0
 40
4.0
 40
4.0
 10
44.45300557298996
 20
-16.76604235849735
 30
0.0
 10
44.45300557298996
 20
-16.76604235849735
 30
0.0
 10
42.33480138642959
 20
-16.76604235849735
 30
0.0
 10
42.33480138642959
 20
-16.76604235849735
 30
0.0
 10
42.33480138642959
 20
-16.76604235849735
 30
0.0
 10
42.33480138642959
 20
-16.36781345496643
 30
0.0
 10
42.33480138642959
 20
-16.36781345496643
 30
0.0
 10
42.33480138642959
 20
-16.36781345496643
 30
0.0
 10
44.45300557298996
 20
-16.36781345496643
 30
0.0
 10
44.45300557298996
 20
-16.36781345496643
 30
0.0
 10
44.45300557298996
 20
-16.36781345496643
 30
0.0
 10
44.45300557298996
 20
-16.76604235849735
 30
0.0
 10
44.45300557298996
 20
-16.76604235849735
 30
0.0
  0
SPLINE
  5
11B
330
79
100
AcDbEntity
  8
Camada 1
 62
   250
420
  1907995
370
     9
100
AcDbSpline
210
0.0
220
0.0
230
1.0
 70
    11
 71
     3
 72
    17
 73
    13
 74
     0
 42
0.0000000001
 43
0.0000000001
 40
0.0
 40
0.0
 40
0.0
 40
0.0
 40
1.0
 40
1.0
 40
1.0
 40
2.0
 40
2.0
 40
2.0
 40
3.0
 40
3.0
 40
3.0
 40
4.0
 40
4.0
 40
4.0
 40
4.0
 10
42.5151631994674
 20
-16.58695885722227
 30
0.0
 10
42.5151631994674
 20
-16.58695885722227
 30
0.0
 10
44.27245850085487
 20
-16.58695885722227
 30
0.0
 10
44.27245850085487
 20
-16.58695885722227
 30
0.0
 10
44.27245850085487
 20
-16.58695885722227
 30
0.0
 10
44.27245850085487
 20
-16.54710398713865
 30
0.0
 10
44.27245850085487
 20
-16.54710398713865
 30
0.0
 10
44.27245850085487
 20
-16.54710398713865
 30
0.0
 10
42.5151631994674
 20
-16.54710398713865
 30
0.0
 10
42.5151631994674
 20
-16.54710398713865
 30
0.0
 10
42.5151631994674
 20
-16.54710398713865
 30
0.0
 10
42.5151631994674
 20
-16.58695885722227
 30
0.0
 10
42.5151631994674
 20
-16.58695885722227
 30
0.0
  0
SPLINE
  5
11C
330
79
100
AcDbEntity
  8
Camada 1
 62
   250
420
  1907995
370
     9
100
AcDbSpline
210
0.0
220
0.0
230
1.0
 70
    11
 71
     3
 72
    17
 73
    13
 74
     0
 42
0.0000000001
 43
0.0000000001
 40
0.0
 40
0.0
 40
0.0
 40
0.0
 40
1.0
 40
1.0
 40
1.0
 40
2.0
 40
2.0
 40
2.0
 40
3.0
 40
3.0
 40
3.0
 40
4.0
 40
4.0
 40
4.0
 40
4.0
 10
44.51396387064416
 20
-16.82687744257184
 30
0.0
 10
44.51396387064416
 20
-16.82687744257184
 30
0.0
 10
42.27339202314802
 20
-16.82687744257184
 30
0.0
 10
42.27339202314802
 20
-16.82687744257184
 30
0.0
 10
42.27339202314802
 20
-16.82687744257184
 30
0.0
 10
42.27339202314802
 20
-16.30665378872827
 30
0.0
 10
42.27339202314802
 20
-16.30665378872827
 30
0.0
 10
42.27339202314802
 20
-16.30665378872827
 30
0.0
 10
44.51396387064416
 20
-16.30665378872827
 30
0.0
 10
44.51396387064416
 20
-16.30665378872827
 30
0.0
 10
44.51396387064416
 20
-16.30665378872827
 30
0.0
 10
44.51396387064416
 20
-16.82687744257184
 30
0.0
 10
44.51396387064416
 20
-16.82687744257184
 30
0.0
  0
SPLINE
  5
11D
330
79
100
AcDbEntity
  8
Camada 1
 62
   250
420
  1907995
370
     9
100
AcDbSpline
210
0.0
220
0.0
230
1.0
 70
    11
 71
     3
 72
    17
 73
    13
 74
     0
 42
0.0000000001
 43
0.0000000001
 40
0.0
 40
0.0
 40
0.0
 40
0.0
 40
1.0
 40
1.0
 40
1.0
 40
2.0
 40
2.0
 40
2.0
 40
3.0
 40
3.0
 40
3.0
 40
4.0
 40
4.0
 40
4.0
 40
4.0
 10
44.33340874376573
 20
-16.65237142794755
 30
0.0
 10
44.33340874376573
 20
-16.65237142794755
 30
0.0
 10
42.45414046386676
 20
-16.65237142794755
 30
0.0
 10
42.45414046386676
 20
-16.65237142794755
 30
0.0
 10
42.45414046386676
 20
-16.65237142794755
 30
0.0
 10
42.45414046386676
 20
-16.48148199308639
 30
0.0
 10
42.45414046386676
 20
-16.48148199308639
 30
0.0
 10
42.45414046386676
 20
-16.48148199308639
 30
0.0
 10
44.33340874376573
 20
-16.48148199308639
 30
0.0
 10
44.33340874376573
 20
-16.48148199308639
 30
0.0
 10
44.33340874376573
 20
-16.48148199308639
 30
0.0
 10
44.33340874376573
 20
-16.65237142794755
 30
0.0
 10
44.33340874376573
 20
-16.65237142794755
 30
0.0
  0
SPLINE
  5
11E
330
79
100
AcDbEntity
  8
Camada 1
 62
   250
420
  1907995
370
     9
100
AcDbSpline
210
0.0
220
0.0
230
1.0
 70
    11
 71
     3
 72
    17
 73
    13
 74
     0
 42
0.0000000001
 43
0.0000000001
 40
0.0
 40
0.0
 40
0.0
 40
0.0
 40
1.0
 40
1.0
 40
1.0
 40
2.0
 40
2.0
 40
2.0
 40
3.0
 40
3.0
 40
3.0
 40
4.0
 40
4.0
 40
4.0
 40
4.0
 10
42.34588471327568
 20
-16.75392563207381
 30
0.0
 10
42.34588471327568
 20
-16.75392563207381
 30
0.0
 10
44.44192224614385
 20
-16.75392563207381
 30
0.0
 10
44.44192224614385
 20
-16.75392563207381
 30
0.0
 10
44.44192224614385
 20
-16.75392563207381
 30
0.0
 10
44.44192224614385
 20
-16.3791545335996
 30
0.0
 10
44.44192224614385
 20
-16.3791545335996
 30
0.0
 10
44.44192224614385
 20
-16.3791545335996
 30
0.0
 10
42.34588471327568
 20
-16.3791545335996
 30
0.0
 10
42.34588471327568
 20
-16.3791545335996
 30
0.0
 10
42.34588471327568
 20
-16.3791545335996
 30
0.0
 10
42.34588471327568
 20
-16.75392563207381
 30
0.0
 10
42.34588471327568
 20
-16.75392563207381
 30
0.0
  0
SPLINE
  5
11F
330
79
100
AcDbEntity
  8
Camada 1
 62
   250
420
  1907995
370
     9
100
AcDbSpline
210
0.0
220
0.0
230
1.0
 70
    11
 71
     3
 72
    17
 73
    13
 74
     0
 42
0.0000000001
 43
0.0000000001
 40
0.0
 40
0.0
 40
0.0
 40
0.0
 40
1.0
 40
1.0
 40
1.0
 40
2.0
 40
2.0
 40
2.0
 40
3.0
 40
3.0
 40
3.0
 40
4.0
 40
4.0
 40
4.0
 40
4.0
 10
44.57389116114981
 20
-16.88589454707944
 30
0.0
 10
44.57389116114981
 20
-16.88589454707944
 30
0.0
 10
42.21391579826973
 20
-16.88589454707944
 30
0.0
 10
42.21391579826973
 20
-16.88589454707944
 30
0.0
 10
42.21391579826973
 20
-16.88589454707944
 30
0.0
 10
42.21391579826973
 20
-16.24718561859332
 30
0.0
 10
42.21391579826973
 20
-16.24718561859332
 30
0.0
 10
42.21391579826973
 20
-16.24718561859332
 30
0.0
 10
44.57389116114981
 20
-16.24718561859332
 30
0.0
 10
44.57389116114981
 20
-16.24718561859332
 30
0.0
 10
44.57389116114981
 20
-16.24718561859332
 30
0.0
 10
44.57389116114981
 20
-16.88589454707944
 30
0.0
 10
44.57389116114981
 20
-16.88589454707944
 30
0.0
  0
LWPOLYLINE
  5
120
330
79
100
AcDbEntity
  8
Camada 1
 62
   250
420
  1907995
370
     9
100
AcDbPolyline
 90
        4
 70
     1
 43
0.0
 10
38.66853191167724
 20
-17.97896349305585
 10
39.607360577292
 20
-17.97896349305585
 10
39.607360577292
 20
-17.78259690498648
 10
38.66853191167724
 20
-17.78259690498648
  0
SPLINE
  5
121
330
79
100
AcDbEntity
  8
Camada 1
 62
   250
420
  1907995
370
     9
100
AcDbSpline
210
0.0
220
0.0
230
1.0
 70
    11
 71
     3
 72
    17
 73
    13
 74
     0
 42
0.0000000001
 43
0.0000000001
 40
0.0
 40
0.0
 40
0.0
 40
0.0
 40
1.0
 40
1.0
 40
1.0
 40
2.0
 40
2.0
 40
2.0
 40
3.0
 40
3.0
 40
3.0
 40
4.0
 40
4.0
 40
4.0
 40
4.0
 10
38.74096821860148
 20
-17.90607612050458
 30
0.0
 10
38.74096821860148
 20
-17.90607612050458
 30
0.0
 10
39.53510147472136
 20
-17.90607612050458
 30
0.0
 10
39.53510147472136
 20
-17.90607612050458
 30
0.0
 10
39.53510147472136
 20
-17.90607612050458
 30
0.0
 10
39.53510147472136
 20
-17.85529901844177
 30
0.0
 10
39.53510147472136
 20
-17.85529901844177
 30
0.0
 10
39.53510147472136
 20
-17.85529901844177
 30
0.0
 10
38.74096821860148
 20
-17.85529901844177
 30
0.0
 10
38.74096821860148
 20
-17.85529901844177
 30
0.0
 10
38.74096821860148
 20
-17.85529901844177
 30
0.0
 10
38.74096821860148
 20
-17.90607612050458
 30
0.0
 10
38.74096821860148
 20
-17.90607612050458
 30
0.0
  0
SPLINE
  5
122
330
79
100
AcDbEntity
  8
Camada 1
 62
   250
420
  1907995
370
     9
100
AcDbSpline
210
0.0
220
0.0
230
1.0
 70
    11
 71
     3
 72
    17
 73
    13
 74
     0
 42
0.0000000001
 43
0.0000000001
 40
0.0
 40
0.0
 40
0.0
 40
0.0
 40
1.0
 40
1.0
 40
1.0
 40
2.0
 40
2.0
 40
2.0
 40
3.0
 40
3.0
 40
3.0
 40
4.0
 40
4.0
 40
4.0
 40
4.0
 10
39.66707038972732
 20
-18.03804503551021
 30
0.0
 10
39.66707038972732
 20
-18.03804503551021
 30
0.0
 10
38.60899930359552
 20
-18.03804503551021
 30
0.0
 10
38.60899930359552
 20
-18.03804503551021
 30
0.0
 10
38.60899930359552
 20
-18.03804503551021
 30
0.0
 10
38.60899930359552
 20
-17.7233301034355
 30
0.0
 10
38.60899930359552
 20
-17.7233301034355
 30
0.0
 10
38.60899930359552
 20
-17.7233301034355
 30
0.0
 10
39.66707038972732
 20
-17.7233301034355
 30
0.0
 10
39.66707038972732
 20
-17.7233301034355
 30
0.0
 10
39.66707038972732
 20
-17.7233301034355
 30
0.0
 10
39.66707038972732
 20
-18.03804503551021
 30
0.0
 10
39.66707038972732
 20
-18.03804503551021
 30
0.0
  0
LWPOLYLINE
  5
123
330
79
100
AcDbEntity
  8
Camada 1
 62
   250
420
  1907995
370
     9
100
AcDbPolyline
 90
        4
 70
     1
 43
0.0
 10
39.86760128010731
 20
-17.97896349305585
 10
40.55990647082783
 20
-17.97896349305585
 10
40.55990647082783
 20
-17.78259690498648
 10
39.86760128010731
 20
-17.78259690498648
  0
SPLINE
  5
124
330
79
100
AcDbEntity
  8
Camada 1
 62
   250
420
  1907995
370
     9
100
AcDbSpline
210
0.0
220
0.0
230
1.0
 70
    11
 71
     3
 72
    17
 73
    13
 74
     0
 42
0.0000000001
 43
0.0000000001
 40
0.0
 40
0.0
 40
0.0
 40
0.0
 40
1.0
 40
1.0
 40
1.0
 40
2.0
 40
2.0
 40
2.0
 40
3.0
 40
3.0
 40
3.0
 40
4.0
 40
4.0
 40
4.0
 40
4.0
 10
39.94028728407559
 20
-17.90607612050458
 30
0.0
 10
39.94028728407559
 20
-17.90607612050458
 30
0.0
 10
40.48723657634624
 20
-17.90607612050458
 30
0.0
 10
40.48723657634624
 20
-17.90607612050458
 30
0.0
 10
40.48723657634624
 20
-17.90607612050458
 30
0.0
 10
40.48723657634624
 20
-17.85529901844177
 30
0.0
 10
40.48723657634624
 20
-17.85529901844177
 30
0.0
 10
40.48723657634624
 20
-17.85529901844177
 30
0.0
 10
39.94028728407559
 20
-17.85529901844177
 30
0.0
 10
39.94028728407559
 20
-17.85529901844177
 30
0.0
 10
39.94028728407559
 20
-17.85529901844177
 30
0.0
 10
39.94028728407559
 20
-17.90607612050458
 30
0.0
 10
39.94028728407559
 20
-17.90607612050458
 30
0.0
  0
SPLINE
  5
125
330
79
100
AcDbEntity
  8
Camada 1
 62
   250
420
  1907995
370
     9
100
AcDbSpline
210
0.0
220
0.0
230
1.0
 70
    11
 71
     3
 72
    17
 73
    13
 74
     0
 42
0.0000000001
 43
0.0000000001
 40
0.0
 40
0.0
 40
0.0
 40
0.0
 40
1.0
 40
1.0
 40
1.0
 40
2.0
 40
2.0
 40
2.0
 40
3.0
 40
3.0
 40
3.0
 40
4.0
 40
4.0
 40
4.0
 40
4.0
 10
40.6192054913522
 20
-18.03804503551021
 30
0.0
 10
40.6192054913522
 20
-18.03804503551021
 30
0.0
 10
39.80831836906963
 20
-18.03804503551021
 30
0.0
 10
39.80831836906963
 20
-18.03804503551021
 30
0.0
 10
39.80831836906963
 20
-18.03804503551021
 30
0.0
 10
39.80831836906963
 20
-17.7233301034355
 30
0.0
 10
39.80831836906963
 20
-17.7233301034355
 30
0.0
 10
39.80831836906963
 20
-17.7233301034355
 30
0.0
 10
40.6192054913522
 20
-17.7233301034355
 30
0.0
 10
40.6192054913522
 20
-17.7233301034355
 30
0.0
 10
40.6192054913522
 20
-17.7233301034355
 30
0.0
 10
40.6192054913522
 20
-18.03804503551021
 30
0.0
 10
40.6192054913522
 20
-18.03804503551021
 30
0.0
  0
LWPOLYLINE
  5
126
330
79
100
AcDbEntity
  8
Camada 1
 62
   250
420
  1907995
370
     9
100
AcDbPolyline
 90
        4
 70
     1
 43
0.0
 10
40.81988942185609
 20
-17.97896349305585
 10
41.64707128993064
 20
-17.97896349305585
 10
41.64707128993064
 20
-17.78259690498648
 10
40.81988942185609
 20
-17.78259690498648
  0
SPLINE
  5
127
330
79
100
AcDbEntity
  8
Camada 1
 62
   250
420
  1907995
370
     9
100
AcDbSpline
210
0.0
220
0.0
230
1.0
 70
    11
 71
     3
 72
    17
 73
    13
 74
     0
 42
0.0000000001
 43
0.0000000001
 40
0.0
 40
0.0
 40
0.0
 40
0.0
 40
1.0
 40
1.0
 40
1.0
 40
2.0
 40
2.0
 40
2.0
 40
3.0
 40
3.0
 40
3.0
 40
4.0
 40
4.0
 40
4.0
 40
4.0
 10
40.89216463391341
 20
-17.90607612050458
 30
0.0
 10
40.89216463391341
 20
-17.90607612050458
 30
0.0
 10
41.57469136620982
 20
-17.90607612050458
 30
0.0
 10
41.57469136620982
 20
-17.90607612050458
 30
0.0
 10
41.57469136620982
 20
-17.90607612050458
 30
0.0
 10
41.57469136620982
 20
-17.85529901844177
 30
0.0
 10
41.57469136620982
 20
-17.85529901844177
 30
0.0
 10
41.57469136620982
 20
-17.85529901844177
 30
0.0
 10
40.89216463391341
 20
-17.85529901844177
 30
0.0
 10
40.89216463391341
 20
-17.85529901844177
 30
0.0
 10
40.89216463391341
 20
-17.85529901844177
 30
0.0
 10
40.89216463391341
 20
-17.90607612050458
 30
0.0
 10
40.89216463391341
 20
-17.90607612050458
 30
0.0
  0
SPLINE
  5
128
330
79
100
AcDbEntity
  8
Camada 1
 62
   250
420
  1907995
370
     9
100
AcDbSpline
210
0.0
220
0.0
230
1.0
 70
    11
 71
     3
 72
    17
 73
    13
 74
     0
 42
0.0000000001
 43
0.0000000001
 40
0.0
 40
0.0
 40
0.0
 40
0.0
 40
1.0
 40
1.0
 40
1.0
 40
2.0
 40
2.0
 40
2.0
 40
3.0
 40
3.0
 40
3.0
 40
4.0
 40
4.0
 40
4.0
 40
4.0
 10
41.70666028121577
 20
-18.03804503551021
 30
0.0
 10
41.70666028121577
 20
-18.03804503551021
 30
0.0
 10
40.76019571890746
 20
-18.03804503551021
 30
0.0
 10
40.76019571890746
 20
-18.03804503551021
 30
0.0
 10
40.76019571890746
 20
-18.03804503551021
 30
0.0
 10
40.76019571890746
 20
-17.7233301034355
 30
0.0
 10
40.76019571890746
 20
-17.7233301034355
 30
0.0
 10
40.76019571890746
 20
-17.7233301034355
 30
0.0
 10
41.70666028121577
 20
-17.7233301034355
 30
0.0
 10
41.70666028121577
 20
-17.7233301034355
 30
0.0
 10
41.70666028121577
 20
-17.7233301034355
 30
0.0
 10
41.70666028121577
 20
-18.03804503551021
 30
0.0
 10
41.70666028121577
 20
-18.03804503551021
 30
0.0
  0
LWPOLYLINE
  5
129
330
79
100
AcDbEntity
  8
Camada 1
 62
   250
420
  1907995
370
     9
100
AcDbPolyline
 90
        4
 70
     1
 43
0.0
 10
41.9070542409589
 20
-17.97896349305585
 10
42.59910167989204
 20
-17.97896349305585
 10
42.59910167989204
 20
-17.78259690498648
 10
41.9070542409589
 20
-17.78259690498648
  0
SPLINE
  5
12A
330
79
100
AcDbEntity
  8
Camada 1
 62
   250
420
  1907995
370
     9
100
AcDbSpline
210
0.0
220
0.0
230
1.0
 70
    11
 71
     3
 72
    17
 73
    13
 74
     0
 42
0.0000000001
 43
0.0000000001
 40
0.0
 40
0.0
 40
0.0
 40
0.0
 40
1.0
 40
1.0
 40
1.0
 40
2.0
 40
2.0
 40
2.0
 40
3.0
 40
3.0
 40
3.0
 40
4.0
 40
4.0
 40
4.0
 40
4.0
 10
41.97961942377698
 20
-17.90607612050458
 30
0.0
 10
41.97961942377698
 20
-17.90607612050458
 30
0.0
 10
42.52682646783472
 20
-17.90607612050458
 30
0.0
 10
42.52682646783472
 20
-17.90607612050458
 30
0.0
 10
42.52682646783472
 20
-17.90607612050458
 30
0.0
 10
42.52682646783472
 20
-17.85529901844177
 30
0.0
 10
42.52682646783472
 20
-17.85529901844177
 30
0.0
 10
42.52682646783472
 20
-17.85529901844177
 30
0.0
 10
41.97961942377698
 20
-17.85529901844177
 30
0.0
 10
41.97961942377698
 20
-17.85529901844177
 30
0.0
 10
41.97961942377698
 20
-17.85529901844177
 30
0.0
 10
41.97961942377698
 20
-17.90607612050458
 30
0.0
 10
41.97961942377698
 20
-17.90607612050458
 30
0.0
  0
SPLINE
  5
12B
330
79
100
AcDbEntity
  8
Camada 1
 62
   250
420
  1907995
370
     9
100
AcDbSpline
210
0.0
220
0.0
230
1.0
 70
    11
 71
     3
 72
    17
 73
    13
 74
     0
 42
0.0000000001
 43
0.0000000001
 40
0.0
 40
0.0
 40
0.0
 40
0.0
 40
1.0
 40
1.0
 40
1.0
 40
2.0
 40
2.0
 40
2.0
 40
3.0
 40
3.0
 40
3.0
 40
4.0
 40
4.0
 40
4.0
 40
4.0
 10
42.65879538284067
 20
-18.03804503551021
 30
0.0
 10
42.65879538284067
 20
-18.03804503551021
 30
0.0
 10
41.84765050877103
 20
-18.03804503551021
 30
0.0
 10
41.84765050877103
 20
-18.03804503551021
 30
0.0
 10
41.84765050877103
 20
-18.03804503551021
 30
0.0
 10
41.84765050877103
 20
-17.7233301034355
 30
0.0
 10
41.84765050877103
 20
-17.7233301034355
 30
0.0
 10
41.84765050877103
 20
-17.7233301034355
 30
0.0
 10
42.65879538284067
 20
-17.7233301034355
 30
0.0
 10
42.65879538284067
 20
-17.7233301034355
 30
0.0
 10
42.65879538284067
 20
-17.7233301034355
 30
0.0
 10
42.65879538284067
 20
-18.03804503551021
 30
0.0
 10
42.65879538284067
 20
-18.03804503551021
 30
0.0
  0
LWPOLYLINE
  5
12C
330
79
100
AcDbEntity
  8
Camada 1
 62
   250
420
  1907995
370
     9
100
AcDbPolyline
 90
        4
 70
     1
 43
0.0
 10
42.98021991612386
 20
-17.97896349305585
 10
43.80740178419873
 20
-17.97896349305585
 10
43.80740178419873
 20
-17.78259690498648
 10
42.98021991612386
 20
-17.78259690498648
  0
SPLINE
  5
12D
330
79
100
AcDbEntity
  8
Camada 1
 62
   250
420
  1907995
370
     9
100
AcDbSpline
210
0.0
220
0.0
230
1.0
 70
    11
 71
     3
 72
    17
 73
    13
 74
     0
 42
0.0000000001
 43
0.0000000001
 40
0.0
 40
0.0
 40
0.0
 40
0.0
 40
1.0
 40
1.0
 40
1.0
 40
2.0
 40
2.0
 40
2.0
 40
3.0
 40
3.0
 40
3.0
 40
4.0
 40
4.0
 40
4.0
 40
4.0
 10
43.05264011356173
 20
-17.90607612050458
 30
0.0
 10
43.05264011356173
 20
-17.90607612050458
 30
0.0
 10
43.73516684585782
 20
-17.90607612050458
 30
0.0
 10
43.73516684585782
 20
-17.90607612050458
 30
0.0
 10
43.73516684585782
 20
-17.90607612050458
 30
0.0
 10
43.73516684585782
 20
-17.85529901844177
 30
0.0
 10
43.73516684585782
 20
-17.85529901844177
 30
0.0
 10
43.73516684585782
 20
-17.85529901844177
 30
0.0
 10
43.05264011356173
 20
-17.85529901844177
 30
0.0
 10
43.05264011356173
 20
-17.85529901844177
 30
0.0
 10
43.05264011356173
 20
-17.85529901844177
 30
0.0
 10
43.05264011356173
 20
-17.90607612050458
 30
0.0
 10
43.05264011356173
 20
-17.90607612050458
 30
0.0
  0
SPLINE
  5
12E
330
79
100
AcDbEntity
  8
Camada 1
 62
   250
420
  1907995
370
     9
100
AcDbSpline
210
0.0
220
0.0
230
1.0
 70
    11
 71
     3
 72
    17
 73
    13
 74
     0
 42
0.0000000001
 43
0.0000000001
 40
0.0
 40
0.0
 40
0.0
 40
0.0
 40
1.0
 40
1.0
 40
1.0
 40
2.0
 40
2.0
 40
2.0
 40
3.0
 40
3.0
 40
3.0
 40
4.0
 40
4.0
 40
4.0
 40
4.0
 10
43.86713576086377
 20
-18.03804503551021
 30
0.0
 10
43.86713576086377
 20
-18.03804503551021
 30
0.0
 10
42.92067119855578
 20
-18.03804503551021
 30
0.0
 10
42.92067119855578
 20
-18.03804503551021
 30
0.0
 10
42.92067119855578
 20
-18.03804503551021
 30
0.0
 10
42.92067119855578
 20
-17.7233301034355
 30
0.0
 10
42.92067119855578
 20
-17.7233301034355
 30
0.0
 10
42.92067119855578
 20
-17.7233301034355
 30
0.0
 10
43.86713576086377
 20
-17.7233301034355
 30
0.0
 10
43.86713576086377
 20
-17.7233301034355
 30
0.0
 10
43.86713576086377
 20
-17.7233301034355
 30
0.0
 10
43.86713576086377
 20
-18.03804503551021
 30
0.0
 10
43.86713576086377
 20
-18.03804503551021
 30
0.0
  0
LWPOLYLINE
  5
12F
330
79
100
AcDbEntity
  8
Camada 1
 62
   250
420
  1907995
370
     9
100
AcDbPolyline
 90
        4
 70
     1
 43
0.0
 10
43.92802156582786
 20
-18.09905971636751
 10
42.85933432796433
 20
-18.09905971636751
 10
42.85933432796433
 20
-17.66250873641849
 10
43.92802156582786
 20
-17.66250873641849
  0
SPLINE
  5
130
330
79
100
AcDbEntity
  8
Camada 1
 62
   250
420
  1907995
370
     9
100
AcDbSpline
210
0.0
220
0.0
230
1.0
 70
    11
 71
     3
 72
    17
 73
    13
 74
     0
 42
0.0000000001
 43
0.0000000001
 40
0.0
 40
0.0
 40
0.0
 40
0.0
 40
1.0
 40
1.0
 40
1.0
 40
2.0
 40
2.0
 40
2.0
 40
3.0
 40
3.0
 40
3.0
 40
4.0
 40
4.0
 40
4.0
 40
4.0
 10
42.93175452540189
 20
-18.02618845330293
 30
0.0
 10
42.93175452540189
 20
-18.02618845330293
 30
0.0
 10
43.85579468223061
 20
-18.02618845330293
 30
0.0
 10
43.85579468223061
 20
-18.02618845330293
 30
0.0
 10
43.85579468223061
 20
-18.02618845330293
 30
0.0
 10
43.85579468223061
 20
-17.73544443743048
 30
0.0
 10
43.85579468223061
 20
-17.73544443743048
 30
0.0
 10
43.85579468223061
 20
-17.73544443743048
 30
0.0
 10
42.93175452540189
 20
-17.73544443743048
 30
0.0
 10
42.93175452540189
 20
-17.73544443743048
 30
0.0
 10
42.93175452540189
 20
-17.73544443743048
 30
0.0
 10
42.93175452540189
 20
-18.02618845330293
 30
0.0
 10
42.93175452540189
 20
-18.02618845330293
 30
0.0
  0
SPLINE
  5
131
330
79
100
AcDbEntity
  8
Camada 1
 62
   250
420
  1907995
370
     9
100
AcDbSpline
210
0.0
220
0.0
230
1.0
 70
    11
 71
     3
 72
    17
 73
    13
 74
     0
 42
0.0000000001
 43
0.0000000001
 40
0.0
 40
0.0
 40
0.0
 40
0.0
 40
1.0
 40
1.0
 40
1.0
 40
2.0
 40
2.0
 40
2.0
 40
3.0
 40
3.0
 40
3.0
 40
4.0
 40
4.0
 40
4.0
 40
4.0
 10
43.98776359723655
 20
-18.15815736830856
 30
0.0
 10
43.98776359723655
 20
-18.15815736830856
 30
0.0
 10
42.79978561039593
 20
-18.15815736830856
 30
0.0
 10
42.79978561039593
 20
-18.15815736830856
 30
0.0
 10
42.79978561039593
 20
-18.15815736830856
 30
0.0
 10
42.79978561039593
 20
-17.6034755224242
 30
0.0
 10
42.79978561039593
 20
-17.6034755224242
 30
0.0
 10
42.79978561039593
 20
-17.6034755224242
 30
0.0
 10
43.98776359723655
 20
-17.6034755224242
 30
0.0
 10
43.98776359723655
 20
-17.6034755224242
 30
0.0
 10
43.98776359723655
 20
-17.6034755224242
 30
0.0
 10
43.98776359723655
 20
-18.15815736830856
 30
0.0
 10
43.98776359723655
 20
-18.15815736830856
 30
0.0
  0
LWPOLYLINE
  5
132
330
79
100
AcDbEntity
  8
Camada 1
 62
   250
420
  1907995
370
     9
100
AcDbPolyline
 90
        4
 70
     1
 43
0.0
 10
42.85934238270768
 20
-17.97896349305585
 10
43.79817104832244
 20
-17.97896349305585
 10
43.79817104832244
 20
-17.78259690498648
 10
42.85934238270768
 20
-17.78259690498648
  0
SPLINE
  5
133
330
79
100
AcDbEntity
  8
Camada 1
 62
   250
420
  1907995
370
     9
100
AcDbSpline
210
0.0
220
0.0
230
1.0
 70
    11
 71
     3
 72
    17
 73
    13
 74
     0
 42
0.0000000001
 43
0.0000000001
 40
0.0
 40
0.0
 40
0.0
 40
0.0
 40
1.0
 40
1.0
 40
1.0
 40
2.0
 40
2.0
 40
2.0
 40
3.0
 40
3.0
 40
3.0
 40
4.0
 40
4.0
 40
4.0
 40
4.0
 10
42.93175452540189
 20
-17.90607612050458
 30
0.0
 10
42.93175452540189
 20
-17.90607612050458
 30
0.0
 10
43.72588778152144
 20
-17.90607612050458
 30
0.0
 10
43.72588778152144
 20
-17.90607612050458
 30
0.0
 10
43.72588778152144
 20
-17.90607612050458
 30
0.0
 10
43.72588778152144
 20
-17.85529901844177
 30
0.0
 10
43.72588778152144
 20
-17.85529901844177
 30
0.0
 10
43.72588778152144
 20
-17.85529901844177
 30
0.0
 10
42.93175452540189
 20
-17.85529901844177
 30
0.0
 10
42.93175452540189
 20
-17.85529901844177
 30
0.0
 10
42.93175452540189
 20
-17.85529901844177
 30
0.0
 10
42.93175452540189
 20
-17.90607612050458
 30
0.0
 10
42.93175452540189
 20
-17.90607612050458
 30
0.0
  0
SPLINE
  5
134
330
79
100
AcDbEntity
  8
Camada 1
 62
   250
420
  1907995
370
     9
100
AcDbSpline
210
0.0
220
0.0
230
1.0
 70
    11
 71
     3
 72
    17
 73
    13
 74
     0
 42
0.0000000001
 43
0.0000000001
 40
0.0
 40
0.0
 40
0.0
 40
0.0
 40
1.0
 40
1.0
 40
1.0
 40
2.0
 40
2.0
 40
2.0
 40
3.0
 40
3.0
 40
3.0
 40
4.0
 40
4.0
 40
4.0
 40
4.0
 10
43.85785669652739
 20
-18.03804503551021
 30
0.0
 10
43.85785669652739
 20
-18.03804503551021
 30
0.0
 10
42.79978561039593
 20
-18.03804503551021
 30
0.0
 10
42.79978561039593
 20
-18.03804503551021
 30
0.0
 10
42.79978561039593
 20
-18.03804503551021
 30
0.0
 10
42.79978561039593
 20
-17.7233301034355
 30
0.0
 10
42.79978561039593
 20
-17.7233301034355
 30
0.0
 10
42.79978561039593
 20
-17.7233301034355
 30
0.0
 10
43.85785669652739
 20
-17.7233301034355
 30
0.0
 10
43.85785669652739
 20
-17.7233301034355
 30
0.0
 10
43.85785669652739
 20
-17.7233301034355
 30
0.0
 10
43.85785669652739
 20
-18.03804503551021
 30
0.0
 10
43.85785669652739
 20
-18.03804503551021
 30
0.0
  0
LWPOLYLINE
  5
135
330
79
100
AcDbEntity
  8
Camada 1
 62
   250
420
  1907995
370
     9
100
AcDbPolyline
 90
        4
 70
     1
 43
0.0
 10
44.05866950292481
 20
-17.97896349305585
 10
44.75018532879714
 20
-17.97896349305585
 10
44.75018532879714
 20
-17.78259690498648
 10
44.05866950292481
 20
-17.78259690498648
  0
SPLINE
  5
136
330
79
100
AcDbEntity
  8
Camada 1
 62
   250
420
  1907995
370
     9
100
AcDbSpline
210
0.0
220
0.0
230
1.0
 70
    11
 71
     3
 72
    17
 73
    13
 74
     0
 42
0.0000000001
 43
0.0000000001
 40
0.0
 40
0.0
 40
0.0
 40
0.0
 40
1.0
 40
1.0
 40
1.0
 40
2.0
 40
2.0
 40
2.0
 40
3.0
 40
3.0
 40
3.0
 40
4.0
 40
4.0
 40
4.0
 40
4.0
 10
44.13081583908861
 20
-17.90607612050458
 30
0.0
 10
44.13081583908861
 20
-17.90607612050458
 30
0.0
 10
44.67776513135928
 20
-17.90607612050458
 30
0.0
 10
44.67776513135928
 20
-17.90607612050458
 30
0.0
 10
44.67776513135928
 20
-17.90607612050458
 30
0.0
 10
44.67776513135928
 20
-17.85529901844177
 30
0.0
 10
44.67776513135928
 20
-17.85529901844177
 30
0.0
 10
44.67776513135928
 20
-17.85529901844177
 30
0.0
 10
44.13081583908861
 20
-17.85529901844177
 30
0.0
 10
44.13081583908861
 20
-17.85529901844177
 30
0.0
 10
44.13081583908861
 20
-17.85529901844177
 30
0.0
 10
44.13081583908861
 20
-17.90607612050458
 30
0.0
 10
44.13081583908861
 20
-17.90607612050458
 30
0.0
  0
SPLINE
  5
137
330
79
100
AcDbEntity
  8
Camada 1
 62
   250
420
  1907995
370
     9
100
AcDbSpline
210
0.0
220
0.0
230
1.0
 70
    11
 71
     3
 72
    17
 73
    13
 74
     0
 42
0.0000000001
 43
0.0000000001
 40
0.0
 40
0.0
 40
0.0
 40
0.0
 40
1.0
 40
1.0
 40
1.0
 40
2.0
 40
2.0
 40
2.0
 40
3.0
 40
3.0
 40
3.0
 40
4.0
 40
4.0
 40
4.0
 40
4.0
 10
44.80973404636523
 20
-18.03804503551021
 30
0.0
 10
44.80973404636523
 20
-18.03804503551021
 30
0.0
 10
43.99884692408266
 20
-18.03804503551021
 30
0.0
 10
43.99884692408266
 20
-18.03804503551021
 30
0.0
 10
43.99884692408266
 20
-18.03804503551021
 30
0.0
 10
43.99884692408266
 20
-17.7233301034355
 30
0.0
 10
43.99884692408266
 20
-17.7233301034355
 30
0.0
 10
43.99884692408266
 20
-17.7233301034355
 30
0.0
 10
44.80973404636523
 20
-17.7233301034355
 30
0.0
 10
44.80973404636523
 20
-17.7233301034355
 30
0.0
 10
44.80973404636523
 20
-17.7233301034355
 30
0.0
 10
44.80973404636523
 20
-18.03804503551021
 30
0.0
 10
44.80973404636523
 20
-18.03804503551021
 30
0.0
  0
LWPOLYLINE
  5
138
330
79
100
AcDbEntity
  8
Camada 1
 62
   250
420
  1907995
370
     9
100
AcDbPolyline
 90
        4
 70
     1
 43
0.0
 10
45.01043408635581
 20
-17.97896349305585
 10
45.83788176096109
 20
-17.97896349305585
 10
45.83788176096109
 20
-17.78259690498648
 10
45.01043408635581
 20
-17.78259690498648
  0
SPLINE
  5
139
330
79
100
AcDbEntity
  8
Camada 1
 62
   250
420
  1907995
370
     9
100
AcDbSpline
210
0.0
220
0.0
230
1.0
 70
    11
 71
     3
 72
    17
 73
    13
 74
     0
 42
0.0000000001
 43
0.0000000001
 40
0.0
 40
0.0
 40
0.0
 40
0.0
 40
1.0
 40
1.0
 40
1.0
 40
2.0
 40
2.0
 40
2.0
 40
3.0
 40
3.0
 40
3.0
 40
4.0
 40
4.0
 40
4.0
 40
4.0
 10
45.08269318892645
 20
-17.90607612050458
 30
0.0
 10
45.08269318892645
 20
-17.90607612050458
 30
0.0
 10
45.76521992122285
 20
-17.90607612050458
 30
0.0
 10
45.76521992122285
 20
-17.90607612050458
 30
0.0
 10
45.76521992122285
 20
-17.90607612050458
 30
0.0
 10
45.76521992122285
 20
-17.85529901844177
 30
0.0
 10
45.76521992122285
 20
-17.85529901844177
 30
0.0
 10
45.76521992122285
 20
-17.85529901844177
 30
0.0
 10
45.08269318892645
 20
-17.85529901844177
 30
0.0
 10
45.08269318892645
 20
-17.85529901844177
 30
0.0
 10
45.08269318892645
 20
-17.85529901844177
 30
0.0
 10
45.08269318892645
 20
-17.90607612050458
 30
0.0
 10
45.08269318892645
 20
-17.90607612050458
 30
0.0
  0
SPLINE
  5
13A
330
79
100
AcDbEntity
  8
Camada 1
 62
   250
420
  1907995
370
     9
100
AcDbSpline
210
0.0
220
0.0
230
1.0
 70
    11
 71
     3
 72
    17
 73
    13
 74
     0
 42
0.0000000001
 43
0.0000000001
 40
0.0
 40
0.0
 40
0.0
 40
0.0
 40
1.0
 40
1.0
 40
1.0
 40
2.0
 40
2.0
 40
2.0
 40
3.0
 40
3.0
 40
3.0
 40
4.0
 40
4.0
 40
4.0
 40
4.0
 10
45.89718883622881
 20
-18.03804503551021
 30
0.0
 10
45.89718883622881
 20
-18.03804503551021
 30
0.0
 10
44.95072427392049
 20
-18.03804503551021
 30
0.0
 10
44.95072427392049
 20
-18.03804503551021
 30
0.0
 10
44.95072427392049
 20
-18.03804503551021
 30
0.0
 10
44.95072427392049
 20
-17.7233301034355
 30
0.0
 10
44.95072427392049
 20
-17.7233301034355
 30
0.0
 10
44.95072427392049
 20
-17.7233301034355
 30
0.0
 10
45.89718883622881
 20
-17.7233301034355
 30
0.0
 10
45.89718883622881
 20
-17.7233301034355
 30
0.0
 10
45.89718883622881
 20
-17.7233301034355
 30
0.0
 10
45.89718883622881
 20
-18.03804503551021
 30
0.0
 10
45.89718883622881
 20
-18.03804503551021
 30
0.0
  0
LWPOLYLINE
  5
13B
330
79
100
AcDbEntity
  8
Camada 1
 62
   250
420
  1907995
370
     9
100
AcDbPolyline
 90
        4
 70
     1
 43
0.0
 10
46.097856657246
 20
-17.97896349305585
 10
47.03720888117823
 20
-17.97896349305585
 10
47.03720888117823
 20
-17.78259690498648
 10
46.097856657246
 20
-17.78259690498648
  0
SPLINE
  5
13C
330
79
100
AcDbEntity
  8
Camada 1
 62
   250
420
  1907995
370
     9
100
AcDbSpline
210
0.0
220
0.0
230
1.0
 70
    11
 71
     3
 72
    17
 73
    13
 74
     0
 42
0.0000000001
 43
0.0000000001
 40
0.0
 40
0.0
 40
0.0
 40
0.0
 40
1.0
 40
1.0
 40
1.0
 40
2.0
 40
2.0
 40
2.0
 40
3.0
 40
3.0
 40
3.0
 40
4.0
 40
4.0
 40
4.0
 40
4.0
 10
46.17014797879002
 20
-17.90607612050458
 30
0.0
 10
46.17014797879002
 20
-17.90607612050458
 30
0.0
 10
46.96453898669696
 20
-17.90607612050458
 30
0.0
 10
46.96453898669696
 20
-17.90607612050458
 30
0.0
 10
46.96453898669696
 20
-17.90607612050458
 30
0.0
 10
46.96453898669696
 20
-17.85529901844177
 30
0.0
 10
46.96453898669696
 20
-17.85529901844177
 30
0.0
 10
46.96453898669696
 20
-17.85529901844177
 30
0.0
 10
46.17014797879002
 20
-17.85529901844177
 30
0.0
 10
46.17014797879002
 20
-17.85529901844177
 30
0.0
 10
46.17014797879002
 20
-17.85529901844177
 30
0.0
 10
46.17014797879002
 20
-17.90607612050458
 30
0.0
 10
46.17014797879002
 20
-17.90607612050458
 30
0.0
  0
SPLINE
  5
13D
330
79
100
AcDbEntity
  8
Camada 1
 62
   250
420
  1907995
370
     9
100
AcDbSpline
210
0.0
220
0.0
230
1.0
 70
    11
 71
     3
 72
    17
 73
    13
 74
     0
 42
0.0000000001
 43
0.0000000001
 40
0.0
 40
0.0
 40
0.0
 40
0.0
 40
1.0
 40
1.0
 40
1.0
 40
2.0
 40
2.0
 40
2.0
 40
3.0
 40
3.0
 40
3.0
 40
4.0
 40
4.0
 40
4.0
 40
4.0
 10
47.09650790170292
 20
-18.03804503551021
 30
0.0
 10
47.09650790170292
 20
-18.03804503551021
 30
0.0
 10
46.03817906378407
 20
-18.03804503551021
 30
0.0
 10
46.03817906378407
 20
-18.03804503551021
 30
0.0
 10
46.03817906378407
 20
-18.03804503551021
 30
0.0
 10
46.03817906378407
 20
-17.7233301034355
 30
0.0
 10
46.03817906378407
 20
-17.7233301034355
 30
0.0
 10
46.03817906378407
 20
-17.7233301034355
 30
0.0
 10
47.09650790170292
 20
-17.7233301034355
 30
0.0
 10
47.09650790170292
 20
-17.7233301034355
 30
0.0
 10
47.09650790170292
 20
-17.7233301034355
 30
0.0
 10
47.09650790170292
 20
-18.03804503551021
 30
0.0
 10
47.09650790170292
 20
-18.03804503551021
 30
0.0
  0
LWPOLYLINE
  5
13E
330
79
100
AcDbEntity
  8
Camada 1
 62
   250
420
  1907995
370
     9
100
AcDbPolyline
 90
        4
 70
     1
 43
0.0
 10
47.29692602567608
 20
-17.97896349305585
 10
47.98897346460922
 20
-17.97896349305585
 10
47.98897346460922
 20
-17.78259690498648
 10
47.29692602567608
 20
-17.78259690498648
  0
SPLINE
  5
13F
330
79
100
AcDbEntity
  8
Camada 1
 62
   250
420
  1907995
370
     9
100
AcDbSpline
210
0.0
220
0.0
230
1.0
 70
    11
 71
     3
 72
    17
 73
    13
 74
     0
 42
0.0000000001
 43
0.0000000001
 40
0.0
 40
0.0
 40
0.0
 40
0.0
 40
1.0
 40
1.0
 40
1.0
 40
2.0
 40
2.0
 40
2.0
 40
3.0
 40
3.0
 40
3.0
 40
4.0
 40
4.0
 40
4.0
 40
4.0
 10
47.36946704426381
 20
-17.90607612050458
 30
0.0
 10
47.36946704426381
 20
-17.90607612050458
 30
0.0
 10
47.91667408832186
 20
-17.90607612050458
 30
0.0
 10
47.91667408832186
 20
-17.90607612050458
 30
0.0
 10
47.91667408832186
 20
-17.90607612050458
 30
0.0
 10
47.91667408832186
 20
-17.85529901844177
 30
0.0
 10
47.91667408832186
 20
-17.85529901844177
 30
0.0
 10
47.91667408832186
 20
-17.85529901844177
 30
0.0
 10
47.36946704426381
 20
-17.85529901844177
 30
0.0
 10
47.36946704426381
 20
-17.85529901844177
 30
0.0
 10
47.36946704426381
 20
-17.85529901844177
 30
0.0
 10
47.36946704426381
 20
-17.90607612050458
 30
0.0
 10
47.36946704426381
 20
-17.90607612050458
 30
0.0
  0
SPLINE
  5
140
330
79
100
AcDbEntity
  8
Camada 1
 62
   250
420
  1907995
370
     9
100
AcDbSpline
210
0.0
220
0.0
230
1.0
 70
    11
 71
     3
 72
    17
 73
    13
 74
     0
 42
0.0000000001
 43
0.0000000001
 40
0.0
 40
0.0
 40
0.0
 40
0.0
 40
1.0
 40
1.0
 40
1.0
 40
2.0
 40
2.0
 40
2.0
 40
3.0
 40
3.0
 40
3.0
 40
4.0
 40
4.0
 40
4.0
 40
4.0
 10
48.04864300332781
 20
-18.03804503551021
 30
0.0
 10
48.04864300332781
 20
-18.03804503551021
 30
0.0
 10
47.23749812925785
 20
-18.03804503551021
 30
0.0
 10
47.23749812925785
 20
-18.03804503551021
 30
0.0
 10
47.23749812925785
 20
-18.03804503551021
 30
0.0
 10
47.23749812925785
 20
-17.7233301034355
 30
0.0
 10
47.23749812925785
 20
-17.7233301034355
 30
0.0
 10
47.23749812925785
 20
-17.7233301034355
 30
0.0
 10
48.04864300332781
 20
-17.7233301034355
 30
0.0
 10
48.04864300332781
 20
-17.7233301034355
 30
0.0
 10
48.04864300332781
 20
-17.7233301034355
 30
0.0
 10
48.04864300332781
 20
-18.03804503551021
 30
0.0
 10
48.04864300332781
 20
-18.03804503551021
 30
0.0
  0
LWPOLYLINE
  5
141
330
79
100
AcDbEntity
  8
Camada 1
 62
   250
420
  1907995
370
     9
100
AcDbPolyline
 90
        4
 70
     1
 43
0.0
 10
48.24894836089413
 20
-17.97896349305585
 10
49.07639603549942
 20
-17.97896349305585
 10
49.07639603549942
 20
-17.78259690498648
 10
48.24894836089413
 20
-17.78259690498648
  0
SPLINE
  5
142
330
79
100
AcDbEntity
  8
Camada 1
 62
   250
420
  1907995
370
     9
100
AcDbSpline
210
0.0
220
0.0
230
1.0
 70
    11
 71
     3
 72
    17
 73
    13
 74
     0
 42
0.0000000001
 43
0.0000000001
 40
0.0
 40
0.0
 40
0.0
 40
0.0
 40
1.0
 40
1.0
 40
1.0
 40
2.0
 40
2.0
 40
2.0
 40
3.0
 40
3.0
 40
3.0
 40
4.0
 40
4.0
 40
4.0
 40
4.0
 10
48.32160214588903
 20
-17.90607612050458
 30
0.0
 10
48.32160214588903
 20
-17.90607612050458
 30
0.0
 10
49.00387112639805
 20
-17.90607612050458
 30
0.0
 10
49.00387112639805
 20
-17.90607612050458
 30
0.0
 10
49.00387112639805
 20
-17.90607612050458
 30
0.0
 10
49.00387112639805
 20
-17.85529901844177
 30
0.0
 10
49.00387112639805
 20
-17.85529901844177
 30
0.0
 10
49.00387112639805
 20
-17.85529901844177
 30
0.0
 10
48.32160214588903
 20
-17.85529901844177
 30
0.0
 10
48.32160214588903
 20
-17.85529901844177
 30
0.0
 10
48.32160214588903
 20
-17.85529901844177
 30
0.0
 10
48.32160214588903
 20
-17.90607612050458
 30
0.0
 10
48.32160214588903
 20
-17.90607612050458
 30
0.0
  0
SPLINE
  5
143
330
79
100
AcDbEntity
  8
Camada 1
 62
   250
420
  1907995
370
     9
100
AcDbSpline
210
0.0
220
0.0
230
1.0
 70
    11
 71
     3
 72
    17
 73
    13
 74
     0
 42
0.0000000001
 43
0.0000000001
 40
0.0
 40
0.0
 40
0.0
 40
0.0
 40
1.0
 40
1.0
 40
1.0
 40
2.0
 40
2.0
 40
2.0
 40
3.0
 40
3.0
 40
3.0
 40
4.0
 40
4.0
 40
4.0
 40
4.0
 10
49.135840041404
 20
-18.03804503551021
 30
0.0
 10
49.135840041404
 20
-18.03804503551021
 30
0.0
 10
48.18963323088308
 20
-18.03804503551021
 30
0.0
 10
48.18963323088308
 20
-18.03804503551021
 30
0.0
 10
48.18963323088308
 20
-18.03804503551021
 30
0.0
 10
48.18963323088308
 20
-17.7233301034355
 30
0.0
 10
48.18963323088308
 20
-17.7233301034355
 30
0.0
 10
48.18963323088308
 20
-17.7233301034355
 30
0.0
 10
49.135840041404
 20
-17.7233301034355
 30
0.0
 10
49.135840041404
 20
-17.7233301034355
 30
0.0
 10
49.135840041404
 20
-17.7233301034355
 30
0.0
 10
49.135840041404
 20
-18.03804503551021
 30
0.0
 10
49.135840041404
 20
-18.03804503551021
 30
0.0
  0
LWPOLYLINE
  5
144
330
79
100
AcDbEntity
  8
Camada 1
 62
   250
420
  1907995
370
     9
100
AcDbPolyline
 90
        4
 70
     1
 43
0.0
 10
49.33663673831473
 20
-17.97896349305585
 10
50.02841837071747
 20
-17.97896349305585
 10
50.02841837071747
 20
-17.78259690498648
 10
49.33663673831473
 20
-17.78259690498648
  0
SPLINE
  5
145
330
79
100
AcDbEntity
  8
Camada 1
 62
   250
420
  1907995
370
     9
100
AcDbSpline
210
0.0
220
0.0
230
1.0
 70
    11
 71
     3
 72
    17
 73
    13
 74
     0
 42
0.0000000001
 43
0.0000000001
 40
0.0
 40
0.0
 40
0.0
 40
0.0
 40
1.0
 40
1.0
 40
1.0
 40
2.0
 40
2.0
 40
2.0
 40
3.0
 40
3.0
 40
3.0
 40
4.0
 40
4.0
 40
4.0
 40
4.0
 10
49.40905693575228
 20
-17.90607612050458
 30
0.0
 10
49.40905693575228
 20
-17.90607612050458
 30
0.0
 10
49.95600622802326
 20
-17.90607612050458
 30
0.0
 10
49.95600622802326
 20
-17.90607612050458
 30
0.0
 10
49.95600622802326
 20
-17.90607612050458
 30
0.0
 10
49.95600622802326
 20
-17.85529901844177
 30
0.0
 10
49.95600622802326
 20
-17.85529901844177
 30
0.0
 10
49.95600622802326
 20
-17.85529901844177
 30
0.0
 10
49.40905693575228
 20
-17.85529901844177
 30
0.0
 10
49.40905693575228
 20
-17.85529901844177
 30
0.0
 10
49.40905693575228
 20
-17.85529901844177
 30
0.0
 10
49.40905693575228
 20
-17.90607612050458
 30
0.0
 10
49.40905693575228
 20
-17.90607612050458
 30
0.0
  0
SPLINE
  5
146
330
79
100
AcDbEntity
  8
Camada 1
 62
   250
420
  1907995
370
     9
100
AcDbSpline
210
0.0
220
0.0
230
1.0
 70
    11
 71
     3
 72
    17
 73
    13
 74
     0
 42
0.0000000001
 43
0.0000000001
 40
0.0
 40
0.0
 40
0.0
 40
0.0
 40
1.0
 40
1.0
 40
1.0
 40
2.0
 40
2.0
 40
2.0
 40
3.0
 40
3.0
 40
3.0
 40
4.0
 40
4.0
 40
4.0
 40
4.0
 10
50.08797514302922
 20
-18.03804503551021
 30
0.0
 10
50.08797514302922
 20
-18.03804503551021
 30
0.0
 10
49.27708802074633
 20
-18.03804503551021
 30
0.0
 10
49.27708802074633
 20
-18.03804503551021
 30
0.0
 10
49.27708802074633
 20
-18.03804503551021
 30
0.0
 10
49.27708802074633
 20
-17.7233301034355
 30
0.0
 10
49.27708802074633
 20
-17.7233301034355
 30
0.0
 10
49.27708802074633
 20
-17.7233301034355
 30
0.0
 10
50.08797514302922
 20
-17.7233301034355
 30
0.0
 10
50.08797514302922
 20
-17.7233301034355
 30
0.0
 10
50.08797514302922
 20
-17.7233301034355
 30
0.0
 10
50.08797514302922
 20
-18.03804503551021
 30
0.0
 10
50.08797514302922
 20
-18.03804503551021
 30
0.0
  0
LWPOLYLINE
  5
147
330
79
100
AcDbEntity
  8
Camada 1
 62
   250
420
  1907995
370
     9
100
AcDbPolyline
 90
        4
 70
     1
 43
0.0
 10
50.28865907353246
 20
-17.97896349305585
 10
51.11584094160797
 20
-17.97896349305585
 10
51.11584094160797
 20
-17.78259690498648
 10
50.28865907353246
 20
-17.78259690498648
  0
SPLINE
  5
148
330
79
100
AcDbEntity
  8
Camada 1
 62
   250
420
  1907995
370
     9
100
AcDbSpline
210
0.0
220
0.0
230
1.0
 70
    11
 71
     3
 72
    17
 73
    13
 74
     0
 42
0.0000000001
 43
0.0000000001
 40
0.0
 40
0.0
 40
0.0
 40
0.0
 40
1.0
 40
1.0
 40
1.0
 40
2.0
 40
2.0
 40
2.0
 40
3.0
 40
3.0
 40
3.0
 40
4.0
 40
4.0
 40
4.0
 40
4.0
 10
50.36119203737717
 20
-17.90607612050458
 30
0.0
 10
50.36119203737717
 20
-17.90607612050458
 30
0.0
 10
51.04346101788651
 20
-17.90607612050458
 30
0.0
 10
51.04346101788651
 20
-17.90607612050458
 30
0.0
 10
51.04346101788651
 20
-17.90607612050458
 30
0.0
 10
51.04346101788651
 20
-17.85529901844177
 30
0.0
 10
51.04346101788651
 20
-17.85529901844177
 30
0.0
 10
51.04346101788651
 20
-17.85529901844177
 30
0.0
 10
50.36119203737717
 20
-17.85529901844177
 30
0.0
 10
50.36119203737717
 20
-17.85529901844177
 30
0.0
 10
50.36119203737717
 20
-17.85529901844177
 30
0.0
 10
50.36119203737717
 20
-17.90607612050458
 30
0.0
 10
50.36119203737717
 20
-17.90607612050458
 30
0.0
  0
SPLINE
  5
149
330
79
100
AcDbEntity
  8
Camada 1
 62
   250
420
  1907995
370
     9
100
AcDbSpline
210
0.0
220
0.0
230
1.0
 70
    11
 71
     3
 72
    17
 73
    13
 74
     0
 42
0.0000000001
 43
0.0000000001
 40
0.0
 40
0.0
 40
0.0
 40
0.0
 40
1.0
 40
1.0
 40
1.0
 40
2.0
 40
2.0
 40
2.0
 40
3.0
 40
3.0
 40
3.0
 40
4.0
 40
4.0
 40
4.0
 40
4.0
 10
51.17542993289215
 20
-18.03804503551021
 30
0.0
 10
51.17542993289215
 20
-18.03804503551021
 30
0.0
 10
50.22922312237121
 20
-18.03804503551021
 30
0.0
 10
50.22922312237121
 20
-18.03804503551021
 30
0.0
 10
50.22922312237121
 20
-18.03804503551021
 30
0.0
 10
50.22922312237121
 20
-17.7233301034355
 30
0.0
 10
50.22922312237121
 20
-17.7233301034355
 30
0.0
 10
50.22922312237121
 20
-17.7233301034355
 30
0.0
 10
51.17542993289215
 20
-17.7233301034355
 30
0.0
 10
51.17542993289215
 20
-17.7233301034355
 30
0.0
 10
51.17542993289215
 20
-17.7233301034355
 30
0.0
 10
51.17542993289215
 20
-18.03804503551021
 30
0.0
 10
51.17542993289215
 20
-18.03804503551021
 30
0.0
  0
SPLINE
  5
14A
330
79
100
AcDbEntity
  8
Camada 1
 62
   250
420
  1907995
370
     9
100
AcDbSpline
210
0.0
220
0.0
230
1.0
 70
    11
 71
     3
 72
    17
 73
    13
 74
     0
 42
0.0000000001
 43
0.0000000001
 40
0.0
 40
0.0
 40
0.0
 40
0.0
 40
1.0
 40
1.0
 40
1.0
 40
2.0
 40
2.0
 40
2.0
 40
3.0
 40
3.0
 40
3.0
 40
4.0
 40
4.0
 40
4.0
 40
4.0
 10
24.03158923118071
 20
-82.74740444759713
 30
0.0
 10
22.91217321971445
 20
-82.74740444759713
 30
0.0
 10
22.00127840402862
 20
-83.65829926328231
 30
0.0
 10
22.00127840402862
 20
-84.77771527474891
 30
0.0
 10
22.00127840402862
 20
-85.89713128621548
 30
0.0
 10
22.91217321971445
 20
-86.80802610190132
 30
0.0
 10
24.03158923118071
 20
-86.80802610190132
 30
0.0
 10
25.1510052426473
 20
-86.80802610190132
 30
0.0
 10
26.06190005833281
 20
-85.89713128621548
 30
0.0
 10
26.06190005833281
 20
-84.77771527474891
 30
0.0
 10
26.06190005833281
 20
-83.65829926328231
 30
0.0
 10
25.1510052426473
 20
-82.74740444759713
 30
0.0
 10
24.03158923118071
 20
-82.74740444759713
 30
0.0
  0
SPLINE
  5
14B
330
79
100
AcDbEntity
  8
Camada 1
 62
   250
420
  1907995
370
     9
100
AcDbSpline
210
0.0
220
0.0
230
1.0
 70
    11
 71
     3
 72
    17
 73
    13
 74
     0
 42
0.0000000001
 43
0.0000000001
 40
0.0
 40
0.0
 40
0.0
 40
0.0
 40
1.0
 40
1.0
 40
1.0
 40
2.0
 40
2.0
 40
2.0
 40
3.0
 40
3.0
 40
3.0
 40
4.0
 40
4.0
 40
4.0
 40
4.0
 10
24.03158923118071
 20
-87.00597947441009
 30
0.0
 10
22.80288646197514
 20
-87.00597947441009
 30
0.0
 10
21.80332503151985
 20
-86.00641804395479
 30
0.0
 10
21.80332503151985
 20
-84.77771527474891
 30
0.0
 10
21.80332503151985
 20
-83.549012505543
 30
0.0
 10
22.80288646197514
 20
-82.54945107508836
 30
0.0
 10
24.03158923118071
 20
-82.54945107508836
 30
0.0
 10
25.26029200038661
 20
-82.54945107508836
 30
0.0
 10
26.2598534308419
 20
-83.549012505543
 30
0.0
 10
26.2598534308419
 20
-84.77771527474891
 30
0.0
 10
26.2598534308419
 20
-86.00641804395479
 30
0.0
 10
25.26029200038661
 20
-87.00597947441009
 30
0.0
 10
24.03158923118071
 20
-87.00597947441009
 30
0.0
  0
SPLINE
  5
14C
330
79
100
AcDbEntity
  8
Camada 1
 62
   250
420
  1907995
370
     9
100
AcDbSpline
210
0.0
220
0.0
230
1.0
 70
    11
 71
     3
 72
    17
 73
    13
 74
     0
 42
0.0000000001
 43
0.0000000001
 40
0.0
 40
0.0
 40
0.0
 40
0.0
 40
1.0
 40
1.0
 40
1.0
 40
2.0
 40
2.0
 40
2.0
 40
3.0
 40
3.0
 40
3.0
 40
4.0
 40
4.0
 40
4.0
 40
4.0
 10
23.25240557871409
 20
-82.53347046428684
 30
0.0
 10
23.25240557871409
 20
-82.53347046428684
 30
0.0
 10
23.25240557871409
 20
-82.69147230979186
 30
0.0
 10
23.25240557871409
 20
-82.69147230979186
 30
0.0
 10
23.7405874635212
 20
-82.50743753378747
 30
0.0
 10
24.28263947183678
 20
-82.50357125698032
 30
0.0
 10
24.77030585306945
 20
-82.67523394720329
 30
0.0
 10
24.77030585306945
 20
-82.67523394720329
 30
0.0
 10
24.77030585306945
 20
-82.53347046428684
 30
0.0
 10
24.77030585306945
 20
-82.53347046428684
 30
0.0
 10
24.77030585306945
 20
-82.53347046428684
 30
0.0
 10
23.25240557871409
 20
-82.53347046428684
 30
0.0
 10
23.25240557871409
 20
-82.53347046428684
 30
0.0
  0
SPLINE
  5
14D
330
79
100
AcDbEntity
  8
Camada 1
 62
   250
420
  1907995
370
     9
100
AcDbSpline
210
0.0
220
0.0
230
1.0
 70
    11
 71
     3
 72
    23
 73
    19
 74
     0
 42
0.0000000001
 43
0.0000000001
 40
0.0
 40
0.0
 40
0.0
 40
0.0
 40
1.0
 40
1.0
 40
1.0
 40
2.0
 40
2.0
 40
2.0
 40
3.0
 40
3.0
 40
3.0
 40
4.0
 40
4.0
 40
4.0
 40
5.0
 40
5.0
 40
5.0
 40
6.0
 40
6.0
 40
6.0
 40
6.0
 10
23.054452206205
 20
-82.99329965251041
 30
0.0
 10
23.054452206205
 20
-82.99329965251041
 30
0.0
 10
23.054452206205
 20
-82.33551709177744
 30
0.0
 10
23.054452206205
 20
-82.33551709177744
 30
0.0
 10
23.054452206205
 20
-82.33551709177744
 30
0.0
 10
24.96825922557853
 20
-82.33551709177744
 30
0.0
 10
24.96825922557853
 20
-82.33551709177744
 30
0.0
 10
24.96825922557853
 20
-82.33551709177744
 30
0.0
 10
24.96825922557853
 20
-82.97010199166933
 30
0.0
 10
24.96825922557853
 20
-82.97010199166933
 30
0.0
 10
24.96825922557853
 20
-82.97010199166933
 30
0.0
 10
24.83036201946863
 20
-82.91107683241872
 30
0.0
 10
24.83036201946863
 20
-82.91107683241872
 30
0.0
 10
24.31073441663294
 20
-82.68889479192063
 30
0.0
 10
23.71558554017038
 20
-82.69276106872714
 30
0.0
 10
23.19441142661171
 20
-82.92989271287851
 30
0.0
 10
23.19441142661171
 20
-82.92989271287851
 30
0.0
 10
23.054452206205
 20
-82.99329965251041
 30
0.0
 10
23.054452206205
 20
-82.99329965251041
 30
0.0
  0
SPLINE
  5
14E
330
79
100
AcDbEntity
  8
Camada 1
 62
   250
420
  1907995
370
     9
100
AcDbSpline
210
0.0
220
0.0
230
1.0
 70
    11
 71
     3
 72
    17
 73
    13
 74
     0
 42
0.0000000001
 43
0.0000000001
 40
0.0
 40
0.0
 40
0.0
 40
0.0
 40
1.0
 40
1.0
 40
1.0
 40
2.0
 40
2.0
 40
2.0
 40
3.0
 40
3.0
 40
3.0
 40
4.0
 40
4.0
 40
4.0
 40
4.0
 10
57.91795893219102
 20
-85.96182698478269
 30
0.0
 10
57.91795893219102
 20
-85.96182698478269
 30
0.0
 10
77.23645537690868
 20
-85.96182698478269
 30
0.0
 10
77.23645537690868
 20
-85.96182698478269
 30
0.0
 10
77.23645537690868
 20
-85.96182698478269
 30
0.0
 10
77.23645537690868
 20
-82.69868935983144
 30
0.0
 10
77.23645537690868
 20
-82.69868935983144
 30
0.0
 10
77.23645537690868
 20
-82.69868935983144
 30
0.0
 10
57.91795893219102
 20
-82.69868935983144
 30
0.0
 10
57.91795893219102
 20
-82.69868935983144
 30
0.0
 10
57.91795893219102
 20
-82.69868935983144
 30
0.0
 10
57.91795893219102
 20
-85.96182698478269
 30
0.0
 10
57.91795893219102
 20
-85.96182698478269
 30
0.0
  0
SPLINE
  5
14F
330
79
100
AcDbEntity
  8
Camada 1
 62
   250
420
  1907995
370
     9
100
AcDbSpline
210
0.0
220
0.0
230
1.0
 70
    11
 71
     3
 72
    17
 73
    13
 74
     0
 42
0.0000000001
 43
0.0000000001
 40
0.0
 40
0.0
 40
0.0
 40
0.0
 40
1.0
 40
1.0
 40
1.0
 40
2.0
 40
2.0
 40
2.0
 40
3.0
 40
3.0
 40
3.0
 40
4.0
 40
4.0
 40
4.0
 40
4.0
 10
77.41842813861594
 20
-86.14379974649059
 30
0.0
 10
77.41842813861594
 20
-86.14379974649059
 30
0.0
 10
57.73598617048312
 20
-86.14379974649059
 30
0.0
 10
57.73598617048312
 20
-86.14379974649059
 30
0.0
 10
57.73598617048312
 20
-86.14379974649059
 30
0.0
 10
57.73598617048312
 20
-82.51671659812354
 30
0.0
 10
57.73598617048312
 20
-82.51671659812354
 30
0.0
 10
57.73598617048312
 20
-82.51671659812354
 30
0.0
 10
77.41842813861594
 20
-82.51671659812354
 30
0.0
 10
77.41842813861594
 20
-82.51671659812354
 30
0.0
 10
77.41842813861594
 20
-82.51671659812354
 30
0.0
 10
77.41842813861594
 20
-86.14379974649059
 30
0.0
 10
77.41842813861594
 20
-86.14379974649059
 30
0.0
  0
LWPOLYLINE
  5
150
330
79
100
AcDbEntity
  8
Camada 1
 62
   250
420
  1907995
370
     9
100
AcDbPolyline
 90
        4
 70
     1
 43
0.0
 10
61.42596075490732
 20
-86.05281336563697
 10
61.2939918399017
 20
-86.05281336563697
 10
61.2939918399017
 20
-82.60770297897716
 10
61.42596075490732
 20
-82.60770297897716
  0
LWPOLYLINE
  5
151
330
79
100
AcDbEntity
  8
Camada 1
 62
   250
420
  1907995
370
     9
100
AcDbPolyline
 90
        4
 70
     1
 43
0.0
 10
58.44093730825943
 20
-86.05281336563697
 10
58.37495285075565
 20
-86.05281336563697
 10
58.37495285075565
 20
-82.60770297897716
 10
58.44093730825943
 20
-82.60770297897716
  0
LWPOLYLINE
  5
152
330
79
100
AcDbEntity
  8
Camada 1
 62
   250
420
  1907995
370
     9
100
AcDbPolyline
 90
        4
 70
     1
 43
0.0
 10
77.36120724187601
 20
-86.05281336563697
 10
77.22923832686975
 20
-86.05281336563697
 10
77.22923832686975
 20
-82.60770297897716
 10
77.36120724187601
 20
-82.60770297897716
  0
LWPOLYLINE
  5
153
330
79
100
AcDbEntity
  8
Camada 1
 62
   250
420
  1907995
370
     9
100
AcDbPolyline
 90
        4
 70
     1
 43
0.0
 10
80.44314536048181
 20
-86.05281336563697
 10
80.37716090297804
 20
-86.05281336563697
 10
80.37716090297804
 20
-82.60770297897716
 10
80.44314536048181
 20
-82.60770297897716
  0
INSERT
  5
155
330
79
100
AcDbEntity
  8
Camada 1
100
AcDbBlockReference
  2
Block_1
 10
0.0
 20
0.0
 30
0.0
  0
SPLINE
  5
172
330
79
100
AcDbEntity
  8
Camada 1
 62
   250
420
  1907995
370
     9
100
AcDbSpline
210
0.0
220
0.0
230
1.0
 70
    11
 71
     3
 72
    23
 73
    19
 74
     0
 42
0.0000000001
 43
0.0000000001
 40
0.0
 40
0.0
 40
0.0
 40
0.0
 40
1.0
 40
1.0
 40
1.0
 40
2.0
 40
2.0
 40
2.0
 40
3.0
 40
3.0
 40
3.0
 40
4.0
 40
4.0
 40
4.0
 40
5.0
 40
5.0
 40
5.0
 40
6.0
 40
6.0
 40
6.0
 40
6.0
 10
24.03158923118071
 20
-82.68812153655945
 30
0.0
 10
22.90882244648172
 20
-82.68812153655945
 30
0.0
 10
21.99560786471204
 20
-83.60133611832882
 30
0.0
 10
21.99560786471204
 20
-84.72384515124074
 30
0.0
 10
21.99560786471204
 20
-84.72384515124074
 30
0.0
 10
21.99560786471204
 20
-88.72569939808137
 30
0.0
 10
21.99560786471204
 20
-88.72569939808137
 30
0.0
 10
21.99560786471204
 20
-89.84820843099331
 30
0.0
 10
22.90882244648172
 20
-90.76142301276268
 30
0.0
 10
24.03158923118071
 20
-90.76142301276268
 30
0.0
 10
25.15435601587971
 20
-90.76142301276268
 30
0.0
 10
26.06757059764939
 20
-89.84820843099331
 30
0.0
 10
26.06757059764939
 20
-88.72569939808137
 30
0.0
 10
26.06757059764939
 20
-88.72569939808137
 30
0.0
 10
26.06757059764939
 20
-84.72384515124074
 30
0.0
 10
26.06757059764939
 20
-84.72384515124074
 30
0.0
 10
26.06757059764939
 20
-83.60133611832882
 30
0.0
 10
25.15435601587971
 20
-82.68812153655945
 30
0.0
 10
24.03158923118071
 20
-82.68812153655945
 30
0.0
  0
SPLINE
  5
173
330
79
100
AcDbEntity
  8
Camada 1
 62
   250
420
  1907995
370
     9
100
AcDbSpline
210
0.0
220
0.0
230
1.0
 70
    11
 71
     3
 72
    23
 73
    19
 74
     0
 42
0.0000000001
 43
0.0000000001
 40
0.0
 40
0.0
 40
0.0
 40
0.0
 40
1.0
 40
1.0
 40
1.0
 40
2.0
 40
2.0
 40
2.0
 40
3.0
 40
3.0
 40
3.0
 40
4.0
 40
4.0
 40
4.0
 40
5.0
 40
5.0
 40
5.0
 40
6.0
 40
6.0
 40
6.0
 40
6.0
 10
24.03158923118071
 20
-90.94803530663829
 30
0.0
 10
22.80597948342049
 20
-90.94803530663829
 30
0.0
 10
21.80899557083643
 20
-89.95105139405422
 30
0.0
 10
21.80899557083643
 20
-88.72569939808137
 30
0.0
 10
21.80899557083643
 20
-88.72569939808137
 30
0.0
 10
21.80899557083643
 20
-84.72384515124074
 30
0.0
 10
21.80899557083643
 20
-84.72384515124074
 30
0.0
 10
21.80899557083643
 20
-83.49849315526791
 30
0.0
 10
22.80597948342049
 20
-82.50150924268384
 30
0.0
 10
24.03158923118071
 20
-82.50150924268384
 30
0.0
 10
25.25719897894126
 20
-82.50150924268384
 30
0.0
 10
26.25418289152499
 20
-83.49849315526791
 30
0.0
 10
26.25418289152499
 20
-84.72384515124074
 30
0.0
 10
26.25418289152499
 20
-84.72384515124074
 30
0.0
 10
26.25418289152499
 20
-88.72569939808137
 30
0.0
 10
26.25418289152499
 20
-88.72569939808137
 30
0.0
 10
26.25418289152499
 20
-89.95105139405422
 30
0.0
 10
25.25719897894126
 20
-90.94803530663829
 30
0.0
 10
24.03158923118071
 20
-90.94803530663829
 30
0.0
  0
ENDBLK
  5
7C
330
79
100
AcDbEntity
  8
0
100
AcDbBlockEnd
  0
BLOCK
  5
156
330
154
100
AcDbEntity
  8
0
100
AcDbBlockBegin
  2
Block_1
 70
     0
 10
0.0
 20
0.0
 30
0.0
  3
Block_1
  1

  0
INSERT
  5
159
330
154
100
AcDbEntity
  8
Camada 1
100
AcDbBlockReference
  2
Block_2
 10
0.0
 20
0.0
 30
0.0
  0
ENDBLK
  5
157
330
154
100
AcDbEntity
  8
0
100
AcDbBlockEnd
  0
BLOCK
  5
15A
330
158
100
AcDbEntity
  8
0
100
AcDbBlockBegin
  2
Block_2
 70
     0
 10
0.0
 20
0.0
 30
0.0
  3
Block_2
  1

  0
SPLINE
  5
15C
330
158
100
AcDbEntity
  8
Camada 1
 62
   250
420
  1907995
370
     9
100
AcDbSpline
210
0.0
220
0.0
230
1.0
 70
    11
 71
     3
 72
    23
 73
    19
 74
     0
 42
0.0000000001
 43
0.0000000001
 40
0.0
 40
0.0
 40
0.0
 40
0.0
 40
1.0
 40
1.0
 40
1.0
 40
2.0
 40
2.0
 40
2.0
 40
3.0
 40
3.0
 40
3.0
 40
4.0
 40
4.0
 40
4.0
 40
5.0
 40
5.0
 40
5.0
 40
6.0
 40
6.0
 40
6.0
 40
6.0
 10
80.87768032049954
 20
-90.96135858680735
 30
0.0
 10
80.84822954745645
 20
-90.96135858680735
 30
0.0
 10
80.82439835654779
 20
-90.93742332956338
 30
0.0
 10
80.82439835654779
 20
-90.90807662285561
 30
0.0
 10
80.82439835654779
 20
-90.90807662285561
 30
0.0
 10
80.82439835654779
 20
-82.56518254464126
 30
0.0
 10
80.82439835654779
 20
-82.56518254464126
 30
0.0
 10
80.82439835654779
 20
-82.53573177159688
 30
0.0
 10
80.84822954745645
 20
-82.51190058068889
 30
0.0
 10
80.87768032049954
 20
-82.51190058068889
 30
0.0
 10
80.90713109354265
 20
-82.51190058068889
 30
0.0
 10
80.93096228445128
 20
-82.53573177159688
 30
0.0
 10
80.93096228445128
 20
-82.56518254464126
 30
0.0
 10
80.93096228445128
 20
-82.56518254464126
 30
0.0
 10
80.93096228445128
 20
-90.90807662285561
 30
0.0
 10
80.93096228445128
 20
-90.90807662285561
 30
0.0
 10
80.93096228445128
 20
-90.93742332956338
 30
0.0
 10
80.90713109354265
 20
-90.96135858680735
 30
0.0
 10
80.87768032049954
 20
-90.96135858680735
 30
0.0
  0
SPLINE
  5
15D
330
158
100
AcDbEntity
  8
Camada 1
 62
   250
420
  1907995
370
     9
100
AcDbSpline
210
0.0
220
0.0
230
1.0
 70
     9
 71
     3
 72
    20
 73
    16
 74
     0
 42
0.0000000001
 43
0.0000000001
 40
0.0
 40
0.0
 40
0.0
 40
0.0
 40
1.0
 40
1.0
 40
1.0
 40
2.0
 40
2.0
 40
2.0
 40
3.0
 40
3.0
 40
3.0
 40
4.0
 40
4.0
 40
4.0
 40
5.0
 40
5.0
 40
5.0
 40
5.0
 10
80.87424613141715
 20
-82.61679944721882
 30
0.0
 10
80.85291253256913
 20
-82.61679944721882
 30
0.0
 10
80.83459685745964
 20
-82.6043114869183
 30
0.0
 10
80.8260634179207
 20
-82.58620394448138
 30
0.0
 10
80.80795587548442
 20
-82.57767050494178
 30
0.0
 10
80.79546791518389
 20
-82.55935482983359
 30
0.0
 10
80.79546791518389
 20
-82.53802123098557
 30
0.0
 10
80.79546791518389
 20
-82.50857045794246
 30
0.0
 10
80.81929910609124
 20
-82.48473926703383
 30
0.0
 10
80.84874987913435
 20
-82.48473926703383
 30
0.0
 10
80.89214554118148
 20
-82.48473926703383
 30
0.0
 10
80.92752809536888
 20
-82.52012182122122
 30
0.0
 10
80.92752809536888
 20
-82.56351748326709
 30
0.0
 10
80.92752809536888
 20
-82.59296825631084
 30
0.0
 10
80.90369690446024
 20
-82.61679944721882
 30
0.0
 10
80.87424613141715
 20
-82.61679944721882
 30
0.0
  0
INSERT
  5
15F
330
158
100
AcDbEntity
  8
Camada 1
100
AcDbBlockReference
  2
Block_3
 10
0.0
 20
0.0
 30
0.0
  0
SPLINE
  5
171
330
158
100
AcDbEntity
  8
Camada 1
 62
   250
420
  1907995
370
     9
100
AcDbSpline
210
0.0
220
0.0
230
1.0
 70
     9
 71
     3
 72
    23
 73
    19
 74
     0
 42
0.0000000001
 43
0.0000000001
 40
0.0
 40
0.0
 40
0.0
 40
0.0
 40
1.0
 40
1.0
 40
1.0
 40
2.0
 40
2.0
 40
2.0
 40
3.0
 40
3.0
 40
3.0
 40
4.0
 40
4.0
 40
4.0
 40
5.0
 40
5.0
 40
5.0
 40
6.0
 40
6.0
 40
6.0
 40
6.0
 10
80.87768032049954
 20
-90.96135858680735
 30
0.0
 10
80.87768032049954
 20
-90.96135858680735
 30
0.0
 10
80.50043985306727
 20
-90.96135858680735
 30
0.0
 10
80.50043985306727
 20
-90.96135858680735
 30
0.0
 10
80.47098908002416
 20
-90.96135858680735
 30
0.0
 10
80.4471578891168
 20
-90.93742332956338
 30
0.0
 10
80.4471578891168
 20
-90.90807662285561
 30
0.0
 10
80.4471578891168
 20
-90.8787299161472
 30
0.0
 10
80.47098908002416
 20
-90.85479465890387
 30
0.0
 10
80.50043985306727
 20
-90.85479465890387
 30
0.0
 10
80.50043985306727
 20
-90.85479465890387
 30
0.0
 10
80.87768032049954
 20
-90.85479465890387
 30
0.0
 10
80.87768032049954
 20
-90.85479465890387
 30
0.0
 10
80.90713109354265
 20
-90.85479465890387
 30
0.0
 10
80.93096228445128
 20
-90.8787299161472
 30
0.0
 10
80.93096228445128
 20
-90.90807662285561
 30
0.0
 10
80.93096228445128
 20
-90.93742332956338
 30
0.0
 10
80.90713109354265
 20
-90.96135858680735
 30
0.0
 10
80.87768032049954
 20
-90.96135858680735
 30
0.0
  0
ENDBLK
  5
15B
330
158
100
AcDbEntity
  8
0
100
AcDbBlockEnd
  0
BLOCK
  5
160
330
15E
100
AcDbEntity
  8
0
100
AcDbBlockBegin
  2
Block_3
 70
     0
 10
0.0
 20
0.0
 30
0.0
  3
Block_3
  1

  0
SPLINE
  5
162
330
15E
100
AcDbEntity
  8
Camada 1
 62
   250
420
  1907995
370
     9
100
AcDbSpline
210
0.0
220
0.0
230
1.0
 70
     9
 71
     3
 72
    32
 73
    28
 74
     0
 42
0.0000000001
 43
0.0000000001
 40
0.0
 40
0.0
 40
0.0
 40
0.0
 40
1.0
 40
1.0
 40
1.0
 40
2.0
 40
2.0
 40
2.0
 40
3.0
 40
3.0
 40
3.0
 40
4.0
 40
4.0
 40
4.0
 40
5.0
 40
5.0
 40
5.0
 40
6.0
 40
6.0
 40
6.0
 40
7.0
 40
7.0
 40
7.0
 40
8.0
 40
8.0
 40
8.0
 40
9.0
 40
9.0
 40
9.0
 40
9.0
 10
78.35948312576515
 20
-86.14600109466994
 30
0.0
 10
78.35948312576515
 20
-86.14600109466994
 30
0.0
 10
77.38084330349536
 20
-86.14600109466994
 30
0.0
 10
77.38084330349536
 20
-86.14600109466994
 30
0.0
 10
77.35139253045225
 20
-86.14600109466994
 30
0.0
 10
77.32756133954364
 20
-86.12216990376195
 30
0.0
 10
77.32756133954364
 20
-86.0927191307182
 30
0.0
 10
77.32756133954364
 20
-86.06326835767445
 30
0.0
 10
77.35139253045225
 20
-86.03943716676647
 30
0.0
 10
77.38084330349536
 20
-86.03943716676647
 30
0.0
 10
77.38084330349536
 20
-86.03943716676647
 30
0.0
 10
78.337421062566
 20
-86.03943716676647
 30
0.0
 10
78.337421062566
 20
-86.03943716676647
 30
0.0
 10
78.337421062566
 20
-86.03943716676647
 30
0.0
 10
78.36260511584028
 20
-86.01425311349284
 30
0.0
 10
78.36260511584028
 20
-86.01425311349284
 30
0.0
 10
78.3834183830091
 20
-85.99343984632401
 30
0.0
 10
78.41713587582233
 20
-85.99343984632401
 30
0.0
 10
78.43794914299116
 20
-86.01425311349284
 30
0.0
 10
78.4587624101587
 20
-86.03506638066104
 30
0.0
 10
78.4587624101587
 20
-86.06878387347425
 30
0.0
 10
78.43794914299116
 20
-86.08959714064308
 30
0.0
 10
78.43794914299116
 20
-86.08959714064308
 30
0.0
 10
78.39715513933994
 20
-86.13039114429364
 30
0.0
 10
78.39715513933994
 20
-86.13039114429364
 30
0.0
 10
78.38716477110003
 20
-86.14038151253419
 30
0.0
 10
78.37363614743985
 20
-86.14600109466994
 30
0.0
 10
78.35948312576515
 20
-86.14600109466994
 30
0.0
  0
SPLINE
  5
163
330
15E
100
AcDbEntity
  8
Camada 1
 62
   250
420
  1907995
370
     9
100
AcDbSpline
210
0.0
220
0.0
230
1.0
 70
     9
 71
     3
 72
    23
 73
    19
 74
     0
 42
0.0000000001
 43
0.0000000001
 40
0.0
 40
0.0
 40
0.0
 40
0.0
 40
1.0
 40
1.0
 40
1.0
 40
2.0
 40
2.0
 40
2.0
 40
3.0
 40
3.0
 40
3.0
 40
4.0
 40
4.0
 40
4.0
 40
5.0
 40
5.0
 40
5.0
 40
6.0
 40
6.0
 40
6.0
 40
6.0
 10
78.35948312576515
 20
-82.63209719858851
 30
0.0
 10
78.35948312576515
 20
-82.63209719858851
 30
0.0
 10
77.38084330349536
 20
-82.63209719858851
 30
0.0
 10
77.38084330349536
 20
-82.63209719858851
 30
0.0
 10
77.35139253045225
 20
-82.63209719858851
 30
0.0
 10
77.32756133954364
 20
-82.60826600767988
 30
0.0
 10
77.32756133954364
 20
-82.57881523463678
 30
0.0
 10
77.32756133954364
 20
-82.5493644615924
 30
0.0
 10
77.35139253045225
 20
-82.52553327068438
 30
0.0
 10
77.38084330349536
 20
-82.52553327068438
 30
0.0
 10
77.38084330349536
 20
-82.52553327068438
 30
0.0
 10
78.35948312576515
 20
-82.52553327068438
 30
0.0
 10
78.35948312576515
 20
-82.52553327068438
 30
0.0
 10
78.38893389880952
 20
-82.52553327068438
 30
0.0
 10
78.41276508971688
 20
-82.5493644615924
 30
0.0
 10
78.41276508971688
 20
-82.57881523463678
 30
0.0
 10
78.41276508971688
 20
-82.60826600767988
 30
0.0
 10
78.38893389880952
 20
-82.63209719858851
 30
0.0
 10
78.35948312576515
 20
-82.63209719858851
 30
0.0
  0
SPLINE
  5
164
330
15E
100
AcDbEntity
  8
Camada 1
 62
   250
420
  1907995
370
     9
100
AcDbSpline
210
0.0
220
0.0
230
1.0
 70
     9
 71
     3
 72
    32
 73
    28
 74
     0
 42
0.0000000001
 43
0.0000000001
 40
0.0
 40
0.0
 40
0.0
 40
0.0
 40
1.0
 40
1.0
 40
1.0
 40
2.0
 40
2.0
 40
2.0
 40
3.0
 40
3.0
 40
3.0
 40
4.0
 40
4.0
 40
4.0
 40
5.0
 40
5.0
 40
5.0
 40
6.0
 40
6.0
 40
6.0
 40
7.0
 40
7.0
 40
7.0
 40
8.0
 40
8.0
 40
8.0
 40
9.0
 40
9.0
 40
9.0
 40
9.0
 10
78.40027712941507
 20
-86.10520709101939
 30
0.0
 10
78.37082635637198
 20
-86.10520709101939
 30
0.0
 10
78.34699516546462
 20
-86.08137590011137
 30
0.0
 10
78.34699516546462
 20
-86.05192512706762
 30
0.0
 10
78.34699516546462
 20
-86.05192512706762
 30
0.0
 10
78.34699516546462
 20
-82.6416713014852
 30
0.0
 10
78.34699516546462
 20
-82.6416713014852
 30
0.0
 10
78.34699516546462
 20
-82.6416713014852
 30
0.0
 10
78.32181111219035
 20
-82.61648724821156
 30
0.0
 10
78.32181111219035
 20
-82.61648724821156
 30
0.0
 10
78.30099784502152
 20
-82.59567398104273
 30
0.0
 10
78.30099784502152
 20
-82.56195648822952
 30
0.0
 10
78.32181111219035
 20
-82.54114322106133
 30
0.0
 10
78.3426243793579
 20
-82.52032995389187
 30
0.0
 10
78.3763418721724
 20
-82.52032995389187
 30
0.0
 10
78.39715513933994
 20
-82.54114322106133
 30
0.0
 10
78.39715513933994
 20
-82.54114322106133
 30
0.0
 10
78.43794914299116
 20
-82.58193722471126
 30
0.0
 10
78.43794914299116
 20
-82.58193722471126
 30
0.0
 10
78.44793951123235
 20
-82.59192759295245
 30
0.0
 10
78.45355909336809
 20
-82.60545621661199
 30
0.0
 10
78.45355909336809
 20
-82.6196092382867
 30
0.0
 10
78.45355909336809
 20
-82.6196092382867
 30
0.0
 10
78.45355909336809
 20
-86.05192512706762
 30
0.0
 10
78.45355909336809
 20
-86.05192512706762
 30
0.0
 10
78.45355909336809
 20
-86.08137590011137
 30
0.0
 10
78.42972790245946
 20
-86.10520709101939
 30
0.0
 10
78.40027712941507
 20
-86.10520709101939
 30
0.0
  0
LWPOLYLINE
  5
165
330
15E
100
AcDbEntity
  8
Camada 1
 62
   250
420
  1907995
370
     9
100
AcDbPolyline
 90
        1
 70
     0
 43
0.0
 10
77.38080174404446
 20
-86.09267596365141
  0
LWPOLYLINE
  5
166
330
15E
100
AcDbEntity
  8
Camada 1
 62
   250
420
  1907995
370
     9
100
AcDbPolyline
 90
        1
 70
     0
 43
0.0
 10
77.38080174404446
 20
-82.57879865189577
  0
SPLINE
  5
167
330
15E
100
AcDbEntity
  8
Camada 1
 62
   250
420
  1907995
370
     9
100
AcDbSpline
210
0.0
220
0.0
230
1.0
 70
     9
 71
     3
 72
    23
 73
    19
 74
     0
 42
0.0000000001
 43
0.0000000001
 40
0.0
 40
0.0
 40
0.0
 40
0.0
 40
1.0
 40
1.0
 40
1.0
 40
2.0
 40
2.0
 40
2.0
 40
3.0
 40
3.0
 40
3.0
 40
4.0
 40
4.0
 40
4.0
 40
5.0
 40
5.0
 40
5.0
 40
6.0
 40
6.0
 40
6.0
 40
6.0
 10
80.85051900684511
 20
-82.59473738402034
 30
0.0
 10
80.85051900684511
 20
-82.59473738402034
 30
0.0
 10
79.372256706192
 20
-82.59473738402034
 30
0.0
 10
79.372256706192
 20
-82.59473738402034
 30
0.0
 10
79.34280593314761
 20
-82.59473738402034
 30
0.0
 10
79.31897474224027
 20
-82.57090619311233
 30
0.0
 10
79.31897474224027
 20
-82.5414554200686
 30
0.0
 10
79.31897474224027
 20
-82.51200464702485
 30
0.0
 10
79.34280593314761
 20
-82.48817345611685
 30
0.0
 10
79.372256706192
 20
-82.48817345611685
 30
0.0
 10
79.372256706192
 20
-82.48817345611685
 30
0.0
 10
80.85051900684511
 20
-82.48817345611685
 30
0.0
 10
80.85051900684511
 20
-82.48817345611685
 30
0.0
 10
80.87996977988822
 20
-82.48817345611685
 30
0.0
 10
80.90380097079558
 20
-82.51200464702485
 30
0.0
 10
80.90380097079558
 20
-82.5414554200686
 30
0.0
 10
80.90380097079558
 20
-82.57090619311233
 30
0.0
 10
80.87996977988822
 20
-82.59473738402034
 30
0.0
 10
80.85051900684511
 20
-82.59473738402034
 30
0.0
  0
SPLINE
  5
168
330
15E
100
AcDbEntity
  8
Camada 1
 62
   250
420
  1907995
370
     9
100
AcDbSpline
210
0.0
220
0.0
230
1.0
 70
    11
 71
     3
 72
    23
 73
    19
 74
     0
 42
0.0000000001
 43
0.0000000001
 40
0.0
 40
0.0
 40
0.0
 40
0.0
 40
1.0
 40
1.0
 40
1.0
 40
2.0
 40
2.0
 40
2.0
 40
3.0
 40
3.0
 40
3.0
 40
4.0
 40
4.0
 40
4.0
 40
5.0
 40
5.0
 40
5.0
 40
6.0
 40
6.0
 40
6.0
 40
6.0
 10
78.57698176767754
 20
-86.1935594101506
 30
0.0
 10
78.54753099463443
 20
-86.1935594101506
 30
0.0
 10
78.5236998037258
 20
-86.16972821924198
 30
0.0
 10
78.5236998037258
 20
-86.14027744619887
 30
0.0
 10
78.5236998037258
 20
-86.14027744619887
 30
0.0
 10
78.5236998037258
 20
-84.28134048903109
 30
0.0
 10
78.5236998037258
 20
-84.28134048903109
 30
0.0
 10
78.5236998037258
 20
-84.25188971598798
 30
0.0
 10
78.54753099463443
 20
-84.22805852507934
 30
0.0
 10
78.57698176767754
 20
-84.22805852507934
 30
0.0
 10
78.60643254072063
 20
-84.22805852507934
 30
0.0
 10
78.63026373162927
 20
-84.25188971598798
 30
0.0
 10
78.63026373162927
 20
-84.28134048903109
 30
0.0
 10
78.63026373162927
 20
-84.28134048903109
 30
0.0
 10
78.63026373162927
 20
-86.14027744619887
 30
0.0
 10
78.63026373162927
 20
-86.14027744619887
 30
0.0
 10
78.63026373162927
 20
-86.16972821924198
 30
0.0
 10
78.60643254072063
 20
-86.1935594101506
 30
0.0
 10
78.57698176767754
 20
-86.1935594101506
 30
0.0
  0
SPLINE
  5
169
330
15E
100
AcDbEntity
  8
Camada 1
 62
   250
420
  1907995
370
     9
100
AcDbSpline
210
0.0
220
0.0
230
1.0
 70
     9
 71
     3
 72
    26
 73
    22
 74
     0
 42
0.0000000001
 43
0.0000000001
 40
0.0
 40
0.0
 40
0.0
 40
0.0
 40
1.0
 40
1.0
 40
1.0
 40
2.0
 40
2.0
 40
2.0
 40
3.0
 40
3.0
 40
3.0
 40
4.0
 40
4.0
 40
4.0
 40
5.0
 40
5.0
 40
5.0
 40
6.0
 40
6.0
 40
6.0
 40
7.0
 40
7.0
 40
7.0
 40
7.0
 10
78.59061445767304
 20
-84.26666713567719
 30
0.0
 10
78.58301761515587
 20
-84.26666713567719
 30
0.0
 10
78.57531670630464
 20
-84.26510614063962
 30
0.0
 10
78.56803206279471
 20
-84.26167195155725
 30
0.0
 10
78.54139108081949
 20
-84.24918399125543
 30
0.0
 10
78.52983971754074
 20
-84.21744375882365
 30
0.0
 10
78.54232767784255
 20
-84.19080277684777
 30
0.0
 10
78.54232767784255
 20
-84.19080277684777
 30
0.0
 10
79.32396992636022
 20
-82.51887302519028
 30
0.0
 10
79.32396992636022
 20
-82.51887302519028
 30
0.0
 10
79.33645788666075
 20
-82.49223204321504
 30
0.0
 10
79.36840625176576
 20
-82.48057661360032
 30
0.0
 10
79.39483910106905
 20
-82.49316864023745
 30
0.0
 10
79.42148008304556
 20
-82.50565660053863
 30
0.0
 10
79.43303144632432
 20
-82.53739683297105
 30
0.0
 10
79.42054348602251
 20
-82.56403781494627
 30
0.0
 10
79.42054348602251
 20
-82.56403781494627
 30
0.0
 10
78.63890123750483
 20
-84.23596756660378
 30
0.0
 10
78.63890123750483
 20
-84.23596756660378
 30
0.0
 10
78.62984746628541
 20
-84.25532390507102
 30
0.0
 10
78.61059519415414
 20
-84.26666713567719
 30
0.0
 10
78.59061445767304
 20
-84.26666713567719
 30
0.0
  0
SPLINE
  5
16A
330
15E
100
AcDbEntity
  8
Camada 1
 62
   250
420
  1907995
370
     9
100
AcDbSpline
210
0.0
220
0.0
230
1.0
 70
     9
 71
     3
 72
    23
 73
    19
 74
     0
 42
0.0000000001
 43
0.0000000001
 40
0.0
 40
0.0
 40
0.0
 40
0.0
 40
1.0
 40
1.0
 40
1.0
 40
2.0
 40
2.0
 40
2.0
 40
3.0
 40
3.0
 40
3.0
 40
4.0
 40
4.0
 40
4.0
 40
5.0
 40
5.0
 40
5.0
 40
6.0
 40
6.0
 40
6.0
 40
6.0
 10
80.33393371571794
 20
-86.1935594101506
 30
0.0
 10
80.33393371571794
 20
-86.1935594101506
 30
0.0
 10
78.57698176767754
 20
-86.1935594101506
 30
0.0
 10
78.57698176767754
 20
-86.1935594101506
 30
0.0
 10
78.54753099463443
 20
-86.1935594101506
 30
0.0
 10
78.5236998037258
 20
-86.16972821924198
 30
0.0
 10
78.5236998037258
 20
-86.14027744619887
 30
0.0
 10
78.5236998037258
 20
-86.11082667315512
 30
0.0
 10
78.54753099463443
 20
-86.08699548224713
 30
0.0
 10
78.57698176767754
 20
-86.08699548224713
 30
0.0
 10
78.57698176767754
 20
-86.08699548224713
 30
0.0
 10
80.33393371571794
 20
-86.08699548224713
 30
0.0
 10
80.33393371571794
 20
-86.08699548224713
 30
0.0
 10
80.36338448876232
 20
-86.08699548224713
 30
0.0
 10
80.38721567966966
 20
-86.11082667315512
 30
0.0
 10
80.38721567966966
 20
-86.14027744619887
 30
0.0
 10
80.38721567966966
 20
-86.16972821924198
 30
0.0
 10
80.36338448876232
 20
-86.1935594101506
 30
0.0
 10
80.33393371571794
 20
-86.1935594101506
 30
0.0
  0
SPLINE
  5
16B
330
15E
100
AcDbEntity
  8
Camada 1
 62
   250
420
  1907995
370
     9
100
AcDbSpline
210
0.0
220
0.0
230
1.0
 70
     9
 71
     3
 72
    23
 73
    19
 74
     0
 42
0.0000000001
 43
0.0000000001
 40
0.0
 40
0.0
 40
0.0
 40
0.0
 40
1.0
 40
1.0
 40
1.0
 40
2.0
 40
2.0
 40
2.0
 40
3.0
 40
3.0
 40
3.0
 40
4.0
 40
4.0
 40
4.0
 40
5.0
 40
5.0
 40
5.0
 40
6.0
 40
6.0
 40
6.0
 40
6.0
 10
80.50043985306727
 20
-90.96135858680735
 30
0.0
 10
80.47098908002416
 20
-90.96135858680735
 30
0.0
 10
80.4471578891168
 20
-90.93742332956338
 30
0.0
 10
80.4471578891168
 20
-90.90807662285561
 30
0.0
 10
80.4471578891168
 20
-90.90807662285561
 30
0.0
 10
80.4471578891168
 20
-85.55230264868495
 30
0.0
 10
80.4471578891168
 20
-85.55230264868495
 30
0.0
 10
80.4471578891168
 20
-85.5228518756412
 30
0.0
 10
80.47098908002416
 20
-85.49902068473256
 30
0.0
 10
80.50043985306727
 20
-85.49902068473256
 30
0.0
 10
80.52989062611166
 20
-85.49902068473256
 30
0.0
 10
80.55372181701901
 20
-85.5228518756412
 30
0.0
 10
80.55372181701901
 20
-85.55230264868495
 30
0.0
 10
80.55372181701901
 20
-85.55230264868495
 30
0.0
 10
80.55372181701901
 20
-90.90807662285561
 30
0.0
 10
80.55372181701901
 20
-90.90807662285561
 30
0.0
 10
80.55372181701901
 20
-90.93742332956338
 30
0.0
 10
80.52989062611166
 20
-90.96135858680735
 30
0.0
 10
80.50043985306727
 20
-90.96135858680735
 30
0.0
  0
SPLINE
  5
16C
330
15E
100
AcDbEntity
  8
Camada 1
 62
   250
420
  1907995
370
     9
100
AcDbSpline
210
0.0
220
0.0
230
1.0
 70
     9
 71
     3
 72
    26
 73
    22
 74
     0
 42
0.0000000001
 43
0.0000000001
 40
0.0
 40
0.0
 40
0.0
 40
0.0
 40
1.0
 40
1.0
 40
1.0
 40
2.0
 40
2.0
 40
2.0
 40
3.0
 40
3.0
 40
3.0
 40
4.0
 40
4.0
 40
4.0
 40
5.0
 40
5.0
 40
5.0
 40
6.0
 40
6.0
 40
6.0
 40
7.0
 40
7.0
 40
7.0
 40
7.0
 10
79.18160717892678
 20
-82.99424804732238
 30
0.0
 10
79.17359407106701
 20
-82.99424804732238
 30
0.0
 10
79.16547689687064
 20
-82.99247891961289
 30
0.0
 10
79.15788005435475
 20
-82.98862846518664
 30
0.0
 10
78.92341859969978
 20
-82.87197010270665
 30
0.0
 10
78.66127549971122
 20
-82.81119536257433
 30
0.0
 10
78.39902833338604
 20
-82.81941660310604
 30
0.0
 10
78.37217921873889
 20
-82.82326705753165
 30
0.0
 10
78.34522603775512
 20
-82.7968342082277
 30
0.0
 10
78.344497573404
 20
-82.76738343518461
 30
0.0
 10
78.34387317538821
 20
-82.73793266214086
 30
0.0
 10
78.36718403461765
 20
-82.71358113955368
 30
0.0
 10
78.39653074132543
 20
-82.71285267520257
 30
0.0
 10
78.6787586441317
 20
-82.7047355010062
 30
0.0
 10
78.95557509747544
 20
-82.76894443022154
 30
0.0
 10
79.2053343034988
 20
-82.89330370155402
 30
0.0
 10
79.23166308646678
 20
-82.90641605987035
 30
0.0
 10
79.24238191905908
 20
-82.9383644249747
 30
0.0
 10
79.22926956074276
 20
-82.96469320794333
 30
0.0
 10
79.2200076568527
 20
-82.98342514839411
 30
0.0
 10
79.20117165006529
 20
-82.99424804732238
 30
0.0
 10
79.18160717892678
 20
-82.99424804732238
 30
0.0
  0
SPLINE
  5
16D
330
15E
100
AcDbEntity
  8
Camada 1
 62
   250
420
  1907995
370
     9
100
AcDbSpline
210
0.0
220
0.0
230
1.0
 70
     9
 71
     3
 72
    26
 73
    22
 74
     0
 42
0.0000000001
 43
0.0000000001
 40
0.0
 40
0.0
 40
0.0
 40
0.0
 40
1.0
 40
1.0
 40
1.0
 40
2.0
 40
2.0
 40
2.0
 40
3.0
 40
3.0
 40
3.0
 40
4.0
 40
4.0
 40
4.0
 40
5.0
 40
5.0
 40
5.0
 40
6.0
 40
6.0
 40
6.0
 40
7.0
 40
7.0
 40
7.0
 40
7.0
 10
78.43565968360246
 20
-85.95566376641261
 30
0.0
 10
78.42254732528615
 20
-85.95566376641261
 30
0.0
 10
78.40953903330514
 20
-85.95555970007664
 30
0.0
 10
78.39653074132543
 20
-85.95524750106939
 30
0.0
 10
78.36718403461765
 20
-85.95451903671827
 30
0.0
 10
78.34387317538821
 20
-85.93016751413108
 30
0.0
 10
78.344497573404
 20
-85.90071674108735
 30
0.0
 10
78.34533010409045
 20
-85.87137003437957
 30
0.0
 10
78.37165888705841
 20
-85.85274216026347
 30
0.0
 10
78.39902833338604
 20
-85.84868357316592
 30
0.0
 10
78.45543228741291
 20
-85.85014050186815
 30
0.0
 10
78.51287690479816
 20
-85.84826730782205
 30
0.0
 10
78.5691767924897
 20
-85.84358432270937
 30
0.0
 10
78.59758690217443
 20
-85.83983793461907
 30
0.0
 10
78.62422788414966
 20
-85.86273252850466
 30
0.0
 10
78.62672547621028
 20
-85.89218330154841
 30
0.0
 10
78.62922306827089
 20
-85.92153000825616
 30
0.0
 10
78.60736913774369
 20
-85.94733845954559
 30
0.0
 10
78.57812649737123
 20
-85.94973198526961
 30
0.0
 10
78.53098444723444
 20
-85.95368650603182
 30
0.0
 10
78.48321799908312
 20
-85.95566376641261
 30
0.0
 10
78.43565968360246
 20
-85.95566376641261
 30
0.0
  0
SPLINE
  5
16E
330
15E
100
AcDbEntity
  8
Camada 1
 62
   250
420
  1907995
370
     9
100
AcDbSpline
210
0.0
220
0.0
230
1.0
 70
     9
 71
     3
 72
    23
 73
    19
 74
     0
 42
0.0000000001
 43
0.0000000001
 40
0.0
 40
0.0
 40
0.0
 40
0.0
 40
1.0
 40
1.0
 40
1.0
 40
2.0
 40
2.0
 40
2.0
 40
3.0
 40
3.0
 40
3.0
 40
4.0
 40
4.0
 40
4.0
 40
5.0
 40
5.0
 40
5.0
 40
6.0
 40
6.0
 40
6.0
 40
6.0
 10
78.57365164493046
 20
-84.33295739160994
 30
0.0
 10
78.54420087188737
 20
-84.33295739160994
 30
0.0
 10
78.52036968097873
 20
-84.30912620070129
 30
0.0
 10
78.52036968097873
 20
-84.2796754276582
 30
0.0
 10
78.52036968097873
 20
-84.24699859820336
 30
0.0
 10
78.52734212548011
 20
-84.21546649844222
 30
0.0
 10
78.54107888181096
 20
-84.18601572539911
 30
0.0
 10
78.55356684211276
 20
-84.15927067708663
 30
0.0
 10
78.58530707454455
 20
-84.14761524747255
 30
0.0
 10
78.61194805652106
 20
-84.16031134044565
 30
0.0
 10
78.63858903849629
 20
-84.17279930074618
 30
0.0
 10
78.65014040177505
 20
-84.20453953317926
 30
0.0
 10
78.63765244147451
 20
-84.23118051515514
 30
0.0
 10
78.63057593063652
 20
-84.24637420018756
 30
0.0
 10
78.62693360888221
 20
-84.26271261491498
 30
0.0
 10
78.62693360888221
 20
-84.2796754276582
 30
0.0
 10
78.62693360888221
 20
-84.30912620070129
 30
0.0
 10
78.60310241797485
 20
-84.33295739160994
 30
0.0
 10
78.57365164493046
 20
-84.33295739160994
 30
0.0
  0
SPLINE
  5
16F
330
15E
100
AcDbEntity
  8
Camada 1
 62
   250
420
  1907995
370
     9
100
AcDbSpline
210
0.0
220
0.0
230
1.0
 70
     9
 71
     3
 72
    23
 73
    19
 74
     0
 42
0.0000000001
 43
0.0000000001
 40
0.0
 40
0.0
 40
0.0
 40
0.0
 40
1.0
 40
1.0
 40
1.0
 40
2.0
 40
2.0
 40
2.0
 40
3.0
 40
3.0
 40
3.0
 40
4.0
 40
4.0
 40
4.0
 40
5.0
 40
5.0
 40
5.0
 40
6.0
 40
6.0
 40
6.0
 40
6.0
 10
80.50043985306727
 20
-86.35829641979045
 30
0.0
 10
80.47098908002416
 20
-86.35829641979045
 30
0.0
 10
80.4471578891168
 20
-86.33446522888181
 30
0.0
 10
80.4471578891168
 20
-86.3050144558387
 30
0.0
 10
80.4471578891168
 20
-86.24163805730981
 30
0.0
 10
80.39564505287328
 20
-86.19012522106757
 30
0.0
 10
80.33226865434505
 20
-86.19012522106757
 30
0.0
 10
80.30281788130194
 20
-86.19012522106757
 30
0.0
 10
80.27898669039329
 20
-86.16629403015894
 30
0.0
 10
80.27898669039329
 20
-86.13684325711584
 30
0.0
 10
80.27898669039329
 20
-86.1073924840721
 30
0.0
 10
80.30281788130194
 20
-86.0835612931641
 30
0.0
 10
80.33226865434505
 20
-86.0835612931641
 30
0.0
 10
80.45433846628885
 20
-86.0835612931641
 30
0.0
 10
80.55372181701901
 20
-86.18294464389427
 30
0.0
 10
80.55372181701901
 20
-86.3050144558387
 30
0.0
 10
80.55372181701901
 20
-86.33446522888181
 30
0.0
 10
80.52989062611166
 20
-86.35829641979045
 30
0.0
 10
80.50043985306727
 20
-86.35829641979045
 30
0.0
  0
SPLINE
  5
170
330
15E
100
AcDbEntity
  8
Camada 1
 62
   250
420
  1907995
370
     9
100
AcDbSpline
210
0.0
220
0.0
230
1.0
 70
     9
 71
     3
 72
    23
 73
    19
 74
     0
 42
0.0000000001
 43
0.0000000001
 40
0.0
 40
0.0
 40
0.0
 40
0.0
 40
1.0
 40
1.0
 40
1.0
 40
2.0
 40
2.0
 40
2.0
 40
3.0
 40
3.0
 40
3.0
 40
4.0
 40
4.0
 40
4.0
 40
5.0
 40
5.0
 40
5.0
 40
6.0
 40
6.0
 40
6.0
 40
6.0
 10
77.38084330349536
 20
-86.14600109466994
 30
0.0
 10
77.35139253045225
 20
-86.14600109466994
 30
0.0
 10
77.32756133954364
 20
-86.12216990376195
 30
0.0
 10
77.32756133954364
 20
-86.0927191307182
 30
0.0
 10
77.32756133954364
 20
-86.0927191307182
 30
0.0
 10
77.32756133954364
 20
-82.57881523463678
 30
0.0
 10
77.32756133954364
 20
-82.57881523463678
 30
0.0
 10
77.32756133954364
 20
-82.5493644615924
 30
0.0
 10
77.35139253045225
 20
-82.52553327068438
 30
0.0
 10
77.38084330349536
 20
-82.52553327068438
 30
0.0
 10
77.41029407653975
 20
-82.52553327068438
 30
0.0
 10
77.4341252674471
 20
-82.5493644615924
 30
0.0
 10
77.4341252674471
 20
-82.57881523463678
 30
0.0
 10
77.4341252674471
 20
-82.57881523463678
 30
0.0
 10
77.4341252674471
 20
-86.0927191307182
 30
0.0
 10
77.4341252674471
 20
-86.0927191307182
 30
0.0
 10
77.4341252674471
 20
-86.12216990376195
 30
0.0
 10
77.41029407653975
 20
-86.14600109466994
 30
0.0
 10
77.38084330349536
 20
-86.14600109466994
 30
0.0
  0
ENDBLK
  5
161
330
15E
100
AcDbEntity
  8
0
100
AcDbBlockEnd
  0
ENDSEC
  0
SECTION
  2
ENTITIES
  0
INSERT
  5
7A
330
70
100
AcDbEntity
  8
Camada 1
100
AcDbBlockReference
  2
Block_0
 10
0.0
 20
0.0
 30
0.0
  0
ENDSEC
  0
SECTION
  2
OBJECTS
  0
DICTIONARY
  5
C
330
0
100
AcDbDictionary
281
     1
  3
ACAD_COLOR
350
63
  3
ACAD_DETAILVIEWSTYLE
350
6A
  3
ACAD_GROUP
350
D
  3
ACAD_LAYOUT
350
62
  3
ACAD_MATERIAL
350
10
  3
ACAD_MLEADERSTYLE
350
66
  3
ACAD_MLINESTYLE
350
5F
  3
ACAD_PLOTSETTINGS
350
61
  3
ACAD_PLOTSTYLENAME
350
E
  3
ACAD_SCALELIST
350
42
  3
ACAD_SECTIONVIEWSTYLE
350
68
  3
ACAD_TABLESTYLE
350
64
  3
ACAD_VISUALSTYLE
350
29
  3
ACDB_RECOMPOSE_DATA
350
17C
  3
AcDbVariableDictionary
350
174
  0
DICTIONARY
  5
63
102
{ACAD_REACTORS
330
C
102
}
330
C
100
AcDbDictionary
281
     1
  0
DICTIONARY
  5
6A
102
{ACAD_REACTORS
330
C
102
}
330
C
100
AcDbDictionary
281
     1
  3
Imperial24
350
6B
  0
DICTIONARY
  5
D
102
{ACAD_REACTORS
330
C
102
}
330
C
100
AcDbDictionary
281
     1
  0
DICTIONARY
  5
62
102
{ACAD_REACTORS
330
C
102
}
330
C
100
AcDbDictionary
281
     1
  3
Layout1
350
6F
  3
Layout2
350
77
  3
Model
350
73
  0
DICTIONARY
  5
10
102
{ACAD_REACTORS
330
C
102
}
330
C
100
AcDbDictionary
281
     1
  3
ByBlock
350
19
  3
ByLayer
350
11
  3
Global
350
21
  0
DICTIONARY
  5
66
102
{ACAD_REACTORS
330
C
102
}
330
C
100
AcDbDictionary
281
     1
  3
Standard
350
67
  0
DICTIONARY
  5
5F
102
{ACAD_REACTORS
330
C
102
}
330
C
100
AcDbDictionary
281
     1
  3
Standard
350
60
  0
DICTIONARY
  5
61
102
{ACAD_REACTORS
330
C
102
}
330
C
100
AcDbDictionary
281
     1
  0
ACDBDICTIONARYWDFLT
  5
E
102
{ACAD_REACTORS
330
C
102
}
330
C
100
AcDbDictionary
281
     1
  3
Normal
350
F
100
AcDbDictionaryWithDefault
340
F
  0
DICTIONARY
  5
42
102
{ACAD_REACTORS
330
C
102
}
330
C
100
AcDbDictionary
281
     1
  3
A0
350
43
  3
A1
350
44
  3
A2
350
45
  3
A3
350
46
  3
A4
350
47
  3
A5
350
48
  3
A6
350
49
  3
A7
350
4A
  3
A8
350
4B
  3
A9
350
4C
  3
B0
350
4D
  3
B1
350
4E
  3
B2
350
4F
  3
B3
350
50
  3
B4
350
51
  3
B5
350
52
  3
B6
350
53
  0
DICTIONARY
  5
68
102
{ACAD_REACTORS
330
C
102
}
330
C
100
AcDbDictionary
281
     1
  3
Imperial24
350
69
  0
DICTIONARY
  5
64
102
{ACAD_REACTORS
330
C
102
}
330
C
100
AcDbDictionary
281
     1
  3
Standard
350
65
  0
DICTIONARY
  5
29
102
{ACAD_REACTORS
330
C
102
}
330
C
100
AcDbDictionary
281
     1
  3
2dWireframe
350
2F
  3
Basic
350
2E
  3
Brighten
350
35
  3
ColorChange
350
39
  3
Conceptual
350
32
  3
Dim
350
34
  3
EdgeColorOff
350
41
  3
Facepattern
350
38
  3
Flat
350
2A
  3
FlatWithEdges
350
2B
  3
Gouraud
350
2C
  3
GouraudWithEdges
350
2D
  3
Hidden
350
31
  3
JitterOff
350
3F
  3
Linepattern
350
37
  3
OverhangOff
350
40
  3
Realistic
350
33
  3
Shaded
350
3E
  3
Shaded with edges
350
3D
  3
Shades of Gray
350
3A
  3
Sketchy
350
3B
  3
Thicken
350
36
  3
Wireframe
350
30
  3
X-Ray
350
3C
  0
XRECORD
  5
17C
102
{ACAD_REACTORS
330
C
102
}
330
C
100
AcDbXrecord
280
     1
 90
        1
330
65
  0
DICTIONARY
  5
174
102
{ACAD_REACTORS
330
C
102
}
330
C
100
AcDbDictionary
281
     1
  3
CANNOSCALE
350
179
  3
CMLEADERSTYLE
350
176
  3
CTABLESTYLE
350
175
  3
CVIEWDETAILSTYLE
350
177
  3
CVIEWSECTIONSTYLE
350
178
  0
ACDBDETAILVIEWSTYLE
  5
6B
102
{ACAD_REACTORS
330
6A
102
}
330
6A
100
AcDbModelDocViewStyle
 70
     0
  3
Imperial24
290
     1
300
Imperial24
 90
        0
100
AcDbDetailViewStyle
 70
     0
 71
     0
 90
        3
 71
     1
340
55
 62
   256
 40
0.24
340
0
 62
   256
 40
0.24
300

 40
0.36
280
     3
 71
     2
340
5D
 90
       25
 62
   256
 71
     3
340
55
 62
   256
 40
0.24
 90
        1
 40
0.75
 90
        1
300
%<\AcVar ViewType \f "%tc1">% %<\AcVar ViewDetailId>%\PSCALE %<\AcVar ViewScale \f "%sn">%
 71
     4
340
5D
 90
       25
 62
   256
340
5D
 90
       25
 62
   256
280
     0
  0
LAYOUT
  5
6F
102
{ACAD_REACTORS
330
62
102
}
330
62
100
AcDbPlotSettings
  1

  2

  4

  6

 40
0.0
 41
0.0
 42
0.0
 43
0.0
 44
0.0
 45
0.0
 46
0.0
 47
0.0
 48
0.0
 49
0.0
140
0.0
141
0.0
142
1.0
143
1.0
 70
   688
 72
     0
 73
     0
 74
     5
  7

 75
    16
147
1.0
 76
     0
 77
     2
 78
   300
148
0.0
149
0.0
100
AcDbLayout
  1
Layout1
 70
     1
 71
     1
 10
0.0
 20
0.0
 11
12.0
 21
9.0
 12
0.0
 22
0.0
 32
0.0
 14
0.0
 24
0.0
 34
0.0
 15
0.0
 25
0.0
 35
0.0
146
0.0
 13
0.0
 23
0.0
 33
0.0
 16
1.0
 26
0.0
 36
0.0
 17
0.0
 27
1.0
 37
0.0
 76
     0
330
6C
  0
LAYOUT
  5
77
102
{ACAD_REACTORS
330
62
102
}
330
62
100
AcDbPlotSettings
  1

  2

  4

  6

 40
0.0
 41
0.0
 42
0.0
 43
0.0
 44
0.0
 45
0.0
 46
0.0
 47
0.0
 48
0.0
 49
0.0
140
0.0
141
0.0
142
1.0
143
1.0
 70
   688
 72
     0
 73
     0
 74
     5
  7

 75
    16
147
1.0
 76
     0
 77
     2
 78
   300
148
0.0
149
0.0
100
AcDbLayout
  1
Layout2
 70
     1
 71
     2
 10
0.0
 20
0.0
 11
12.0
 21
9.0
 12
0.0
 22
0.0
 32
0.0
 14
0.0
 24
0.0
 34
0.0
 15
0.0
 25
0.0
 35
0.0
146
0.0
 13
0.0
 23
0.0
 33
0.0
 16
1.0
 26
0.0
 36
0.0
 17
0.0
 27
1.0
 37
0.0
 76
     0
330
74
  0
LAYOUT
  5
73
102
{ACAD_REACTORS
330
62
102
}
330
62
100
AcDbPlotSettings
  1

  2

  4

  6

 40
0.0
 41
0.0
 42
0.0
 43
0.0
 44
0.0
 45
0.0
 46
0.0
 47
0.0
 48
0.0
 49
0.0
140
0.0
141
0.0
142
1.0
143
1.0
 70
  1712
 72
     0
 73
     0
 74
     0
  7

 75
     0
147
1.0
 76
     0
 77
     2
 78
   300
148
0.0
149
0.0
100
AcDbLayout
  1
Model
 70
     1
 71
     0
 10
0.0
 20
0.0
 11
12.0
 21
9.0
 12
0.0
 22
0.0
 32
0.0
 14
0.0
 24
0.0
 34
0.0
 15
0.0
 25
0.0
 35
0.0
146
0.0
 13
0.0
 23
0.0
 33
0.0
 16
1.0
 26
0.0
 36
0.0
 17
0.0
 27
1.0
 37
0.0
 76
     0
330
70
  0
MATERIAL
  5
19
102
{ACAD_XDICTIONARY
360
1A
102
}
102
{ACAD_REACTORS
330
10
102
}
330
10
100
AcDbMaterial
  1
ByBlock
 72
     0
 43
0.0208333333333333
 43
0.0
 43
0.0
 43
0.0
 43
0.0
 43
0.0208333333333333
 43
0.0
 43
0.0
 43
0.0
 43
0.0
 43
1.0
 43
0.0
 43
0.0
 43
0.0
 43
0.0
 43
1.0
 77
     0
 47
0.0208333333333333
 47
0.0
 47
0.0
 47
0.0
 47
0.0
 47
0.0208333333333333
 47
0.0
 47
0.0
 47
0.0
 47
0.0
 47
1.0
 47
0.0
 47
0.0
 47
0.0
 47
0.0
 47
1.0
171
     0
 49
0.0208333333333333
 49
0.0
 49
0.0
 49
0.0
 49
0.0
 49
0.0208333333333333
 49
0.0
 49
0.0
 49
0.0
 49
0.0
 49
1.0
 49
0.0
 49
0.0
 49
0.0
 49
0.0
 49
1.0
175
     0
142
0.0208333333333333
142
0.0
142
0.0
142
0.0
142
0.0
142
0.0208333333333333
142
0.0
142
0.0
142
0.0
142
0.0
142
1.0
142
0.0
142
0.0
142
0.0
142
0.0
142
1.0
179
     0
144
0.0208333333333333
144
0.0
144
0.0
144
0.0
144
0.0
144
0.0208333333333333
144
0.0
144
0.0
144
0.0
144
0.0
144
1.0
144
0.0
144
0.0
144
0.0
144
0.0
144
1.0
147
0.0208333333333333
147
0.0
147
0.0
147
0.0
147
0.0
147
0.0208333333333333
147
0.0
147
0.0
147
0.0
147
0.0
147
1.0
147
0.0
147
0.0
147
0.0
147
0.0
147
1.0
  0
MATERIAL
  5
11
102
{ACAD_XDICTIONARY
360
12
102
}
102
{ACAD_REACTORS
330
10
102
}
330
10
100
AcDbMaterial
  1
ByLayer
 72
     0
 43
0.0208333333333333
 43
0.0
 43
0.0
 43
0.0
 43
0.0
 43
0.0208333333333333
 43
0.0
 43
0.0
 43
0.0
 43
0.0
 43
1.0
 43
0.0
 43
0.0
 43
0.0
 43
0.0
 43
1.0
 77
     0
 47
0.0208333333333333
 47
0.0
 47
0.0
 47
0.0
 47
0.0
 47
0.0208333333333333
 47
0.0
 47
0.0
 47
0.0
 47
0.0
 47
1.0
 47
0.0
 47
0.0
 47
0.0
 47
0.0
 47
1.0
171
     0
 49
0.0208333333333333
 49
0.0
 49
0.0
 49
0.0
 49
0.0
 49
0.0208333333333333
 49
0.0
 49
0.0
 49
0.0
 49
0.0
 49
1.0
 49
0.0
 49
0.0
 49
0.0
 49
0.0
 49
1.0
175
     0
142
0.0208333333333333
142
0.0
142
0.0
142
0.0
142
0.0
142
0.0208333333333333
142
0.0
142
0.0
142
0.0
142
0.0
142
1.0
142
0.0
142
0.0
142
0.0
142
0.0
142
1.0
179
     0
144
0.0208333333333333
144
0.0
144
0.0
144
0.0
144
0.0
144
0.0208333333333333
144
0.0
144
0.0
144
0.0
144
0.0
144
1.0
144
0.0
144
0.0
144
0.0
144
0.0
144
1.0
147
0.0208333333333333
147
0.0
147
0.0
147
0.0
147
0.0
147
0.0208333333333333
147
0.0
147
0.0
147
0.0
147
0.0
147
1.0
147
0.0
147
0.0
147
0.0
147
0.0
147
1.0
  0
MATERIAL
  5
21
102
{ACAD_XDICTIONARY
360
22
102
}
102
{ACAD_REACTORS
330
10
102
}
330
10
100
AcDbMaterial
  1
Global
 72
     0
 43
0.0208333333333333
 43
0.0
 43
0.0
 43
0.0
 43
0.0
 43
0.0208333333333333
 43
0.0
 43
0.0
 43
0.0
 43
0.0
 43
1.0
 43
0.0
 43
0.0
 43
0.0
 43
0.0
 43
1.0
 77
     0
 47
0.0208333333333333
 47
0.0
 47
0.0
 47
0.0
 47
0.0
 47
0.0208333333333333
 47
0.0
 47
0.0
 47
0.0
 47
0.0
 47
1.0
 47
0.0
 47
0.0
 47
0.0
 47
0.0
 47
1.0
171
     0
 49
0.0208333333333333
 49
0.0
 49
0.0
 49
0.0
 49
0.0
 49
0.0208333333333333
 49
0.0
 49
0.0
 49
0.0
 49
0.0
 49
1.0
 49
0.0
 49
0.0
 49
0.0
 49
0.0
 49
1.0
175
     0
142
0.0208333333333333
142
0.0
142
0.0
142
0.0
142
0.0
142
0.0208333333333333
142
0.0
142
0.0
142
0.0
142
0.0
142
1.0
142
0.0
142
0.0
142
0.0
142
0.0
142
1.0
179
     0
144
0.0208333333333333
144
0.0
144
0.0
144
0.0
144
0.0
144
0.0208333333333333
144
0.0
144
0.0
144
0.0
144
0.0
144
1.0
144
0.0
144
0.0
144
0.0
144
0.0
144
1.0
147
0.0208333333333333
147
0.0
147
0.0
147
0.0
147
0.0
147
0.0208333333333333
147
0.0
147
0.0
147
0.0
147
0.0
147
1.0
147
0.0
147
0.0
147
0.0
147
0.0
147
1.0
  0
MLEADERSTYLE
  5
67
102
{ACAD_REACTORS
330
66
102
}
330
66
100
AcDbMLeaderStyle
179
     2
170
     2
171
     1
172
     0
 90
        2
 40
0.0
 41
0.0
173
     1
 91
-1056964608
340
5B
 92
       -2
290
     1
 42
0.09
291
     1
 43
0.36
  3
Standard
 44
0.18
300

342
55
174
     1
178
     6
175
     1
176
     0
 93
-1056964608
 45
0.18
292
     0
297
     0
 46
0.18
 94
-1056964608
 47
1.0
 49
1.0
140
1.0
293
     1
141
0.0
294
     1
177
     0
142
1.0
295
     1
296
     0
143
0.125
271
     0
272
     9
273
     9
298
     1
  0
MLINESTYLE
  5
60
102
{ACAD_REACTORS
330
5F
102
}
330
5F
100
AcDbMlineStyle
  2
STANDARD
 70
     0
  3

 62
   256
 51
90.0
 52
90.0
 71
     2
 49
0.5
 62
   256
  6
BYLAYER
 49
-0.5
 62
   256
  6
BYLAYER
  0
ACDBPLACEHOLDER
  5
F
102
{ACAD_REACTORS
330
E
102
}
330
E
  0
SCALE
  5
43
102
{ACAD_REACTORS
330
42
102
}
330
42
100
AcDbScale
 70
     0
300
1:1
140
1.0
141
1.0
290
     1
  0
SCALE
  5
44
102
{ACAD_REACTORS
330
42
102
}
330
42
100
AcDbScale
 70
     0
300
1/128" = 1'-0"
140
0.0078125
141
12.0
290
     0
  0
SCALE
  5
45
102
{ACAD_REACTORS
330
42
102
}
330
42
100
AcDbScale
 70
     0
300
1/64" = 1'-0"
140
0.015625
141
12.0
290
     0
  0
SCALE
  5
46
102
{ACAD_REACTORS
330
42
102
}
330
42
100
AcDbScale
 70
     0
300
1/32" = 1'-0"
140
0.03125
141
12.0
290
     0
  0
SCALE
  5
47
102
{ACAD_REACTORS
330
42
102
}
330
42
100
AcDbScale
 70
     0
300
1/16" = 1'-0"
140
0.0625
141
12.0
290
     0
  0
SCALE
  5
48
102
{ACAD_REACTORS
330
42
102
}
330
42
100
AcDbScale
 70
     0
300
3/32" = 1'-0"
140
0.09375
141
12.0
290
     0
  0
SCALE
  5
49
102
{ACAD_REACTORS
330
42
102
}
330
42
100
AcDbScale
 70
     0
300
1/8" = 1'-0"
140
0.125
141
12.0
290
     0
  0
SCALE
  5
4A
102
{ACAD_REACTORS
330
42
102
}
330
42
100
AcDbScale
 70
     0
300
3/16" = 1'-0"
140
0.1875
141
12.0
290
     0
  0
SCALE
  5
4B
102
{ACAD_REACTORS
330
42
102
}
330
42
100
AcDbScale
 70
     0
300
1/4" = 1'-0"
140
0.25
141
12.0
290
     0
  0
SCALE
  5
4C
102
{ACAD_REACTORS
330
42
102
}
330
42
100
AcDbScale
 70
     0
300
3/8" = 1'-0"
140
0.375
141
12.0
290
     0
  0
SCALE
  5
4D
102
{ACAD_REACTORS
330
42
102
}
330
42
100
AcDbScale
 70
     0
300
1/2" = 1'-0"
140
0.5
141
12.0
290
     0
  0
SCALE
  5
4E
102
{ACAD_REACTORS
330
42
102
}
330
42
100
AcDbScale
 70
     0
300
3/4" = 1'-0"
140
0.75
141
12.0
290
     0
  0
SCALE
  5
4F
102
{ACAD_REACTORS
330
42
102
}
330
42
100
AcDbScale
 70
     0
300
1" = 1'-0"
140
1.0
141
12.0
290
     0
  0
SCALE
  5
50
102
{ACAD_REACTORS
330
42
102
}
330
42
100
AcDbScale
 70
     0
300
1-1/2" = 1'-0"
140
1.5
141
12.0
290
     0
  0
SCALE
  5
51
102
{ACAD_REACTORS
330
42
102
}
330
42
100
AcDbScale
 70
     0
300
3" = 1'-0"
140
3.0
141
12.0
290
     0
  0
SCALE
  5
52
102
{ACAD_REACTORS
330
42
102
}
330
42
100
AcDbScale
 70
     0
300
6" = 1'-0"
140
6.0
141
12.0
290
     0
  0
SCALE
  5
53
102
{ACAD_REACTORS
330
42
102
}
330
42
100
AcDbScale
 70
     0
300
1'-0" = 1'-0"
140
12.0
141
12.0
290
     0
  0
ACDBSECTIONVIEWSTYLE
  5
69
102
{ACAD_REACTORS
330
68
102
}
330
68
100
AcDbModelDocViewStyle
 70
     0
  3
Imperial24
290
     1
300
Imperial24
 90
        0
100
AcDbSectionViewStyle
 70
     0
 71
     0
 90
       78
 71
     1
340
55
 62
   256
 40
0.24
340
0
340
0
 62
   256
 40
0.24
300
I, O, Q, S, X, Z
 40
0.48
 90
        3
 40
0.18
 90
        1
 71
     2
340
5D
 90
       25
 62
   256
340
5D
 90
       50
 62
   256
 40
0.24
 40
0.0
 40
0.24
 71
     3
340
55
 62
   256
 40
0.24
 90
        1
 40
0.75
 90
        1
300
%<\AcVar ViewType \f "%tc1">% %<\AcVar ViewSectionStartId>%-%<\AcVar ViewSectionEndId>%\PSCALE %<\AcVar ViewScale \f "%sn">%
 71
     4
 62
   256
 62
   257
300
ANSI31
 40
1.0
 90
        0
290
     0
290
     0
 90
        6
 40
0.0
 40
1.570796326794896
 40
0.2617993877991494
 40
1.308996938995747
 40
-0.2617993877991494
 40
1.832595714594046
  0
TABLESTYLE
  5
65
102
{ACAD_XDICTIONARY
360
17A
102
}
102
{ACAD_REACTORS
330
64
102
}
330
64
100
AcDbTableStyle
280
     0
  3
Standard
 70
     0
 71
     0
 40
0.06
 41
0.06
280
     0
281
     0
  7
Standard
140
0.18
170
     2
 62
     0
 63
     7
283
     0
 90
      512
 91
        0
  1

274
    -2
284
     1
 64
     0
275
    -2
285
     1
 65
     0
276
    -2
286
     1
 66
     0
277
    -2
287
     1
 67
     0
278
    -2
288
     1
 68
     0
279
    -2
289
     1
 69
     0
  7
Standard
140
0.25
170
     5
 62
     0
 63
     7
283
     0
 90
      512
 91
        0
  1

274
    -2
284
     1
 64
     0
275
    -2
285
     1
 65
     0
276
    -2
286
     1
 66
     0
277
    -2
287
     1
 67
     0
278
    -2
288
     1
 68
     0
279
    -2
289
     1
 69
     0
  7
Standard
140
0.18
170
     5
 62
     0
 63
     7
283
     0
 90
      512
 91
        0
  1

274
    -2
284
     1
 64
     0
275
    -2
285
     1
 65
     0
276
    -2
286
     1
 66
     0
277
    -2
287
     1
 67
     0
278
    -2
288
     1
 68
     0
279
    -2
289
     1
 69
     0
  0
VISUALSTYLE
  5
2F
102
{ACAD_REACTORS
330
29
102
}
330
29
100
AcDbVisualStyle
  2
2dWireframe
 70
     4
177
     3
291
     0
 70
    58
 90
        0
176
     1
 90
        2
176
     1
 90
        0
176
     1
 90
        0
176
     1
 40
0.6
176
     1
 40
30.0
176
     1
 62
     7
420
 16777215
176
     1
 90
        1
176
     1
 90
        4
176
     1
 62
     7
176
     1
 62
   257
176
     1
 90
        1
176
     1
 90
        1
176
     1
 40
1.0
176
     1
 90
        0
176
     1
 62
   257
176
     1
 40
1.0
176
     1
 90
        1
176
     1
 90
        6
176
     1
 90
        2
176
     1
 62
     7
176
     1
 90
        5
176
     1
 90
        0
176
     1
 90
        0
176
     1
290
     0
176
     1
 90
        1
176
     1
 40
0.0
176
     1
 90
        0
176
     1
290
     1
176
     1
290
     1
176
     1
290
     0
176
     1
290
     0
176
     1
290
     0
176
     1
290
     0
176
     1
290
     0
176
     1
290
     0
176
     1
290
     0
176
     1
 90
       50
176
     1
 40
0.0
176
     1
 40
1.0
176
     1
 90
        0
176
     1
 62
    18
420
        0
176
     1
 90
       50
176
     1
 90
        3
176
     1
 62
     5
420
      255
176
     1
290
     0
176
     1
 90
       50
176
     1
 90
       50
176
     1
 90
       50
176
     1
290
     0
176
     1
 90
       50
176
     1
 62
   256
176
     0
 40
1.0
176
     0
 90
        2
176
     1
  1
strokes_ogs.tif
176
     1
290
     0
176
     1
 40
1.0
176
     1
 40
1.0
176
     1
  0
VISUALSTYLE
  5
2E
102
{ACAD_REACTORS
330
29
102
}
330
29
100
AcDbVisualStyle
  2
Basic
 70
     7
177
     3
291
     1
 70
    58
 90
        1
176
     1
 90
        0
176
     1
 90
        1
176
     1
 90
        0
176
     1
 40
0.6
176
     1
 40
30.0
176
     1
 62
     7
420
 16777215
176
     1
 90
        0
176
     1
 90
        4
176
     1
 62
     7
176
     1
 62
   257
176
     1
 90
        1
176
     1
 90
        1
176
     1
 40
1.0
176
     1
 90
        8
176
     1
 62
     7
176
     1
 40
1.0
176
     1
 90
        1
176
     1
 90
        6
176
     1
 90
        2
176
     1
 62
     7
176
     1
 90
        5
176
     1
 90
        0
176
     1
 90
        0
176
     1
290
     0
176
     1
 90
        1
176
     1
 40
0.0
176
     1
 90
        0
176
     1
290
     0
176
     1
290
     1
176
     1
290
     1
176
     1
290
     0
176
     1
290
     0
176
     1
290
     0
176
     1
290
     0
176
     1
290
     0
176
     1
290
     0
176
     1
 90
       50
176
     1
 40
0.0
176
     1
 40
1.0
176
     1
 90
        0
176
     1
 62
    18
420
        0
176
     1
 90
       50
176
     1
 90
        3
176
     1
 62
     5
420
      255
176
     1
290
     0
176
     1
 90
       50
176
     1
 90
       50
176
     1
 90
       50
176
     1
290
     0
176
     1
 90
       50
176
     1
 62
   256
176
     0
 40
1.0
176
     0
 90
        2
176
     1
  1
strokes_ogs.tif
176
     1
290
     0
176
     1
 40
1.0
176
     1
 40
1.0
176
     1
  0
VISUALSTYLE
  5
35
102
{ACAD_REACTORS
330
29
102
}
330
29
100
AcDbVisualStyle
  2
Brighten
 70
    12
177
     3
291
     1
 70
    58
 90
        2
176
     1
 90
        2
176
     1
 90
        0
176
     1
 90
        0
176
     1
 40
0.6
176
     1
 40
30.0
176
     1
 62
     7
420
 16777215
176
     1
 90
        1
176
     1
 90
        4
176
     1
 62
     7
176
     1
 62
   257
176
     1
 90
        1
176
     1
 90
        1
176
     1
 40
1.0
176
     1
 90
        8
176
     1
 62
     7
176
     1
 40
1.0
176
     1
 90
        1
176
     1
 90
        6
176
     1
 90
        2
176
     1
 62
     7
176
     1
 90
        5
176
     1
 90
        0
176
     1
 90
        0
176
     1
290
     0
176
     1
 90
        1
176
     1
 40
50.0
176
     1
 90
        0
176
     1
290
     0
176
     1
290
     1
176
     1
290
     1
176
     1
290
     0
176
     1
290
     0
176
     1
290
     0
176
     1
290
     0
176
     1
290
     0
176
     1
290
     0
176
     1
 90
       50
176
     1
 40
0.0
176
     1
 40
1.0
176
     1
 90
        0
176
     1
 62
    18
420
        0
176
     1
 90
       50
176
     1
 90
        3
176
     1
 62
     5
420
      255
176
     1
290
     0
176
     1
 90
       50
176
     1
 90
       50
176
     1
 90
       50
176
     1
290
     0
176
     1
 90
       50
176
     1
 62
   256
176
     0
 40
1.0
176
     0
 90
        2
176
     1
  1
strokes_ogs.tif
176
     1
290
     0
176
     1
 40
1.0
176
     1
 40
1.0
176
     1
  0
VISUALSTYLE
  5
39
102
{ACAD_REACTORS
330
29
102
}
330
29
100
AcDbVisualStyle
  2
ColorChange
 70
    16
177
     3
291
     1
 70
    58
 90
        2
176
     1
 90
        2
176
     1
 90
        3
176
     1
 90
        0
176
     1
 40
0.6
176
     1
 40
30.0
176
     1
 62
     8
420
  8421504
176
     1
 90
        1
176
     1
 90
        4
176
     1
 62
     7
176
     1
 62
   257
176
     1
 90
        1
176
     1
 90
        1
176
     1
 40
1.0
176
     1
 90
        8
176
     1
 62
     8
420
  8421504
176
     1
 40
1.0
176
     1
 90
        1
176
     1
 90
        6
176
     1
 90
        2
176
     1
 62
     7
176
     1
 90
        5
176
     1
 90
        0
176
     1
 90
        0
176
     1
290
     0
176
     1
 90
        1
176
     1
 40
0.0
176
     1
 90
        0
176
     1
290
     0
176
     1
290
     1
176
     1
290
     1
176
     1
290
     0
176
     1
290
     0
176
     1
290
     0
176
     1
290
     0
176
     1
290
     0
176
     1
290
     0
176
     1
 90
       50
176
     1
 40
0.0
176
     1
 40
1.0
176
     1
 90
        0
176
     1
 62
    18
420
        0
176
     1
 90
       50
176
     1
 90
        3
176
     1
 62
     5
420
      255
176
     1
290
     0
176
     1
 90
       50
176
     1
 90
       50
176
     1
 90
       50
176
     1
290
     0
176
     1
 90
       50
176
     1
 62
   256
176
     0
 40
1.0
176
     0
 90
        2
176
     1
  1
strokes_ogs.tif
176
     1
290
     0
176
     1
 40
1.0
176
     1
 40
1.0
176
     1
  0
VISUALSTYLE
  5
32
102
{ACAD_REACTORS
330
29
102
}
330
29
100
AcDbVisualStyle
  2
Conceptual
 70
     9
177
     3
291
     0
 70
    58
 90
        3
176
     1
 90
        2
176
     1
 90
        0
176
     1
 90
        0
176
     1
 40
0.6
176
     1
 40
30.0
176
     1
 62
     7
420
 16777215
176
     1
 90
        2
176
     1
 90
        2
176
     1
 62
     7
176
     1
 62
   257
176
     1
 90
        1
176
     1
 90
        1
176
     1
 40
179.0
176
     1
 90
        8
176
     1
 62
     7
176
     1
 40
1.0
176
     1
 90
        1
176
     1
 90
        6
176
     1
 90
        2
176
     1
 62
     7
176
     1
 90
        3
176
     1
 90
        0
176
     1
 90
        0
176
     1
290
     0
176
     1
 90
        1
176
     1
 40
0.0
176
     1
 90
        0
176
     1
290
     0
176
     1
290
     1
176
     1
290
     1
176
     1
290
     0
176
     1
290
     0
176
     1
290
     0
176
     1
290
     0
176
     1
290
     0
176
     1
290
     0
176
     1
 90
       50
176
     1
 40
0.0
176
     1
 40
1.0
176
     1
 90
        0
176
     1
 62
    18
420
        0
176
     1
 90
       50
176
     1
 90
        3
176
     1
 62
     5
420
      255
176
     1
290
     0
176
     1
 90
       50
176
     1
 90
       50
176
     1
 90
       50
176
     1
290
     0
176
     1
 90
       50
176
     1
 62
   256
176
     0
 40
1.0
176
     0
 90
        2
176
     1
  1
strokes_ogs.tif
176
     1
290
     0
176
     1
 40
1.0
176
     1
 40
1.0
176
     1
  0
VISUALSTYLE
  5
34
102
{ACAD_REACTORS
330
29
102
}
330
29
100
AcDbVisualStyle
  2
Dim
 70
    11
177
     3
291
     1
 70
    58
 90
        2
176
     1
 90
        2
176
     1
 90
        0
176
     1
 90
        0
176
     1
 40
0.6
176
     1
 40
30.0
176
     1
 62
     7
420
 16777215
176
     1
 90
        1
176
     1
 90
        4
176
     1
 62
     7
176
     1
 62
   257
176
     1
 90
        1
176
     1
 90
        1
176
     1
 40
1.0
176
     1
 90
        8
176
     1
 62
     7
176
     1
 40
1.0
176
     1
 90
        1
176
     1
 90
        6
176
     1
 90
        2
176
     1
 62
     7
176
     1
 90
        5
176
     1
 90
        0
176
     1
 90
        0
176
     1
290
     0
176
     1
 90
        1
176
     1
 40
-50.0
176
     1
 90
        0
176
     1
290
     0
176
     1
290
     1
176
     1
290
     1
176
     1
290
     0
176
     1
290
     0
176
     1
290
     0
176
     1
290
     0
176
     1
290
     0
176
     1
290
     0
176
     1
 90
       50
176
     1
 40
0.0
176
     1
 40
1.0
176
     1
 90
        0
176
     1
 62
    18
420
        0
176
     1
 90
       50
176
     1
 90
        3
176
     1
 62
     5
420
      255
176
     1
290
     0
176
     1
 90
       50
176
     1
 90
       50
176
     1
 90
       50
176
     1
290
     0
176
     1
 90
       50
176
     1
 62
   256
176
     0
 40
1.0
176
     0
 90
        2
176
     1
  1
strokes_ogs.tif
176
     1
290
     0
176
     1
 40
1.0
176
     1
 40
1.0
176
     1
  0
VISUALSTYLE
  5
41
102
{ACAD_REACTORS
330
29
102
}
330
29
100
AcDbVisualStyle
  2
EdgeColorOff
 70
    22
177
     3
291
     1
 70
    58
 90
        2
176
     0
 90
        2
176
     0
 90
        0
176
     0
 90
        0
176
     0
 40
0.6
176
     0
 40
30.0
176
     0
 62
     7
420
 16777215
176
     0
 90
        1
176
     0
 90
        4
176
     0
 62
     7
176
     0
 62
   257
176
     0
 90
        1
176
     0
 90
        1
176
     0
 40
1.0
176
     0
 90
        8
176
     2
 62
     7
176
     0
 40
1.0
176
     0
 90
        1
176
     0
 90
        6
176
     0
 90
        2
176
     0
 62
     7
176
     0
 90
        5
176
     0
 90
        0
176
     0
 90
        0
176
     0
290
     0
176
     0
 90
        1
176
     0
 40
0.0
176
     0
 90
        0
176
     0
290
     0
176
     0
290
     1
176
     0
290
     1
176
     0
290
     0
176
     0
290
     0
176
     0
290
     0
176
     0
290
     0
176
     0
290
     0
176
     0
290
     0
176
     0
 90
       50
176
     0
 40
0.0
176
     0
 40
1.0
176
     0
 90
        0
176
     0
 62
    18
420
        0
176
     0
 90
       50
176
     0
 90
        3
176
     0
 62
     5
420
      255
176
     0
290
     0
176
     0
 90
       50
176
     0
 90
       50
176
     0
 90
       50
176
     0
290
     0
176
     0
 90
       50
176
     0
 62
   256
176
     0
 40
1.0
176
     0
 90
        2
176
     0
  1
strokes_ogs.tif
176
     0
290
     0
176
     0
 40
1.0
176
     0
 40
1.0
176
     0
  0
VISUALSTYLE
  5
38
102
{ACAD_REACTORS
330
29
102
}
330
29
100
AcDbVisualStyle
  2
Facepattern
 70
    15
177
     3
291
     1
 70
    58
 90
        2
176
     1
 90
        2
176
     1
 90
        0
176
     1
 90
        0
176
     1
 40
0.6
176
     1
 40
30.0
176
     1
 62
     7
420
 16777215
176
     1
 90
        1
176
     1
 90
        4
176
     1
 62
     7
176
     1
 62
   257
176
     1
 90
        1
176
     1
 90
        1
176
     1
 40
1.0
176
     1
 90
        8
176
     1
 62
     7
176
     1
 40
1.0
176
     1
 90
        1
176
     1
 90
        6
176
     1
 90
        2
176
     1
 62
     7
176
     1
 90
        5
176
     1
 90
        0
176
     1
 90
        0
176
     1
290
     0
176
     1
 90
        1
176
     1
 40
0.0
176
     1
 90
        0
176
     1
290
     0
176
     1
290
     1
176
     1
290
     1
176
     1
290
     0
176
     1
290
     0
176
     1
290
     0
176
     1
290
     0
176
     1
290
     0
176
     1
290
     0
176
     1
 90
       50
176
     1
 40
0.0
176
     1
 40
1.0
176
     1
 90
        0
176
     1
 62
    18
420
        0
176
     1
 90
       50
176
     1
 90
        3
176
     1
 62
     5
420
      255
176
     1
290
     0
176
     1
 90
       50
176
     1
 90
       50
176
     1
 90
       50
176
     1
290
     0
176
     1
 90
       50
176
     1
 62
   256
176
     0
 40
1.0
176
     0
 90
        2
176
     1
  1
strokes_ogs.tif
176
     1
290
     0
176
     1
 40
1.0
176
     1
 40
1.0
176
     1
  0
VISUALSTYLE
  5
2A
102
{ACAD_REACTORS
330
29
102
}
330
29
100
AcDbVisualStyle
  2
Flat
 70
     0
177
     3
291
     1
 70
    58
 90
        2
176
     1
 90
        1
176
     1
 90
        1
176
     1
 90
        2
176
     1
 40
0.6
176
     1
 40
30.0
176
     1
 62
     7
420
 16777215
176
     1
 90
        0
176
     1
 90
        0
176
     1
 62
     7
176
     1
 62
   257
176
     1
 90
        1
176
     1
 90
        1
176
     1
 40
1.0
176
     1
 90
        8
176
     1
 62
     7
176
     1
 40
1.0
176
     1
 90
        1
176
     1
 90
        6
176
     1
 90
        2
176
     1
 62
     7
176
     1
 90
        5
176
     1
 90
        0
176
     1
 90
        0
176
     1
290
     0
176
     1
 90
       13
176
     1
 40
0.0
176
     1
 90
        0
176
     1
290
     0
176
     1
290
     1
176
     1
290
     1
176
     1
290
     0
176
     1
290
     0
176
     1
290
     0
176
     1
290
     0
176
     1
290
     0
176
     1
290
     0
176
     1
 90
       50
176
     1
 40
0.0
176
     1
 40
1.0
176
     1
 90
        0
176
     1
 62
    18
420
        0
176
     1
 90
       50
176
     1
 90
        3
176
     1
 62
     5
420
      255
176
     1
290
     0
176
     1
 90
       50
176
     1
 90
       50
176
     1
 90
       50
176
     1
290
     0
176
     1
 90
       50
176
     1
 62
   256
176
     0
 40
1.0
176
     0
 90
        2
176
     1
  1
strokes_ogs.tif
176
     1
290
     0
176
     1
 40
1.0
176
     1
 40
1.0
176
     1
  0
VISUALSTYLE
  5
2B
102
{ACAD_REACTORS
330
29
102
}
330
29
100
AcDbVisualStyle
  2
FlatWithEdges
 70
     1
177
     3
291
     1
 70
    58
 90
        2
176
     1
 90
        1
176
     1
 90
        1
176
     1
 90
        2
176
     1
 40
0.6
176
     1
 40
30.0
176
     1
 62
     7
420
 16777215
176
     1
 90
        1
176
     1
 90
        0
176
     1
 62
     7
176
     1
 62
   257
176
     1
 90
        1
176
     1
 90
        1
176
     1
 40
1.0
176
     1
 90
        0
176
     1
 62
   257
176
     1
 40
1.0
176
     1
 90
        1
176
     1
 90
        6
176
     1
 90
        2
176
     1
 62
     7
176
     1
 90
        5
176
     1
 90
        0
176
     1
 90
        0
176
     1
290
     0
176
     1
 90
       13
176
     1
 40
0.0
176
     1
 90
        0
176
     1
290
     0
176
     1
290
     1
176
     1
290
     1
176
     1
290
     0
176
     1
290
     0
176
     1
290
     0
176
     1
290
     0
176
     1
290
     0
176
     1
290
     0
176
     1
 90
       50
176
     1
 40
0.0
176
     1
 40
1.0
176
     1
 90
        0
176
     1
 62
    18
420
        0
176
     1
 90
       50
176
     1
 90
        3
176
     1
 62
     5
420
      255
176
     1
290
     0
176
     1
 90
       50
176
     1
 90
       50
176
     1
 90
       50
176
     1
290
     0
176
     1
 90
       50
176
     1
 62
   256
176
     0
 40
1.0
176
     0
 90
        2
176
     1
  1
strokes_ogs.tif
176
     1
290
     0
176
     1
 40
1.0
176
     1
 40
1.0
176
     1
  0
VISUALSTYLE
  5
2C
102
{ACAD_REACTORS
330
29
102
}
330
29
100
AcDbVisualStyle
  2
Gouraud
 70
     2
177
     3
291
     1
 70
    58
 90
        2
176
     1
 90
        2
176
     1
 90
        1
176
     1
 90
        2
176
     1
 40
0.6
176
     1
 40
30.0
176
     1
 62
     7
420
 16777215
176
     1
 90
        0
176
     1
 90
        0
176
     1
 62
     7
176
     1
 62
   257
176
     1
 90
        1
176
     1
 90
        1
176
     1
 40
1.0
176
     1
 90
        0
176
     1
 62
     7
176
     1
 40
1.0
176
     1
 90
        1
176
     1
 90
        6
176
     1
 90
        2
176
     1
 62
     7
176
     1
 90
        5
176
     1
 90
        0
176
     1
 90
        0
176
     1
290
     0
176
     1
 90
       13
176
     1
 40
0.0
176
     1
 90
        0
176
     1
290
     0
176
     1
290
     1
176
     1
290
     1
176
     1
290
     0
176
     1
290
     0
176
     1
290
     0
176
     1
290
     0
176
     1
290
     0
176
     1
290
     0
176
     1
 90
       50
176
     1
 40
0.0
176
     1
 40
1.0
176
     1
 90
        0
176
     1
 62
    18
420
        0
176
     1
 90
       50
176
     1
 90
        3
176
     1
 62
     5
420
      255
176
     1
290
     0
176
     1
 90
       50
176
     1
 90
       50
176
     1
 90
       50
176
     1
290
     0
176
     1
 90
       50
176
     1
 62
   256
176
     0
 40
1.0
176
     0
 90
        2
176
     1
  1
strokes_ogs.tif
176
     1
290
     0
176
     1
 40
1.0
176
     1
 40
1.0
176
     1
  0
VISUALSTYLE
  5
2D
102
{ACAD_REACTORS
330
29
102
}
330
29
100
AcDbVisualStyle
  2
GouraudWithEdges
 70
     3
177
     3
291
     1
 70
    58
 90
        2
176
     1
 90
        2
176
     1
 90
        1
176
     1
 90
        2
176
     1
 40
0.6
176
     1
 40
30.0
176
     1
 62
     7
420
 16777215
176
     1
 90
        1
176
     1
 90
        0
176
     1
 62
     7
176
     1
 62
   257
176
     1
 90
        1
176
     1
 90
        1
176
     1
 40
1.0
176
     1
 90
        0
176
     1
 62
   257
176
     1
 40
1.0
176
     1
 90
        1
176
     1
 90
        6
176
     1
 90
        2
176
     1
 62
     7
176
     1
 90
        5
176
     1
 90
        0
176
     1
 90
        0
176
     1
290
     0
176
     1
 90
       13
176
     1
 40
0.0
176
     1
 90
        0
176
     1
290
     0
176
     1
290
     1
176
     1
290
     1
176
     1
290
     0
176
     1
290
     0
176
     1
290
     0
176
     1
290
     0
176
     1
290
     0
176
     1
290
     0
176
     1
 90
       50
176
     1
 40
0.0
176
     1
 40
1.0
176
     1
 90
        0
176
     1
 62
    18
420
        0
176
     1
 90
       50
176
     1
 90
        3
176
     1
 62
     5
420
      255
176
     1
290
     0
176
     1
 90
       50
176
     1
 90
       50
176
     1
 90
       50
176
     1
290
     0
176
     1
 90
       50
176
     1
 62
   256
176
     0
 40
1.0
176
     0
 90
        2
176
     1
  1
strokes_ogs.tif
176
     1
290
     0
176
     1
 40
1.0
176
     1
 40
1.0
176
     1
  0
VISUALSTYLE
  5
31
102
{ACAD_REACTORS
330
29
102
}
330
29
100
AcDbVisualStyle
  2
Hidden
 70
     6
177
     3
291
     0
 70
    58
 90
        1
176
     1
 90
        2
176
     1
 90
        2
176
     1
 90
        0
176
     1
 40
0.6
176
     1
 40
30.0
176
     1
 62
     7
420
 16777215
176
     1
 90
        2
176
     1
 90
        2
176
     1
 62
     7
176
     1
 62
   257
176
     1
 90
        2
176
     1
 90
        1
176
     1
 40
40.0
176
     1
 90
        0
176
     1
 62
   257
176
     1
 40
1.0
176
     1
 90
        1
176
     1
 90
        6
176
     1
 90
        2
176
     1
 62
     7
176
     1
 90
        3
176
     1
 90
        0
176
     1
 90
        0
176
     1
290
     0
176
     1
 90
        1
176
     1
 40
0.0
176
     1
 90
        0
176
     1
290
     0
176
     1
290
     1
176
     1
290
     1
176
     1
290
     0
176
     1
290
     0
176
     1
290
     0
176
     1
290
     0
176
     1
290
     0
176
     1
290
     0
176
     1
 90
       50
176
     1
 40
0.0
176
     1
 40
1.0
176
     1
 90
        0
176
     1
 62
    18
420
        0
176
     1
 90
       50
176
     1
 90
        3
176
     1
 62
     5
420
      255
176
     1
290
     0
176
     1
 90
       50
176
     1
 90
       50
176
     1
 90
       50
176
     1
290
     0
176
     1
 90
       50
176
     1
 62
   256
176
     0
 40
1.0
176
     0
 90
        2
176
     1
  1
strokes_ogs.tif
176
     1
290
     0
176
     1
 40
1.0
176
     1
 40
1.0
176
     1
  0
VISUALSTYLE
  5
3F
102
{ACAD_REACTORS
330
29
102
}
330
29
100
AcDbVisualStyle
  2
JitterOff
 70
    20
177
     3
291
     1
 70
    58
 90
        2
176
     0
 90
        2
176
     0
 90
        0
176
     0
 90
        0
176
     0
 40
0.6
176
     0
 40
30.0
176
     0
 62
     7
420
 16777215
176
     0
 90
        1
176
     0
 90
        4
176
     0
 62
     7
176
     0
 62
   257
176
     0
 90
        1
176
     0
 90
        1
176
     0
 40
1.0
176
     0
 90
       10
176
     2
 62
     7
176
     0
 40
1.0
176
     0
 90
        1
176
     0
 90
        6
176
     0
 90
        2
176
     0
 62
     7
176
     0
 90
        5
176
     0
 90
        0
176
     0
 90
        0
176
     0
290
     0
176
     0
 90
        1
176
     0
 40
0.0
176
     0
 90
        0
176
     0
290
     0
176
     0
290
     1
176
     0
290
     1
176
     0
290
     0
176
     0
290
     0
176
     0
290
     0
176
     0
290
     0
176
     0
290
     0
176
     0
290
     0
176
     0
 90
       50
176
     0
 40
0.0
176
     0
 40
1.0
176
     0
 90
        0
176
     0
 62
    18
420
        0
176
     0
 90
       50
176
     0
 90
        3
176
     0
 62
     5
420
      255
176
     0
290
     0
176
     0
 90
       50
176
     0
 90
       50
176
     0
 90
       50
176
     0
290
     0
176
     0
 90
       50
176
     0
 62
   256
176
     0
 40
1.0
176
     0
 90
        2
176
     0
  1
strokes_ogs.tif
176
     0
290
     0
176
     0
 40
1.0
176
     0
 40
1.0
176
     0
  0
VISUALSTYLE
  5
37
102
{ACAD_REACTORS
330
29
102
}
330
29
100
AcDbVisualStyle
  2
Linepattern
 70
    14
177
     3
291
     1
 70
    58
 90
        2
176
     1
 90
        2
176
     1
 90
        0
176
     1
 90
        0
176
     1
 40
0.6
176
     1
 40
30.0
176
     1
 62
     7
420
 16777215
176
     1
 90
        1
176
     1
 90
        4
176
     1
 62
     7
176
     1
 62
   257
176
     1
 90
        7
176
     1
 90
        7
176
     1
 40
1.0
176
     1
 90
        8
176
     1
 62
     7
176
     1
 40
1.0
176
     1
 90
        1
176
     1
 90
        6
176
     1
 90
        2
176
     1
 62
     7
176
     1
 90
        5
176
     1
 90
        0
176
     1
 90
        0
176
     1
290
     0
176
     1
 90
        1
176
     1
 40
0.0
176
     1
 90
        0
176
     1
290
     0
176
     1
290
     1
176
     1
290
     1
176
     1
290
     0
176
     1
290
     0
176
     1
290
     0
176
     1
290
     0
176
     1
290
     0
176
     1
290
     0
176
     1
 90
       50
176
     1
 40
0.0
176
     1
 40
1.0
176
     1
 90
        0
176
     1
 62
    18
420
        0
176
     1
 90
       50
176
     1
 90
        3
176
     1
 62
     5
420
      255
176
     1
290
     0
176
     1
 90
       50
176
     1
 90
       50
176
     1
 90
       50
176
     1
290
     0
176
     1
 90
       50
176
     1
 62
   256
176
     0
 40
1.0
176
     0
 90
        2
176
     1
  1
strokes_ogs.tif
176
     1
290
     0
176
     1
 40
1.0
176
     1
 40
1.0
176
     1
  0
VISUALSTYLE
  5
40
102
{ACAD_REACTORS
330
29
102
}
330
29
100
AcDbVisualStyle
  2
OverhangOff
 70
    21
177
     3
291
     1
 70
    58
 90
        2
176
     0
 90
        2
176
     0
 90
        0
176
     0
 90
        0
176
     0
 40
0.6
176
     0
 40
30.0
176
     0
 62
     7
420
 16777215
176
     0
 90
        1
176
     0
 90
        4
176
     0
 62
     7
176
     0
 62
   257
176
     0
 90
        1
176
     0
 90
        1
176
     0
 40
1.0
176
     0
 90
        9
176
     2
 62
     7
176
     0
 40
1.0
176
     0
 90
        1
176
     0
 90
        6
176
     0
 90
        2
176
     0
 62
     7
176
     0
 90
        5
176
     0
 90
        0
176
     0
 90
        0
176
     0
290
     0
176
     0
 90
        1
176
     0
 40
0.0
176
     0
 90
        0
176
     0
290
     0
176
     0
290
     1
176
     0
290
     1
176
     0
290
     0
176
     0
290
     0
176
     0
290
     0
176
     0
290
     0
176
     0
290
     0
176
     0
290
     0
176
     0
 90
       50
176
     0
 40
0.0
176
     0
 40
1.0
176
     0
 90
        0
176
     0
 62
    18
420
        0
176
     0
 90
       50
176
     0
 90
        3
176
     0
 62
     5
420
      255
176
     0
290
     0
176
     0
 90
       50
176
     0
 90
       50
176
     0
 90
       50
176
     0
290
     0
176
     0
 90
       50
176
     0
 62
   256
176
     0
 40
1.0
176
     0
 90
        2
176
     0
  1
strokes_ogs.tif
176
     0
290
     0
176
     0
 40
1.0
176
     0
 40
1.0
176
     0
  0
VISUALSTYLE
  5
33
102
{ACAD_REACTORS
330
29
102
}
330
29
100
AcDbVisualStyle
  2
Realistic
 70
     8
177
     3
291
     0
 70
    58
 90
        2
176
     1
 90
        3
176
     1
 90
        0
176
     1
 90
        2
176
     1
 40
0.6
176
     1
 40
30.0
176
     1
 62
     7
420
 16777215
176
     1
 90
        0
176
     1
 90
        0
176
     1
 62
     7
176
     1
 62
   257
176
     1
 90
        1
176
     1
 90
        1
176
     1
 40
1.0
176
     1
 90
        8
176
     1
 62
   257
176
     1
 40
1.0
176
     1
 90
        1
176
     1
 90
        6
176
     1
 90
        2
176
     1
 62
     7
176
     1
 90
        3
176
     1
 90
        0
176
     1
 90
        0
176
     1
290
     0
176
     1
 90
       13
176
     1
 40
0.0
176
     1
 90
        0
176
     1
290
     0
176
     1
290
     1
176
     1
290
     1
176
     1
290
     0
176
     1
290
     0
176
     1
290
     0
176
     1
290
     0
176
     1
290
     0
176
     1
290
     0
176
     1
 90
       50
176
     1
 40
0.0
176
     1
 40
1.0
176
     1
 90
        0
176
     1
 62
    18
420
        0
176
     1
 90
       50
176
     1
 90
        3
176
     1
 62
     5
420
      255
176
     1
290
     0
176
     1
 90
       50
176
     1
 90
       50
176
     1
 90
       50
176
     1
290
     0
176
     1
 90
       50
176
     1
 62
   256
176
     0
 40
1.0
176
     0
 90
        2
176
     1
  1
strokes_ogs.tif
176
     1
290
     0
176
     1
 40
1.0
176
     1
 40
1.0
176
     1
  0
VISUALSTYLE
  5
3E
102
{ACAD_REACTORS
330
29
102
}
330
29
100
AcDbVisualStyle
  2
Shaded
 70
    27
177
     3
291
     0
 70
    58
 90
        2
176
     1
 90
        2
176
     1
 90
        1
176
     1
 90
        2
176
     1
 40
0.6
176
     1
 40
30.0
176
     1
 62
     7
420
 16777215
176
     1
 90
        0
176
     1
 90
        4
176
     1
 62
     7
176
     1
 62
   257
176
     1
 90
        1
176
     1
 90
        1
176
     1
 40
1.0
176
     1
 90
        8
176
     1
 62
   257
176
     1
 40
1.0
176
     1
 90
        1
176
     1
 90
        6
176
     1
 90
        2
176
     1
 62
     8
420
  7895160
176
     1
 90
        3
176
     1
 90
        0
176
     1
 90
        0
176
     1
290
     0
176
     1
 90
        5
176
     1
 40
0.0
176
     1
 90
        0
176
     1
290
     0
176
     1
290
     1
176
     1
290
     1
176
     1
290
     0
176
     1
290
     0
176
     1
290
     0
176
     1
290
     0
176
     1
290
     0
176
     1
290
     0
176
     1
 90
       50
176
     1
 40
0.0
176
     1
 40
1.0
176
     1
 90
        0
176
     1
 62
    18
420
        0
176
     1
 90
       50
176
     1
 90
        3
176
     1
 62
     5
420
      255
176
     1
290
     0
176
     1
 90
       50
176
     1
 90
       50
176
     1
 90
       50
176
     1
290
     0
176
     1
 90
       50
176
     1
 62
   256
176
     0
 40
1.0
176
     0
 90
        2
176
     1
  1
strokes_ogs.tif
176
     1
290
     0
176
     1
 40
1.0
176
     1
 40
1.0
176
     1
  0
VISUALSTYLE
  5
3D
102
{ACAD_REACTORS
330
29
102
}
330
29
100
AcDbVisualStyle
  2
Shaded with edges
 70
    26
177
     3
291
     0
 70
    58
 90
        2
176
     1
 90
        2
176
     1
 90
        1
176
     1
 90
        2
176
     1
 40
0.6
176
     1
 40
30.0
176
     1
 62
     7
420
 16777215
176
     1
 90
        1
176
     1
 90
        2
176
     1
 62
     7
176
     1
 62
   257
176
     1
 90
        2
176
     1
 90
        1
176
     1
 40
1.0
176
     1
 90
        8
176
     1
 62
   257
176
     1
 40
1.0
176
     1
 90
        1
176
     1
 90
        6
176
     1
 90
        2
176
     1
 62
     7
176
     1
 90
        3
176
     1
 90
        0
176
     1
 90
        0
176
     1
290
     0
176
     1
 90
        5
176
     1
 40
0.0
176
     1
 90
        0
176
     1
290
     0
176
     1
290
     1
176
     1
290
     1
176
     1
290
     0
176
     1
290
     0
176
     1
290
     0
176
     1
290
     0
176
     1
290
     0
176
     1
290
     0
176
     1
 90
       50
176
     1
 40
0.0
176
     1
 40
1.0
176
     1
 90
        0
176
     1
 62
    18
420
        0
176
     1
 90
       50
176
     1
 90
        3
176
     1
 62
     5
420
      255
176
     1
290
     0
176
     1
 90
       50
176
     1
 90
       50
176
     1
 90
       50
176
     1
290
     0
176
     1
 90
       50
176
     1
 62
   256
176
     0
 40
1.0
176
     0
 90
        2
176
     1
  1
strokes_ogs.tif
176
     1
290
     0
176
     1
 40
1.0
176
     1
 40
1.0
176
     1
  0
VISUALSTYLE
  5
3A
102
{ACAD_REACTORS
330
29
102
}
330
29
100
AcDbVisualStyle
  2
Shades of Gray
 70
    23
177
     3
291
     0
 70
    58
 90
        2
176
     1
 90
        2
176
     1
 90
        3
176
     1
 90
        0
176
     1
 40
0.6
176
     1
 40
30.0
176
     1
 62
     7
420
 16777215
176
     1
 90
        2
176
     1
 90
        2
176
     1
 62
     7
176
     1
 62
     7
176
     1
 90
        1
176
     1
 90
        1
176
     1
 40
40.0
176
     1
 90
        8
176
     1
 62
     7
176
     1
 40
1.0
176
     1
 90
        1
176
     1
 90
        6
176
     1
 90
        2
176
     1
 62
     7
176
     1
 90
        3
176
     1
 90
        0
176
     1
 90
        0
176
     1
290
     0
176
     1
 90
        1
176
     1
 40
0.0
176
     1
 90
        0
176
     1
290
     0
176
     1
290
     1
176
     1
290
     1
176
     1
290
     0
176
     1
290
     0
176
     1
290
     0
176
     1
290
     0
176
     1
290
     0
176
     1
290
     0
176
     1
 90
       50
176
     1
 40
0.0
176
     1
 40
1.0
176
     1
 90
        0
176
     1
 62
    18
420
        0
176
     1
 90
       50
176
     1
 90
        3
176
     1
 62
     5
420
      255
176
     1
290
     0
176
     1
 90
       50
176
     1
 90
       50
176
     1
 90
       50
176
     1
290
     0
176
     1
 90
       50
176
     1
 62
   256
176
     0
 40
1.0
176
     0
 90
        2
176
     1
  1
strokes_ogs.tif
176
     1
290
     0
176
     1
 40
1.0
176
     1
 40
1.0
176
     1
  0
VISUALSTYLE
  5
3B
102
{ACAD_REACTORS
330
29
102
}
330
29
100
AcDbVisualStyle
  2
Sketchy
 70
    24
177
     3
291
     0
 70
    58
 90
        1
176
     1
 90
        2
176
     1
 90
        2
176
     1
 90
        0
176
     1
 40
0.6
176
     1
 40
30.0
176
     1
 62
     7
420
 16777215
176
     1
 90
        2
176
     1
 90
        2
176
     1
 62
     7
176
     1
 62
     7
176
     1
 90
        1
176
     1
 90
        1
176
     1
 40
40.0
176
     1
 90
       11
176
     1
 62
     7
176
     1
 40
1.0
176
     1
 90
        1
176
     1
 90
        6
176
     1
 90
        2
176
     1
 62
     7
176
     1
 90
        6
176
     1
 90
        0
176
     1
 90
        0
176
     1
290
     0
176
     1
 90
        1
176
     1
 40
0.0
176
     1
 90
        0
176
     1
290
     0
176
     1
290
     1
176
     1
290
     1
176
     1
290
     0
176
     1
290
     0
176
     1
290
     0
176
     1
290
     0
176
     1
290
     0
176
     1
290
     0
176
     1
 90
       50
176
     1
 40
0.0
176
     1
 40
1.0
176
     1
 90
        0
176
     1
 62
    18
420
        0
176
     1
 90
       50
176
     1
 90
        3
176
     1
 62
     5
420
      255
176
     1
290
     0
176
     1
 90
       50
176
     1
 90
       50
176
     1
 90
       50
176
     1
290
     0
176
     1
 90
       50
176
     1
 62
   256
176
     0
 40
1.0
176
     0
 90
        2
176
     1
  1
strokes_ogs.tif
176
     1
290
     0
176
     1
 40
1.0
176
     1
 40
1.0
176
     1
  0
VISUALSTYLE
  5
36
102
{ACAD_REACTORS
330
29
102
}
330
29
100
AcDbVisualStyle
  2
Thicken
 70
    13
177
     3
291
     1
 70
    58
 90
        2
176
     1
 90
        2
176
     1
 90
        0
176
     1
 90
        0
176
     1
 40
0.6
176
     1
 40
30.0
176
     1
 62
     7
420
 16777215
176
     1
 90
        1
176
     1
 90
        4
176
     1
 62
     7
176
     1
 62
   257
176
     1
 90
        1
176
     1
 90
        1
176
     1
 40
1.0
176
     1
 90
       12
176
     1
 62
     7
176
     1
 40
1.0
176
     1
 90
        1
176
     1
 90
        6
176
     1
 90
        2
176
     1
 62
     7
176
     1
 90
        5
176
     1
 90
        0
176
     1
 90
        0
176
     1
290
     0
176
     1
 90
        1
176
     1
 40
0.0
176
     1
 90
        0
176
     1
290
     0
176
     1
290
     1
176
     1
290
     1
176
     1
290
     0
176
     1
290
     0
176
     1
290
     0
176
     1
290
     0
176
     1
290
     0
176
     1
290
     0
176
     1
 90
       50
176
     1
 40
0.0
176
     1
 40
1.0
176
     1
 90
        0
176
     1
 62
    18
420
        0
176
     1
 90
       50
176
     1
 90
        3
176
     1
 62
     5
420
      255
176
     1
290
     0
176
     1
 90
       50
176
     1
 90
       50
176
     1
 90
       50
176
     1
290
     0
176
     1
 90
       50
176
     1
 62
   256
176
     0
 40
1.0
176
     0
 90
        2
176
     1
  1
strokes_ogs.tif
176
     1
290
     0
176
     1
 40
1.0
176
     1
 40
1.0
176
     1
  0
VISUALSTYLE
  5
30
102
{ACAD_REACTORS
330
29
102
}
330
29
100
AcDbVisualStyle
  2
Wireframe
 70
     5
177
     3
291
     0
 70
    58
 90
        0
176
     1
 90
        2
176
     1
 90
        0
176
     1
 90
        0
176
     1
 40
0.6
176
     1
 40
30.0
176
     1
 62
     7
420
 16777215
176
     1
 90
        1
176
     1
 90
        4
176
     1
 62
     7
176
     1
 62
   257
176
     1
 90
        1
176
     1
 90
        1
176
     1
 40
1.0
176
     1
 90
        0
176
     1
 62
   257
176
     1
 40
1.0
176
     1
 90
        1
176
     1
 90
        6
176
     1
 90
        2
176
     1
 62
     7
176
     1
 90
        3
176
     1
 90
        0
176
     1
 90
        0
176
     1
290
     0
176
     1
 90
        1
176
     1
 40
0.0
176
     1
 90
        0
176
     1
290
     0
176
     1
290
     1
176
     1
290
     1
176
     1
290
     0
176
     1
290
     0
176
     1
290
     0
176
     1
290
     0
176
     1
290
     0
176
     1
290
     0
176
     1
 90
       50
176
     1
 40
0.0
176
     1
 40
1.0
176
     1
 90
        0
176
     1
 62
    18
420
        0
176
     1
 90
       50
176
     1
 90
        3
176
     1
 62
     5
420
      255
176
     1
290
     0
176
     1
 90
       50
176
     1
 90
       50
176
     1
 90
       50
176
     1
290
     0
176
     1
 90
       50
176
     1
 62
   256
176
     0
 40
1.0
176
     0
 90
        2
176
     1
  1
strokes_ogs.tif
176
     1
290
     0
176
     1
 40
1.0
176
     1
 40
1.0
176
     1
  0
VISUALSTYLE
  5
3C
102
{ACAD_REACTORS
330
29
102
}
330
29
100
AcDbVisualStyle
  2
X-Ray
 70
    25
177
     3
291
     0
 70
    58
 90
        2
176
     1
 90
        2
176
     1
 90
        1
176
     1
 90
        1
176
     1
 40
0.5
176
     1
 40
30.0
176
     1
 62
     7
420
 16777215
176
     1
 90
        1
176
     1
 90
        0
176
     1
 62
     7
176
     1
 62
   257
176
     1
 90
        1
176
     1
 90
        1
176
     1
 40
1.0
176
     1
 90
        8
176
     1
 62
     7
176
     1
 40
1.0
176
     1
 90
        1
176
     1
 90
        6
176
     1
 90
        2
176
     1
 62
     7
176
     1
 90
        3
176
     1
 90
        0
176
     1
 90
        0
176
     1
290
     0
176
     1
 90
       13
176
     1
 40
0.0
176
     1
 90
        0
176
     1
290
     0
176
     1
290
     1
176
     1
290
     1
176
     1
290
     0
176
     1
290
     0
176
     1
290
     0
176
     1
290
     0
176
     1
290
     0
176
     1
290
     0
176
     1
 90
       50
176
     1
 40
0.0
176
     1
 40
1.0
176
     1
 90
        0
176
     1
 62
    18
420
        0
176
     1
 90
       50
176
     1
 90
        3
176
     1
 62
     5
420
      255
176
     1
290
     0
176
     1
 90
       50
176
     1
 90
       50
176
     1
 90
       50
176
     1
290
     0
176
     1
 90
       50
176
     1
 62
   256
176
     0
 40
1.0
176
     0
 90
        2
176
     1
  1
strokes_ogs.tif
176
     1
290
     0
176
     1
 40
1.0
176
     1
 40
1.0
176
     1
  0
DICTIONARYVAR
  5
179
102
{ACAD_REACTORS
330
174
102
}
330
174
100
DictionaryVariables
280
     0
  1
1:1
  0
DICTIONARYVAR
  5
176
102
{ACAD_REACTORS
330
174
102
}
330
174
100
DictionaryVariables
280
     0
  1
STANDARD
  0
DICTIONARYVAR
  5
175
102
{ACAD_REACTORS
330
174
102
}
330
174
100
DictionaryVariables
280
     0
  1
STANDARD
  0
DICTIONARYVAR
  5
177
102
{ACAD_REACTORS
330
174
102
}
330
174
100
DictionaryVariables
280
     0
  1
Imperial24
  0
DICTIONARYVAR
  5
178
102
{ACAD_REACTORS
330
174
102
}
330
174
100
DictionaryVariables
280
     0
  1
Imperial24
  0
DICTIONARY
  5
1A
330
19
100
AcDbDictionary
280
     1
281
     1
  3
BUMPTILE
360
1C
  3
DIFFUSETILE
360
1B
  3
OPACITYTILE
360
1F
  3
REFLECTIONTILE
360
1E
  3
REFRACTIONTILE
360
20
  3
SPECULARTILE
360
1D
  0
DICTIONARY
  5
12
330
11
100
AcDbDictionary
280
     1
281
     1
  3
BUMPTILE
360
14
  3
DIFFUSETILE
360
13
  3
OPACITYTILE
360
17
  3
REFLECTIONTILE
360
16
  3
REFRACTIONTILE
360
18
  3
SPECULARTILE
360
15
  0
DICTIONARY
  5
22
330
21
100
AcDbDictionary
280
     1
281
     1
  3
BUMPTILE
360
24
  3
DIFFUSETILE
360
23
  3
OPACITYTILE
360
27
  3
REFLECTIONTILE
360
26
  3
REFRACTIONTILE
360
28
  3
SPECULARTILE
360
25
  0
DICTIONARY
  5
17A
330
65
100
AcDbDictionary
280
     1
281
     1
  3
ACAD_ROUNDTRIP_2008_TABLESTYLE_CELLSTYLEMAP
360
17B
  0
XRECORD
  5
1C
102
{ACAD_REACTORS
330
1A
102
}
330
1A
100
AcDbXrecord
280
     1
270
     1
271
     1
  0
XRECORD
  5
1B
102
{ACAD_REACTORS
330
1A
102
}
330
1A
100
AcDbXrecord
280
     1
270
     1
271
     1
  0
XRECORD
  5
1F
102
{ACAD_REACTORS
330
1A
102
}
330
1A
100
AcDbXrecord
280
     1
270
     1
271
     1
  0
XRECORD
  5
1E
102
{ACAD_REACTORS
330
1A
102
}
330
1A
100
AcDbXrecord
280
     1
270
     1
271
     1
  0
XRECORD
  5
20
102
{ACAD_REACTORS
330
1A
102
}
330
1A
100
AcDbXrecord
280
     1
270
     1
271
     1
  0
XRECORD
  5
1D
102
{ACAD_REACTORS
330
1A
102
}
330
1A
100
AcDbXrecord
280
     1
270
     1
271
     1
  0
XRECORD
  5
14
102
{ACAD_REACTORS
330
12
102
}
330
12
100
AcDbXrecord
280
     1
270
     1
271
     1
  0
XRECORD
  5
13
102
{ACAD_REACTORS
330
12
102
}
330
12
100
AcDbXrecord
280
     1
270
     1
271
     1
  0
XRECORD
  5
17
102
{ACAD_REACTORS
330
12
102
}
330
12
100
AcDbXrecord
280
     1
270
     1
271
     1
  0
XRECORD
  5
16
102
{ACAD_REACTORS
330
12
102
}
330
12
100
AcDbXrecord
280
     1
270
     1
271
     1
  0
XRECORD
  5
18
102
{ACAD_REACTORS
330
12
102
}
330
12
100
AcDbXrecord
280
     1
270
     1
271
     1
  0
XRECORD
  5
15
102
{ACAD_REACTORS
330
12
102
}
330
12
100
AcDbXrecord
280
     1
270
     1
271
     1
  0
XRECORD
  5
24
102
{ACAD_REACTORS
330
22
102
}
330
22
100
AcDbXrecord
280
     1
270
     1
271
     1
  0
XRECORD
  5
23
102
{ACAD_REACTORS
330
22
102
}
330
22
100
AcDbXrecord
280
     1
270
     1
271
     1
  0
XRECORD
  5
27
102
{ACAD_REACTORS
330
22
102
}
330
22
100
AcDbXrecord
280
     1
270
     1
271
     1
  0
XRECORD
  5
26
102
{ACAD_REACTORS
330
22
102
}
330
22
100
AcDbXrecord
280
     1
270
     1
271
     1
  0
XRECORD
  5
28
102
{ACAD_REACTORS
330
22
102
}
330
22
100
AcDbXrecord
280
     1
270
     1
271
     1
  0
XRECORD
  5
25
102
{ACAD_REACTORS
330
22
102
}
330
22
100
AcDbXrecord
280
     1
270
     1
271
     1
  0
CELLSTYLEMAP
  5
17B
102
{ACAD_REACTORS
330
17A
102
}
330
17A
100
AcDbCellStyleMap
 90
        3
300
CELLSTYLE
  1
TABLEFORMAT_BEGIN
 90
        5
170
     1
 91
        0
 92
    32768
 62
   257
 93
        1
300
CONTENTFORMAT
  1
CONTENTFORMAT_BEGIN
 90
        0
 91
        0
 92
      512
 93
        0
300

 40
0.0
140
1.0
 94
        5
 62
     0
340
55
144
0.25
309
CONTENTFORMAT_END
171
     0
 94
        0
309
TABLEFORMAT_END
  1
CELLSTYLE_BEGIN
 90
        1
 91
        1
300
_TITLE
309
CELLSTYLE_END
300
CELLSTYLE
  1
TABLEFORMAT_BEGIN
 90
        5
170
     1
 91
        0
 92
        0
 62
   257
 93
        1
300
CONTENTFORMAT
  1
CONTENTFORMAT_BEGIN
 90
        0
 91
        0
 92
      512
 93
        0
300

 40
0.0
140
1.0
 94
        5
 62
     0
340
55
144
0.18
309
CONTENTFORMAT_END
171
     0
 94
        0
309
TABLEFORMAT_END
  1
CELLSTYLE_BEGIN
 90
        2
 91
        1
300
_HEADER
309
CELLSTYLE_END
300
CELLSTYLE
  1
TABLEFORMAT_BEGIN
 90
        5
170
     1
 91
        0
 92
        0
 62
   257
 93
        1
300
CONTENTFORMAT
  1
CONTENTFORMAT_BEGIN
 90
        0
 91
        0
 92
      512
 93
        0
300

 40
0.0
140
1.0
 94
        2
 62
     0
340
55
144
0.18
309
CONTENTFORMAT_END
171
     0
 94
        0
309
TABLEFORMAT_END
  1
CELLSTYLE_BEGIN
 90
        3
 91
        2
300
_DATA
309
CELLSTYLE_END
  0
ENDSEC
  0
EOF
