  0
SECTION
  2
HEADER
  9
$ACADVER
  1
AC1032
  9
$ACADMAINTVER
 90
      228
  9
$DWGCODEPAGE
  3
ANSI_1252
  9
$REQUIREDVERSIONS
160
                 0
  9
$INSBASE
 10
0.0
 20
0.0
 30
0.0
  9
$EXTMIN
 10
1.000000000000000E+20
 20
1.000000000000000E+20
 30
1.000000000000000E+20
  9
$EXTMAX
 10
-1.000000000000000E+20
 20
-1.000000000000000E+20
 30
-1.000000000000000E+20
  9
$LIMMIN
 10
0.0
 20
0.0
  9
$LIMMAX
 10
12.0
 20
9.0
  9
$ORTHOMODE
 70
     0
  9
$REGENMODE
 70
     1
  9
$FILLMODE
 70
     1
  9
$QTEXTMODE
 70
     0
  9
$MIRRTEXT
 70
     0
  9
$LTSCALE
 40
1.0
  9
$ATTMODE
 70
     1
  9
$TEXTSIZE
 40
0.2
  9
$TRACEWID
 40
0.05
  9
$TEXTSTYLE
  7
Standard
  9
$CLAYER
  8
0
  9
$CELTYPE
  6
ByLayer
  9
$CECOLOR
 62
   256
  9
$CELTSCALE
 40
1.0
  9
$DISPSILH
 70
     0
  9
$DIMSCALE
 40
1.0
  9
$DIMASZ
 40
0.18
  9
$DIMEXO
 40
0.0625
  9
$DIMDLI
 40
0.38
  9
$DIMRND
 40
0.0
  9
$DIMDLE
 40
0.0
  9
$DIMEXE
 40
0.18
  9
$DIMTP
 40
0.0
  9
$DIMTM
 40
0.0
  9
$DIMTXT
 40
0.18
  9
$DIMCEN
 40
0.09
  9
$DIMTSZ
 40
0.0
  9
$DIMTOL
 70
     0
  9
$DIMLIM
 70
     0
  9
$DIMTIH
 70
     1
  9
$DIMTOH
 70
     1
  9
$DIMSE1
 70
     0
  9
$DIMSE2
 70
     0
  9
$DIMTAD
 70
     0
  9
$DIMZIN
 70
     0
  9
$DIMBLK
  1

  9
$DIMASO
 70
     1
  9
$DIMSHO
 70
     1
  9
$DIMPOST
  1

  9
$DIMAPOST
  1

  9
$DIMALT
 70
     0
  9
$DIMALTD
 70
     2
  9
$DIMALTF
 40
25.4
  9
$DIMLFAC
 40
1.0
  9
$DIMTOFL
 70
     0
  9
$DIMTVP
 40
0.0
  9
$DIMTIX
 70
     0
  9
$DIMSOXD
 70
     0
  9
$DIMSAH
 70
     0
  9
$DIMBLK1
  1

  9
$DIMBLK2
  1

  9
$DIMSTYLE
  2
Standard
  9
$DIMCLRD
 70
     0
  9
$DIMCLRE
 70
     0
  9
$DIMCLRT
 70
     0
  9
$DIMTFAC
 40
1.0
  9
$DIMGAP
 40
0.09
  9
$DIMJUST
 70
     0
  9
$DIMSD1
 70
     0
  9
$DIMSD2
 70
     0
  9
$DIMTOLJ
 70
     1
  9
$DIMTZIN
 70
     0
  9
$DIMALTZ
 70
     0
  9
$DIMALTTZ
 70
     0
  9
$DIMUPT
 70
     0
  9
$DIMDEC
 70
     4
  9
$DIMTDEC
 70
     4
  9
$DIMALTU
 70
     2
  9
$DIMALTTD
 70
     2
  9
$DIMTXSTY
  7
Standard
  9
$DIMAUNIT
 70
     0
  9
$DIMADEC
 70
     0
  9
$DIMALTRND
 40
0.0
  9
$DIMAZIN
 70
     0
  9
$DIMDSEP
 70
    46
  9
$DIMATFIT
 70
     3
  9
$DIMFRAC
 70
     0
  9
$DIMLDRBLK
  1

  9
$DIMLUNIT
 70
     2
  9
$DIMLWD
 70
    -2
  9
$DIMLWE
 70
    -2
  9
$DIMTMOVE
 70
     0
  9
$DIMFXL
 40
1.0
  9
$DIMFXLON
 70
     0
  9
$DIMJOGANG
 40
0.7853981633974483
  9
$DIMTFILL
 70
     0
  9
$DIMTFILLCLR
 70
     0
  9
$DIMARCSYM
 70
     0
  9
$DIMLTYPE
  6

  9
$DIMLTEX1
  6

  9
$DIMLTEX2
  6

  9
$DIMTXTDIRECTION
 70
     0
  9
$LUNITS
 70
     2
  9
$LUPREC
 70
     4
  9
$SKETCHINC
 40
0.1
  9
$FILLETRAD
 40
0.0
  9
$AUNITS
 70
     0
  9
$AUPREC
 70
     0
  9
$MENU
  1
.
  9
$ELEVATION
 40
0.0
  9
$PELEVATION
 40
0.0
  9
$THICKNESS
 40
0.0
  9
$LIMCHECK
 70
     0
  9
$CHAMFERA
 40
0.0
  9
$CHAMFERB
 40
0.0
  9
$CHAMFERC
 40
0.0
  9
$CHAMFERD
 40
0.0
  9
$SKPOLY
 70
     0
  9
$TDCREATE
 40
2460146.687789352
  9
$TDUCREATE
 40
2460146.646122685
  9
$TDUPDATE
 40
2460146.687789352
  9
$TDUUPDATE
 40
2460146.646122685
  9
$TDINDWG
 40
0.0000000000
  9
$TDUSRTIMER
 40
0.0000000000
  9
$USRTIMER
 70
     1
  9
$ANGBASE
 50
0.0
  9
$ANGDIR
 70
     0
  9
$PDMODE
 70
     0
  9
$PDSIZE
 40
0.0
  9
$PLINEWID
 40
0.0
  9
$SPLFRAME
 70
     0
  9
$SPLINETYPE
 70
     6
  9
$SPLINESEGS
 70
     8
  9
$HANDSEED
  5
159
  9
$SURFTAB1
 70
     6
  9
$SURFTAB2
 70
     6
  9
$SURFTYPE
 70
     6
  9
$SURFU
 70
     6
  9
$SURFV
 70
     6
  9
$UCSBASE
  2

  9
$UCSNAME
  2

  9
$UCSORG
 10
0.0
 20
0.0
 30
0.0
  9
$UCSXDIR
 10
1.0
 20
0.0
 30
0.0
  9
$UCSYDIR
 10
0.0
 20
1.0
 30
0.0
  9
$UCSORTHOREF
  2

  9
$UCSORTHOVIEW
 70
     0
  9
$UCSORGTOP
 10
0.0
 20
0.0
 30
0.0
  9
$UCSORGBOTTOM
 10
0.0
 20
0.0
 30
0.0
  9
$UCSORGLEFT
 10
0.0
 20
0.0
 30
0.0
  9
$UCSORGRIGHT
 10
0.0
 20
0.0
 30
0.0
  9
$UCSORGFRONT
 10
0.0
 20
0.0
 30
0.0
  9
$UCSORGBACK
 10
0.0
 20
0.0
 30
0.0
  9
$PUCSBASE
  2

  9
$PUCSNAME
  2

  9
$PUCSORG
 10
0.0
 20
0.0
 30
0.0
  9
$PUCSXDIR
 10
1.0
 20
0.0
 30
0.0
  9
$PUCSYDIR
 10
0.0
 20
1.0
 30
0.0
  9
$PUCSORTHOREF
  2

  9
$PUCSORTHOVIEW
 70
     0
  9
$PUCSORGTOP
 10
0.0
 20
0.0
 30
0.0
  9
$PUCSORGBOTTOM
 10
0.0
 20
0.0
 30
0.0
  9
$PUCSORGLEFT
 10
0.0
 20
0.0
 30
0.0
  9
$PUCSORGRIGHT
 10
0.0
 20
0.0
 30
0.0
  9
$PUCSORGFRONT
 10
0.0
 20
0.0
 30
0.0
  9
$PUCSORGBACK
 10
0.0
 20
0.0
 30
0.0
  9
$USERI1
 70
     0
  9
$USERI2
 70
     0
  9
$USERI3
 70
     0
  9
$USERI4
 70
     0
  9
$USERI5
 70
     0
  9
$USERR1
 40
0.0
  9
$USERR2
 40
0.0
  9
$USERR3
 40
0.0
  9
$USERR4
 40
0.0
  9
$USERR5
 40
0.0
  9
$WORLDVIEW
 70
     1
  9
$SHADEDGE
 70
     3
  9
$SHADEDIF
 70
    70
  9
$TILEMODE
 70
     1
  9
$MAXACTVP
 70
    64
  9
$PINSBASE
 10
0.0
 20
0.0
 30
0.0
  9
$PLIMCHECK
 70
     0
  9
$PEXTMIN
 10
1.000000000000000E+20
 20
1.000000000000000E+20
 30
1.000000000000000E+20
  9
$PEXTMAX
 10
-1.000000000000000E+20
 20
-1.000000000000000E+20
 30
-1.000000000000000E+20
  9
$PLIMMIN
 10
0.0
 20
0.0
  9
$PLIMMAX
 10
12.0
 20
9.0
  9
$UNITMODE
 70
     0
  9
$VISRETAIN
 70
     1
  9
$PLINEGEN
 70
     0
  9
$PSLTSCALE
 70
     1
  9
$TREEDEPTH
 70
  3020
  9
$CMLSTYLE
  2
Standard
  9
$CMLJUST
 70
     0
  9
$CMLSCALE
 40
1.0
  9
$PROXYGRAPHICS
 70
     1
  9
$MEASUREMENT
 70
     0
  9
$CELWEIGHT
370
    -1
  9
$ENDCAPS
280
     0
  9
$JOINSTYLE
280
     0
  9
$LWDISPLAY
290
     1
  9
$INSUNITS
 70
     4
  9
$HYPERLINKBASE
  1

  9
$STYLESHEET
  1

  9
$XEDIT
290
     1
  9
$CEPSNTYPE
380
     0
  9
$PSTYLEMODE
290
     1
  9
$FINGERPRINTGUID
  2
{7C36BBD2-CD79-1843-BEB3-B2B63AFFC2F0}
  9
$VERSIONGUID
  2
{070365CA-3688-F647-B5A1-1EFCA8EF1EFB}
  9
$EXTNAMES
290
     1
  9
$PSVPSCALE
 40
0.0
  9
$OLESTARTUP
290
     0
  9
$SORTENTS
280
   127
  9
$INDEXCTL
280
     0
  9
$HIDETEXT
280
     1
  9
$XCLIPFRAME
280
     2
  9
$HALOGAP
280
     0
  9
$OBSCOLOR
 70
   257
  9
$OBSLTYPE
280
     0
  9
$INTERSECTIONDISPLAY
280
     0
  9
$INTERSECTIONCOLOR
 70
   257
  9
$DIMASSOC
280
     2
  9
$PROJECTNAME
  1

  9
$CAMERADISPLAY
290
     0
  9
$LENSLENGTH
 40
50.0
  9
$CAMERAHEIGHT
 40
0.0
  9
$STEPSPERSEC
 40
2.0
  9
$STEPSIZE
 40
6.0
  9
$3DDWFPREC
 40
2.0
  9
$PSOLWIDTH
 40
0.25
  9
$PSOLHEIGHT
 40
4.0
  9
$LOFTANG1
 40
1.570796326794896
  9
$LOFTANG2
 40
1.570796326794896
  9
$LOFTMAG1
 40
0.0
  9
$LOFTMAG2
 40
0.0
  9
$LOFTPARAM
 70
     7
  9
$LOFTNORMALS
280
     1
  9
$LATITUDE
 40
37.795
  9
$LONGITUDE
 40
-122.394
  9
$NORTHDIRECTION
 40
0.0
  9
$TIMEZONE
 70
 -8000
  9
$LIGHTGLYPHDISPLAY
280
     1
  9
$TILEMODELIGHTSYNCH
280
     1
  9
$CMATERIAL
347
11
  9
$SOLIDHIST
280
     0
  9
$SHOWHIST
280
     1
  9
$DWFFRAME
280
     2
  9
$DGNFRAME
280
     0
  9
$REALWORLDSCALE
290
     1
  9
$INTERFERECOLOR
 62
     1
  9
$INTERFEREOBJVS
345
33
  9
$INTERFEREVPVS
346
30
  9
$CSHADOW
280
     0
  9
$SHADOWPLANELOCATION
 40
0.0
  0
ENDSEC
  0
SECTION
  2
CLASSES
  0
CLASS
  1
ACDBDICTIONARYWDFLT
  2
AcDbDictionaryWithDefault
  3
ObjectDBX Classes
 90
        0
 91
        1
280
     0
281
     0
  0
CLASS
  1
MATERIAL
  2
AcDbMaterial
  3
ObjectDBX Classes
 90
     1153
 91
        3
280
     0
281
     0
  0
CLASS
  1
VISUALSTYLE
  2
AcDbVisualStyle
  3
ObjectDBX Classes
 90
     4095
 91
       24
280
     0
281
     0
  0
CLASS
  1
SCALE
  2
AcDbScale
  3
ObjectDBX Classes
 90
     1153
 91
       17
280
     0
281
     0
  0
CLASS
  1
TABLESTYLE
  2
AcDbTableStyle
  3
ObjectDBX Classes
 90
     4095
 91
        1
280
     0
281
     0
  0
CLASS
  1
MLEADERSTYLE
  2
AcDbMLeaderStyle
  3
ACDB_MLEADERSTYLE_CLASS
 90
     4095
 91
        1
280
     0
281
     0
  0
CLASS
  1
ACDBSECTIONVIEWSTYLE
  2
AcDbSectionViewStyle
  3
ObjectDBX Classes
 90
     1025
 91
        1
280
     0
281
     0
  0
CLASS
  1
ACDBDETAILVIEWSTYLE
  2
AcDbDetailViewStyle
  3
ObjectDBX Classes
 90
     1025
 91
        1
280
     0
281
     0
  0
CLASS
  1
DICTIONARYVAR
  2
AcDbDictionaryVar
  3
ObjectDBX Classes
 90
        0
 91
        5
280
     0
281
     0
  0
CLASS
  1
CELLSTYLEMAP
  2
AcDbCellStyleMap
  3
ObjectDBX Classes
 90
     1152
 91
        1
280
     0
281
     0
  0
ENDSEC
  0
SECTION
  2
TABLES
  0
TABLE
  2
VPORT
  5
8
330
0
100
AcDbSymbolTable
 70
     1
  0
VPORT
  5
57
330
8
100
AcDbSymbolTableRecord
100
AcDbViewportTableRecord
  2
*Active
 70
     0
 10
0.0
 20
0.0
 11
1.0
 21
1.0
 12
0.0
 22
0.0
 13
0.0
 23
0.0
 14
1.0
 24
1.0
 15
0.0
 25
0.0
 16
0.0
 26
0.0
 36
1.0
 17
49.99999998749409
 27
-49.99999998749409
 37
0.0
 40
101.9999999744879
 41
1.0
 42
50.0
 43
0.0
 44
0.0
 50
0.0
 51
0.0
 71
     0
 72
   100
 73
     1
 74
     1
 75
     0
 76
     0
 77
     0
 78
     0
281
     0
 65
     1
110
0.0
120
0.0
130
0.0
111
1.0
121
0.0
131
0.0
112
0.0
122
1.0
132
0.0
 79
     0
146
0.0
 60
     3
 61
     5
292
     1
282
     1
141
0.0
142
0.0
 63
   250
421
  3355443
  0
ENDTAB
  0
TABLE
  2
LTYPE
  5
5
330
0
100
AcDbSymbolTable
 70
     1
  0
LTYPE
  5
5B
330
5
100
AcDbSymbolTableRecord
100
AcDbLinetypeTableRecord
  2
ByBlock
 70
     0
  3

 72
    65
 73
     0
 40
0.0
  0
LTYPE
  5
5C
330
5
100
AcDbSymbolTableRecord
100
AcDbLinetypeTableRecord
  2
ByLayer
 70
     0
  3

 72
    65
 73
     0
 40
0.0
  0
LTYPE
  5
5D
330
5
100
AcDbSymbolTableRecord
100
AcDbLinetypeTableRecord
  2
Continuous
 70
     0
  3
Solid line
 72
    65
 73
     0
 40
0.0
  0
ENDTAB
  0
TABLE
  2
LAYER
  5
2
330
0
100
AcDbSymbolTable
 70
     2
  0
LAYER
  5
54
330
2
100
AcDbSymbolTableRecord
100
AcDbLayerTableRecord
  2
0
 70
     0
 62
     7
  6
Continuous
370
    -3
390
F
347
21
348
0
  0
LAYER
  5
78
330
2
100
AcDbSymbolTableRecord
100
AcDbLayerTableRecord
  2
Camada 1
 70
     0
 62
     7
  6
Continuous
370
     0
390
F
347
21
348
0
  0
ENDTAB
  0
TABLE
  2
STYLE
  5
3
330
0
100
AcDbSymbolTable
 70
     2
  0
STYLE
  5
55
330
3
100
AcDbSymbolTableRecord
100
AcDbTextStyleTableRecord
  2
Standard
 70
     0
 40
0.0
 41
1.0
 50
0.0
 71
     0
 42
0.2
  3
txt
  4

  0
STYLE
  5
5A
330
3
100
AcDbSymbolTableRecord
100
AcDbTextStyleTableRecord
  2
Annotative
 70
     0
 40
0.0
 41
1.0
 50
0.0
 71
     0
 42
0.2
  3
txt
  4

1001
AcadAnnotative
1000
AnnotativeData
1002
{
1070
     1
1070
     1
1002
}
  0
ENDTAB
  0
TABLE
  2
VIEW
  5
6
330
0
100
AcDbSymbolTable
 70
     0
  0
ENDTAB
  0
TABLE
  2
UCS
  5
7
330
0
100
AcDbSymbolTable
 70
     0
  0
ENDTAB
  0
TABLE
  2
APPID
  5
9
330
0
100
AcDbSymbolTable
 70
     2
  0
APPID
  5
56
330
9
100
AcDbSymbolTableRecord
100
AcDbRegAppTableRecord
  2
ACAD
 70
     0
  0
APPID
  5
5E
330
9
100
AcDbSymbolTableRecord
100
AcDbRegAppTableRecord
  2
AcadAnnotative
 70
     0
  0
ENDTAB
  0
TABLE
  2
DIMSTYLE
  5
A
330
0
100
AcDbSymbolTable
 70
     2
100
AcDbDimStyleTable
 71
     0
  0
DIMSTYLE
105
58
330
A
100
AcDbSymbolTableRecord
100
AcDbDimStyleTableRecord
  2
Standard
 70
     0
340
55
  0
DIMSTYLE
105
59
330
A
100
AcDbSymbolTableRecord
100
AcDbDimStyleTableRecord
  2
Annotative
 70
     0
340
55
1001
AcadAnnotative
1000
AnnotativeData
1002
{
1070
     1
1070
     1
1002
}
  0
ENDTAB
  0
TABLE
  2
BLOCK_RECORD
  5
1
330
0
100
AcDbSymbolTable
 70
     1
  0
BLOCK_RECORD
  5
70
330
1
100
AcDbSymbolTableRecord
100
AcDbBlockTableRecord
  2
*Model_Space
340
73
 70
     0
280
     1
281
     0
  0
BLOCK_RECORD
  5
6C
330
1
100
AcDbSymbolTableRecord
100
AcDbBlockTableRecord
  2
*Paper_Space
340
6F
 70
     0
280
     1
281
     0
  0
BLOCK_RECORD
  5
74
330
1
100
AcDbSymbolTableRecord
100
AcDbBlockTableRecord
  2
*Paper_Space0
340
77
 70
     0
280
     1
281
     0
  0
ENDTAB
  0
ENDSEC
  0
SECTION
  2
BLOCKS
  0
BLOCK
  5
71
330
70
100
AcDbEntity
  8
0
100
AcDbBlockBegin
  2
*Model_Space
 70
     0
 10
0.0
 20
0.0
 30
0.0
  3
*Model_Space
  1

  0
ENDBLK
  5
72
330
70
100
AcDbEntity
  8
0
100
AcDbBlockEnd
  0
BLOCK
  5
6D
330
6C
100
AcDbEntity
 67
     1
  8
0
100
AcDbBlockBegin
  2
*Paper_Space
 70
     0
 10
0.0
 20
0.0
 30
0.0
  3
*Paper_Space
  1

  0
ENDBLK
  5
6E
330
6C
100
AcDbEntity
 67
     1
  8
0
100
AcDbBlockEnd
  0
BLOCK
  5
75
330
74
100
AcDbEntity
 67
     1
  8
0
100
AcDbBlockBegin
  2
*Paper_Space0
 70
     0
 10
0.0
 20
0.0
 30
0.0
  3
*Paper_Space0
  1

  0
ENDBLK
  5
76
330
74
100
AcDbEntity
 67
     1
  8
0
100
AcDbBlockEnd
  0
ENDSEC
  0
SECTION
  2
ENTITIES
  0
SPLINE
  5
79
330
70
100
AcDbEntity
  8
Camada 1
 62
   250
420
  1907995
370
     9
100
AcDbSpline
210
0.0
220
0.0
230
1.0
 70
     9
 71
     3
 72
    23
 73
    19
 74
     0
 42
0.0000000001
 43
0.0000000001
 40
0.0
 40
0.0
 40
0.0
 40
0.0
 40
1.0
 40
1.0
 40
1.0
 40
2.0
 40
2.0
 40
2.0
 40
3.0
 40
3.0
 40
3.0
 40
4.0
 40
4.0
 40
4.0
 40
5.0
 40
5.0
 40
5.0
 40
6.0
 40
6.0
 40
6.0
 40
6.0
 10
68.48187243648969
 20
-40.23043366363711
 30
0.0
 10
68.02349131436155
 20
-39.89417384577852
 30
0.0
 10
67.74974539378215
 20
-39.35571810431709
 30
0.0
 10
67.74974539378215
 20
-38.790397624402
 30
0.0
 10
67.74974539378215
 20
-38.16469034345241
 30
0.0
 10
68.08600521164073
 20
-37.57595556746519
 30
0.0
 10
68.62711576406418
 20
-37.25378979190186
 30
0.0
 10
68.62711576406418
 20
-37.25378979190186
 30
0.0
 10
68.6899056967339
 20
-37.35807433872679
 30
0.0
 10
68.6899056967339
 20
-37.35807433872679
 30
0.0
 10
68.18550785125768
 20
-37.65816540173086
 30
0.0
 10
67.87185046067503
 20
-38.20725662441768
 30
0.0
 10
67.87185046067503
 20
-38.790397624402
 30
0.0
 10
67.87185046067503
 20
-39.31741413452955
 30
0.0
 10
68.12724814646916
 20
-39.8194169670576
 30
0.0
 10
68.55422618357412
 20
-40.13280644093805
 30
0.0
 10
68.55422618357412
 20
-40.13280644093805
 30
0.0
 10
68.48187243648969
 20
-40.23043366363711
 30
0.0
 10
68.48187243648969
 20
-40.23043366363711
 30
0.0
  0
SPLINE
  5
7A
330
70
100
AcDbEntity
  8
Camada 1
 62
   250
420
  1907995
370
     9
100
AcDbSpline
210
0.0
220
0.0
230
1.0
 70
    11
 71
     3
 72
    35
 73
    31
 74
     0
 42
0.0000000001
 43
0.0000000001
 40
0.0
 40
0.0
 40
0.0
 40
0.0
 40
1.0
 40
1.0
 40
1.0
 40
2.0
 40
2.0
 40
2.0
 40
3.0
 40
3.0
 40
3.0
 40
4.0
 40
4.0
 40
4.0
 40
5.0
 40
5.0
 40
5.0
 40
6.0
 40
6.0
 40
6.0
 40
7.0
 40
7.0
 40
7.0
 40
8.0
 40
8.0
 40
8.0
 40
9.0
 40
9.0
 40
9.0
 40
10.0
 40
10.0
 40
10.0
 40
10.0
 10
68.4903321093423
 20
-40.31395060666423
 30
0.0
 10
68.4903321093423
 20
-40.31395060666423
 30
0.0
 10
68.43681371832011
 20
-40.27420151042061
 30
0.0
 10
68.43681371832011
 20
-40.27420151042061
 30
0.0
 10
67.96891749390471
 20
-39.9273711608401
 30
0.0
 10
67.68963462813818
 20
-39.37244260151129
 30
0.0
 10
67.68963462813818
 20
-38.78997545262789
 30
0.0
 10
67.68963462813818
 20
-38.14541657823877
 30
0.0
 10
68.03282780551318
 20
-37.53852841597666
 30
0.0
 10
68.58515838469575
 20
-37.20624675521758
 30
0.0
 10
68.58515838469575
 20
-37.20624675521758
 30
0.0
 10
68.64231394792217
 20
-37.1716936192671
 30
0.0
 10
68.64231394792217
 20
-37.1716936192671
 30
0.0
 10
68.64231394792217
 20
-37.1716936192671
 30
0.0
 10
68.77221295525508
 20
-37.38992395158718
 30
0.0
 10
68.77221295525508
 20
-37.38992395158718
 30
0.0
 10
68.77221295525508
 20
-37.38992395158718
 30
0.0
 10
68.71557698805765
 20
-37.42395749150867
 30
0.0
 10
68.71557698805765
 20
-37.42395749150867
 30
0.0
 10
68.23884763114422
 20
-37.71051470168622
 30
0.0
 10
67.94267789442324
 20
-38.23374790322595
 30
0.0
 10
67.94267789442324
 20
-38.78997545262789
 30
0.0
 10
67.94267789442324
 20
-39.29268461100827
 30
0.0
 10
68.18377045203504
 20
-39.77123255402509
 30
0.0
 10
68.587236768813
 20
-40.07000027089232
 30
0.0
 10
68.587236768813
 20
-40.07000027089232
 30
0.0
 10
68.64049536181878
 20
-40.10948956912144
 30
0.0
 10
68.64049536181878
 20
-40.10948956912144
 30
0.0
 10
68.64049536181878
 20
-40.10948956912144
 30
0.0
 10
68.4903321093423
 20
-40.31395060666423
 30
0.0
 10
68.4903321093423
 20
-40.31395060666423
 30
0.0
  0
SPLINE
  5
7B
330
70
100
AcDbEntity
  8
Camada 1
 62
   250
420
  1907995
370
     9
100
AcDbSpline
210
0.0
220
0.0
230
1.0
 70
     9
 71
     3
 72
    23
 73
    19
 74
     0
 42
0.0000000001
 43
0.0000000001
 40
0.0
 40
0.0
 40
0.0
 40
0.0
 40
1.0
 40
1.0
 40
1.0
 40
2.0
 40
2.0
 40
2.0
 40
3.0
 40
3.0
 40
3.0
 40
4.0
 40
4.0
 40
4.0
 40
5.0
 40
5.0
 40
5.0
 40
6.0
 40
6.0
 40
6.0
 40
6.0
 10
70.60210027156212
 20
-40.24301762997217
 30
0.0
 10
70.60210027156212
 20
-40.24301762997217
 30
0.0
 10
70.53052591852185
 20
-40.14458665716527
 30
0.0
 10
70.53052591852185
 20
-40.14458665716527
 30
0.0
 10
70.9681556742282
 20
-39.8314650999883
 30
0.0
 10
71.22913901733689
 20
-39.32520807496958
 30
0.0
 10
71.22913901733689
 20
-38.79047881128149
 30
0.0
 10
71.22913901733689
 20
-38.09853115527938
 30
0.0
 10
70.79124946361538
 20
-37.47068865939676
 30
0.0
 10
70.1399845529736
 20
-37.22833770515222
 30
0.0
 10
70.1399845529736
 20
-37.22833770515222
 30
0.0
 10
70.18281875064232
 20
-37.11447310653656
 30
0.0
 10
70.18281875064232
 20
-37.11447310653656
 30
0.0
 10
70.88169164747251
 20
-37.37492061624023
 30
0.0
 10
71.35150388224491
 20
-38.04851191876808
 30
0.0
 10
71.35150388224491
 20
-38.79047881128149
 30
0.0
 10
71.35150388224491
 20
-39.36404787816214
 30
0.0
 10
71.07110063753963
 20
-39.90702572881642
 30
0.0
 10
70.60210027156212
 20
-40.24301762997217
 30
0.0
  0
SPLINE
  5
7C
330
70
100
AcDbEntity
  8
Camada 1
 62
   250
420
  1907995
370
     9
100
AcDbSpline
210
0.0
220
0.0
230
1.0
 70
    11
 71
     3
 72
    35
 73
    31
 74
     0
 42
0.0000000001
 43
0.0000000001
 40
0.0
 40
0.0
 40
0.0
 40
0.0
 40
1.0
 40
1.0
 40
1.0
 40
2.0
 40
2.0
 40
2.0
 40
3.0
 40
3.0
 40
3.0
 40
4.0
 40
4.0
 40
4.0
 40
5.0
 40
5.0
 40
5.0
 40
6.0
 40
6.0
 40
6.0
 40
7.0
 40
7.0
 40
7.0
 40
8.0
 40
8.0
 40
8.0
 40
9.0
 40
9.0
 40
9.0
 40
10.0
 40
10.0
 40
10.0
 40
10.0
 10
70.58975986586553
 20
-40.3261611133539
 30
0.0
 10
70.58975986586553
 20
-40.3261611133539
 30
0.0
 10
70.44115540147604
 20
-40.12040108573734
 30
0.0
 10
70.44115540147604
 20
-40.12040108573734
 30
0.0
 10
70.44115540147604
 20
-40.12040108573734
 30
0.0
 10
70.49519338852722
 20
-40.08143138353786
 30
0.0
 10
70.49519338852722
 20
-40.08143138353786
 30
0.0
 10
70.91035061596457
 20
-39.78266366667063
 30
0.0
 10
71.157938123942
 20
-39.29969915740481
 30
0.0
 10
71.157938123942
 20
-38.78945585659825
 30
0.0
 10
71.157938123942
 20
-38.12930910132973
 30
0.0
 10
70.74278089650466
 20
-37.53047467752214
 30
0.0
 10
70.12498121762664
 20
-37.29899464645376
 30
0.0
 10
70.12498121762664
 20
-37.29899464645376
 30
0.0
 10
70.06262969410643
 20
-37.27561282513368
 30
0.0
 10
70.06262969410643
 20
-37.27561282513368
 30
0.0
 10
70.06262969410643
 20
-37.27561282513368
 30
0.0
 10
70.15173685081932
 20
-37.03789764171353
 30
0.0
 10
70.15173685081932
 20
-37.03789764171353
 30
0.0
 10
70.15173685081932
 20
-37.03789764171353
 30
0.0
 10
70.21409193665731
 20
-37.06127946303361
 30
0.0
 10
70.21409193665731
 20
-37.06127946303361
 30
0.0
 10
70.93035506309426
 20
-37.32965081218487
 30
0.0
 10
71.41150098625733
 20
-38.02409090538937
 30
0.0
 10
71.41150098625733
 20
-38.78945585659825
 30
0.0
 10
71.41150098625733
 20
-39.38101593599544
 30
0.0
 10
71.1244241800508
 20
-39.9411404556174
 30
0.0
 10
70.64379785291672
 20
-40.28745120916827
 30
0.0
 10
70.64379785291672
 20
-40.28745120916827
 30
0.0
 10
70.58975986586553
 20
-40.3261611133539
 30
0.0
 10
70.58975986586553
 20
-40.3261611133539
 30
0.0
  0
SPLINE
  5
7D
330
70
100
AcDbEntity
  8
Camada 1
 62
   250
420
  1907995
370
     9
100
AcDbSpline
210
0.0
220
0.0
230
1.0
 70
    11
 71
     3
 72
    17
 73
    13
 74
     0
 42
0.0000000001
 43
0.0000000001
 40
0.0
 40
0.0
 40
0.0
 40
0.0
 40
1.0
 40
1.0
 40
1.0
 40
2.0
 40
2.0
 40
2.0
 40
3.0
 40
3.0
 40
3.0
 40
4.0
 40
4.0
 40
4.0
 40
4.0
 10
60.45017621961931
 20
-19.13155492274139
 30
0.0
 10
60.45017621961931
 20
-19.13155492274139
 30
0.0
 10
78.61651180176957
 20
-19.13155492274139
 30
0.0
 10
78.61651180176957
 20
-19.13155492274139
 30
0.0
 10
78.61651180176957
 20
-19.13155492274139
 30
0.0
 10
78.61651180176957
 20
-20.09698870130777
 30
0.0
 10
78.61651180176957
 20
-20.09698870130777
 30
0.0
 10
78.61651180176957
 20
-20.09698870130777
 30
0.0
 10
60.45017621961931
 20
-20.09698870130777
 30
0.0
 10
60.45017621961931
 20
-20.09698870130777
 30
0.0
 10
60.45017621961931
 20
-20.09698870130777
 30
0.0
 10
60.45017621961931
 20
-19.13155492274139
 30
0.0
 10
60.45017621961931
 20
-19.13155492274139
 30
0.0
  0
SPLINE
  5
7E
330
70
100
AcDbEntity
  8
Camada 1
 62
   250
420
  1907995
370
     9
100
AcDbSpline
210
0.0
220
0.0
230
1.0
 70
    11
 71
     3
 72
    17
 73
    13
 74
     0
 42
0.0000000001
 43
0.0000000001
 40
0.0
 40
0.0
 40
0.0
 40
0.0
 40
1.0
 40
1.0
 40
1.0
 40
2.0
 40
2.0
 40
2.0
 40
3.0
 40
3.0
 40
3.0
 40
4.0
 40
4.0
 40
4.0
 40
4.0
 10
60.32780323602295
 20
-20.21777042206446
 30
0.0
 10
60.32780323602295
 20
-20.21777042206446
 30
0.0
 10
78.73863310603913
 20
-20.21777042206446
 30
0.0
 10
78.73863310603913
 20
-20.21777042206446
 30
0.0
 10
78.73863310603913
 20
-20.21777042206446
 30
0.0
 10
78.73863310603913
 20
-19.0099775705652
 30
0.0
 10
78.73863310603913
 20
-19.0099775705652
 30
0.0
 10
78.73863310603913
 20
-19.0099775705652
 30
0.0
 10
60.32780323602295
 20
-19.0099775705652
 30
0.0
 10
60.32780323602295
 20
-19.0099775705652
 30
0.0
 10
60.32780323602295
 20
-19.0099775705652
 30
0.0
 10
60.32780323602295
 20
-20.21777042206446
 30
0.0
 10
60.32780323602295
 20
-20.21777042206446
 30
0.0
  0
SPLINE
  5
7F
330
70
100
AcDbEntity
  8
Camada 1
 62
   250
420
  1907995
370
     9
100
AcDbSpline
210
0.0
220
0.0
230
1.0
 70
    11
 71
     3
 72
    35
 73
    31
 74
     0
 42
0.0000000001
 43
0.0000000001
 40
0.0
 40
0.0
 40
0.0
 40
0.0
 40
1.0
 40
1.0
 40
1.0
 40
2.0
 40
2.0
 40
2.0
 40
3.0
 40
3.0
 40
3.0
 40
4.0
 40
4.0
 40
4.0
 40
5.0
 40
5.0
 40
5.0
 40
6.0
 40
6.0
 40
6.0
 40
7.0
 40
7.0
 40
7.0
 40
8.0
 40
8.0
 40
8.0
 40
9.0
 40
9.0
 40
9.0
 40
10.0
 40
10.0
 40
10.0
 40
10.0
 10
70.28618588572786
 20
-18.26208403584259
 30
0.0
 10
70.28618588572786
 20
-18.26208403584259
 30
0.0
 10
70.16434061684883
 20
-18.26208403584259
 30
0.0
 10
70.16434061684883
 20
-18.26208403584259
 30
0.0
 10
70.16434061684883
 20
-18.26208403584259
 30
0.0
 10
70.16434061684883
 20
-12.15689564067173
 30
0.0
 10
70.16434061684883
 20
-12.15689564067173
 30
0.0
 10
70.16434061684883
 20
-11.81158348573974
 30
0.0
 10
69.88101464447805
 20
-11.53038460961429
 30
0.0
 10
69.53330747659855
 20
-11.53038460961429
 30
0.0
 10
69.18560030871903
 20
-11.53038460961429
 30
0.0
 10
68.90227433634826
 20
-11.81158348573974
 30
0.0
 10
68.90227433634826
 20
-12.15689564067173
 30
0.0
 10
68.90227433634826
 20
-12.15689564067173
 30
0.0
 10
68.90227433634826
 20
-18.26208403584259
 30
0.0
 10
68.90227433634826
 20
-18.26208403584259
 30
0.0
 10
68.90227433634826
 20
-18.26208403584259
 30
0.0
 10
68.78042906746923
 20
-18.26208403584259
 30
0.0
 10
68.78042906746923
 20
-18.26208403584259
 30
0.0
 10
68.78042906746923
 20
-18.26208403584259
 30
0.0
 10
68.78042906746923
 20
-12.15689564067173
 30
0.0
 10
68.78042906746923
 20
-12.15689564067173
 30
0.0
 10
68.78042906746923
 20
-11.74480727728219
 30
0.0
 10
69.11802035015298
 20
-11.40907517414093
 30
0.0
 10
69.53330747659855
 20
-11.40907517414093
 30
0.0
 10
69.94831856765357
 20
-11.40907517414093
 30
0.0
 10
70.28618588572786
 20
-11.74480727728219
 30
0.0
 10
70.28618588572786
 20
-12.15689564067173
 30
0.0
 10
70.28618588572786
 20
-12.15689564067173
 30
0.0
 10
70.28618588572786
 20
-18.26208403584259
 30
0.0
 10
70.28618588572786
 20
-18.26208403584259
 30
0.0
  0
SPLINE
  5
80
330
70
100
AcDbEntity
  8
Camada 1
 62
   250
420
  1907995
370
     9
100
AcDbSpline
210
0.0
220
0.0
230
1.0
 70
    11
 71
     3
 72
    35
 73
    31
 74
     0
 42
0.0000000001
 43
0.0000000001
 40
0.0
 40
0.0
 40
0.0
 40
0.0
 40
1.0
 40
1.0
 40
1.0
 40
2.0
 40
2.0
 40
2.0
 40
3.0
 40
3.0
 40
3.0
 40
4.0
 40
4.0
 40
4.0
 40
5.0
 40
5.0
 40
5.0
 40
6.0
 40
6.0
 40
6.0
 40
7.0
 40
7.0
 40
7.0
 40
8.0
 40
8.0
 40
8.0
 40
9.0
 40
9.0
 40
9.0
 40
10.0
 40
10.0
 40
10.0
 40
10.0
 10
70.34632912612261
 20
-18.32178886708847
 30
0.0
 10
70.34632912612261
 20
-18.32178886708847
 30
0.0
 10
70.09250646579342
 20
-18.32178886708847
 30
0.0
 10
70.09250646579342
 20
-18.32178886708847
 30
0.0
 10
70.09250646579342
 20
-18.32178886708847
 30
0.0
 10
70.09250646579342
 20
-12.16223773734846
 30
0.0
 10
70.09250646579342
 20
-12.16223773734846
 30
0.0
 10
70.09250646579342
 20
-11.85411729195358
 30
0.0
 10
69.84154158362432
 20
-11.60367200581413
 30
0.0
 10
69.53316134021495
 20
-11.60367200581413
 30
0.0
 10
69.22504089482071
 20
-11.60367200581413
 30
0.0
 10
68.97433581066676
 20
-11.85411729195358
 30
0.0
 10
68.97433581066676
 20
-12.16223773734846
 30
0.0
 10
68.97433581066676
 20
-12.16223773734846
 30
0.0
 10
68.97433581066676
 20
-18.32178886708847
 30
0.0
 10
68.97433581066676
 20
-18.32178886708847
 30
0.0
 10
68.97433581066676
 20
-18.32178886708847
 30
0.0
 10
68.72051315033629
 20
-18.32178886708847
 30
0.0
 10
68.72051315033629
 20
-18.32178886708847
 30
0.0
 10
68.72051315033629
 20
-18.32178886708847
 30
0.0
 10
68.72051315033629
 20
-12.16223773734846
 30
0.0
 10
68.72051315033629
 20
-12.16223773734846
 30
0.0
 10
68.72051315033629
 20
-11.71408616204761
 30
0.0
 10
69.0850097649141
 20
-11.3493297494553
 30
0.0
 10
69.53316134021495
 20
-11.3493297494553
 30
0.0
 10
69.98157271353093
 20
-11.3493297494553
 30
0.0
 10
70.34632912612261
 20
-11.71408616204761
 30
0.0
 10
70.34632912612261
 20
-12.16223773734846
 30
0.0
 10
70.34632912612261
 20
-12.16223773734846
 30
0.0
 10
70.34632912612261
 20
-18.32178886708847
 30
0.0
 10
70.34632912612261
 20
-18.32178886708847
 30
0.0
  0
SPLINE
  5
81
330
70
100
AcDbEntity
  8
Camada 1
 62
   250
420
  1907995
370
     9
100
AcDbSpline
210
0.0
220
0.0
230
1.0
 70
    11
 71
     3
 72
    17
 73
    13
 74
     0
 42
0.0000000001
 43
0.0000000001
 40
0.0
 40
0.0
 40
0.0
 40
0.0
 40
1.0
 40
1.0
 40
1.0
 40
2.0
 40
2.0
 40
2.0
 40
3.0
 40
3.0
 40
3.0
 40
4.0
 40
4.0
 40
4.0
 40
4.0
 10
68.53625140843423
 20
-18.72718743160008
 30
0.0
 10
68.53625140843423
 20
-18.72718743160008
 30
0.0
 10
70.53042849426567
 20
-18.72718743160008
 30
0.0
 10
70.53042849426567
 20
-18.72718743160008
 30
0.0
 10
70.53042849426567
 20
-18.72718743160008
 30
0.0
 10
70.53042849426567
 20
-18.32307973847391
 30
0.0
 10
70.53042849426567
 20
-18.32307973847391
 30
0.0
 10
70.53042849426567
 20
-18.32307973847391
 30
0.0
 10
68.53625140843423
 20
-18.32307973847391
 30
0.0
 10
68.53625140843423
 20
-18.32307973847391
 30
0.0
 10
68.53625140843423
 20
-18.32307973847391
 30
0.0
 10
68.53625140843423
 20
-18.72718743160008
 30
0.0
 10
68.53625140843423
 20
-18.72718743160008
 30
0.0
  0
SPLINE
  5
82
330
70
100
AcDbEntity
  8
Camada 1
 62
   250
420
  1907995
370
     9
100
AcDbSpline
210
0.0
220
0.0
230
1.0
 70
    11
 71
     3
 72
    17
 73
    13
 74
     0
 42
0.0000000001
 43
0.0000000001
 40
0.0
 40
0.0
 40
0.0
 40
0.0
 40
1.0
 40
1.0
 40
1.0
 40
2.0
 40
2.0
 40
2.0
 40
3.0
 40
3.0
 40
3.0
 40
4.0
 40
4.0
 40
4.0
 40
4.0
 10
70.65254979853524
 20
-18.84822895037126
 30
0.0
 10
70.65254979853524
 20
-18.84822895037126
 30
0.0
 10
68.41414634154133
 20
-18.84822895037126
 30
0.0
 10
68.41414634154133
 20
-18.84822895037126
 30
0.0
 10
68.41414634154133
 20
-18.84822895037126
 30
0.0
 10
68.41414634154133
 20
-18.20150238629771
 30
0.0
 10
68.41414634154133
 20
-18.20150238629771
 30
0.0
 10
68.41414634154133
 20
-18.20150238629771
 30
0.0
 10
70.65254979853524
 20
-18.20150238629771
 30
0.0
 10
70.65254979853524
 20
-18.20150238629771
 30
0.0
 10
70.65254979853524
 20
-18.20150238629771
 30
0.0
 10
70.65254979853524
 20
-18.84822895037126
 30
0.0
 10
70.65254979853524
 20
-18.84822895037126
 30
0.0
  0
SPLINE
  5
83
330
70
100
AcDbEntity
  8
Camada 1
 62
   250
420
  1907995
370
     9
100
AcDbSpline
210
0.0
220
0.0
230
1.0
 70
    11
 71
     3
 72
    17
 73
    13
 74
     0
 42
0.0000000001
 43
0.0000000001
 40
0.0
 40
0.0
 40
0.0
 40
0.0
 40
1.0
 40
1.0
 40
1.0
 40
2.0
 40
2.0
 40
2.0
 40
3.0
 40
3.0
 40
3.0
 40
4.0
 40
4.0
 40
4.0
 40
4.0
 10
68.60828040800068
 20
-18.65614891196482
 30
0.0
 10
68.60828040800068
 20
-18.65614891196482
 30
0.0
 10
70.45804227242921
 20
-18.65614891196482
 30
0.0
 10
70.45804227242921
 20
-18.65614891196482
 30
0.0
 10
70.45804227242921
 20
-18.65614891196482
 30
0.0
 10
70.45804227242921
 20
-18.39349311913633
 30
0.0
 10
70.45804227242921
 20
-18.39349311913633
 30
0.0
 10
70.45804227242921
 20
-18.39349311913633
 30
0.0
 10
68.60828040800068
 20
-18.39349311913633
 30
0.0
 10
68.60828040800068
 20
-18.39349311913633
 30
0.0
 10
68.60828040800068
 20
-18.39349311913633
 30
0.0
 10
68.60828040800068
 20
-18.65614891196482
 30
0.0
 10
68.60828040800068
 20
-18.65614891196482
 30
0.0
  0
SPLINE
  5
84
330
70
100
AcDbEntity
  8
Camada 1
 62
   250
420
  1907995
370
     9
100
AcDbSpline
210
0.0
220
0.0
230
1.0
 70
    11
 71
     3
 72
    17
 73
    13
 74
     0
 42
0.0000000001
 43
0.0000000001
 40
0.0
 40
0.0
 40
0.0
 40
0.0
 40
1.0
 40
1.0
 40
1.0
 40
2.0
 40
2.0
 40
2.0
 40
3.0
 40
3.0
 40
3.0
 40
4.0
 40
4.0
 40
4.0
 40
4.0
 10
70.71238452878869
 20
-18.9078931881774
 30
0.0
 10
70.71238452878869
 20
-18.9078931881774
 30
0.0
 10
68.35393815164121
 20
-18.9078931881774
 30
0.0
 10
68.35393815164121
 20
-18.9078931881774
 30
0.0
 10
68.35393815164121
 20
-18.9078931881774
 30
0.0
 10
68.35393815164121
 20
-18.14174884292439
 30
0.0
 10
68.35393815164121
 20
-18.14174884292439
 30
0.0
 10
68.35393815164121
 20
-18.14174884292439
 30
0.0
 10
70.71238452878869
 20
-18.14174884292439
 30
0.0
 10
70.71238452878869
 20
-18.14174884292439
 30
0.0
 10
70.71238452878869
 20
-18.14174884292439
 30
0.0
 10
70.71238452878869
 20
-18.9078931881774
 30
0.0
 10
70.71238452878869
 20
-18.9078931881774
 30
0.0
  0
LWPOLYLINE
  5
85
330
70
100
AcDbEntity
  8
Camada 1
 62
   250
420
  1907995
370
     9
100
AcDbPolyline
 90
        4
 70
     1
 43
0.0
 10
70.54320730911307
 20
-19.07063228830188
 10
68.52321279557298
 20
-19.07063228830188
 10
68.52321279557298
 20
-18.78757423263458
 10
70.54320730911307
 20
-18.78757423263458
  0
SPLINE
  5
86
330
70
100
AcDbEntity
  8
Camada 1
 62
   250
420
  1907995
370
     9
100
AcDbSpline
210
0.0
220
0.0
230
1.0
 70
    11
 71
     3
 72
    17
 73
    13
 74
     0
 42
0.0000000001
 43
0.0000000001
 40
0.0
 40
0.0
 40
0.0
 40
0.0
 40
1.0
 40
1.0
 40
1.0
 40
2.0
 40
2.0
 40
2.0
 40
3.0
 40
3.0
 40
3.0
 40
4.0
 40
4.0
 40
4.0
 40
4.0
 10
68.59606990131101
 20
-18.99726370522255
 30
0.0
 10
68.59606990131101
 20
-18.99726370522255
 30
0.0
 10
70.46999298110375
 20
-18.99726370522255
 30
0.0
 10
70.46999298110375
 20
-18.99726370522255
 30
0.0
 10
70.46999298110375
 20
-18.99726370522255
 30
0.0
 10
70.46999298110375
 20
-18.86112954553724
 30
0.0
 10
70.46999298110375
 20
-18.86112954553724
 30
0.0
 10
70.46999298110375
 20
-18.86112954553724
 30
0.0
 10
68.59606990131101
 20
-18.86112954553724
 30
0.0
 10
68.59606990131101
 20
-18.86112954553724
 30
0.0
 10
68.59606990131101
 20
-18.86112954553724
 30
0.0
 10
68.59606990131101
 20
-18.99726370522255
 30
0.0
 10
68.59606990131101
 20
-18.99726370522255
 30
0.0
  0
SPLINE
  5
87
330
70
100
AcDbEntity
  8
Camada 1
 62
   250
420
  1907995
370
     9
100
AcDbSpline
210
0.0
220
0.0
230
1.0
 70
    11
 71
     3
 72
    17
 73
    13
 74
     0
 42
0.0000000001
 43
0.0000000001
 40
0.0
 40
0.0
 40
0.0
 40
0.0
 40
1.0
 40
1.0
 40
1.0
 40
2.0
 40
2.0
 40
2.0
 40
3.0
 40
3.0
 40
3.0
 40
4.0
 40
4.0
 40
4.0
 40
4.0
 10
70.60300956461446
 20
-19.13028028873199
 30
0.0
 10
70.60300956461446
 20
-19.13028028873199
 30
0.0
 10
68.46305331780158
 20
-19.13028028873199
 30
0.0
 10
68.46305331780158
 20
-19.13028028873199
 30
0.0
 10
68.46305331780158
 20
-19.13028028873199
 30
0.0
 10
68.46305331780158
 20
-18.72811296202781
 30
0.0
 10
68.46305331780158
 20
-18.72811296202781
 30
0.0
 10
68.46305331780158
 20
-18.72811296202781
 30
0.0
 10
70.60300956461446
 20
-18.72811296202781
 30
0.0
 10
70.60300956461446
 20
-18.72811296202781
 30
0.0
 10
70.60300956461446
 20
-18.72811296202781
 30
0.0
 10
70.60300956461446
 20
-19.13028028873199
 30
0.0
 10
70.60300956461446
 20
-19.13028028873199
 30
0.0
  0
SPLINE
  5
88
330
70
100
AcDbEntity
  8
Camada 1
 62
   250
420
  1907995
370
     9
100
AcDbSpline
210
0.0
220
0.0
230
1.0
 70
    11
 71
     3
 72
    17
 73
    13
 74
     0
 42
0.0000000001
 43
0.0000000001
 40
0.0
 40
0.0
 40
0.0
 40
0.0
 40
1.0
 40
1.0
 40
1.0
 40
2.0
 40
2.0
 40
2.0
 40
3.0
 40
3.0
 40
3.0
 40
4.0
 40
4.0
 40
4.0
 40
4.0
 10
68.64533409984254
 20
-18.94932285282851
 30
0.0
 10
68.64533409984254
 20
-18.94932285282851
 30
0.0
 10
70.4211022422189
 20
-18.94932285282851
 30
0.0
 10
70.4211022422189
 20
-18.94932285282851
 30
0.0
 10
70.4211022422189
 20
-18.94932285282851
 30
0.0
 10
70.4211022422189
 20
-18.90915158481077
 30
0.0
 10
70.4211022422189
 20
-18.90915158481077
 30
0.0
 10
70.4211022422189
 20
-18.90915158481077
 30
0.0
 10
68.64533409984254
 20
-18.90915158481077
 30
0.0
 10
68.64533409984254
 20
-18.90915158481077
 30
0.0
 10
68.64533409984254
 20
-18.90915158481077
 30
0.0
 10
68.64533409984254
 20
-18.94932285282851
 30
0.0
 10
68.64533409984254
 20
-18.94932285282851
 30
0.0
  0
SPLINE
  5
89
330
70
100
AcDbEntity
  8
Camada 1
 62
   250
420
  1907995
370
     9
100
AcDbSpline
210
0.0
220
0.0
230
1.0
 70
    11
 71
     3
 72
    17
 73
    13
 74
     0
 42
0.0000000001
 43
0.0000000001
 40
0.0
 40
0.0
 40
0.0
 40
0.0
 40
1.0
 40
1.0
 40
1.0
 40
2.0
 40
2.0
 40
2.0
 40
3.0
 40
3.0
 40
3.0
 40
4.0
 40
4.0
 40
4.0
 40
4.0
 10
70.66531237600596
 20
-19.19194984246358
 30
0.0
 10
70.66531237600596
 20
-19.19194984246358
 30
0.0
 10
68.40136752669396
 20
-19.19194984246358
 30
0.0
 10
68.40136752669396
 20
-19.19194984246358
 30
0.0
 10
68.40136752669396
 20
-19.19194984246358
 30
0.0
 10
68.40136752669396
 20
-18.66626479716057
 30
0.0
 10
68.40136752669396
 20
-18.66626479716057
 30
0.0
 10
68.40136752669396
 20
-18.66626479716057
 30
0.0
 10
70.66531237600596
 20
-18.66626479716057
 30
0.0
 10
70.66531237600596
 20
-18.66626479716057
 30
0.0
 10
70.66531237600596
 20
-18.66626479716057
 30
0.0
 10
70.66531237600596
 20
-19.19194984246358
 30
0.0
 10
70.66531237600596
 20
-19.19194984246358
 30
0.0
  0
SPLINE
  5
8A
330
70
100
AcDbEntity
  8
Camada 1
 62
   250
420
  1907995
370
     9
100
AcDbSpline
210
0.0
220
0.0
230
1.0
 70
    11
 71
     3
 72
    17
 73
    13
 74
     0
 42
0.0000000001
 43
0.0000000001
 40
0.0
 40
0.0
 40
0.0
 40
0.0
 40
1.0
 40
1.0
 40
1.0
 40
2.0
 40
2.0
 40
2.0
 40
3.0
 40
3.0
 40
3.0
 40
4.0
 40
4.0
 40
4.0
 40
4.0
 10
70.48246328580856
 20
-19.01518976823436
 30
0.0
 10
70.48246328580856
 20
-19.01518976823436
 30
0.0
 10
68.58385939462134
 20
-19.01518976823436
 30
0.0
 10
68.58385939462134
 20
-19.01518976823436
 30
0.0
 10
68.58385939462134
 20
-19.01518976823436
 30
0.0
 10
68.58385939462134
 20
-18.8429436845103
 30
0.0
 10
68.58385939462134
 20
-18.8429436845103
 30
0.0
 10
68.58385939462134
 20
-18.8429436845103
 30
0.0
 10
70.48246328580856
 20
-18.8429436845103
 30
0.0
 10
70.48246328580856
 20
-18.8429436845103
 30
0.0
 10
70.48246328580856
 20
-18.8429436845103
 30
0.0
 10
70.48246328580856
 20
-19.01518976823436
 30
0.0
 10
70.48246328580856
 20
-19.01518976823436
 30
0.0
  0
SPLINE
  5
8B
330
70
100
AcDbEntity
  8
Camada 1
 62
   250
420
  1907995
370
     9
100
AcDbSpline
210
0.0
220
0.0
230
1.0
 70
    11
 71
     3
 72
    17
 73
    13
 74
     0
 42
0.0000000001
 43
0.0000000001
 40
0.0
 40
0.0
 40
0.0
 40
0.0
 40
1.0
 40
1.0
 40
1.0
 40
2.0
 40
2.0
 40
2.0
 40
3.0
 40
3.0
 40
3.0
 40
4.0
 40
4.0
 40
4.0
 40
4.0
 10
68.47448443044712
 20
-19.11858937807195
 30
0.0
 10
68.47448443044712
 20
-19.11858937807195
 30
0.0
 10
70.59235784601305
 20
-19.11858937807195
 30
0.0
 10
70.59235784601305
 20
-19.11858937807195
 30
0.0
 10
70.59235784601305
 20
-19.11858937807195
 30
0.0
 10
70.59235784601305
 20
-18.73980387268785
 30
0.0
 10
70.59235784601305
 20
-18.73980387268785
 30
0.0
 10
70.59235784601305
 20
-18.73980387268785
 30
0.0
 10
68.47448443044712
 20
-18.73980387268785
 30
0.0
 10
68.47448443044712
 20
-18.73980387268785
 30
0.0
 10
68.47448443044712
 20
-18.73980387268785
 30
0.0
 10
68.47448443044712
 20
-19.11858937807195
 30
0.0
 10
68.47448443044712
 20
-19.11858937807195
 30
0.0
  0
SPLINE
  5
8C
330
70
100
AcDbEntity
  8
Camada 1
 62
   250
420
  1907995
370
     9
100
AcDbSpline
210
0.0
220
0.0
230
1.0
 70
    11
 71
     3
 72
    17
 73
    13
 74
     0
 42
0.0000000001
 43
0.0000000001
 40
0.0
 40
0.0
 40
0.0
 40
0.0
 40
1.0
 40
1.0
 40
1.0
 40
2.0
 40
2.0
 40
2.0
 40
3.0
 40
3.0
 40
3.0
 40
4.0
 40
4.0
 40
4.0
 40
4.0
 10
70.72537442952249
 20
-19.25160596158138
 30
0.0
 10
70.72537442952249
 20
-19.25160596158138
 30
0.0
 10
68.34146784693769
 20
-19.25160596158138
 30
0.0
 10
68.34146784693769
 20
-19.25160596158138
 30
0.0
 10
68.34146784693769
 20
-19.25160596158138
 30
0.0
 10
68.34146784693769
 20
-18.60678728917777
 30
0.0
 10
68.34146784693769
 20
-18.60678728917777
 30
0.0
 10
68.34146784693769
 20
-18.60678728917777
 30
0.0
 10
70.72537442952249
 20
-18.60678728917777
 30
0.0
 10
70.72537442952249
 20
-18.60678728917777
 30
0.0
 10
70.72537442952249
 20
-18.60678728917777
 30
0.0
 10
70.72537442952249
 20
-19.25160596158138
 30
0.0
 10
70.72537442952249
 20
-19.25160596158138
 30
0.0
  0
LWPOLYLINE
  5
8D
330
70
100
AcDbEntity
  8
Camada 1
 62
   250
420
  1907995
370
     9
100
AcDbPolyline
 90
        4
 70
     1
 43
0.0
 10
61.48690831583609
 20
-20.35557703146893
 10
62.43584492047071
 20
-20.35557703146893
 10
62.43584492047071
 20
-20.15711570432713
 10
61.48690831583609
 20
-20.15711570432713
  0
SPLINE
  5
8E
330
70
100
AcDbEntity
  8
Camada 1
 62
   250
420
  1907995
370
     9
100
AcDbSpline
210
0.0
220
0.0
230
1.0
 70
    11
 71
     3
 72
    17
 73
    13
 74
     0
 42
0.0000000001
 43
0.0000000001
 40
0.0
 40
0.0
 40
0.0
 40
0.0
 40
1.0
 40
1.0
 40
1.0
 40
2.0
 40
2.0
 40
2.0
 40
3.0
 40
3.0
 40
3.0
 40
4.0
 40
4.0
 40
4.0
 40
4.0
 10
61.55996027008515
 20
-20.28222468576563
 30
0.0
 10
61.55996027008515
 20
-20.28222468576563
 30
0.0
 10
62.36299593342039
 20
-20.28222468576563
 30
0.0
 10
62.36299593342039
 20
-20.28222468576563
 30
0.0
 10
62.36299593342039
 20
-20.28222468576563
 30
0.0
 10
62.36299593342039
 20
-20.23026508283234
 30
0.0
 10
62.36299593342039
 20
-20.23026508283234
 30
0.0
 10
62.36299593342039
 20
-20.23026508283234
 30
0.0
 10
61.55996027008515
 20
-20.23026508283234
 30
0.0
 10
61.55996027008515
 20
-20.23026508283234
 30
0.0
 10
61.55996027008515
 20
-20.23026508283234
 30
0.0
 10
61.55996027008515
 20
-20.28222468576563
 30
0.0
 10
61.55996027008515
 20
-20.28222468576563
 30
0.0
  0
SPLINE
  5
8F
330
70
100
AcDbEntity
  8
Camada 1
 62
   250
420
  1907995
370
     9
100
AcDbSpline
210
0.0
220
0.0
230
1.0
 70
    11
 71
     3
 72
    17
 73
    13
 74
     0
 42
0.0000000001
 43
0.0000000001
 40
0.0
 40
0.0
 40
0.0
 40
0.0
 40
1.0
 40
1.0
 40
1.0
 40
2.0
 40
2.0
 40
2.0
 40
3.0
 40
3.0
 40
3.0
 40
4.0
 40
4.0
 40
4.0
 40
4.0
 10
62.49601251692982
 20
-20.41524126927507
 30
0.0
 10
62.49601251692982
 20
-20.41524126927507
 30
0.0
 10
61.42694368657571
 20
-20.41524126927507
 30
0.0
 10
61.42694368657571
 20
-20.41524126927507
 30
0.0
 10
61.42694368657571
 20
-20.41524126927507
 30
0.0
 10
61.42694368657571
 20
-20.09724849932291
 30
0.0
 10
61.42694368657571
 20
-20.09724849932291
 30
0.0
 10
61.42694368657571
 20
-20.09724849932291
 30
0.0
 10
62.49601251692982
 20
-20.09724849932291
 30
0.0
 10
62.49601251692982
 20
-20.09724849932291
 30
0.0
 10
62.49601251692982
 20
-20.09724849932291
 30
0.0
 10
62.49601251692982
 20
-20.41524126927507
 30
0.0
 10
62.49601251692982
 20
-20.41524126927507
 30
0.0
  0
LWPOLYLINE
  5
90
330
70
100
AcDbEntity
  8
Camada 1
 62
   250
420
  1907995
370
     9
100
AcDbPolyline
 90
        4
 70
     1
 43
0.0
 10
62.69841952641971
 20
-20.35557703146893
 10
63.39755222126504
 20
-20.35557703146893
 10
63.39755222126504
 20
-20.15711570432713
 10
62.69841952641971
 20
-20.15711570432713
  0
SPLINE
  5
91
330
70
100
AcDbEntity
  8
Camada 1
 62
   250
420
  1907995
370
     9
100
AcDbSpline
210
0.0
220
0.0
230
1.0
 70
    11
 71
     3
 72
    17
 73
    13
 74
     0
 42
0.0000000001
 43
0.0000000001
 40
0.0
 40
0.0
 40
0.0
 40
0.0
 40
1.0
 40
1.0
 40
1.0
 40
2.0
 40
2.0
 40
2.0
 40
3.0
 40
3.0
 40
3.0
 40
4.0
 40
4.0
 40
4.0
 40
4.0
 10
62.7716582104921
 20
-20.28222468576563
 30
0.0
 10
62.7716582104921
 20
-20.28222468576563
 30
0.0
 10
63.32476818371752
 20
-20.28222468576563
 30
0.0
 10
63.32476818371752
 20
-20.28222468576563
 30
0.0
 10
63.32476818371752
 20
-20.28222468576563
 30
0.0
 10
63.32476818371752
 20
-20.23026508283234
 30
0.0
 10
63.32476818371752
 20
-20.23026508283234
 30
0.0
 10
63.32476818371752
 20
-20.23026508283234
 30
0.0
 10
62.7716582104921
 20
-20.23026508283234
 30
0.0
 10
62.7716582104921
 20
-20.23026508283234
 30
0.0
 10
62.7716582104921
 20
-20.23026508283234
 30
0.0
 10
62.7716582104921
 20
-20.28222468576563
 30
0.0
 10
62.7716582104921
 20
-20.28222468576563
 30
0.0
  0
SPLINE
  5
92
330
70
100
AcDbEntity
  8
Camada 1
 62
   250
420
  1907995
370
     9
100
AcDbSpline
210
0.0
220
0.0
230
1.0
 70
    11
 71
     3
 72
    17
 73
    13
 74
     0
 42
0.0000000001
 43
0.0000000001
 40
0.0
 40
0.0
 40
0.0
 40
0.0
 40
1.0
 40
1.0
 40
1.0
 40
2.0
 40
2.0
 40
2.0
 40
3.0
 40
3.0
 40
3.0
 40
4.0
 40
4.0
 40
4.0
 40
4.0
 10
63.45778476722696
 20
-20.41524126927507
 30
0.0
 10
63.45778476722696
 20
-20.41524126927507
 30
0.0
 10
62.63864162698268
 20
-20.41524126927507
 30
0.0
 10
62.63864162698268
 20
-20.41524126927507
 30
0.0
 10
62.63864162698268
 20
-20.41524126927507
 30
0.0
 10
62.63864162698268
 20
-20.09724849932291
 30
0.0
 10
62.63864162698268
 20
-20.09724849932291
 30
0.0
 10
62.63864162698268
 20
-20.09724849932291
 30
0.0
 10
63.45778476722696
 20
-20.09724849932291
 30
0.0
 10
63.45778476722696
 20
-20.09724849932291
 30
0.0
 10
63.45778476722696
 20
-20.09724849932291
 30
0.0
 10
63.45778476722696
 20
-20.41524126927507
 30
0.0
 10
63.45778476722696
 20
-20.41524126927507
 30
0.0
  0
LWPOLYLINE
  5
93
330
70
100
AcDbEntity
  8
Camada 1
 62
   250
420
  1907995
370
     9
100
AcDbPolyline
 90
        4
 70
     1
 43
0.0
 10
63.66013494590172
 20
-20.35557703146893
 10
64.4960107020279
 20
-20.35557703146893
 10
64.4960107020279
 20
-20.15711570432713
 10
63.66013494590172
 20
-20.15711570432713
  0
SPLINE
  5
94
330
70
100
AcDbEntity
  8
Camada 1
 62
   250
420
  1907995
370
     9
100
AcDbSpline
210
0.0
220
0.0
230
1.0
 70
    11
 71
     3
 72
    17
 73
    13
 74
     0
 42
0.0000000001
 43
0.0000000001
 40
0.0
 40
0.0
 40
0.0
 40
0.0
 40
1.0
 40
1.0
 40
1.0
 40
2.0
 40
2.0
 40
2.0
 40
3.0
 40
3.0
 40
3.0
 40
4.0
 40
4.0
 40
4.0
 40
4.0
 10
63.73368685861829
 20
-20.28222468576563
 30
0.0
 10
63.73368685861829
 20
-20.28222468576563
 30
0.0
 10
64.42345398774475
 20
-20.28222468576563
 30
0.0
 10
64.42345398774475
 20
-20.28222468576563
 30
0.0
 10
64.42345398774475
 20
-20.28222468576563
 30
0.0
 10
64.42345398774475
 20
-20.23026508283234
 30
0.0
 10
64.42345398774475
 20
-20.23026508283234
 30
0.0
 10
64.42345398774475
 20
-20.23026508283234
 30
0.0
 10
63.73368685861829
 20
-20.23026508283234
 30
0.0
 10
63.73368685861829
 20
-20.23026508283234
 30
0.0
 10
63.73368685861829
 20
-20.23026508283234
 30
0.0
 10
63.73368685861829
 20
-20.28222468576563
 30
0.0
 10
63.73368685861829
 20
-20.28222468576563
 30
0.0
  0
SPLINE
  5
95
330
70
100
AcDbEntity
  8
Camada 1
 62
   250
420
  1907995
370
     9
100
AcDbSpline
210
0.0
220
0.0
230
1.0
 70
    11
 71
     3
 72
    17
 73
    13
 74
     0
 42
0.0000000001
 43
0.0000000001
 40
0.0
 40
0.0
 40
0.0
 40
0.0
 40
1.0
 40
1.0
 40
1.0
 40
2.0
 40
2.0
 40
2.0
 40
3.0
 40
3.0
 40
3.0
 40
4.0
 40
4.0
 40
4.0
 40
4.0
 10
64.55647057125419
 20
-20.41524126927507
 30
0.0
 10
64.55647057125419
 20
-20.41524126927507
 30
0.0
 10
63.60067027847008
 20
-20.41524126927507
 30
0.0
 10
63.60067027847008
 20
-20.41524126927507
 30
0.0
 10
63.60067027847008
 20
-20.41524126927507
 30
0.0
 10
63.60067027847008
 20
-20.09724849932291
 30
0.0
 10
63.60067027847008
 20
-20.09724849932291
 30
0.0
 10
63.60067027847008
 20
-20.09724849932291
 30
0.0
 10
64.55647057125419
 20
-20.09724849932291
 30
0.0
 10
64.55647057125419
 20
-20.09724849932291
 30
0.0
 10
64.55647057125419
 20
-20.09724849932291
 30
0.0
 10
64.55647057125419
 20
-20.41524126927507
 30
0.0
 10
64.55647057125419
 20
-20.41524126927507
 30
0.0
  0
LWPOLYLINE
  5
96
330
70
100
AcDbEntity
  8
Camada 1
 62
   250
420
  1907995
370
     9
100
AcDbPolyline
 90
        4
 70
     1
 43
0.0
 10
64.75911302269486
 20
-20.35557703146893
 10
65.70752191261281
 20
-20.35557703146893
 10
65.70752191261281
 20
-20.15711570432713
 10
64.75911302269486
 20
-20.15711570432713
  0
SPLINE
  5
97
330
70
100
AcDbEntity
  8
Camada 1
 62
   250
420
  1907995
370
     9
100
AcDbSpline
210
0.0
220
0.0
230
1.0
 70
    11
 71
     3
 72
    17
 73
    13
 74
     0
 42
0.0000000001
 43
0.0000000001
 40
0.0
 40
0.0
 40
0.0
 40
0.0
 40
1.0
 40
1.0
 40
1.0
 40
2.0
 40
2.0
 40
2.0
 40
3.0
 40
3.0
 40
3.0
 40
4.0
 40
4.0
 40
4.0
 40
4.0
 10
64.83211626481519
 20
-20.28222468576563
 30
0.0
 10
64.83211626481519
 20
-20.28222468576563
 30
0.0
 10
65.63463233212272
 20
-20.28222468576563
 30
0.0
 10
65.63463233212272
 20
-20.28222468576563
 30
0.0
 10
65.63463233212272
 20
-20.28222468576563
 30
0.0
 10
65.63463233212272
 20
-20.23026508283234
 30
0.0
 10
65.63463233212272
 20
-20.23026508283234
 30
0.0
 10
65.63463233212272
 20
-20.23026508283234
 30
0.0
 10
64.83211626481519
 20
-20.23026508283234
 30
0.0
 10
64.83211626481519
 20
-20.23026508283234
 30
0.0
 10
64.83211626481519
 20
-20.23026508283234
 30
0.0
 10
64.83211626481519
 20
-20.28222468576563
 30
0.0
 10
64.83211626481519
 20
-20.28222468576563
 30
0.0
  0
SPLINE
  5
98
330
70
100
AcDbEntity
  8
Camada 1
 62
   250
420
  1907995
370
     9
100
AcDbSpline
210
0.0
220
0.0
230
1.0
 70
    11
 71
     3
 72
    17
 73
    13
 74
     0
 42
0.0000000001
 43
0.0000000001
 40
0.0
 40
0.0
 40
0.0
 40
0.0
 40
1.0
 40
1.0
 40
1.0
 40
2.0
 40
2.0
 40
2.0
 40
3.0
 40
3.0
 40
3.0
 40
4.0
 40
4.0
 40
4.0
 40
4.0
 10
65.76764891563216
 20
-20.41524126927507
 30
0.0
 10
65.76764891563216
 20
-20.41524126927507
 30
0.0
 10
64.69909968130576
 20
-20.41524126927507
 30
0.0
 10
64.69909968130576
 20
-20.41524126927507
 30
0.0
 10
64.69909968130576
 20
-20.41524126927507
 30
0.0
 10
64.69909968130576
 20
-20.09724849932291
 30
0.0
 10
64.69909968130576
 20
-20.09724849932291
 30
0.0
 10
64.69909968130576
 20
-20.09724849932291
 30
0.0
 10
65.76764891563216
 20
-20.09724849932291
 30
0.0
 10
65.76764891563216
 20
-20.09724849932291
 30
0.0
 10
65.76764891563216
 20
-20.09724849932291
 30
0.0
 10
65.76764891563216
 20
-20.41524126927507
 30
0.0
 10
65.76764891563216
 20
-20.41524126927507
 30
0.0
  0
LWPOLYLINE
  5
99
330
70
100
AcDbEntity
  8
Camada 1
 62
   250
420
  1907995
370
     9
100
AcDbPolyline
 90
        4
 70
     1
 43
0.0
 10
65.97035631657566
 20
-20.35557703146893
 10
66.66948901142098
 20
-20.35557703146893
 10
66.66948901142098
 20
-20.15711570432713
 10
65.97035631657566
 20
-20.15711570432713
  0
SPLINE
  5
9A
330
70
100
AcDbEntity
  8
Camada 1
 62
   250
420
  1907995
370
     9
100
AcDbSpline
210
0.0
220
0.0
230
1.0
 70
    11
 71
     3
 72
    17
 73
    13
 74
     0
 42
0.0000000001
 43
0.0000000001
 40
0.0
 40
0.0
 40
0.0
 40
0.0
 40
1.0
 40
1.0
 40
1.0
 40
2.0
 40
2.0
 40
2.0
 40
3.0
 40
3.0
 40
3.0
 40
4.0
 40
4.0
 40
4.0
 40
4.0
 10
66.0435544072083
 20
-20.28222468576563
 30
0.0
 10
66.0435544072083
 20
-20.28222468576563
 30
0.0
 10
66.59692417844886
 20
-20.28222468576563
 30
0.0
 10
66.59692417844886
 20
-20.28222468576563
 30
0.0
 10
66.59692417844886
 20
-20.28222468576563
 30
0.0
 10
66.59692417844886
 20
-20.23026508283234
 30
0.0
 10
66.59692417844886
 20
-20.23026508283234
 30
0.0
 10
66.59692417844886
 20
-20.23026508283234
 30
0.0
 10
66.0435544072083
 20
-20.23026508283234
 30
0.0
 10
66.0435544072083
 20
-20.23026508283234
 30
0.0
 10
66.0435544072083
 20
-20.23026508283234
 30
0.0
 10
66.0435544072083
 20
-20.28222468576563
 30
0.0
 10
66.0435544072083
 20
-20.28222468576563
 30
0.0
  0
SPLINE
  5
9B
330
70
100
AcDbEntity
  8
Camada 1
 62
   250
420
  1907995
370
     9
100
AcDbSpline
210
0.0
220
0.0
230
1.0
 70
    11
 71
     3
 72
    17
 73
    13
 74
     0
 42
0.0000000001
 43
0.0000000001
 40
0.0
 40
0.0
 40
0.0
 40
0.0
 40
1.0
 40
1.0
 40
1.0
 40
2.0
 40
2.0
 40
2.0
 40
3.0
 40
3.0
 40
3.0
 40
4.0
 40
4.0
 40
4.0
 40
4.0
 10
66.72994076195829
 20
-20.41524126927507
 30
0.0
 10
66.72994076195829
 20
-20.41524126927507
 30
0.0
 10
65.91053782369887
 20
-20.41524126927507
 30
0.0
 10
65.91053782369887
 20
-20.41524126927507
 30
0.0
 10
65.91053782369887
 20
-20.41524126927507
 30
0.0
 10
65.91053782369887
 20
-20.09724849932291
 30
0.0
 10
65.91053782369887
 20
-20.09724849932291
 30
0.0
 10
65.91053782369887
 20
-20.09724849932291
 30
0.0
 10
66.72994076195829
 20
-20.09724849932291
 30
0.0
 10
66.72994076195829
 20
-20.09724849932291
 30
0.0
 10
66.72994076195829
 20
-20.09724849932291
 30
0.0
 10
66.72994076195829
 20
-20.41524126927507
 30
0.0
 10
66.72994076195829
 20
-20.41524126927507
 30
0.0
  0
LWPOLYLINE
  5
9C
330
70
100
AcDbEntity
  8
Camada 1
 62
   250
420
  1907995
370
     9
100
AcDbPolyline
 90
        4
 70
     1
 43
0.0
 10
66.93259945077435
 20
-20.35557703146893
 10
67.76820729019897
 20
-20.35557703146893
 10
67.76820729019897
 20
-20.15711570432713
 10
66.93259945077435
 20
-20.15711570432713
  0
SPLINE
  5
9D
330
70
100
AcDbEntity
  8
Camada 1
 62
   250
420
  1907995
370
     9
100
AcDbSpline
210
0.0
220
0.0
230
1.0
 70
    11
 71
     3
 72
    17
 73
    13
 74
     0
 42
0.0000000001
 43
0.0000000001
 40
0.0
 40
0.0
 40
0.0
 40
0.0
 40
1.0
 40
1.0
 40
1.0
 40
2.0
 40
2.0
 40
2.0
 40
3.0
 40
3.0
 40
3.0
 40
4.0
 40
4.0
 40
4.0
 40
4.0
 10
67.00558645551931
 20
-20.28222468576563
 30
0.0
 10
67.00558645551931
 20
-20.28222468576563
 30
0.0
 10
67.69535018446095
 20
-20.28222468576563
 30
0.0
 10
67.69535018446095
 20
-20.28222468576563
 30
0.0
 10
67.69535018446095
 20
-20.28222468576563
 30
0.0
 10
67.69535018446095
 20
-20.23026508283234
 30
0.0
 10
67.69535018446095
 20
-20.23026508283234
 30
0.0
 10
67.69535018446095
 20
-20.23026508283234
 30
0.0
 10
67.00558645551931
 20
-20.23026508283234
 30
0.0
 10
67.00558645551931
 20
-20.23026508283234
 30
0.0
 10
67.00558645551931
 20
-20.23026508283234
 30
0.0
 10
67.00558645551931
 20
-20.28222468576563
 30
0.0
 10
67.00558645551931
 20
-20.28222468576563
 30
0.0
  0
SPLINE
  5
9E
330
70
100
AcDbEntity
  8
Camada 1
 62
   250
420
  1907995
370
     9
100
AcDbSpline
210
0.0
220
0.0
230
1.0
 70
    11
 71
     3
 72
    17
 73
    13
 74
     0
 42
0.0000000001
 43
0.0000000001
 40
0.0
 40
0.0
 40
0.0
 40
0.0
 40
1.0
 40
1.0
 40
1.0
 40
2.0
 40
2.0
 40
2.0
 40
3.0
 40
3.0
 40
3.0
 40
4.0
 40
4.0
 40
4.0
 40
4.0
 10
67.82836676797038
 20
-20.41524126927507
 30
0.0
 10
67.82836676797038
 20
-20.41524126927507
 30
0.0
 10
66.87256987200986
 20
-20.41524126927507
 30
0.0
 10
66.87256987200986
 20
-20.41524126927507
 30
0.0
 10
66.87256987200986
 20
-20.41524126927507
 30
0.0
 10
66.87256987200986
 20
-20.09724849932291
 30
0.0
 10
66.87256987200986
 20
-20.09724849932291
 30
0.0
 10
66.87256987200986
 20
-20.09724849932291
 30
0.0
 10
67.82836676797038
 20
-20.09724849932291
 30
0.0
 10
67.82836676797038
 20
-20.09724849932291
 30
0.0
 10
67.82836676797038
 20
-20.09724849932291
 30
0.0
 10
67.82836676797038
 20
-20.41524126927507
 30
0.0
 10
67.82836676797038
 20
-20.41524126927507
 30
0.0
  0
LWPOLYLINE
  5
9F
330
70
100
AcDbEntity
  8
Camada 1
 62
   250
420
  1907995
370
     9
100
AcDbPolyline
 90
        4
 70
     1
 43
0.0
 10
68.03131772955236
 20
-20.35557703146893
 10
68.73045042439767
 20
-20.35557703146893
 10
68.73045042439767
 20
-20.15711570432713
 10
68.03131772955236
 20
-20.15711570432713
  0
SPLINE
  5
A0
330
70
100
AcDbEntity
  8
Camada 1
 62
   250
420
  1907995
370
     9
100
AcDbSpline
210
0.0
220
0.0
230
1.0
 70
    11
 71
     3
 72
    17
 73
    13
 74
     0
 42
0.0000000001
 43
0.0000000001
 40
0.0
 40
0.0
 40
0.0
 40
0.0
 40
1.0
 40
1.0
 40
1.0
 40
2.0
 40
2.0
 40
2.0
 40
3.0
 40
3.0
 40
3.0
 40
4.0
 40
4.0
 40
4.0
 40
4.0
 10
68.10427225954653
 20
-20.28222468576563
 30
0.0
 10
68.10427225954653
 20
-20.28222468576563
 30
0.0
 10
68.65764203078708
 20
-20.28222468576563
 30
0.0
 10
68.65764203078708
 20
-20.28222468576563
 30
0.0
 10
68.65764203078708
 20
-20.28222468576563
 30
0.0
 10
68.65764203078708
 20
-20.23026508283234
 30
0.0
 10
68.65764203078708
 20
-20.23026508283234
 30
0.0
 10
68.65764203078708
 20
-20.23026508283234
 30
0.0
 10
68.10427225954653
 20
-20.23026508283234
 30
0.0
 10
68.10427225954653
 20
-20.23026508283234
 30
0.0
 10
68.10427225954653
 20
-20.23026508283234
 30
0.0
 10
68.10427225954653
 20
-20.28222468576563
 30
0.0
 10
68.10427225954653
 20
-20.28222468576563
 30
0.0
  0
SPLINE
  5
A1
330
70
100
AcDbEntity
  8
Camada 1
 62
   250
420
  1907995
370
     9
100
AcDbSpline
210
0.0
220
0.0
230
1.0
 70
    11
 71
     3
 72
    17
 73
    13
 74
     0
 42
0.0000000001
 43
0.0000000001
 40
0.0
 40
0.0
 40
0.0
 40
0.0
 40
1.0
 40
1.0
 40
1.0
 40
2.0
 40
2.0
 40
2.0
 40
3.0
 40
3.0
 40
3.0
 40
4.0
 40
4.0
 40
4.0
 40
4.0
 10
68.79065861429651
 20
-20.41524126927507
 30
0.0
 10
68.79065861429651
 20
-20.41524126927507
 30
0.0
 10
67.97125567603711
 20
-20.41524126927507
 30
0.0
 10
67.97125567603711
 20
-20.41524126927507
 30
0.0
 10
67.97125567603711
 20
-20.41524126927507
 30
0.0
 10
67.97125567603711
 20
-20.09724849932291
 30
0.0
 10
67.97125567603711
 20
-20.09724849932291
 30
0.0
 10
67.97125567603711
 20
-20.09724849932291
 30
0.0
 10
68.79065861429651
 20
-20.09724849932291
 30
0.0
 10
68.79065861429651
 20
-20.09724849932291
 30
0.0
 10
68.79065861429651
 20
-20.09724849932291
 30
0.0
 10
68.79065861429651
 20
-20.41524126927507
 30
0.0
 10
68.79065861429651
 20
-20.41524126927507
 30
0.0
  0
LWPOLYLINE
  5
A2
330
70
100
AcDbEntity
  8
Camada 1
 62
   250
420
  1907995
370
     9
100
AcDbPolyline
 90
        4
 70
     1
 43
0.0
 10
69.11540613263007
 20
-20.35557703146893
 10
69.95129000744523
 20
-20.35557703146893
 10
69.95129000744523
 20
-20.15711570432713
 10
69.11540613263007
 20
-20.15711570432713
  0
SPLINE
  5
A3
330
70
100
AcDbEntity
  8
Camada 1
 62
   250
420
  1907995
370
     9
100
AcDbSpline
210
0.0
220
0.0
230
1.0
 70
    11
 71
     3
 72
    17
 73
    13
 74
     0
 42
0.0000000001
 43
0.0000000001
 40
0.0
 40
0.0
 40
0.0
 40
0.0
 40
1.0
 40
1.0
 40
1.0
 40
2.0
 40
2.0
 40
2.0
 40
3.0
 40
3.0
 40
3.0
 40
4.0
 40
4.0
 40
4.0
 40
4.0
 10
69.1884093747517
 20
-20.28222468576563
 30
0.0
 10
69.1884093747517
 20
-20.28222468576563
 30
0.0
 10
69.87817310369334
 20
-20.28222468576563
 30
0.0
 10
69.87817310369334
 20
-20.28222468576563
 30
0.0
 10
69.87817310369334
 20
-20.28222468576563
 30
0.0
 10
69.87817310369334
 20
-20.23026508283234
 30
0.0
 10
69.87817310369334
 20
-20.23026508283234
 30
0.0
 10
69.87817310369334
 20
-20.23026508283234
 30
0.0
 10
69.1884093747517
 20
-20.23026508283234
 30
0.0
 10
69.1884093747517
 20
-20.23026508283234
 30
0.0
 10
69.1884093747517
 20
-20.23026508283234
 30
0.0
 10
69.1884093747517
 20
-20.28222468576563
 30
0.0
 10
69.1884093747517
 20
-20.28222468576563
 30
0.0
  0
SPLINE
  5
A4
330
70
100
AcDbEntity
  8
Camada 1
 62
   250
420
  1907995
370
     9
100
AcDbSpline
210
0.0
220
0.0
230
1.0
 70
    11
 71
     3
 72
    17
 73
    13
 74
     0
 42
0.0000000001
 43
0.0000000001
 40
0.0
 40
0.0
 40
0.0
 40
0.0
 40
1.0
 40
1.0
 40
1.0
 40
2.0
 40
2.0
 40
2.0
 40
3.0
 40
3.0
 40
3.0
 40
4.0
 40
4.0
 40
4.0
 40
4.0
 10
70.01118968720277
 20
-20.41524126927507
 30
0.0
 10
70.01118968720277
 20
-20.41524126927507
 30
0.0
 10
69.05539279124226
 20
-20.41524126927507
 30
0.0
 10
69.05539279124226
 20
-20.41524126927507
 30
0.0
 10
69.05539279124226
 20
-20.41524126927507
 30
0.0
 10
69.05539279124226
 20
-20.09724849932291
 30
0.0
 10
69.05539279124226
 20
-20.09724849932291
 30
0.0
 10
69.05539279124226
 20
-20.09724849932291
 30
0.0
 10
70.01118968720277
 20
-20.09724849932291
 30
0.0
 10
70.01118968720277
 20
-20.09724849932291
 30
0.0
 10
70.01118968720277
 20
-20.09724849932291
 30
0.0
 10
70.01118968720277
 20
-20.41524126927507
 30
0.0
 10
70.01118968720277
 20
-20.41524126927507
 30
0.0
  0
LWPOLYLINE
  5
A5
330
70
100
AcDbEntity
  8
Camada 1
 62
   250
420
  1907995
370
     9
100
AcDbPolyline
 90
        4
 70
     1
 43
0.0
 10
70.07339507433939
 20
-20.47715438364513
 10
68.9933010657372
 20
-20.47715438364513
 10
68.9933010657372
 20
-20.03607418555659
 10
70.07339507433939
 20
-20.03607418555659
  0
SPLINE
  5
A6
330
70
100
AcDbEntity
  8
Camada 1
 62
   250
420
  1907995
370
     9
100
AcDbSpline
210
0.0
220
0.0
230
1.0
 70
    11
 71
     3
 72
    17
 73
    13
 74
     0
 42
0.0000000001
 43
0.0000000001
 40
0.0
 40
0.0
 40
0.0
 40
0.0
 40
1.0
 40
1.0
 40
1.0
 40
2.0
 40
2.0
 40
2.0
 40
3.0
 40
3.0
 40
3.0
 40
4.0
 40
4.0
 40
4.0
 40
4.0
 10
69.06656410587267
 20
-20.40381015662953
 30
0.0
 10
69.06656410587267
 20
-20.40381015662953
 30
0.0
 10
70.00053796860136
 20
-20.40381015662953
 30
0.0
 10
70.00053796860136
 20
-20.40381015662953
 30
0.0
 10
70.00053796860136
 20
-20.40381015662953
 30
0.0
 10
70.00053796860136
 20
-20.10919920799745
 30
0.0
 10
70.00053796860136
 20
-20.10919920799745
 30
0.0
 10
70.00053796860136
 20
-20.10919920799745
 30
0.0
 10
69.06656410587267
 20
-20.10919920799745
 30
0.0
 10
69.06656410587267
 20
-20.10919920799745
 30
0.0
 10
69.06656410587267
 20
-20.10919920799745
 30
0.0
 10
69.06656410587267
 20
-20.40381015662953
 30
0.0
 10
69.06656410587267
 20
-20.40381015662953
 30
0.0
  0
SPLINE
  5
A7
330
70
100
AcDbEntity
  8
Camada 1
 62
   250
420
  1907995
370
     9
100
AcDbSpline
210
0.0
220
0.0
230
1.0
 70
    11
 71
     3
 72
    17
 73
    13
 74
     0
 42
0.0000000001
 43
0.0000000001
 40
0.0
 40
0.0
 40
0.0
 40
0.0
 40
1.0
 40
1.0
 40
1.0
 40
2.0
 40
2.0
 40
2.0
 40
3.0
 40
3.0
 40
3.0
 40
4.0
 40
4.0
 40
4.0
 40
4.0
 10
70.1335545521108
 20
-20.53682674013896
 30
0.0
 10
70.1335545521108
 20
-20.53682674013896
 30
0.0
 10
68.93354752236323
 20
-20.53682674013896
 30
0.0
 10
68.93354752236323
 20
-20.53682674013896
 30
0.0
 10
68.93354752236323
 20
-20.53682674013896
 30
0.0
 10
68.93354752236323
 20
-19.97618262448801
 30
0.0
 10
68.93354752236323
 20
-19.97618262448801
 30
0.0
 10
68.93354752236323
 20
-19.97618262448801
 30
0.0
 10
70.1335545521108
 20
-19.97618262448801
 30
0.0
 10
70.1335545521108
 20
-19.97618262448801
 30
0.0
 10
70.1335545521108
 20
-19.97618262448801
 30
0.0
 10
70.1335545521108
 20
-20.53682674013896
 30
0.0
 10
70.1335545521108
 20
-20.53682674013896
 30
0.0
  0
LWPOLYLINE
  5
A8
330
70
100
AcDbEntity
  8
Camada 1
 62
   250
420
  1907995
370
     9
100
AcDbPolyline
 90
        4
 70
     1
 43
0.0
 10
68.99302503034667
 20
-20.35557703146893
 10
69.94196975366898
 20
-20.35557703146893
 10
69.94196975366898
 20
-20.15711570432713
 10
68.99302503034667
 20
-20.15711570432713
  0
SPLINE
  5
A9
330
70
100
AcDbEntity
  8
Camada 1
 62
   250
420
  1907995
370
     9
100
AcDbSpline
210
0.0
220
0.0
230
1.0
 70
    11
 71
     3
 72
    17
 73
    13
 74
     0
 42
0.0000000001
 43
0.0000000001
 40
0.0
 40
0.0
 40
0.0
 40
0.0
 40
1.0
 40
1.0
 40
1.0
 40
2.0
 40
2.0
 40
2.0
 40
3.0
 40
3.0
 40
3.0
 40
4.0
 40
4.0
 40
4.0
 40
4.0
 10
69.06630430785881
 20
-20.28222468576563
 30
0.0
 10
69.06630430785881
 20
-20.28222468576563
 30
0.0
 10
69.86908017318019
 20
-20.28222468576563
 30
0.0
 10
69.86908017318019
 20
-20.28222468576563
 30
0.0
 10
69.86908017318019
 20
-20.28222468576563
 30
0.0
 10
69.86908017318019
 20
-20.23026508283234
 30
0.0
 10
69.86908017318019
 20
-20.23026508283234
 30
0.0
 10
69.86908017318019
 20
-20.23026508283234
 30
0.0
 10
69.06630430785881
 20
-20.23026508283234
 30
0.0
 10
69.06630430785881
 20
-20.23026508283234
 30
0.0
 10
69.06630430785881
 20
-20.23026508283234
 30
0.0
 10
69.06630430785881
 20
-20.28222468576563
 30
0.0
 10
69.06630430785881
 20
-20.28222468576563
 30
0.0
  0
SPLINE
  5
AA
330
70
100
AcDbEntity
  8
Camada 1
 62
   250
420
  1907995
370
     9
100
AcDbSpline
210
0.0
220
0.0
230
1.0
 70
    11
 71
     3
 72
    17
 73
    13
 74
     0
 42
0.0000000001
 43
0.0000000001
 40
0.0
 40
0.0
 40
0.0
 40
0.0
 40
1.0
 40
1.0
 40
1.0
 40
2.0
 40
2.0
 40
2.0
 40
3.0
 40
3.0
 40
3.0
 40
4.0
 40
4.0
 40
4.0
 40
4.0
 10
70.00209675668962
 20
-20.41524126927507
 30
0.0
 10
70.00209675668962
 20
-20.41524126927507
 30
0.0
 10
68.93328772434938
 20
-20.41524126927507
 30
0.0
 10
68.93328772434938
 20
-20.41524126927507
 30
0.0
 10
68.93328772434938
 20
-20.41524126927507
 30
0.0
 10
68.93328772434938
 20
-20.09724849932291
 30
0.0
 10
68.93328772434938
 20
-20.09724849932291
 30
0.0
 10
68.93328772434938
 20
-20.09724849932291
 30
0.0
 10
70.00209675668962
 20
-20.09724849932291
 30
0.0
 10
70.00209675668962
 20
-20.09724849932291
 30
0.0
 10
70.00209675668962
 20
-20.09724849932291
 30
0.0
 10
70.00209675668962
 20
-20.41524126927507
 30
0.0
 10
70.00209675668962
 20
-20.41524126927507
 30
0.0
  0
LWPOLYLINE
  5
AB
330
70
100
AcDbEntity
  8
Camada 1
 62
   250
420
  1907995
370
     9
100
AcDbPolyline
 90
        4
 70
     1
 43
0.0
 10
70.20482039500851
 20
-20.35557703146893
 10
70.90395308985383
 20
-20.35557703146893
 10
70.90395308985383
 20
-20.15711570432713
 10
70.20482039500851
 20
-20.15711570432713
  0
SPLINE
  5
AC
330
70
100
AcDbEntity
  8
Camada 1
 62
   250
420
  1907995
370
     9
100
AcDbSpline
210
0.0
220
0.0
230
1.0
 70
    11
 71
     3
 72
    17
 73
    13
 74
     0
 42
0.0000000001
 43
0.0000000001
 40
0.0
 40
0.0
 40
0.0
 40
0.0
 40
1.0
 40
1.0
 40
1.0
 40
2.0
 40
2.0
 40
2.0
 40
3.0
 40
3.0
 40
3.0
 40
4.0
 40
4.0
 40
4.0
 40
4.0
 10
70.27774245025064
 20
-20.28222468576563
 30
0.0
 10
70.27774245025064
 20
-20.28222468576563
 30
0.0
 10
70.83085242347734
 20
-20.28222468576563
 30
0.0
 10
70.83085242347734
 20
-20.28222468576563
 30
0.0
 10
70.83085242347734
 20
-20.28222468576563
 30
0.0
 10
70.83085242347734
 20
-20.23026508283234
 30
0.0
 10
70.83085242347734
 20
-20.23026508283234
 30
0.0
 10
70.83085242347734
 20
-20.23026508283234
 30
0.0
 10
70.27774245025064
 20
-20.23026508283234
 30
0.0
 10
70.27774245025064
 20
-20.23026508283234
 30
0.0
 10
70.27774245025064
 20
-20.23026508283234
 30
0.0
 10
70.27774245025064
 20
-20.28222468576563
 30
0.0
 10
70.27774245025064
 20
-20.28222468576563
 30
0.0
  0
SPLINE
  5
AD
330
70
100
AcDbEntity
  8
Camada 1
 62
   250
420
  1907995
370
     9
100
AcDbSpline
210
0.0
220
0.0
230
1.0
 70
    11
 71
     3
 72
    17
 73
    13
 74
     0
 42
0.0000000001
 43
0.0000000001
 40
0.0
 40
0.0
 40
0.0
 40
0.0
 40
1.0
 40
1.0
 40
1.0
 40
2.0
 40
2.0
 40
2.0
 40
3.0
 40
3.0
 40
3.0
 40
4.0
 40
4.0
 40
4.0
 40
4.0
 10
70.96386900698677
 20
-20.41524126927507
 30
0.0
 10
70.96386900698677
 20
-20.41524126927507
 30
0.0
 10
70.1447258667412
 20
-20.41524126927507
 30
0.0
 10
70.1447258667412
 20
-20.41524126927507
 30
0.0
 10
70.1447258667412
 20
-20.41524126927507
 30
0.0
 10
70.1447258667412
 20
-20.09724849932291
 30
0.0
 10
70.1447258667412
 20
-20.09724849932291
 30
0.0
 10
70.1447258667412
 20
-20.09724849932291
 30
0.0
 10
70.96386900698677
 20
-20.09724849932291
 30
0.0
 10
70.96386900698677
 20
-20.09724849932291
 30
0.0
 10
70.96386900698677
 20
-20.09724849932291
 30
0.0
 10
70.96386900698677
 20
-20.41524126927507
 30
0.0
 10
70.96386900698677
 20
-20.41524126927507
 30
0.0
  0
LWPOLYLINE
  5
AE
330
70
100
AcDbEntity
  8
Camada 1
 62
   250
420
  1907995
370
     9
100
AcDbPolyline
 90
        4
 70
     1
 43
0.0
 10
71.16652769580283
 20
-20.35557703146893
 10
72.00241157061798
 20
-20.35557703146893
 10
72.00241157061798
 20
-20.15711570432713
 10
71.16652769580283
 20
-20.15711570432713
  0
SPLINE
  5
AF
330
70
100
AcDbEntity
  8
Camada 1
 62
   250
420
  1907995
370
     9
100
AcDbSpline
210
0.0
220
0.0
230
1.0
 70
    11
 71
     3
 72
    17
 73
    13
 74
     0
 42
0.0000000001
 43
0.0000000001
 40
0.0
 40
0.0
 40
0.0
 40
0.0
 40
1.0
 40
1.0
 40
1.0
 40
2.0
 40
2.0
 40
2.0
 40
3.0
 40
3.0
 40
3.0
 40
4.0
 40
4.0
 40
4.0
 40
4.0
 10
71.24003429657676
 20
-20.28222468576563
 30
0.0
 10
71.24003429657676
 20
-20.28222468576563
 30
0.0
 10
71.92979802551842
 20
-20.28222468576563
 30
0.0
 10
71.92979802551842
 20
-20.28222468576563
 30
0.0
 10
71.92979802551842
 20
-20.28222468576563
 30
0.0
 10
71.92979802551842
 20
-20.23026508283234
 30
0.0
 10
71.92979802551842
 20
-20.23026508283234
 30
0.0
 10
71.92979802551842
 20
-20.23026508283234
 30
0.0
 10
71.24003429657676
 20
-20.23026508283234
 30
0.0
 10
71.24003429657676
 20
-20.23026508283234
 30
0.0
 10
71.24003429657676
 20
-20.23026508283234
 30
0.0
 10
71.24003429657676
 20
-20.28222468576563
 30
0.0
 10
71.24003429657676
 20
-20.28222468576563
 30
0.0
  0
SPLINE
  5
B0
330
70
100
AcDbEntity
  8
Camada 1
 62
   250
420
  1907995
370
     9
100
AcDbSpline
210
0.0
220
0.0
230
1.0
 70
    11
 71
     3
 72
    17
 73
    13
 74
     0
 42
0.0000000001
 43
0.0000000001
 40
0.0
 40
0.0
 40
0.0
 40
0.0
 40
1.0
 40
1.0
 40
1.0
 40
2.0
 40
2.0
 40
2.0
 40
3.0
 40
3.0
 40
3.0
 40
4.0
 40
4.0
 40
4.0
 40
4.0
 10
72.06281460902785
 20
-20.41524126927507
 30
0.0
 10
72.06281460902785
 20
-20.41524126927507
 30
0.0
 10
71.10701771306733
 20
-20.41524126927507
 30
0.0
 10
71.10701771306733
 20
-20.41524126927507
 30
0.0
 10
71.10701771306733
 20
-20.41524126927507
 30
0.0
 10
71.10701771306733
 20
-20.09724849932291
 30
0.0
 10
71.10701771306733
 20
-20.09724849932291
 30
0.0
 10
71.10701771306733
 20
-20.09724849932291
 30
0.0
 10
72.06281460902785
 20
-20.09724849932291
 30
0.0
 10
72.06281460902785
 20
-20.09724849932291
 30
0.0
 10
72.06281460902785
 20
-20.09724849932291
 30
0.0
 10
72.06281460902785
 20
-20.41524126927507
 30
0.0
 10
72.06281460902785
 20
-20.41524126927507
 30
0.0
  0
LWPOLYLINE
  5
B1
330
70
100
AcDbEntity
  8
Camada 1
 62
   250
420
  1907995
370
     9
100
AcDbPolyline
 90
        4
 70
     1
 43
0.0
 10
72.26524597458082
 20
-20.35557703146893
 10
73.2139146625139
 20
-20.35557703146893
 10
73.2139146625139
 20
-20.15711570432713
 10
72.26524597458082
 20
-20.15711570432713
  0
SPLINE
  5
B2
330
70
100
AcDbEntity
  8
Camada 1
 62
   250
420
  1907995
370
     9
100
AcDbSpline
210
0.0
220
0.0
230
1.0
 70
    11
 71
     3
 72
    17
 73
    13
 74
     0
 42
0.0000000001
 43
0.0000000001
 40
0.0
 40
0.0
 40
0.0
 40
0.0
 40
1.0
 40
1.0
 40
1.0
 40
2.0
 40
2.0
 40
2.0
 40
3.0
 40
3.0
 40
3.0
 40
4.0
 40
4.0
 40
4.0
 40
4.0
 10
72.33846030258885
 20
-20.28222468576563
 30
0.0
 10
72.33846030258885
 20
-20.28222468576563
 30
0.0
 10
73.14123616791025
 20
-20.28222468576563
 30
0.0
 10
73.14123616791025
 20
-20.28222468576563
 30
0.0
 10
73.14123616791025
 20
-20.28222468576563
 30
0.0
 10
73.14123616791025
 20
-20.23026508283234
 30
0.0
 10
73.14123616791025
 20
-20.23026508283234
 30
0.0
 10
73.14123616791025
 20
-20.23026508283234
 30
0.0
 10
72.33846030258885
 20
-20.23026508283234
 30
0.0
 10
72.33846030258885
 20
-20.23026508283234
 30
0.0
 10
72.33846030258885
 20
-20.23026508283234
 30
0.0
 10
72.33846030258885
 20
-20.28222468576563
 30
0.0
 10
72.33846030258885
 20
-20.28222468576563
 30
0.0
  0
SPLINE
  5
B3
330
70
100
AcDbEntity
  8
Camada 1
 62
   250
420
  1907995
370
     9
100
AcDbSpline
210
0.0
220
0.0
230
1.0
 70
    11
 71
     3
 72
    17
 73
    13
 74
     0
 42
0.0000000001
 43
0.0000000001
 40
0.0
 40
0.0
 40
0.0
 40
0.0
 40
1.0
 40
1.0
 40
1.0
 40
2.0
 40
2.0
 40
2.0
 40
3.0
 40
3.0
 40
3.0
 40
4.0
 40
4.0
 40
4.0
 40
4.0
 10
73.27425275141968
 20
-20.41524126927507
 30
0.0
 10
73.27425275141968
 20
-20.41524126927507
 30
0.0
 10
72.20544371907942
 20
-20.41524126927507
 30
0.0
 10
72.20544371907942
 20
-20.41524126927507
 30
0.0
 10
72.20544371907942
 20
-20.41524126927507
 30
0.0
 10
72.20544371907942
 20
-20.09724849932291
 30
0.0
 10
72.20544371907942
 20
-20.09724849932291
 30
0.0
 10
72.20544371907942
 20
-20.09724849932291
 30
0.0
 10
73.27425275141968
 20
-20.09724849932291
 30
0.0
 10
73.27425275141968
 20
-20.09724849932291
 30
0.0
 10
73.27425275141968
 20
-20.09724849932291
 30
0.0
 10
73.27425275141968
 20
-20.41524126927507
 30
0.0
 10
73.27425275141968
 20
-20.41524126927507
 30
0.0
  0
LWPOLYLINE
  5
B4
330
70
100
AcDbEntity
  8
Camada 1
 62
   250
420
  1907995
370
     9
100
AcDbPolyline
 90
        4
 70
     1
 43
0.0
 10
73.47674906647675
 20
-20.35557703146893
 10
74.17588176132207
 20
-20.35557703146893
 10
74.17588176132207
 20
-20.15711570432713
 10
73.47674906647675
 20
-20.15711570432713
  0
SPLINE
  5
B5
330
70
100
AcDbEntity
  8
Camada 1
 62
   250
420
  1907995
370
     9
100
AcDbSpline
210
0.0
220
0.0
230
1.0
 70
    11
 71
     3
 72
    17
 73
    13
 74
     0
 42
0.0000000001
 43
0.0000000001
 40
0.0
 40
0.0
 40
0.0
 40
0.0
 40
1.0
 40
1.0
 40
1.0
 40
2.0
 40
2.0
 40
2.0
 40
3.0
 40
3.0
 40
3.0
 40
4.0
 40
4.0
 40
4.0
 40
4.0
 10
73.54989844498196
 20
-20.28222468576563
 30
0.0
 10
73.54989844498196
 20
-20.28222468576563
 30
0.0
 10
74.10300841820738
 20
-20.28222468576563
 30
0.0
 10
74.10300841820738
 20
-20.28222468576563
 30
0.0
 10
74.10300841820738
 20
-20.28222468576563
 30
0.0
 10
74.10300841820738
 20
-20.23026508283234
 30
0.0
 10
74.10300841820738
 20
-20.23026508283234
 30
0.0
 10
74.10300841820738
 20
-20.23026508283234
 30
0.0
 10
73.54989844498196
 20
-20.23026508283234
 30
0.0
 10
73.54989844498196
 20
-20.23026508283234
 30
0.0
 10
73.54989844498196
 20
-20.23026508283234
 30
0.0
 10
73.54989844498196
 20
-20.28222468576563
 30
0.0
 10
73.54989844498196
 20
-20.28222468576563
 30
0.0
  0
SPLINE
  5
B6
330
70
100
AcDbEntity
  8
Camada 1
 62
   250
420
  1907995
370
     9
100
AcDbSpline
210
0.0
220
0.0
230
1.0
 70
    11
 71
     3
 72
    17
 73
    13
 74
     0
 42
0.0000000001
 43
0.0000000001
 40
0.0
 40
0.0
 40
0.0
 40
0.0
 40
1.0
 40
1.0
 40
1.0
 40
2.0
 40
2.0
 40
2.0
 40
3.0
 40
3.0
 40
3.0
 40
4.0
 40
4.0
 40
4.0
 40
4.0
 10
74.23602500171682
 20
-20.41524126927507
 30
0.0
 10
74.23602500171682
 20
-20.41524126927507
 30
0.0
 10
73.41688186147253
 20
-20.41524126927507
 30
0.0
 10
73.41688186147253
 20
-20.41524126927507
 30
0.0
 10
73.41688186147253
 20
-20.41524126927507
 30
0.0
 10
73.41688186147253
 20
-20.09724849932291
 30
0.0
 10
73.41688186147253
 20
-20.09724849932291
 30
0.0
 10
73.41688186147253
 20
-20.09724849932291
 30
0.0
 10
74.23602500171682
 20
-20.09724849932291
 30
0.0
 10
74.23602500171682
 20
-20.09724849932291
 30
0.0
 10
74.23602500171682
 20
-20.09724849932291
 30
0.0
 10
74.23602500171682
 20
-20.41524126927507
 30
0.0
 10
74.23602500171682
 20
-20.41524126927507
 30
0.0
  0
LWPOLYLINE
  5
B7
330
70
100
AcDbEntity
  8
Camada 1
 62
   250
420
  1907995
370
     9
100
AcDbPolyline
 90
        4
 70
     1
 43
0.0
 10
74.43899220067546
 20
-20.35557703146893
 10
75.27460004010008
 20
-20.35557703146893
 10
75.27460004010008
 20
-20.15711570432713
 10
74.43899220067546
 20
-20.15711570432713
  0
SPLINE
  5
B8
330
70
100
AcDbEntity
  8
Camada 1
 62
   250
420
  1907995
370
     9
100
AcDbSpline
210
0.0
220
0.0
230
1.0
 70
    11
 71
     3
 72
    17
 73
    13
 74
     0
 42
0.0000000001
 43
0.0000000001
 40
0.0
 40
0.0
 40
0.0
 40
0.0
 40
1.0
 40
1.0
 40
1.0
 40
2.0
 40
2.0
 40
2.0
 40
3.0
 40
3.0
 40
3.0
 40
4.0
 40
4.0
 40
4.0
 40
4.0
 10
74.51193049329297
 20
-20.28222468576563
 30
0.0
 10
74.51193049329297
 20
-20.28222468576563
 30
0.0
 10
75.20169422223462
 20
-20.28222468576563
 30
0.0
 10
75.20169422223462
 20
-20.28222468576563
 30
0.0
 10
75.20169422223462
 20
-20.28222468576563
 30
0.0
 10
75.20169422223462
 20
-20.23026508283234
 30
0.0
 10
75.20169422223462
 20
-20.23026508283234
 30
0.0
 10
75.20169422223462
 20
-20.23026508283234
 30
0.0
 10
74.51193049329297
 20
-20.23026508283234
 30
0.0
 10
74.51193049329297
 20
-20.23026508283234
 30
0.0
 10
74.51193049329297
 20
-20.23026508283234
 30
0.0
 10
74.51193049329297
 20
-20.28222468576563
 30
0.0
 10
74.51193049329297
 20
-20.28222468576563
 30
0.0
  0
SPLINE
  5
B9
330
70
100
AcDbEntity
  8
Camada 1
 62
   250
420
  1907995
370
     9
100
AcDbSpline
210
0.0
220
0.0
230
1.0
 70
    11
 71
     3
 72
    17
 73
    13
 74
     0
 42
0.0000000001
 43
0.0000000001
 40
0.0
 40
0.0
 40
0.0
 40
0.0
 40
1.0
 40
1.0
 40
1.0
 40
2.0
 40
2.0
 40
2.0
 40
3.0
 40
3.0
 40
3.0
 40
4.0
 40
4.0
 40
4.0
 40
4.0
 10
75.33471080574405
 20
-20.41524126927507
 30
0.0
 10
75.33471080574405
 20
-20.41524126927507
 30
0.0
 10
74.37891390978354
 20
-20.41524126927507
 30
0.0
 10
74.37891390978354
 20
-20.41524126927507
 30
0.0
 10
74.37891390978354
 20
-20.41524126927507
 30
0.0
 10
74.37891390978354
 20
-20.09724849932291
 30
0.0
 10
74.37891390978354
 20
-20.09724849932291
 30
0.0
 10
74.37891390978354
 20
-20.09724849932291
 30
0.0
 10
75.33471080574405
 20
-20.09724849932291
 30
0.0
 10
75.33471080574405
 20
-20.09724849932291
 30
0.0
 10
75.33471080574405
 20
-20.09724849932291
 30
0.0
 10
75.33471080574405
 20
-20.41524126927507
 30
0.0
 10
75.33471080574405
 20
-20.41524126927507
 30
0.0
  0
LWPOLYLINE
  5
BA
330
70
100
AcDbEntity
  8
Camada 1
 62
   250
420
  1907995
370
     9
100
AcDbPolyline
 90
        4
 70
     1
 43
0.0
 10
75.53745068143959
 20
-20.35557703146893
 10
76.23658337628492
 20
-20.35557703146893
 10
76.23658337628492
 20
-20.15711570432713
 10
75.53745068143959
 20
-20.15711570432713
  0
SPLINE
  5
BB
330
70
100
AcDbEntity
  8
Camada 1
 62
   250
420
  1907995
370
     9
100
AcDbSpline
210
0.0
220
0.0
230
1.0
 70
    11
 71
     3
 72
    17
 73
    13
 74
     0
 42
0.0000000001
 43
0.0000000001
 40
0.0
 40
0.0
 40
0.0
 40
0.0
 40
1.0
 40
1.0
 40
1.0
 40
2.0
 40
2.0
 40
2.0
 40
3.0
 40
3.0
 40
3.0
 40
4.0
 40
4.0
 40
4.0
 40
4.0
 10
75.61035649930506
 20
-20.28222468576563
 30
0.0
 10
75.61035649930506
 20
-20.28222468576563
 30
0.0
 10
76.1637262705469
 20
-20.28222468576563
 30
0.0
 10
76.1637262705469
 20
-20.28222468576563
 30
0.0
 10
76.1637262705469
 20
-20.28222468576563
 30
0.0
 10
76.1637262705469
 20
-20.23026508283234
 30
0.0
 10
76.1637262705469
 20
-20.23026508283234
 30
0.0
 10
76.1637262705469
 20
-20.23026508283234
 30
0.0
 10
75.61035649930506
 20
-20.23026508283234
 30
0.0
 10
75.61035649930506
 20
-20.23026508283234
 30
0.0
 10
75.61035649930506
 20
-20.23026508283234
 30
0.0
 10
75.61035649930506
 20
-20.28222468576563
 30
0.0
 10
75.61035649930506
 20
-20.28222468576563
 30
0.0
  0
SPLINE
  5
BC
330
70
100
AcDbEntity
  8
Camada 1
 62
   250
420
  1907995
370
     9
100
AcDbSpline
210
0.0
220
0.0
230
1.0
 70
    11
 71
     3
 72
    17
 73
    13
 74
     0
 42
0.0000000001
 43
0.0000000001
 40
0.0
 40
0.0
 40
0.0
 40
0.0
 40
1.0
 40
1.0
 40
1.0
 40
2.0
 40
2.0
 40
2.0
 40
3.0
 40
3.0
 40
3.0
 40
4.0
 40
4.0
 40
4.0
 40
4.0
 10
76.29674285405633
 20
-20.41524126927507
 30
0.0
 10
76.29674285405633
 20
-20.41524126927507
 30
0.0
 10
75.47733991579562
 20
-20.41524126927507
 30
0.0
 10
75.47733991579562
 20
-20.41524126927507
 30
0.0
 10
75.47733991579562
 20
-20.41524126927507
 30
0.0
 10
75.47733991579562
 20
-20.09724849932291
 30
0.0
 10
75.47733991579562
 20
-20.09724849932291
 30
0.0
 10
75.47733991579562
 20
-20.09724849932291
 30
0.0
 10
76.29674285405633
 20
-20.09724849932291
 30
0.0
 10
76.29674285405633
 20
-20.09724849932291
 30
0.0
 10
76.29674285405633
 20
-20.09724849932291
 30
0.0
 10
76.29674285405633
 20
-20.41524126927507
 30
0.0
 10
76.29674285405633
 20
-20.41524126927507
 30
0.0
  0
LWPOLYLINE
  5
BD
330
70
100
AcDbEntity
  8
Camada 1
 62
   250
420
  1907995
370
     9
100
AcDbPolyline
 90
        4
 70
     1
 43
0.0
 10
76.49915798223263
 20
-20.35557703146893
 10
77.33504185704778
 20
-20.35557703146893
 10
77.33504185704778
 20
-20.15711570432713
 10
76.49915798223263
 20
-20.15711570432713
  0
SPLINE
  5
BE
330
70
100
AcDbEntity
  8
Camada 1
 62
   250
420
  1907995
370
     9
100
AcDbSpline
210
0.0
220
0.0
230
1.0
 70
    11
 71
     3
 72
    17
 73
    13
 74
     0
 42
0.0000000001
 43
0.0000000001
 40
0.0
 40
0.0
 40
0.0
 40
0.0
 40
1.0
 40
1.0
 40
1.0
 40
2.0
 40
2.0
 40
2.0
 40
3.0
 40
3.0
 40
3.0
 40
4.0
 40
4.0
 40
4.0
 40
4.0
 10
76.57264834563247
 20
-20.28222468576563
 30
0.0
 10
76.57264834563247
 20
-20.28222468576563
 30
0.0
 10
77.26241207457284
 20
-20.28222468576563
 30
0.0
 10
77.26241207457284
 20
-20.28222468576563
 30
0.0
 10
77.26241207457284
 20
-20.28222468576563
 30
0.0
 10
77.26241207457284
 20
-20.23026508283234
 30
0.0
 10
77.26241207457284
 20
-20.23026508283234
 30
0.0
 10
77.26241207457284
 20
-20.23026508283234
 30
0.0
 10
76.57264834563247
 20
-20.23026508283234
 30
0.0
 10
76.57264834563247
 20
-20.23026508283234
 30
0.0
 10
76.57264834563247
 20
-20.23026508283234
 30
0.0
 10
76.57264834563247
 20
-20.28222468576563
 30
0.0
 10
76.57264834563247
 20
-20.28222468576563
 30
0.0
  0
SPLINE
  5
BF
330
70
100
AcDbEntity
  8
Camada 1
 62
   250
420
  1907995
370
     9
100
AcDbSpline
210
0.0
220
0.0
230
1.0
 70
    11
 71
     3
 72
    17
 73
    13
 74
     0
 42
0.0000000001
 43
0.0000000001
 40
0.0
 40
0.0
 40
0.0
 40
0.0
 40
1.0
 40
1.0
 40
1.0
 40
2.0
 40
2.0
 40
2.0
 40
3.0
 40
3.0
 40
3.0
 40
4.0
 40
4.0
 40
4.0
 40
4.0
 10
77.39542865808228
 20
-20.41524126927507
 30
0.0
 10
77.39542865808228
 20
-20.41524126927507
 30
0.0
 10
76.43963176212304
 20
-20.41524126927507
 30
0.0
 10
76.43963176212304
 20
-20.41524126927507
 30
0.0
 10
76.43963176212304
 20
-20.41524126927507
 30
0.0
 10
76.43963176212304
 20
-20.09724849932291
 30
0.0
 10
76.43963176212304
 20
-20.09724849932291
 30
0.0
 10
76.43963176212304
 20
-20.09724849932291
 30
0.0
 10
77.39542865808228
 20
-20.09724849932291
 30
0.0
 10
77.39542865808228
 20
-20.09724849932291
 30
0.0
 10
77.39542865808228
 20
-20.09724849932291
 30
0.0
 10
77.39542865808228
 20
-20.41524126927507
 30
0.0
 10
77.39542865808228
 20
-20.41524126927507
 30
0.0
  0
SPLINE
  5
C0
330
70
100
AcDbEntity
  8
Camada 1
 62
   250
420
  1907995
370
     9
100
AcDbSpline
210
0.0
220
0.0
230
1.0
 70
    11
 71
     3
 72
    17
 73
    13
 74
     0
 42
0.0000000001
 43
0.0000000001
 40
0.0
 40
0.0
 40
0.0
 40
0.0
 40
1.0
 40
1.0
 40
1.0
 40
2.0
 40
2.0
 40
2.0
 40
3.0
 40
3.0
 40
3.0
 40
4.0
 40
4.0
 40
4.0
 40
4.0
 10
68.86294741187811
 20
-37.78979368959999
 30
0.0
 10
68.86294741187811
 20
-37.78979368959999
 30
0.0
 10
70.20348893018333
 20
-37.78979368959999
 30
0.0
 10
70.20348893018333
 20
-37.78979368959999
 30
0.0
 10
70.20348893018333
 20
-37.78979368959999
 30
0.0
 10
70.20348893018333
 20
-20.3170051449792
 30
0.0
 10
70.20348893018333
 20
-20.3170051449792
 30
0.0
 10
70.20348893018333
 20
-20.3170051449792
 30
0.0
 10
68.86294741187811
 20
-20.3170051449792
 30
0.0
 10
68.86294741187811
 20
-20.3170051449792
 30
0.0
 10
68.86294741187811
 20
-20.3170051449792
 30
0.0
 10
68.86294741187811
 20
-37.78979368959999
 30
0.0
 10
68.86294741187811
 20
-37.78979368959999
 30
0.0
  0
SPLINE
  5
C1
330
70
100
AcDbEntity
  8
Camada 1
 62
   250
420
  1907995
370
     9
100
AcDbSpline
210
0.0
220
0.0
230
1.0
 70
    11
 71
     3
 72
    17
 73
    13
 74
     0
 42
0.0000000001
 43
0.0000000001
 40
0.0
 40
0.0
 40
0.0
 40
0.0
 40
1.0
 40
1.0
 40
1.0
 40
2.0
 40
2.0
 40
2.0
 40
3.0
 40
3.0
 40
3.0
 40
4.0
 40
4.0
 40
4.0
 40
4.0
 10
70.3255939970775
 20
-37.91083520837053
 30
0.0
 10
70.3255939970775
 20
-37.91083520837053
 30
0.0
 10
68.74084234498394
 20
-37.91083520837053
 30
0.0
 10
68.74084234498394
 20
-37.91083520837053
 30
0.0
 10
68.74084234498394
 20
-37.91083520837053
 30
0.0
 10
68.74084234498394
 20
-20.1956875908175
 30
0.0
 10
68.74084234498394
 20
-20.1956875908175
 30
0.0
 10
68.74084234498394
 20
-20.1956875908175
 30
0.0
 10
70.3255939970775
 20
-20.1956875908175
 30
0.0
 10
70.3255939970775
 20
-20.1956875908175
 30
0.0
 10
70.3255939970775
 20
-20.1956875908175
 30
0.0
 10
70.3255939970775
 20
-37.91083520837053
 30
0.0
 10
70.3255939970775
 20
-37.91083520837053
 30
0.0
  0
SPLINE
  5
C2
330
70
100
AcDbEntity
  8
Camada 1
 62
   250
420
  1907995
370
     9
100
AcDbSpline
210
0.0
220
0.0
230
1.0
 70
    11
 71
     3
 72
    17
 73
    13
 74
     0
 42
0.0000000001
 43
0.0000000001
 40
0.0
 40
0.0
 40
0.0
 40
0.0
 40
1.0
 40
1.0
 40
1.0
 40
2.0
 40
2.0
 40
2.0
 40
3.0
 40
3.0
 40
3.0
 40
4.0
 40
4.0
 40
4.0
 40
4.0
 10
68.93510631045149
 20
-37.71649005602414
 30
0.0
 10
68.93510631045149
 20
-37.71649005602414
 30
0.0
 10
70.1317359660074
 20
-37.71649005602414
 30
0.0
 10
70.1317359660074
 20
-37.71649005602414
 30
0.0
 10
70.1317359660074
 20
-37.71649005602414
 30
0.0
 10
70.1317359660074
 20
-20.39004086185223
 30
0.0
 10
70.1317359660074
 20
-20.39004086185223
 30
0.0
 10
70.1317359660074
 20
-20.39004086185223
 30
0.0
 10
68.93510631045149
 20
-20.39004086185223
 30
0.0
 10
68.93510631045149
 20
-20.39004086185223
 30
0.0
 10
68.93510631045149
 20
-20.39004086185223
 30
0.0
 10
68.93510631045149
 20
-37.71649005602414
 30
0.0
 10
68.93510631045149
 20
-37.71649005602414
 30
0.0
  0
SPLINE
  5
C3
330
70
100
AcDbEntity
  8
Camada 1
 62
   250
420
  1907995
370
     9
100
AcDbSpline
210
0.0
220
0.0
230
1.0
 70
    11
 71
     3
 72
    17
 73
    13
 74
     0
 42
0.0000000001
 43
0.0000000001
 40
0.0
 40
0.0
 40
0.0
 40
0.0
 40
1.0
 40
1.0
 40
1.0
 40
2.0
 40
2.0
 40
2.0
 40
3.0
 40
3.0
 40
3.0
 40
4.0
 40
4.0
 40
4.0
 40
4.0
 10
70.38555862633787
 20
-37.97057251436847
 30
0.0
 10
70.38555862633787
 20
-37.97057251436847
 30
0.0
 10
68.6807640540933
 20
-37.97057251436847
 30
0.0
 10
68.6807640540933
 20
-37.97057251436847
 30
0.0
 10
68.6807640540933
 20
-37.97057251436847
 30
0.0
 10
68.6807640540933
 20
-20.13647799953754
 30
0.0
 10
68.6807640540933
 20
-20.13647799953754
 30
0.0
 10
68.6807640540933
 20
-20.13647799953754
 30
0.0
 10
70.38555862633787
 20
-20.13647799953754
 30
0.0
 10
70.38555862633787
 20
-20.13647799953754
 30
0.0
 10
70.38555862633787
 20
-20.13647799953754
 30
0.0
 10
70.38555862633787
 20
-37.97057251436847
 30
0.0
 10
70.38555862633787
 20
-37.97057251436847
 30
0.0
  0
LWPOLYLINE
  5
C4
330
70
100
AcDbEntity
  8
Camada 1
 62
   250
420
  1907995
370
     9
100
AcDbPolyline
 90
        8
 70
     1
 43
0.0
 10
70.32567518395699
 20
-55.71008025514058
 10
70.20355387968743
 20
-55.71008025514058
 10
70.20355387968743
 20
-42.57363314479851
 10
68.86301236138222
 20
-42.57363314479851
 10
68.86301236138222
 20
-55.71008025514058
 10
68.74064749647292
 20
-55.71008025514058
 10
68.74064749647292
 20
-42.45258350733964
 10
70.32567518395699
 20
-42.45258350733964
  0
LWPOLYLINE
  5
C5
330
70
100
AcDbEntity
  8
Camada 1
 62
   250
420
  1907995
370
     9
100
AcDbPolyline
 90
        8
 70
     1
 43
0.0
 10
70.38555862633787
 20
-55.76985409523377
 10
70.1317359660074
 20
-55.76985409523377
 10
70.1317359660074
 20
-42.64693677837438
 10
68.93510631045149
 20
-42.64693677837438
 10
68.93510631045149
 20
-55.76985409523377
 10
68.6807640540933
 20
-55.76985409523377
 10
68.6807640540933
 20
-42.39285432003003
 10
70.38555862633787
 20
-42.39285432003003
  0
SPLINE
  5
C6
330
70
100
AcDbEntity
  8
Camada 1
 62
   250
420
  1907995
370
     9
100
AcDbSpline
210
0.0
220
0.0
230
1.0
 70
    11
 71
     3
 72
    17
 73
    13
 74
     0
 42
0.0000000001
 43
0.0000000001
 40
0.0
 40
0.0
 40
0.0
 40
0.0
 40
1.0
 40
1.0
 40
1.0
 40
2.0
 40
2.0
 40
2.0
 40
3.0
 40
3.0
 40
3.0
 40
4.0
 40
4.0
 40
4.0
 40
4.0
 10
68.58707439505401
 20
-42.45255915127528
 30
0.0
 10
68.58707439505401
 20
-42.45255915127528
 30
0.0
 10
70.47963798239923
 20
-42.45255915127528
 30
0.0
 10
70.47963798239923
 20
-42.45255915127528
 30
0.0
 10
70.47963798239923
 20
-42.45255915127528
 30
0.0
 10
70.47963798239923
 20
-37.91111124376106
 30
0.0
 10
70.47963798239923
 20
-37.91111124376106
 30
0.0
 10
70.47963798239923
 20
-37.91111124376106
 30
0.0
 10
68.58707439505401
 20
-37.91111124376106
 30
0.0
 10
68.58707439505401
 20
-37.91111124376106
 30
0.0
 10
68.58707439505401
 20
-37.91111124376106
 30
0.0
 10
68.58707439505401
 20
-42.45255915127528
 30
0.0
 10
68.58707439505401
 20
-42.45255915127528
 30
0.0
  0
SPLINE
  5
C7
330
70
100
AcDbEntity
  8
Camada 1
 62
   250
420
  1907995
370
     9
100
AcDbSpline
210
0.0
220
0.0
230
1.0
 70
    11
 71
     3
 72
    17
 73
    13
 74
     0
 42
0.0000000001
 43
0.0000000001
 40
0.0
 40
0.0
 40
0.0
 40
0.0
 40
1.0
 40
1.0
 40
1.0
 40
2.0
 40
2.0
 40
2.0
 40
3.0
 40
3.0
 40
3.0
 40
4.0
 40
4.0
 40
4.0
 40
4.0
 10
70.60146701390159
 20
-42.57386858674929
 30
0.0
 10
70.60146701390159
 20
-42.57386858674929
 30
0.0
 10
68.46495309078446
 20
-42.57386858674929
 30
0.0
 10
68.46495309078446
 20
-42.57386858674929
 30
0.0
 10
68.46495309078446
 20
-42.57386858674929
 30
0.0
 10
68.46495309078446
 20
-37.78952577289717
 30
0.0
 10
68.46495309078446
 20
-37.78952577289717
 30
0.0
 10
68.46495309078446
 20
-37.78952577289717
 30
0.0
 10
70.60146701390159
 20
-37.78952577289717
 30
0.0
 10
70.60146701390159
 20
-37.78952577289717
 30
0.0
 10
70.60146701390159
 20
-37.78952577289717
 30
0.0
 10
70.60146701390159
 20
-42.57386858674929
 30
0.0
 10
70.60146701390159
 20
-42.57386858674929
 30
0.0
  0
SPLINE
  5
C8
330
70
100
AcDbEntity
  8
Camada 1
 62
   250
420
  1907995
370
     9
100
AcDbSpline
210
0.0
220
0.0
230
1.0
 70
    11
 71
     3
 72
    17
 73
    13
 74
     0
 42
0.0000000001
 43
0.0000000001
 40
0.0
 40
0.0
 40
0.0
 40
0.0
 40
1.0
 40
1.0
 40
1.0
 40
2.0
 40
2.0
 40
2.0
 40
3.0
 40
3.0
 40
3.0
 40
4.0
 40
4.0
 40
4.0
 40
4.0
 10
68.65946061689048
 20
-42.37934482326724
 30
0.0
 10
68.65946061689048
 20
-42.37934482326724
 30
0.0
 10
70.4073816595697
 20
-42.37934482326724
 30
0.0
 10
70.4073816595697
 20
-42.37934482326724
 30
0.0
 10
70.4073816595697
 20
-42.37934482326724
 30
0.0
 10
70.4073816595697
 20
-37.98382221311612
 30
0.0
 10
70.4073816595697
 20
-37.98382221311612
 30
0.0
 10
70.4073816595697
 20
-37.98382221311612
 30
0.0
 10
68.65946061689048
 20
-37.98382221311612
 30
0.0
 10
68.65946061689048
 20
-37.98382221311612
 30
0.0
 10
68.65946061689048
 20
-37.98382221311612
 30
0.0
 10
68.65946061689048
 20
-42.37934482326724
 30
0.0
 10
68.65946061689048
 20
-42.37934482326724
 30
0.0
  0
SPLINE
  5
C9
330
70
100
AcDbEntity
  8
Camada 1
 62
   250
420
  1907995
370
     9
100
AcDbSpline
210
0.0
220
0.0
230
1.0
 70
    11
 71
     3
 72
    17
 73
    13
 74
     0
 42
0.0000000001
 43
0.0000000001
 40
0.0
 40
0.0
 40
0.0
 40
0.0
 40
1.0
 40
1.0
 40
1.0
 40
2.0
 40
2.0
 40
2.0
 40
3.0
 40
3.0
 40
3.0
 40
4.0
 40
4.0
 40
4.0
 40
4.0
 10
70.66146411791402
 20
-42.63342728161157
 30
0.0
 10
70.66146411791402
 20
-42.63342728161157
 30
0.0
 10
68.40511836053102
 20
-42.63342728161157
 30
0.0
 10
68.40511836053102
 20
-42.63342728161157
 30
0.0
 10
68.40511836053102
 20
-42.63342728161157
 30
0.0
 10
68.40511836053102
 20
-37.72999955278629
 30
0.0
 10
68.40511836053102
 20
-37.72999955278629
 30
0.0
 10
68.40511836053102
 20
-37.72999955278629
 30
0.0
 10
70.66146411791402
 20
-37.72999955278629
 30
0.0
 10
70.66146411791402
 20
-37.72999955278629
 30
0.0
 10
70.66146411791402
 20
-37.72999955278629
 30
0.0
 10
70.66146411791402
 20
-42.63342728161157
 30
0.0
 10
70.66146411791402
 20
-42.63342728161157
 30
0.0
  0
LWPOLYLINE
  5
CA
330
70
100
AcDbEntity
  8
Camada 1
 62
   250
420
  1907995
370
     9
100
AcDbPolyline
 90
        8
 70
     1
 43
0.0
 10
70.32567518395699
 20
-84.37866533398057
 10
68.74064749647292
 20
-84.37866533398057
 10
68.74064749647292
 20
-58.22015530794175
 10
68.86301236138222
 20
-58.22015530794175
 10
68.86301236138222
 20
-84.25735589850722
 10
70.20355387968743
 20
-84.25735589850722
 10
70.20355387968743
 20
-58.22015530794175
 10
70.32567518395699
 20
-58.22015530794175
  0
LWPOLYLINE
  5
CB
330
70
100
AcDbEntity
  8
Camada 1
 62
   250
420
  1907995
370
     9
100
AcDbPolyline
 90
        8
 70
     1
 43
0.0
 10
70.38555862633787
 20
-84.43830521572236
 10
68.6807640540933
 20
-84.43830521572236
 10
68.6807640540933
 20
-58.16051542619933
 10
68.93510631045149
 20
-58.16051542619933
 10
68.93510631045149
 20
-84.18422275737801
 10
70.1317359660074
 20
-84.18422275737801
 10
70.1317359660074
 20
-58.16051542619933
 10
70.38555862633787
 20
-58.16051542619933
  0
SPLINE
  5
CC
330
70
100
AcDbEntity
  8
Camada 1
 62
   250
420
  1907995
370
     9
100
AcDbSpline
210
0.0
220
0.0
230
1.0
 70
    11
 71
     3
 72
    47
 73
    43
 74
     0
 42
0.0000000001
 43
0.0000000001
 40
0.0
 40
0.0
 40
0.0
 40
0.0
 40
1.0
 40
1.0
 40
1.0
 40
2.0
 40
2.0
 40
2.0
 40
3.0
 40
3.0
 40
3.0
 40
4.0
 40
4.0
 40
4.0
 40
5.0
 40
5.0
 40
5.0
 40
6.0
 40
6.0
 40
6.0
 40
7.0
 40
7.0
 40
7.0
 40
8.0
 40
8.0
 40
8.0
 40
9.0
 40
9.0
 40
9.0
 40
10.0
 40
10.0
 40
10.0
 40
11.0
 40
11.0
 40
11.0
 40
12.0
 40
12.0
 40
12.0
 40
13.0
 40
13.0
 40
13.0
 40
14.0
 40
14.0
 40
14.0
 40
14.0
 10
68.49182594792647
 20
-84.35012002711877
 30
0.0
 10
68.49182594792647
 20
-84.35012002711877
 30
0.0
 10
68.49182594792647
 20
-85.50230798479153
 30
0.0
 10
68.49182594792647
 20
-85.50230798479153
 30
0.0
 10
68.49182594792647
 20
-85.50230798479153
 30
0.0
 10
68.97181901739871
 20
-85.50230798479153
 30
0.0
 10
68.97181901739871
 20
-85.50230798479153
 30
0.0
 10
68.98930667126165
 20
-85.48298550745045
 30
0.0
 10
69.00234528412291
 20
-85.4591977517323
 30
0.0
 10
69.02468791338371
 20
-85.44471401241496
 30
0.0
 10
69.05774721075004
 20
-85.41446378108195
 30
0.0
 10
69.09674938770222
 20
-85.39439438444878
 30
0.0
 10
69.13966477225044
 20
-85.38099854931752
 30
0.0
 10
69.13966477225044
 20
-85.38099854931752
 30
0.0
 10
68.6136712168055
 20
-85.38099854931752
 30
0.0
 10
68.6136712168055
 20
-85.38099854931752
 30
0.0
 10
68.6136712168055
 20
-85.38099854931752
 30
0.0
 10
68.6136712168055
 20
-84.4714294625928
 30
0.0
 10
68.6136712168055
 20
-84.4714294625928
 30
0.0
 10
68.6136712168055
 20
-84.4714294625928
 30
0.0
 10
70.45276512525723
 20
-84.4714294625928
 30
0.0
 10
70.45276512525723
 20
-84.4714294625928
 30
0.0
 10
70.45276512525723
 20
-84.4714294625928
 30
0.0
 10
70.45276512525723
 20
-85.38099854931752
 30
0.0
 10
70.45276512525723
 20
-85.38099854931752
 30
0.0
 10
70.45276512525723
 20
-85.38099854931752
 30
0.0
 10
69.84750070058685
 20
-85.38099854931752
 30
0.0
 10
69.84750070058685
 20
-85.38099854931752
 30
0.0
 10
69.90541942048074
 20
-85.4015713046043
 30
0.0
 10
69.95910018526192
 20
-85.43438704133151
 30
0.0
 10
70.00432127718919
 20
-85.47590601155045
 30
0.0
 10
70.01295956117745
 20
-85.48382985099804
 30
0.0
 10
70.01908105189767
 20
-85.49358851392378
 30
0.0
 10
70.02664766907462
 20
-85.50230798479153
 30
0.0
 10
70.02664766907462
 20
-85.50230798479153
 30
0.0
 10
70.57459415675959
 20
-85.50230798479153
 30
0.0
 10
70.57459415675959
 20
-85.50230798479153
 30
0.0
 10
70.57459415675959
 20
-85.50230798479153
 30
0.0
 10
70.57459415675959
 20
-84.35012002711877
 30
0.0
 10
70.57459415675959
 20
-84.35012002711877
 30
0.0
 10
70.57459415675959
 20
-84.35012002711877
 30
0.0
 10
68.49182594792647
 20
-84.35012002711877
 30
0.0
 10
68.49182594792647
 20
-84.35012002711877
 30
0.0
  0
SPLINE
  5
CD
330
70
100
AcDbEntity
  8
Camada 1
 62
   250
420
  1907995
370
     9
100
AcDbSpline
210
0.0
220
0.0
230
1.0
 70
    11
 71
     3
 72
    17
 73
    13
 74
     0
 42
0.0000000001
 43
0.0000000001
 40
0.0
 40
0.0
 40
0.0
 40
0.0
 40
1.0
 40
1.0
 40
1.0
 40
2.0
 40
2.0
 40
2.0
 40
3.0
 40
3.0
 40
3.0
 40
4.0
 40
4.0
 40
4.0
 40
4.0
 10
69.27742266952748
 20
-84.82764907479685
 30
0.0
 10
69.27742266952748
 20
-84.82764907479685
 30
0.0
 10
69.78873763714344
 20
-84.82764907479685
 30
0.0
 10
69.78873763714344
 20
-84.82764907479685
 30
0.0
 10
69.78873763714344
 20
-84.82764907479685
 30
0.0
 10
69.78873763714344
 20
-84.4259384242898
 30
0.0
 10
69.78873763714344
 20
-84.4259384242898
 30
0.0
 10
69.78873763714344
 20
-84.4259384242898
 30
0.0
 10
69.27742266952748
 20
-84.4259384242898
 30
0.0
 10
69.27742266952748
 20
-84.4259384242898
 30
0.0
 10
69.27742266952748
 20
-84.4259384242898
 30
0.0
 10
69.27742266952748
 20
-84.82764907479685
 30
0.0
 10
69.27742266952748
 20
-84.82764907479685
 30
0.0
  0
SPLINE
  5
CE
330
70
100
AcDbEntity
  8
Camada 1
 62
   250
420
  1907995
370
     9
100
AcDbSpline
210
0.0
220
0.0
230
1.0
 70
    11
 71
     3
 72
    17
 73
    13
 74
     0
 42
0.0000000001
 43
0.0000000001
 40
0.0
 40
0.0
 40
0.0
 40
0.0
 40
1.0
 40
1.0
 40
1.0
 40
2.0
 40
2.0
 40
2.0
 40
3.0
 40
3.0
 40
3.0
 40
4.0
 40
4.0
 40
4.0
 40
4.0
 10
69.9108427040376
 20
-84.94896053994246
 30
0.0
 10
69.9108427040376
 20
-84.94896053994246
 30
0.0
 10
69.15557740064845
 20
-84.94896053994246
 30
0.0
 10
69.15557740064845
 20
-84.94896053994246
 30
0.0
 10
69.15557740064845
 20
-84.94896053994246
 30
0.0
 10
69.15557740064845
 20
-84.30462898881643
 30
0.0
 10
69.15557740064845
 20
-84.30462898881643
 30
0.0
 10
69.15557740064845
 20
-84.30462898881643
 30
0.0
 10
69.9108427040376
 20
-84.30462898881643
 30
0.0
 10
69.9108427040376
 20
-84.30462898881643
 30
0.0
 10
69.9108427040376
 20
-84.30462898881643
 30
0.0
 10
69.9108427040376
 20
-84.94896053994246
 30
0.0
 10
69.9108427040376
 20
-84.94896053994246
 30
0.0
  0
SPLINE
  5
CF
330
70
100
AcDbEntity
  8
Camada 1
 62
   250
420
  1907995
370
     9
100
AcDbSpline
210
0.0
220
0.0
230
1.0
 70
    11
 71
     3
 72
    17
 73
    13
 74
     0
 42
0.0000000001
 43
0.0000000001
 40
0.0
 40
0.0
 40
0.0
 40
0.0
 40
1.0
 40
1.0
 40
1.0
 40
2.0
 40
2.0
 40
2.0
 40
3.0
 40
3.0
 40
3.0
 40
4.0
 40
4.0
 40
4.0
 40
4.0
 10
69.34844495178672
 20
-84.75655778368965
 30
0.0
 10
69.34844495178672
 20
-84.75655778368965
 30
0.0
 10
69.71787772864317
 20
-84.75655778368965
 30
0.0
 10
69.71787772864317
 20
-84.75655778368965
 30
0.0
 10
69.71787772864317
 20
-84.75655778368965
 30
0.0
 10
69.71787772864317
 20
-84.49649997100806
 30
0.0
 10
69.71787772864317
 20
-84.49649997100806
 30
0.0
 10
69.71787772864317
 20
-84.49649997100806
 30
0.0
 10
69.34844495178672
 20
-84.49649997100806
 30
0.0
 10
69.34844495178672
 20
-84.49649997100806
 30
0.0
 10
69.34844495178672
 20
-84.49649997100806
 30
0.0
 10
69.34844495178672
 20
-84.75655778368965
 30
0.0
 10
69.34844495178672
 20
-84.75655778368965
 30
0.0
  0
SPLINE
  5
D0
330
70
100
AcDbEntity
  8
Camada 1
 62
   250
420
  1907995
370
     9
100
AcDbSpline
210
0.0
220
0.0
230
1.0
 70
    11
 71
     3
 72
    17
 73
    13
 74
     0
 42
0.0000000001
 43
0.0000000001
 40
0.0
 40
0.0
 40
0.0
 40
0.0
 40
1.0
 40
1.0
 40
1.0
 40
2.0
 40
2.0
 40
2.0
 40
3.0
 40
3.0
 40
3.0
 40
4.0
 40
4.0
 40
4.0
 40
4.0
 10
69.97092099492952
 20
-85.00856185791674
 30
0.0
 10
69.97092099492952
 20
-85.00856185791674
 30
0.0
 10
69.09540168550165
 20
-85.00856185791674
 30
0.0
 10
69.09540168550165
 20
-85.00856185791674
 30
0.0
 10
69.09540168550165
 20
-85.00856185791674
 30
0.0
 10
69.09540168550165
 20
-84.24475569479547
 30
0.0
 10
69.09540168550165
 20
-84.24475569479547
 30
0.0
 10
69.09540168550165
 20
-84.24475569479547
 30
0.0
 10
69.97092099492952
 20
-84.24475569479547
 30
0.0
 10
69.97092099492952
 20
-84.24475569479547
 30
0.0
 10
69.97092099492952
 20
-84.24475569479547
 30
0.0
 10
69.97092099492952
 20
-85.00856185791674
 30
0.0
 10
69.97092099492952
 20
-85.00856185791674
 30
0.0
  0
SPLINE
  5
D1
330
70
100
AcDbEntity
  8
Camada 1
 62
   250
420
  1907995
370
     9
100
AcDbSpline
210
0.0
220
0.0
230
1.0
 70
     9
 71
     3
 72
    62
 73
    58
 74
     0
 42
0.0000000001
 43
0.0000000001
 40
0.0
 40
0.0
 40
0.0
 40
0.0
 40
1.0
 40
1.0
 40
1.0
 40
2.0
 40
2.0
 40
2.0
 40
3.0
 40
3.0
 40
3.0
 40
4.0
 40
4.0
 40
4.0
 40
5.0
 40
5.0
 40
5.0
 40
6.0
 40
6.0
 40
6.0
 40
7.0
 40
7.0
 40
7.0
 40
8.0
 40
8.0
 40
8.0
 40
9.0
 40
9.0
 40
9.0
 40
10.0
 40
10.0
 40
10.0
 40
11.0
 40
11.0
 40
11.0
 40
12.0
 40
12.0
 40
12.0
 40
13.0
 40
13.0
 40
13.0
 40
14.0
 40
14.0
 40
14.0
 40
15.0
 40
15.0
 40
15.0
 40
16.0
 40
16.0
 40
16.0
 40
17.0
 40
17.0
 40
17.0
 40
18.0
 40
18.0
 40
18.0
 40
19.0
 40
19.0
 40
19.0
 40
19.0
 10
70.4003671131738
 20
-58.15965890462019
 30
0.0
 10
70.4003671131738
 20
-58.15965890462019
 30
0.0
 10
72.06359400307198
 20
-58.15965890462019
 30
0.0
 10
72.06359400307198
 20
-58.15965890462019
 30
0.0
 10
72.06359400307198
 20
-58.15965890462019
 30
0.0
 10
72.06333420505685
 20
-57.91704003367282
 30
0.0
 10
72.06333420505685
 20
-57.91704003367282
 30
0.0
 10
72.06333420505685
 20
-57.91704003367282
 30
0.0
 10
72.41795849507738
 20
-57.91704003367282
 30
0.0
 10
72.41795849507738
 20
-57.91704003367282
 30
0.0
 10
72.41795849507738
 20
-57.91704003367282
 30
0.0
 10
72.41795849507738
 20
-57.6744171033816
 30
0.0
 10
72.41795849507738
 20
-57.6744171033816
 30
0.0
 10
72.41795849507738
 20
-57.6744171033816
 30
0.0
 10
72.84680383041316
 20
-57.6744171033816
 30
0.0
 10
72.84680383041316
 20
-57.6744171033816
 30
0.0
 10
72.84680383041316
 20
-57.6744171033816
 30
0.0
 10
72.84680383041316
 20
-57.91704003367282
 30
0.0
 10
72.84680383041316
 20
-57.91704003367282
 30
0.0
 10
72.84680383041316
 20
-57.91704003367282
 30
0.0
 10
73.26420181572803
 20
-57.91704003367282
 30
0.0
 10
73.26420181572803
 20
-57.91704003367282
 30
0.0
 10
73.26420181572803
 20
-57.91704003367282
 30
0.0
 10
73.26420181572803
 20
-55.94280650481016
 30
0.0
 10
73.26420181572803
 20
-55.94280650481016
 30
0.0
 10
73.26420181572803
 20
-55.94280650481016
 30
0.0
 10
71.65657170096801
 20
-55.94280650481016
 30
0.0
 10
71.65657170096801
 20
-55.94280650481016
 30
0.0
 10
71.65657170096801
 20
-55.94280650481016
 30
0.0
 10
71.65657170096801
 20
-55.6999197171606
 30
0.0
 10
71.65657170096801
 20
-55.6999197171606
 30
0.0
 10
71.65657170096801
 20
-55.6999197171606
 30
0.0
 10
70.38492536867734
 20
-55.6999197171606
 30
0.0
 10
70.38492536867734
 20
-55.6999197171606
 30
0.0
 10
70.3272014972932
 20
-55.82575126182682
 30
0.0
 10
70.1130467463275
 20
-56.18542943510139
 30
0.0
 10
69.55064899407789
 20
-56.18542943510139
 30
0.0
 10
69.09600246841015
 20
-56.18542943510139
 30
0.0
 10
68.89594175974034
 20
-55.82468771370447
 30
0.0
 10
68.84060478261602
 20
-55.6999197171606
 30
0.0
 10
68.84060478261602
 20
-55.6999197171606
 30
0.0
 10
66.60007422937614
 20
-55.6999197171606
 30
0.0
 10
66.60007422937614
 20
-55.6999197171606
 30
0.0
 10
66.60007422937614
 20
-55.6999197171606
 30
0.0
 10
66.60007422937614
 20
-58.15965890462019
 30
0.0
 10
66.60007422937614
 20
-58.15965890462019
 30
0.0
 10
66.60007422937614
 20
-58.15965890462019
 30
0.0
 10
68.82092508300556
 20
-58.15965890462019
 30
0.0
 10
68.82092508300556
 20
-58.15965890462019
 30
0.0
 10
68.82704657372578
 20
-58.05883291886513
 30
0.0
 10
68.85896925477796
 20
-57.85877626953981
 30
0.0
 10
69.00900260824879
 20
-57.69995443635457
 30
0.0
 10
69.14760484907278
 20
-57.55363538262556
 30
0.0
 10
69.35058828540808
 20
-57.47914642060747
 30
0.0
 10
69.61290309334194
 20
-57.47914642060747
 30
0.0
 10
70.26174863497313
 20
-57.47914642060747
 30
0.0
 10
70.37907991334636
 20
-57.98274863466353
 30
0.0
 10
70.4003671131738
 20
-58.15965890462019
 30
0.0
  0
SPLINE
  5
D2
330
70
100
AcDbEntity
  8
Camada 1
 62
   250
420
  1907995
370
     9
100
AcDbSpline
210
0.0
220
0.0
230
1.0
 70
    11
 71
     3
 72
    77
 73
    73
 74
     0
 42
0.0000000001
 43
0.0000000001
 40
0.0
 40
0.0
 40
0.0
 40
0.0
 40
1.0
 40
1.0
 40
1.0
 40
2.0
 40
2.0
 40
2.0
 40
3.0
 40
3.0
 40
3.0
 40
4.0
 40
4.0
 40
4.0
 40
5.0
 40
5.0
 40
5.0
 40
6.0
 40
6.0
 40
6.0
 40
7.0
 40
7.0
 40
7.0
 40
8.0
 40
8.0
 40
8.0
 40
9.0
 40
9.0
 40
9.0
 40
10.0
 40
10.0
 40
10.0
 40
11.0
 40
11.0
 40
11.0
 40
12.0
 40
12.0
 40
12.0
 40
13.0
 40
13.0
 40
13.0
 40
14.0
 40
14.0
 40
14.0
 40
15.0
 40
15.0
 40
15.0
 40
16.0
 40
16.0
 40
16.0
 40
17.0
 40
17.0
 40
17.0
 40
18.0
 40
18.0
 40
18.0
 40
19.0
 40
19.0
 40
19.0
 40
20.0
 40
20.0
 40
20.0
 40
21.0
 40
21.0
 40
21.0
 40
22.0
 40
22.0
 40
22.0
 40
23.0
 40
23.0
 40
23.0
 40
24.0
 40
24.0
 40
24.0
 40
24.0
 10
72.18571530734154
 20
-58.2809723994374
 30
0.0
 10
72.18571530734154
 20
-58.2809723994374
 30
0.0
 10
70.28357166820495
 20
-58.2809723994374
 30
0.0
 10
70.28357166820495
 20
-58.2809723994374
 30
0.0
 10
70.28357166820495
 20
-58.2809723994374
 30
0.0
 10
70.28331187018981
 20
-58.22058153905906
 30
0.0
 10
70.28331187018981
 20
-58.22058153905906
 30
0.0
 10
70.28331187018981
 20
-58.19530806344507
 30
0.0
 10
70.27293618697893
 20
-57.60045991542533
 30
0.0
 10
69.61290309334194
 20
-57.60045991542533
 30
0.0
 10
69.38624556292065
 20
-57.60045991542533
 30
0.0
 10
69.21357730742312
 20
-57.66164640722319
 30
0.0
 10
69.09866539806049
 20
-57.78216021127704
 30
0.0
 10
68.92945570363282
 20
-57.96040194605823
 30
0.0
 10
68.94249431649408
 20
-58.21393233362152
 30
0.0
 10
68.94277035188459
 20
-58.21659120392802
 30
0.0
 10
68.94277035188459
 20
-58.21659120392802
 30
0.0
 10
68.94622891295447
 20
-58.28070448273457
 30
0.0
 10
68.94622891295447
 20
-58.28070448273457
 30
0.0
 10
68.94622891295447
 20
-58.28070448273457
 30
0.0
 10
68.88157168205392
 20
-58.2809723994374
 30
0.0
 10
68.88157168205392
 20
-58.2809723994374
 30
0.0
 10
68.88157168205392
 20
-58.2809723994374
 30
0.0
 10
66.47769312709275
 20
-58.2809723994374
 30
0.0
 10
66.47769312709275
 20
-58.2809723994374
 30
0.0
 10
66.47769312709275
 20
-58.2809723994374
 30
0.0
 10
66.47769312709275
 20
-55.57887413904557
 30
0.0
 10
66.47769312709275
 20
-55.57887413904557
 30
0.0
 10
66.47769312709275
 20
-55.57887413904557
 30
0.0
 10
68.92573734454782
 20
-55.57887413904557
 30
0.0
 10
68.92573734454782
 20
-55.57887413904557
 30
0.0
 10
68.92573734454782
 20
-55.57887413904557
 30
0.0
 10
68.93931179081473
 20
-55.62064072924747
 30
0.0
 10
68.93931179081473
 20
-55.62064072924747
 30
0.0
 10
68.9456930795488
 20
-55.63846530865991
 30
0.0
 10
69.09333953875979
 20
-56.06385208292518
 30
0.0
 10
69.55064899407789
 20
-56.06385208292518
 30
0.0
 10
70.13991960346949
 20
-56.06385208292518
 30
0.0
 10
70.28436729962447
 20
-55.62569461250149
 30
0.0
 10
70.28569876444965
 20
-55.62143636066762
 30
0.0
 10
70.28569876444965
 20
-55.62143636066762
 30
0.0
 10
70.29899717532602
 20
-55.57887413904557
 30
0.0
 10
70.29899717532602
 20
-55.57887413904557
 30
0.0
 10
70.29899717532602
 20
-55.57887413904557
 30
0.0
 10
71.77867676786218
 20
-55.57887413904557
 30
0.0
 10
71.77867676786218
 20
-55.57887413904557
 30
0.0
 10
71.77867676786218
 20
-55.57887413904557
 30
0.0
 10
71.77867676786218
 20
-55.82149706933679
 30
0.0
 10
71.77867676786218
 20
-55.82149706933679
 30
0.0
 10
71.77867676786218
 20
-55.82149706933679
 30
0.0
 10
73.38604708460578
 20
-55.82149706933679
 30
0.0
 10
73.38604708460578
 20
-55.82149706933679
 30
0.0
 10
73.38604708460578
 20
-55.82149706933679
 30
0.0
 10
73.38604708460578
 20
-58.03834946914619
 30
0.0
 10
73.38604708460578
 20
-58.03834946914619
 30
0.0
 10
73.38604708460578
 20
-58.03834946914619
 30
0.0
 10
72.72495856153414
 20
-58.03834946914619
 30
0.0
 10
72.72495856153414
 20
-58.03834946914619
 30
0.0
 10
72.72495856153414
 20
-58.03834946914619
 30
0.0
 10
72.72495856153414
 20
-57.79572653885496
 30
0.0
 10
72.72495856153414
 20
-57.79572653885496
 30
0.0
 10
72.72495856153414
 20
-57.79572653885496
 30
0.0
 10
72.54006356197155
 20
-57.79572653885496
 30
0.0
 10
72.54006356197155
 20
-57.79572653885496
 30
0.0
 10
72.54006356197155
 20
-57.79572653885496
 30
0.0
 10
72.54006356197155
 20
-58.03834946914619
 30
0.0
 10
72.54006356197155
 20
-58.03834946914619
 30
0.0
 10
72.54006356197155
 20
-58.03834946914619
 30
0.0
 10
72.18543927195101
 20
-58.03834946914619
 30
0.0
 10
72.18543927195101
 20
-58.03834946914619
 30
0.0
 10
72.18543927195101
 20
-58.03834946914619
 30
0.0
 10
72.18571530734154
 20
-58.2809723994374
 30
0.0
 10
72.18571530734154
 20
-58.2809723994374
 30
0.0
  0
SPLINE
  5
D3
330
70
100
AcDbEntity
  8
Camada 1
 62
   250
420
  1907995
370
     9
100
AcDbSpline
210
0.0
220
0.0
230
1.0
 70
     9
 71
     3
 72
    62
 73
    58
 74
     0
 42
0.0000000001
 43
0.0000000001
 40
0.0
 40
0.0
 40
0.0
 40
0.0
 40
1.0
 40
1.0
 40
1.0
 40
2.0
 40
2.0
 40
2.0
 40
3.0
 40
3.0
 40
3.0
 40
4.0
 40
4.0
 40
4.0
 40
5.0
 40
5.0
 40
5.0
 40
6.0
 40
6.0
 40
6.0
 40
7.0
 40
7.0
 40
7.0
 40
8.0
 40
8.0
 40
8.0
 40
9.0
 40
9.0
 40
9.0
 40
10.0
 40
10.0
 40
10.0
 40
11.0
 40
11.0
 40
11.0
 40
12.0
 40
12.0
 40
12.0
 40
13.0
 40
13.0
 40
13.0
 40
14.0
 40
14.0
 40
14.0
 40
15.0
 40
15.0
 40
15.0
 40
16.0
 40
16.0
 40
16.0
 40
17.0
 40
17.0
 40
17.0
 40
18.0
 40
18.0
 40
18.0
 40
19.0
 40
19.0
 40
19.0
 40
19.0
 10
70.45674328235609
 20
-58.08699258804871
 30
0.0
 10
70.45674328235609
 20
-58.08699258804871
 30
0.0
 10
71.99318874109661
 20
-58.08699258804871
 30
0.0
 10
71.99318874109661
 20
-58.08699258804871
 30
0.0
 10
71.99318874109661
 20
-58.08699258804871
 30
0.0
 10
71.99292894308276
 20
-57.84564023242306
 30
0.0
 10
71.99292894308276
 20
-57.84564023242306
 30
0.0
 10
71.99292894308276
 20
-57.84564023242306
 30
0.0
 10
72.34677383905917
 20
-57.84564023242306
 30
0.0
 10
72.34677383905917
 20
-57.84564023242306
 30
0.0
 10
72.34677383905917
 20
-57.84564023242306
 30
0.0
 10
72.34677383905917
 20
-57.60402807878289
 30
0.0
 10
72.34677383905917
 20
-57.60402807878289
 30
0.0
 10
72.34677383905917
 20
-57.60402807878289
 30
0.0
 10
72.90793755073974
 20
-57.60402807878289
 30
0.0
 10
72.90793755073974
 20
-57.60402807878289
 30
0.0
 10
72.90793755073974
 20
-57.60402807878289
 30
0.0
 10
72.90793755073974
 20
-57.84564023242306
 30
0.0
 10
72.90793755073974
 20
-57.84564023242306
 30
0.0
 10
72.90793755073974
 20
-57.84564023242306
 30
0.0
 10
73.19137718474078
 20
-57.84564023242306
 30
0.0
 10
73.19137718474078
 20
-57.84564023242306
 30
0.0
 10
73.19137718474078
 20
-57.84564023242306
 30
0.0
 10
73.19137718474078
 20
-56.01432402703531
 30
0.0
 10
73.19137718474078
 20
-56.01432402703531
 30
0.0
 10
73.19137718474078
 20
-56.01432402703531
 30
0.0
 10
71.58686464615728
 20
-56.01432402703531
 30
0.0
 10
71.58686464615728
 20
-56.01432402703531
 30
0.0
 10
71.58686464615728
 20
-56.01432402703531
 30
0.0
 10
71.58686464615728
 20
-55.77271187339515
 30
0.0
 10
71.58686464615728
 20
-55.77271187339515
 30
0.0
 10
71.58686464615728
 20
-55.77271187339515
 30
0.0
 10
70.42530772258214
 20
-55.77271187339515
 30
0.0
 10
70.42530772258214
 20
-55.77271187339515
 30
0.0
 10
70.34451054002049
 20
-55.92417411594603
 30
0.0
 10
70.10419737645282
 20
-56.25541658464648
 30
0.0
 10
69.55134720124125
 20
-56.25541658464648
 30
0.0
 10
69.09825946366304
 20
-56.25541658464648
 30
0.0
 10
68.87795074722507
 20
-55.92469371197502
 30
0.0
 10
68.80079073686893
 20
-55.77271187339515
 30
0.0
 10
68.80079073686893
 20
-55.77271187339515
 30
0.0
 10
66.67278519873185
 20
-55.77271187339515
 30
0.0
 10
66.67278519873185
 20
-55.77271187339515
 30
0.0
 10
66.67278519873185
 20
-55.77271187339515
 30
0.0
 10
66.67278519873185
 20
-58.08699258804871
 30
0.0
 10
66.67278519873185
 20
-58.08699258804871
 30
0.0
 10
66.67278519873185
 20
-58.08699258804871
 30
0.0
 10
68.76286022672807
 20
-58.08699258804871
 30
0.0
 10
68.76286022672807
 20
-58.08699258804871
 30
0.0
 10
68.77844810760812
 20
-57.96826489534621
 30
0.0
 10
68.82573134627728
 20
-57.79471982154839
 30
0.0
 10
68.96212530397709
 20
-57.65027212539341
 30
0.0
 10
69.1138473445431
 20
-57.49075614438802
 30
0.0
 10
69.33311686892181
 20
-57.40995896182638
 30
0.0
 10
69.61343892674761
 20
-57.40995896182638
 30
0.0
 10
70.25565961900368
 20
-57.40995896182638
 30
0.0
 10
70.41673438809798
 20
-57.87162003389002
 30
0.0
 10
70.45674328235609
 20
-58.08699258804871
 30
0.0
  0
SPLINE
  5
D4
330
70
100
AcDbEntity
  8
Camada 1
 62
   250
420
  1907995
370
     9
100
AcDbSpline
210
0.0
220
0.0
230
1.0
 70
    11
 71
     3
 72
    77
 73
    73
 74
     0
 42
0.0000000001
 43
0.0000000001
 40
0.0
 40
0.0
 40
0.0
 40
0.0
 40
1.0
 40
1.0
 40
1.0
 40
2.0
 40
2.0
 40
2.0
 40
3.0
 40
3.0
 40
3.0
 40
4.0
 40
4.0
 40
4.0
 40
5.0
 40
5.0
 40
5.0
 40
6.0
 40
6.0
 40
6.0
 40
7.0
 40
7.0
 40
7.0
 40
8.0
 40
8.0
 40
8.0
 40
9.0
 40
9.0
 40
9.0
 40
10.0
 40
10.0
 40
10.0
 40
11.0
 40
11.0
 40
11.0
 40
12.0
 40
12.0
 40
12.0
 40
13.0
 40
13.0
 40
13.0
 40
14.0
 40
14.0
 40
14.0
 40
15.0
 40
15.0
 40
15.0
 40
16.0
 40
16.0
 40
16.0
 40
17.0
 40
17.0
 40
17.0
 40
18.0
 40
18.0
 40
18.0
 40
19.0
 40
19.0
 40
19.0
 40
20.0
 40
20.0
 40
20.0
 40
21.0
 40
21.0
 40
21.0
 40
22.0
 40
22.0
 40
22.0
 40
23.0
 40
23.0
 40
23.0
 40
24.0
 40
24.0
 40
24.0
 40
24.0
 10
72.24779079547122
 20
-58.34055545036406
 30
0.0
 10
72.24779079547122
 20
-58.34055545036406
 30
0.0
 10
70.21668991680354
 20
-58.34055545036406
 30
0.0
 10
70.21668991680354
 20
-58.34055545036406
 30
0.0
 10
70.21668991680354
 20
-58.34055545036406
 30
0.0
 10
70.21617032077457
 20
-58.21429361523538
 30
0.0
 10
70.21617032077457
 20
-58.21429361523538
 30
0.0
 10
70.21617032077457
 20
-58.19143138994494
 30
0.0
 10
70.20941557239381
 20
-57.66326202612657
 30
0.0
 10
69.61343892674761
 20
-57.66326202612657
 30
0.0
 10
69.40689950508755
 20
-57.66326202612657
 30
0.0
 10
69.25024130224291
 20
-57.71730001317776
 30
0.0
 10
69.14814068247844
 20
-57.82407699720574
 30
0.0
 10
69.00057541014823
 20
-57.97891804416709
 30
0.0
 10
69.01070753271937
 20
-58.20364189663397
 30
0.0
 10
69.0109673307345
 20
-58.20598007876636
 30
0.0
 10
69.0109673307345
 20
-58.20598007876636
 30
0.0
 10
69.01850147315939
 20
-58.33951625830479
 30
0.0
 10
69.01850147315939
 20
-58.33951625830479
 30
0.0
 10
69.01850147315939
 20
-58.33951625830479
 30
0.0
 10
68.88418589957684
 20
-58.34055545036406
 30
0.0
 10
68.88418589957684
 20
-58.34055545036406
 30
0.0
 10
68.88418589957684
 20
-58.34055545036406
 30
0.0
 10
66.41766354832826
 20
-58.34055545036406
 30
0.0
 10
66.41766354832826
 20
-58.34055545036406
 30
0.0
 10
66.41766354832826
 20
-58.34055545036406
 30
0.0
 10
66.41766354832826
 20
-55.51914901108045
 30
0.0
 10
66.41766354832826
 20
-55.51914901108045
 30
0.0
 10
66.41766354832826
 20
-55.51914901108045
 30
0.0
 10
68.97563480073988
 20
-55.51914901108045
 30
0.0
 10
68.97563480073988
 20
-55.51914901108045
 30
0.0
 10
68.97563480073988
 20
-55.51914901108045
 30
0.0
 10
69.0044723803676
 20
-55.60618134599387
 30
0.0
 10
69.0044723803676
 20
-55.60618134599387
 30
0.0
 10
69.01850147315939
 20
-55.64593044223748
 30
0.0
 10
69.15541502688947
 20
-56.00185372233115
 30
0.0
 10
69.55134720124125
 20
-56.00185372233115
 30
0.0
 10
70.08367333329411
 20
-56.00185372233115
 30
0.0
 10
70.2164301187897
 20
-55.62384761099117
 30
0.0
 10
70.22188587709734
 20
-55.60774013408149
 30
0.0
 10
70.22188587709734
 20
-55.60774013408149
 30
0.0
 10
70.24942446665192
 20
-55.51914901108045
 30
0.0
 10
70.24942446665192
 20
-55.51914901108045
 30
0.0
 10
70.24942446665192
 20
-55.51914901108045
 30
0.0
 10
71.84172649854573
 20
-55.51914901108045
 30
0.0
 10
71.84172649854573
 20
-55.51914901108045
 30
0.0
 10
71.84172649854573
 20
-55.51914901108045
 30
0.0
 10
71.84172649854573
 20
-55.76076116472062
 30
0.0
 10
71.84172649854573
 20
-55.76076116472062
 30
0.0
 10
71.84172649854573
 20
-55.76076116472062
 30
0.0
 10
73.44597923911539
 20
-55.76076116472062
 30
0.0
 10
73.44597923911539
 20
-55.76076116472062
 30
0.0
 10
73.44597923911539
 20
-55.76076116472062
 30
0.0
 10
73.44597923911539
 20
-58.09920309473839
 30
0.0
 10
73.44597923911539
 20
-58.09920309473839
 30
0.0
 10
73.44597923911539
 20
-58.09920309473839
 30
0.0
 10
72.65307569835129
 20
-58.09920309473839
 30
0.0
 10
72.65307569835129
 20
-58.09920309473839
 30
0.0
 10
72.65307569835129
 20
-58.09920309473839
 30
0.0
 10
72.65307569835129
 20
-57.85785073911273
 30
0.0
 10
72.65307569835129
 20
-57.85785073911273
 30
0.0
 10
72.65307569835129
 20
-57.85785073911273
 30
0.0
 10
72.60163569144762
 20
-57.85785073911273
 30
0.0
 10
72.60163569144762
 20
-57.85785073911273
 30
0.0
 10
72.60163569144762
 20
-57.85785073911273
 30
0.0
 10
72.60163569144762
 20
-58.09920309473839
 30
0.0
 10
72.60163569144762
 20
-58.09920309473839
 30
0.0
 10
72.60163569144762
 20
-58.09920309473839
 30
0.0
 10
72.24779079547122
 20
-58.09920309473839
 30
0.0
 10
72.24779079547122
 20
-58.09920309473839
 30
0.0
 10
72.24779079547122
 20
-58.09920309473839
 30
0.0
 10
72.24779079547122
 20
-58.34055545036406
 30
0.0
 10
72.24779079547122
 20
-58.34055545036406
 30
0.0
  0
LWPOLYLINE
  5
D5
330
70
100
AcDbEntity
  8
Camada 1
 62
   250
420
  1907995
370
     9
100
AcDbPolyline
 90
        4
 70
     1
 43
0.0
 10
68.37051651245309
 20
-55.63982112954881
 10
67.08851073432692
 20
-55.63982112954881
 10
67.08851073432692
 20
-55.27588876378421
 10
68.37051651245309
 20
-55.27588876378421
  0
SPLINE
  5
D6
330
70
100
AcDbEntity
  8
Camada 1
 62
   250
420
  1907995
370
     9
100
AcDbSpline
210
0.0
220
0.0
230
1.0
 70
    11
 71
     3
 72
    17
 73
    13
 74
     0
 42
0.0000000001
 43
0.0000000001
 40
0.0
 40
0.0
 40
0.0
 40
0.0
 40
1.0
 40
1.0
 40
1.0
 40
2.0
 40
2.0
 40
2.0
 40
3.0
 40
3.0
 40
3.0
 40
4.0
 40
4.0
 40
4.0
 40
4.0
 10
67.16120546630595
 20
-55.56643224974961
 30
0.0
 10
67.16120546630595
 20
-55.56643224974961
 30
0.0
 10
68.29730218444378
 20
-55.56643224974961
 30
0.0
 10
68.29730218444378
 20
-55.56643224974961
 30
0.0
 10
68.29730218444378
 20
-55.56643224974961
 30
0.0
 10
68.29730218444378
 20
-55.34924110948815
 30
0.0
 10
68.29730218444378
 20
-55.34924110948815
 30
0.0
 10
68.29730218444378
 20
-55.34924110948815
 30
0.0
 10
67.16120546630595
 20
-55.34924110948815
 30
0.0
 10
67.16120546630595
 20
-55.34924110948815
 30
0.0
 10
67.16120546630595
 20
-55.34924110948815
 30
0.0
 10
67.16120546630595
 20
-55.56643224974961
 30
0.0
 10
67.16120546630595
 20
-55.56643224974961
 30
0.0
  0
SPLINE
  5
D7
330
70
100
AcDbEntity
  8
Camada 1
 62
   250
420
  1907995
370
     9
100
AcDbSpline
210
0.0
220
0.0
230
1.0
 70
    11
 71
     3
 72
    17
 73
    13
 74
     0
 42
0.0000000001
 43
0.0000000001
 40
0.0
 40
0.0
 40
0.0
 40
0.0
 40
1.0
 40
1.0
 40
1.0
 40
2.0
 40
2.0
 40
2.0
 40
3.0
 40
3.0
 40
3.0
 40
4.0
 40
4.0
 40
4.0
 40
4.0
 10
68.43031876795321
 20
-55.69944883325904
 30
0.0
 10
68.43031876795321
 20
-55.69944883325904
 30
0.0
 10
67.02818888279653
 20
-55.69944883325904
 30
0.0
 10
67.02818888279653
 20
-55.69944883325904
 30
0.0
 10
67.02818888279653
 20
-55.69944883325904
 30
0.0
 10
67.02818888279653
 20
-55.21622452597871
 30
0.0
 10
67.02818888279653
 20
-55.21622452597871
 30
0.0
 10
67.02818888279653
 20
-55.21622452597871
 30
0.0
 10
68.43031876795321
 20
-55.21622452597871
 30
0.0
 10
68.43031876795321
 20
-55.21622452597871
 30
0.0
 10
68.43031876795321
 20
-55.21622452597871
 30
0.0
 10
68.43031876795321
 20
-55.69944883325904
 30
0.0
 10
68.43031876795321
 20
-55.69944883325904
 30
0.0
  0
SPLINE
  5
D8
330
70
100
AcDbEntity
  8
Camada 1
 62
   250
420
  1907995
370
     9
100
AcDbSpline
210
0.0
220
0.0
230
1.0
 70
    11
 71
     3
 72
    17
 73
    13
 74
     0
 42
0.0000000001
 43
0.0000000001
 40
0.0
 40
0.0
 40
0.0
 40
0.0
 40
1.0
 40
1.0
 40
1.0
 40
2.0
 40
2.0
 40
2.0
 40
3.0
 40
3.0
 40
3.0
 40
4.0
 40
4.0
 40
4.0
 40
4.0
 10
67.21033976582929
 20
-55.5182437773726
 30
0.0
 10
67.21033976582929
 20
-55.5182437773726
 30
0.0
 10
68.2481354101684
 20
-55.5182437773726
 30
0.0
 10
68.2481354101684
 20
-55.5182437773726
 30
0.0
 10
68.2481354101684
 20
-55.5182437773726
 30
0.0
 10
68.2481354101684
 20
-55.39693434189924
 30
0.0
 10
68.2481354101684
 20
-55.39693434189924
 30
0.0
 10
68.2481354101684
 20
-55.39693434189924
 30
0.0
 10
67.21033976582929
 20
-55.39693434189924
 30
0.0
 10
67.21033976582929
 20
-55.39693434189924
 30
0.0
 10
67.21033976582929
 20
-55.39693434189924
 30
0.0
 10
67.21033976582929
 20
-55.5182437773726
 30
0.0
 10
67.21033976582929
 20
-55.5182437773726
 30
0.0
  0
SPLINE
  5
D9
330
70
100
AcDbEntity
  8
Camada 1
 62
   250
420
  1907995
370
     9
100
AcDbSpline
210
0.0
220
0.0
230
1.0
 70
    11
 71
     3
 72
    17
 73
    13
 74
     0
 42
0.0000000001
 43
0.0000000001
 40
0.0
 40
0.0
 40
0.0
 40
0.0
 40
1.0
 40
1.0
 40
1.0
 40
2.0
 40
2.0
 40
2.0
 40
3.0
 40
3.0
 40
3.0
 40
4.0
 40
4.0
 40
4.0
 40
4.0
 10
68.49236178133084
 20
-55.76059879096099
 30
0.0
 10
68.49236178133084
 20
-55.76059879096099
 30
0.0
 10
66.96638943005737
 20
-55.76059879096099
 30
0.0
 10
66.96638943005737
 20
-55.76059879096099
 30
0.0
 10
66.96638943005737
 20
-55.76059879096099
 30
0.0
 10
66.96638943005737
 20
-55.15404349490518
 30
0.0
 10
66.96638943005737
 20
-55.15404349490518
 30
0.0
 10
66.96638943005737
 20
-55.15404349490518
 30
0.0
 10
68.49236178133084
 20
-55.15404349490518
 30
0.0
 10
68.49236178133084
 20
-55.15404349490518
 30
0.0
 10
68.49236178133084
 20
-55.15404349490518
 30
0.0
 10
68.49236178133084
 20
-55.76059879096099
 30
0.0
 10
68.49236178133084
 20
-55.76059879096099
 30
0.0
  0
SPLINE
  5
DA
330
70
100
AcDbEntity
  8
Camada 1
 62
   250
420
  1907995
370
     9
100
AcDbSpline
210
0.0
220
0.0
230
1.0
 70
    11
 71
     3
 72
    17
 73
    13
 74
     0
 42
0.0000000001
 43
0.0000000001
 40
0.0
 40
0.0
 40
0.0
 40
0.0
 40
1.0
 40
1.0
 40
1.0
 40
2.0
 40
2.0
 40
2.0
 40
3.0
 40
3.0
 40
3.0
 40
4.0
 40
4.0
 40
4.0
 40
4.0
 10
68.31029208517758
 20
-55.58331912070278
 30
0.0
 10
68.31029208517758
 20
-55.58331912070278
 30
0.0
 10
67.14847536358729
 20
-55.58331912070278
 30
0.0
 10
67.14847536358729
 20
-55.58331912070278
 30
0.0
 10
67.14847536358729
 20
-55.58331912070278
 30
0.0
 10
67.14847536358729
 20
-55.33209444051983
 30
0.0
 10
67.14847536358729
 20
-55.33209444051983
 30
0.0
 10
67.14847536358729
 20
-55.33209444051983
 30
0.0
 10
68.31029208517758
 20
-55.33209444051983
 30
0.0
 10
68.31029208517758
 20
-55.33209444051983
 30
0.0
 10
68.31029208517758
 20
-55.33209444051983
 30
0.0
 10
68.31029208517758
 20
-55.58331912070278
 30
0.0
 10
68.31029208517758
 20
-55.58331912070278
 30
0.0
  0
SPLINE
  5
DB
330
70
100
AcDbEntity
  8
Camada 1
 62
   250
420
  1907995
370
     9
100
AcDbSpline
210
0.0
220
0.0
230
1.0
 70
    11
 71
     3
 72
    17
 73
    13
 74
     0
 42
0.0000000001
 43
0.0000000001
 40
0.0
 40
0.0
 40
0.0
 40
0.0
 40
1.0
 40
1.0
 40
1.0
 40
2.0
 40
2.0
 40
2.0
 40
3.0
 40
3.0
 40
3.0
 40
4.0
 40
4.0
 40
4.0
 40
4.0
 10
67.03961999544079
 20
-55.68723832656936
 30
0.0
 10
67.03961999544079
 20
-55.68723832656936
 30
0.0
 10
68.41940725133794
 20
-55.68723832656936
 30
0.0
 10
68.41940725133794
 20
-55.68723832656936
 30
0.0
 10
68.41940725133794
 20
-55.68723832656936
 30
0.0
 10
68.41940725133794
 20
-55.22739584060912
 30
0.0
 10
68.41940725133794
 20
-55.22739584060912
 30
0.0
 10
68.41940725133794
 20
-55.22739584060912
 30
0.0
 10
67.03961999544079
 20
-55.22739584060912
 30
0.0
 10
67.03961999544079
 20
-55.22739584060912
 30
0.0
 10
67.03961999544079
 20
-55.22739584060912
 30
0.0
 10
67.03961999544079
 20
-55.68723832656936
 30
0.0
 10
67.03961999544079
 20
-55.68723832656936
 30
0.0
  0
SPLINE
  5
DC
330
70
100
AcDbEntity
  8
Camada 1
 62
   250
420
  1907995
370
     9
100
AcDbSpline
210
0.0
220
0.0
230
1.0
 70
    11
 71
     3
 72
    17
 73
    13
 74
     0
 42
0.0000000001
 43
0.0000000001
 40
0.0
 40
0.0
 40
0.0
 40
0.0
 40
1.0
 40
1.0
 40
1.0
 40
2.0
 40
2.0
 40
2.0
 40
3.0
 40
3.0
 40
3.0
 40
4.0
 40
4.0
 40
4.0
 40
4.0
 10
68.55242383484737
 20
-55.82025491007944
 30
0.0
 10
68.55242383484737
 20
-55.82025491007944
 30
0.0
 10
66.90660341193136
 20
-55.82025491007944
 30
0.0
 10
66.90660341193136
 20
-55.82025491007944
 30
0.0
 10
66.90660341193136
 20
-55.82025491007944
 30
0.0
 10
66.90660341193136
 20
-55.09437925709969
 30
0.0
 10
66.90660341193136
 20
-55.09437925709969
 30
0.0
 10
66.90660341193136
 20
-55.09437925709969
 30
0.0
 10
68.55242383484737
 20
-55.09437925709969
 30
0.0
 10
68.55242383484737
 20
-55.09437925709969
 30
0.0
 10
68.55242383484737
 20
-55.09437925709969
 30
0.0
 10
68.55242383484737
 20
-55.82025491007944
 30
0.0
 10
68.55242383484737
 20
-55.82025491007944
 30
0.0
  0
SPLINE
  5
DD
330
70
100
AcDbEntity
  8
Camada 1
 62
   250
420
  1907995
370
     9
100
AcDbSpline
210
0.0
220
0.0
230
1.0
 70
    11
 71
     3
 72
    65
 73
    61
 74
     0
 42
0.0000000001
 43
0.0000000001
 40
0.0
 40
0.0
 40
0.0
 40
0.0
 40
1.0
 40
1.0
 40
1.0
 40
2.0
 40
2.0
 40
2.0
 40
3.0
 40
3.0
 40
3.0
 40
4.0
 40
4.0
 40
4.0
 40
5.0
 40
5.0
 40
5.0
 40
6.0
 40
6.0
 40
6.0
 40
7.0
 40
7.0
 40
7.0
 40
8.0
 40
8.0
 40
8.0
 40
9.0
 40
9.0
 40
9.0
 40
10.0
 40
10.0
 40
10.0
 40
11.0
 40
11.0
 40
11.0
 40
12.0
 40
12.0
 40
12.0
 40
13.0
 40
13.0
 40
13.0
 40
14.0
 40
14.0
 40
14.0
 40
15.0
 40
15.0
 40
15.0
 40
16.0
 40
16.0
 40
16.0
 40
17.0
 40
17.0
 40
17.0
 40
18.0
 40
18.0
 40
18.0
 40
19.0
 40
19.0
 40
19.0
 40
20.0
 40
20.0
 40
20.0
 40
20.0
 10
44.4158811635217
 20
-18.26590793787081
 30
0.0
 10
44.4158811635217
 20
-18.26590793787081
 30
0.0
 10
42.83244473887827
 20
-18.26590793787081
 30
0.0
 10
42.83244473887827
 20
-18.26590793787081
 30
0.0
 10
42.83244473887827
 20
-18.26590793787081
 30
0.0
 10
42.83244473887827
 20
-14.69627509765832
 30
0.0
 10
42.83244473887827
 20
-14.69627509765832
 30
0.0
 10
42.83004972593043
 20
-14.69335236999347
 30
0.0
 10
42.42063241087925
 20
-13.02239648915936
 30
0.0
 10
40.98537827885118
 20
-13.02239648915936
 30
0.0
 10
39.49985323098533
 20
-13.02239648915936
 30
0.0
 10
26.86167841605477
 20
-12.90268643521336
 30
0.0
 10
26.73451540656337
 20
-12.90135497038818
 30
0.0
 10
26.66800711480833
 20
-12.91625276279192
 30
0.0
 10
24.80657057709546
 20
-13.31795732428224
 30
0.0
 10
24.80657057709546
 20
-15.22062867813615
 30
0.0
 10
24.80657057709546
 20
-15.22062867813615
 30
0.0
 10
24.68473342690445
 20
-15.22062867813615
 30
0.0
 10
24.68473342690445
 20
-15.22062867813615
 30
0.0
 10
24.68473342690445
 20
-13.21793508863567
 30
0.0
 10
26.70232480880835
 20
-12.78563119223001
 30
0.0
 10
26.72307617522981
 20
-12.78163679775448
 30
0.0
 10
26.86300988087995
 20
-12.78163679775448
 30
0.0
 10
39.50038094570265
 20
-12.90135497038818
 30
0.0
 10
40.98537827885118
 20
-12.90135497038818
 30
0.0
 10
42.51773191886097
 20
-12.90135497038818
 30
0.0
 10
42.94843643373894
 20
-14.6648882500118
 30
0.0
 10
42.95243082821447
 20
-14.68270877008039
 30
0.0
 10
42.95243082821447
 20
-14.68270877008039
 30
0.0
 10
42.95429000775698
 20
-18.14486641910027
 30
0.0
 10
42.95429000775698
 20
-18.14486641910027
 30
0.0
 10
42.95429000775698
 20
-18.14486641910027
 30
0.0
 10
44.294035894643
 20
-18.14486641910027
 30
0.0
 10
44.294035894643
 20
-18.14486641910027
 30
0.0
 10
44.294035894643
 20
-18.14486641910027
 30
0.0
 10
44.294035894643
 20
-15.05941589134724
 30
0.0
 10
44.294035894643
 20
-15.05941589134724
 30
0.0
 10
44.29323214453515
 20
-15.02642966217271
 30
0.0
 10
44.18203047556953
 20
-11.65126375462649
 30
0.0
 10
41.51292250369638
 20
-11.65126375462649
 30
0.0
 10
41.51292250369638
 20
-11.65126375462649
 30
0.0
 10
26.53179988693122
 20
-11.65126375462649
 30
0.0
 10
26.53179988693122
 20
-11.65126375462649
 30
0.0
 10
26.51157623522709
 20
-11.65632169722437
 30
0.0
 10
23.38568652275381
 20
-12.28229689487614
 30
0.0
 10
23.38568652275381
 20
-15.26079994615389
 30
0.0
 10
23.38568652275381
 20
-15.26079994615389
 30
0.0
 10
23.26358145586028
 20
-15.26079994615389
 30
0.0
 10
23.26358145586028
 20
-15.26079994615389
 30
0.0
 10
23.26358145586028
 20
-12.18120299241889
 30
0.0
 10
26.48790214114046
 20
-11.53739915601019
 30
0.0
 10
26.52036065559798
 20
-11.53128578397766
 30
0.0
 10
26.52036065559798
 20
-11.53128578397766
 30
0.0
 10
41.51292250369638
 20
-11.53021411716762
 30
0.0
 10
41.51292250369638
 20
-11.53021411716762
 30
0.0
 10
44.30095301678337
 20
-11.53021411716762
 30
0.0
 10
44.41480949671134
 20
-15.02270318439937
 30
0.0
 10
44.4158811635217
 20
-15.05808442652206
 30
0.0
 10
44.4158811635217
 20
-15.05808442652206
 30
0.0
 10
44.4158811635217
 20
-18.26590793787081
 30
0.0
 10
44.4158811635217
 20
-18.26590793787081
 30
0.0
  0
SPLINE
  5
DE
330
70
100
AcDbEntity
  8
Camada 1
 62
   250
420
  1907995
370
     9
100
AcDbSpline
210
0.0
220
0.0
230
1.0
 70
    11
 71
     3
 72
    80
 73
    76
 74
     0
 42
0.0000000001
 43
0.0000000001
 40
0.0
 40
0.0
 40
0.0
 40
0.0
 40
1.0
 40
1.0
 40
1.0
 40
2.0
 40
2.0
 40
2.0
 40
3.0
 40
3.0
 40
3.0
 40
4.0
 40
4.0
 40
4.0
 40
5.0
 40
5.0
 40
5.0
 40
6.0
 40
6.0
 40
6.0
 40
7.0
 40
7.0
 40
7.0
 40
8.0
 40
8.0
 40
8.0
 40
9.0
 40
9.0
 40
9.0
 40
10.0
 40
10.0
 40
10.0
 40
11.0
 40
11.0
 40
11.0
 40
12.0
 40
12.0
 40
12.0
 40
13.0
 40
13.0
 40
13.0
 40
14.0
 40
14.0
 40
14.0
 40
15.0
 40
15.0
 40
15.0
 40
16.0
 40
16.0
 40
16.0
 40
17.0
 40
17.0
 40
17.0
 40
18.0
 40
18.0
 40
18.0
 40
19.0
 40
19.0
 40
19.0
 40
20.0
 40
20.0
 40
20.0
 40
21.0
 40
21.0
 40
21.0
 40
22.0
 40
22.0
 40
22.0
 40
23.0
 40
23.0
 40
23.0
 40
24.0
 40
24.0
 40
24.0
 40
25.0
 40
25.0
 40
25.0
 40
25.0
 10
44.47590262359786
 20
-18.32568583730849
 30
0.0
 10
44.47590262359786
 20
-18.32568583730849
 30
0.0
 10
42.76045633275155
 20
-18.32568583730849
 30
0.0
 10
42.76045633275155
 20
-18.32568583730849
 30
0.0
 10
42.76045633275155
 20
-18.32568583730849
 30
0.0
 10
42.76045633275155
 20
-14.70592009895315
 30
0.0
 10
42.76045633275155
 20
-14.70592009895315
 30
0.0
 10
42.68407571643956
 20
-14.430534203406
 30
0.0
 10
42.24735525378426
 20
-13.0928342258855
 30
0.0
 10
40.98109973029711
 20
-13.0928342258855
 30
0.0
 10
39.50025104669541
 20
-13.0928342258855
 30
0.0
 10
26.85640126888182
 20
-12.97332713913886
 30
0.0
 10
26.73819317220831
 20
-12.97202814906574
 30
0.0
 10
26.56023153216148
 20
-13.01333603339762
 30
0.0
 10
24.87855898322185
 20
-13.43732639333426
 30
0.0
 10
24.87855898322185
 20
-15.22006036997908
 30
0.0
 10
24.87855898322185
 20
-15.22006036997908
 30
0.0
 10
24.87855898322185
 20
-15.2865686617338
 30
0.0
 10
24.87855898322185
 20
-15.2865686617338
 30
0.0
 10
24.87855898322185
 20
-15.2865686617338
 30
0.0
 10
24.62369713083371
 20
-15.2865686617338
 30
0.0
 10
24.62369713083371
 20
-15.2865686617338
 30
0.0
 10
24.62369713083371
 20
-15.2865686617338
 30
0.0
 10
24.62369713083371
 20
-15.22006036997908
 30
0.0
 10
24.62369713083371
 20
-15.22006036997908
 30
0.0
 10
24.62369713083371
 20
-13.17025403425612
 30
0.0
 10
26.69428730772954
 20
-12.72444064108767
 30
0.0
 10
26.71533094691755
 20
-12.72054367086766
 30
0.0
 10
26.76079559948425
 20
-12.71976427682353
 30
0.0
 10
27.48251448422918
 20
-12.72599942917593
 30
0.0
 10
28.58691584457885
 20
-12.73613155174771
 30
0.0
 10
32.24149451689949
 20
-12.7696454956402
 30
0.0
 10
39.84604220421728
 20
-12.83901156555567
 30
0.0
 10
40.98109973029711
 20
-12.83901156555567
 30
0.0
 10
42.56950479197125
 20
-12.83901156555567
 30
0.0
 10
43.00778404271449
 20
-14.65058312182884
 30
0.0
 10
43.0116810129345
 20
-14.66902878087028
 30
0.0
 10
43.0116810129345
 20
-14.66902878087028
 30
0.0
 10
43.01505838712521
 20
-18.07186317697865
 30
0.0
 10
43.01505838712521
 20
-18.07186317697865
 30
0.0
 10
43.01505838712521
 20
-18.07186317697865
 30
0.0
 10
44.22104077120939
 20
-18.07186317697865
 30
0.0
 10
44.22104077120939
 20
-18.07186317697865
 30
0.0
 10
44.22104077120939
 20
-18.07186317697865
 30
0.0
 10
44.22104077120939
 20
-15.05924539889992
 30
0.0
 10
44.22104077120939
 20
-15.05924539889992
 30
0.0
 10
44.22026137716526
 20
-15.0270304450812
 30
0.0
 10
44.12153813159181
 20
-11.72421828462003
 30
0.0
 10
41.50822990205653
 20
-11.72421828462003
 30
0.0
 10
41.50822990205653
 20
-11.72421828462003
 30
0.0
 10
26.54334466120798
 20
-11.72421828462003
 30
0.0
 10
26.54334466120798
 20
-11.72421828462003
 30
0.0
 10
26.17988723868911
 20
-11.80449587115204
 30
0.0
 10
23.4587628330669
 20
-12.49633798421031
 30
0.0
 10
23.4587628330669
 20
-15.26006926423784
 30
0.0
 10
23.4587628330669
 20
-15.26006926423784
 30
0.0
 10
23.4587628330669
 20
-15.32657755599256
 30
0.0
 10
23.4587628330669
 20
-15.32657755599256
 30
0.0
 10
23.4587628330669
 20
-15.32657755599256
 30
0.0
 10
23.20364118266394
 20
-15.32657755599256
 30
0.0
 10
23.20364118266394
 20
-15.32657755599256
 30
0.0
 10
23.20364118266394
 20
-15.32657755599256
 30
0.0
 10
23.20364118266394
 20
-15.26006926423784
 30
0.0
 10
23.20364118266394
 20
-15.26006926423784
 30
0.0
 10
23.20364118266394
 20
-12.14405187632152
 30
0.0
 10
26.47917455158534
 20
-11.47896895877436
 30
0.0
 10
26.51242869746269
 20
-11.47273380642195
 30
0.0
 10
26.51242869746269
 20
-11.47273380642195
 30
0.0
 10
41.50822990205653
 20
-11.47065542230469
 30
0.0
 10
41.50822990205653
 20
-11.47065542230469
 30
0.0
 10
44.3631502852323
 20
-11.47065542230469
 30
0.0
 10
44.47512322955373
 20
-15.0202756966998
 30
0.0
 10
44.47590262359786
 20
-15.05612782272404
 30
0.0
 10
44.47590262359786
 20
-15.05612782272404
 30
0.0
 10
44.47590262359786
 20
-18.32568583730849
 30
0.0
 10
44.47590262359786
 20
-18.32568583730849
 30
0.0
  0
SPLINE
  5
DF
330
70
100
AcDbEntity
  8
Camada 1
 62
   250
420
  1907995
370
     9
100
AcDbSpline
210
0.0
220
0.0
230
1.0
 70
    11
 71
     3
 72
    17
 73
    13
 74
     0
 42
0.0000000001
 43
0.0000000001
 40
0.0
 40
0.0
 40
0.0
 40
0.0
 40
1.0
 40
1.0
 40
1.0
 40
2.0
 40
2.0
 40
2.0
 40
3.0
 40
3.0
 40
3.0
 40
4.0
 40
4.0
 40
4.0
 40
4.0
 10
23.38563781062605
 20
-37.70678822391353
 30
0.0
 10
23.38563781062605
 20
-37.70678822391353
 30
0.0
 10
24.56283132720997
 20
-37.70678822391353
 30
0.0
 10
24.56283132720997
 20
-37.70678822391353
 30
0.0
 10
24.56283132720997
 20
-37.70678822391353
 30
0.0
 10
24.56283132720997
 20
-15.32143030782686
 30
0.0
 10
24.56283132720997
 20
-15.32143030782686
 30
0.0
 10
24.56283132720997
 20
-15.32143030782686
 30
0.0
 10
23.38563781062605
 20
-15.32143030782686
 30
0.0
 10
23.38563781062605
 20
-15.32143030782686
 30
0.0
 10
23.38563781062605
 20
-15.32143030782686
 30
0.0
 10
23.38563781062605
 20
-37.70678822391353
 30
0.0
 10
23.38563781062605
 20
-37.70678822391353
 30
0.0
  0
SPLINE
  5
E0
330
70
100
AcDbEntity
  8
Camada 1
 62
   250
420
  1907995
370
     9
100
AcDbSpline
210
0.0
220
0.0
230
1.0
 70
    11
 71
     3
 72
    17
 73
    13
 74
     0
 42
0.0000000001
 43
0.0000000001
 40
0.0
 40
0.0
 40
0.0
 40
0.0
 40
1.0
 40
1.0
 40
1.0
 40
2.0
 40
2.0
 40
2.0
 40
3.0
 40
3.0
 40
3.0
 40
4.0
 40
4.0
 40
4.0
 40
4.0
 10
24.68467659608867
 20
-37.82756994467021
 30
0.0
 10
24.68467659608867
 20
-37.82756994467021
 30
0.0
 10
23.26352462504451
 20
-37.82756994467021
 30
0.0
 10
23.26352462504451
 20
-37.82756994467021
 30
0.0
 10
23.26352462504451
 20
-37.82756994467021
 30
0.0
 10
23.26352462504451
 20
-15.20038067036798
 30
0.0
 10
23.26352462504451
 20
-15.20038067036798
 30
0.0
 10
23.26352462504451
 20
-15.20038067036798
 30
0.0
 10
24.68467659608867
 20
-15.20038067036798
 30
0.0
 10
24.68467659608867
 20
-15.20038067036798
 30
0.0
 10
24.68467659608867
 20
-15.20038067036798
 30
0.0
 10
24.68467659608867
 20
-37.82756994467021
 30
0.0
 10
24.68467659608867
 20
-37.82756994467021
 30
0.0
  0
SPLINE
  5
E1
330
70
100
AcDbEntity
  8
Camada 1
 62
   250
420
  1907995
370
     9
100
AcDbSpline
210
0.0
220
0.0
230
1.0
 70
    11
 71
     3
 72
    17
 73
    13
 74
     0
 42
0.0000000001
 43
0.0000000001
 40
0.0
 40
0.0
 40
0.0
 40
0.0
 40
1.0
 40
1.0
 40
1.0
 40
2.0
 40
2.0
 40
2.0
 40
3.0
 40
3.0
 40
3.0
 40
4.0
 40
4.0
 40
4.0
 40
4.0
 10
23.45746384299346
 20
-37.6333546913301
 30
0.0
 10
23.45746384299346
 20
-37.6333546913301
 30
0.0
 10
24.49094034533878
 20
-37.6333546913301
 30
0.0
 10
24.49094034533878
 20
-37.6333546913301
 30
0.0
 10
24.49094034533878
 20
-37.6333546913301
 30
0.0
 10
24.49094034533878
 20
-15.39464463583553
 30
0.0
 10
24.49094034533878
 20
-15.39464463583553
 30
0.0
 10
24.49094034533878
 20
-15.39464463583553
 30
0.0
 10
23.45746384299346
 20
-15.39464463583553
 30
0.0
 10
23.45746384299346
 20
-15.39464463583553
 30
0.0
 10
23.45746384299346
 20
-15.39464463583553
 30
0.0
 10
23.45746384299346
 20
-37.6333546913301
 30
0.0
 10
23.45746384299346
 20
-37.6333546913301
 30
0.0
  0
SPLINE
  5
E2
330
70
100
AcDbEntity
  8
Camada 1
 62
   250
420
  1907995
370
     9
100
AcDbSpline
210
0.0
220
0.0
230
1.0
 70
    11
 71
     3
 72
    17
 73
    13
 74
     0
 42
0.0000000001
 43
0.0000000001
 40
0.0
 40
0.0
 40
0.0
 40
0.0
 40
1.0
 40
1.0
 40
1.0
 40
2.0
 40
2.0
 40
2.0
 40
3.0
 40
3.0
 40
3.0
 40
4.0
 40
4.0
 40
4.0
 40
4.0
 10
24.74476300566861
 20
-37.88743714967443
 30
0.0
 10
24.74476300566861
 20
-37.88743714967443
 30
0.0
 10
23.20364118266394
 20
-37.88743714967443
 30
0.0
 10
23.20364118266394
 20
-37.88743714967443
 30
0.0
 10
23.20364118266394
 20
-37.88743714967443
 30
0.0
 10
23.20364118266394
 20
-15.1408219755057
 30
0.0
 10
23.20364118266394
 20
-15.1408219755057
 30
0.0
 10
23.20364118266394
 20
-15.1408219755057
 30
0.0
 10
24.74476300566861
 20
-15.1408219755057
 30
0.0
 10
24.74476300566861
 20
-15.1408219755057
 30
0.0
 10
24.74476300566861
 20
-15.1408219755057
 30
0.0
 10
24.74476300566861
 20
-37.88743714967443
 30
0.0
 10
24.74476300566861
 20
-37.88743714967443
 30
0.0
  0
SPLINE
  5
E3
330
70
100
AcDbEntity
  8
Camada 1
 62
   250
420
  1907995
370
     9
100
AcDbSpline
210
0.0
220
0.0
230
1.0
 70
    11
 71
     3
 72
    17
 73
    13
 74
     0
 42
0.0000000001
 43
0.0000000001
 40
0.0
 40
0.0
 40
0.0
 40
0.0
 40
1.0
 40
1.0
 40
1.0
 40
2.0
 40
2.0
 40
2.0
 40
3.0
 40
3.0
 40
3.0
 40
4.0
 40
4.0
 40
4.0
 40
4.0
 10
23.02011012267762
 20
-42.38551502611555
 30
0.0
 10
23.02011012267762
 20
-42.38551502611555
 30
0.0
 10
25.04994448602261
 20
-42.38551502611555
 30
0.0
 10
25.04994448602261
 20
-42.38551502611555
 30
0.0
 10
25.04994448602261
 20
-42.38551502611555
 30
0.0
 10
25.04994448602261
 20
-37.82783786137239
 30
0.0
 10
25.04994448602261
 20
-37.82783786137239
 30
0.0
 10
25.04994448602261
 20
-37.82783786137239
 30
0.0
 10
23.02011012267762
 20
-37.82783786137239
 30
0.0
 10
23.02011012267762
 20
-37.82783786137239
 30
0.0
 10
23.02011012267762
 20
-37.82783786137239
 30
0.0
 10
23.02011012267762
 20
-42.38551502611555
 30
0.0
 10
23.02011012267762
 20
-42.38551502611555
 30
0.0
  0
SPLINE
  5
E4
330
70
100
AcDbEntity
  8
Camada 1
 62
   250
420
  1907995
370
     9
100
AcDbSpline
210
0.0
220
0.0
230
1.0
 70
    11
 71
     3
 72
    17
 73
    13
 74
     0
 42
0.0000000001
 43
0.0000000001
 40
0.0
 40
0.0
 40
0.0
 40
0.0
 40
1.0
 40
1.0
 40
1.0
 40
2.0
 40
2.0
 40
2.0
 40
3.0
 40
3.0
 40
3.0
 40
4.0
 40
4.0
 40
4.0
 40
4.0
 10
25.17178163621363
 20
-42.50656466357441
 30
0.0
 10
25.17178163621363
 20
-42.50656466357441
 30
0.0
 10
22.89799693709608
 20
-42.50656466357441
 30
0.0
 10
22.89799693709608
 20
-42.50656466357441
 30
0.0
 10
22.89799693709608
 20
-42.50656466357441
 30
0.0
 10
22.89799693709608
 20
-37.70705614061635
 30
0.0
 10
22.89799693709608
 20
-37.70705614061635
 30
0.0
 10
22.89799693709608
 20
-37.70705614061635
 30
0.0
 10
25.17178163621363
 20
-37.70705614061635
 30
0.0
 10
25.17178163621363
 20
-37.70705614061635
 30
0.0
 10
25.17178163621363
 20
-37.70705614061635
 30
0.0
 10
25.17178163621363
 20
-42.50656466357441
 30
0.0
 10
25.17178163621363
 20
-42.50656466357441
 30
0.0
  0
SPLINE
  5
E5
330
70
100
AcDbEntity
  8
Camada 1
 62
   250
420
  1907995
370
     9
100
AcDbSpline
210
0.0
220
0.0
230
1.0
 70
    11
 71
     3
 72
    17
 73
    13
 74
     0
 42
0.0000000001
 43
0.0000000001
 40
0.0
 40
0.0
 40
0.0
 40
0.0
 40
1.0
 40
1.0
 40
1.0
 40
2.0
 40
2.0
 40
2.0
 40
3.0
 40
3.0
 40
3.0
 40
4.0
 40
4.0
 40
4.0
 40
4.0
 10
23.09244763238633
 20
-42.3123169354829
 30
0.0
 10
23.09244763238633
 20
-42.3123169354829
 30
0.0
 10
24.97754202681012
 20
-42.3123169354829
 30
0.0
 10
24.97754202681012
 20
-42.3123169354829
 30
0.0
 10
24.97754202681012
 20
-42.3123169354829
 30
0.0
 10
24.97754202681012
 20
-37.90068684842273
 30
0.0
 10
24.97754202681012
 20
-37.90068684842273
 30
0.0
 10
24.97754202681012
 20
-37.90068684842273
 30
0.0
 10
23.09244763238633
 20
-37.90068684842273
 30
0.0
 10
23.09244763238633
 20
-37.90068684842273
 30
0.0
 10
23.09244763238633
 20
-37.90068684842273
 30
0.0
 10
23.09244763238633
 20
-42.3123169354829
 30
0.0
 10
23.09244763238633
 20
-42.3123169354829
 30
0.0
  0
SPLINE
  5
E6
330
70
100
AcDbEntity
  8
Camada 1
 62
   250
420
  1907995
370
     9
100
AcDbSpline
210
0.0
220
0.0
230
1.0
 70
    11
 71
     3
 72
    17
 73
    13
 74
     0
 42
0.0000000001
 43
0.0000000001
 40
0.0
 40
0.0
 40
0.0
 40
0.0
 40
1.0
 40
1.0
 40
1.0
 40
2.0
 40
2.0
 40
2.0
 40
3.0
 40
3.0
 40
3.0
 40
4.0
 40
4.0
 40
4.0
 40
4.0
 10
25.23188428316894
 20
-42.56613959581272
 30
0.0
 10
25.23188428316894
 20
-42.56613959581272
 30
0.0
 10
22.8381053760275
 20
-42.56613959581272
 30
0.0
 10
22.8381053760275
 20
-42.56613959581272
 30
0.0
 10
22.8381053760275
 20
-42.56613959581272
 30
0.0
 10
22.8381053760275
 20
-37.64738378412253
 30
0.0
 10
22.8381053760275
 20
-37.64738378412253
 30
0.0
 10
22.8381053760275
 20
-37.64738378412253
 30
0.0
 10
25.23188428316894
 20
-37.64738378412253
 30
0.0
 10
25.23188428316894
 20
-37.64738378412253
 30
0.0
 10
25.23188428316894
 20
-37.64738378412253
 30
0.0
 10
25.23188428316894
 20
-42.56613959581272
 30
0.0
 10
25.23188428316894
 20
-42.56613959581272
 30
0.0
  0
LWPOLYLINE
  5
E7
330
70
100
AcDbEntity
  8
Camada 1
 62
   250
420
  1907995
370
     9
100
AcDbPolyline
 90
        8
 70
     1
 43
0.0
 10
24.84711530475924
 20
-55.83665871909888
 10
24.72527003588053
 20
-55.83665871909888
 10
24.72527003588053
 20
-42.50627239080786
 10
23.38552414899451
 20
-42.50627239080786
 10
23.38552414899451
 20
-55.83665871909888
 10
23.2636788801158
 20
-55.83665871909888
 10
23.2636788801158
 20
-42.38523087203668
 10
24.84711530475924
 20
-42.38523087203668
  0
LWPOLYLINE
  5
E8
330
70
100
AcDbEntity
  8
Camada 1
 62
   250
420
  1907995
370
     9
100
AcDbPolyline
 90
        8
 70
     1
 43
0.0
 10
24.90713676483539
 20
-55.89637572837695
 10
24.65331410450555
 20
-55.89637572837695
 10
24.65331410450555
 20
-42.57938929456103
 10
23.45746384299346
 20
-42.57938929456103
 10
23.45746384299346
 20
-55.89637572837695
 10
23.20364118266394
 20
-55.89637572837695
 10
23.20364118266394
 20
-42.32582643224569
 10
24.90713676483539
 20
-42.32582643224569
  0
SPLINE
  5
E9
330
70
100
AcDbEntity
  8
Camada 1
 62
   250
420
  1907995
370
     9
100
AcDbSpline
210
0.0
220
0.0
230
1.0
 70
     9
 71
     3
 72
    17
 73
    13
 74
     0
 42
0.0000000001
 43
0.0000000001
 40
0.0
 40
0.0
 40
0.0
 40
0.0
 40
1.0
 40
1.0
 40
1.0
 40
2.0
 40
2.0
 40
2.0
 40
3.0
 40
3.0
 40
3.0
 40
4.0
 40
4.0
 40
4.0
 40
4.0
 10
24.03499482959822
 20
-55.72574932290012
 30
0.0
 10
23.40236230782025
 20
-55.72574932290012
 30
0.0
 10
22.88785669583597
 20
-56.23733220721891
 30
0.0
 10
22.88785669583597
 20
-56.86570241781884
 30
0.0
 10
22.88785669583597
 20
-57.49407262841878
 30
0.0
 10
23.40236230782025
 20
-58.00565551273821
 30
0.0
 10
24.03499482959822
 20
-58.00565551273821
 30
0.0
 10
24.66788714939102
 20
-58.00565551273821
 30
0.0
 10
25.18239276137497
 20
-57.49407262841878
 30
0.0
 10
25.18239276137497
 20
-56.86570241781884
 30
0.0
 10
25.18239276137497
 20
-56.23733220721891
 30
0.0
 10
24.66788714939102
 20
-55.72574932290012
 30
0.0
 10
24.03499482959822
 20
-55.72574932290012
 30
0.0
  0
SPLINE
  5
EA
330
70
100
AcDbEntity
  8
Camada 1
 62
   250
420
  1907995
370
     9
100
AcDbSpline
210
0.0
220
0.0
230
1.0
 70
     9
 71
     3
 72
    17
 73
    13
 74
     0
 42
0.0000000001
 43
0.0000000001
 40
0.0
 40
0.0
 40
0.0
 40
0.0
 40
1.0
 40
1.0
 40
1.0
 40
2.0
 40
2.0
 40
2.0
 40
3.0
 40
3.0
 40
3.0
 40
4.0
 40
4.0
 40
4.0
 40
4.0
 10
24.03499482959822
 20
-58.12670109085323
 30
0.0
 10
23.3353263013482
 20
-58.12670109085323
 30
0.0
 10
22.76601142695726
 20
-57.56111269423531
 30
0.0
 10
22.76601142695726
 20
-56.86570241781884
 30
0.0
 10
22.76601142695726
 20
-56.17029214140302
 30
0.0
 10
23.3353263013482
 20
-55.60470780412894
 30
0.0
 10
24.03499482959822
 20
-55.60470780412894
 30
0.0
 10
24.73492315586306
 20
-55.60470780412894
 30
0.0
 10
25.304238030254
 20
-56.17029214140302
 30
0.0
 10
25.304238030254
 20
-56.86570241781884
 30
0.0
 10
25.304238030254
 20
-57.56111269423531
 30
0.0
 10
24.73492315586306
 20
-58.12670109085323
 30
0.0
 10
24.03499482959822
 20
-58.12670109085323
 30
0.0
  0
SPLINE
  5
EB
330
70
100
AcDbEntity
  8
Camada 1
 62
   250
420
  1907995
370
     9
100
AcDbSpline
210
0.0
220
0.0
230
1.0
 70
    11
 71
     3
 72
    17
 73
    13
 74
     0
 42
0.0000000001
 43
0.0000000001
 40
0.0
 40
0.0
 40
0.0
 40
0.0
 40
1.0
 40
1.0
 40
1.0
 40
2.0
 40
2.0
 40
2.0
 40
3.0
 40
3.0
 40
3.0
 40
4.0
 40
4.0
 40
4.0
 40
4.0
 10
24.03499482959822
 20
-55.79843187684698
 30
0.0
 10
23.44213576012823
 20
-55.79843187684698
 30
0.0
 10
22.95995064490621
 20
-56.2772396178783
 30
0.0
 10
22.95995064490621
 20
-56.86568212109897
 30
0.0
 10
22.95995064490621
 20
-57.45438442233478
 30
0.0
 10
23.44213576012823
 20
-57.9331921633661
 30
0.0
 10
24.03499482959822
 20
-57.9331921633661
 30
0.0
 10
24.62785389906822
 20
-57.9331921633661
 30
0.0
 10
25.11029881230506
 20
-57.45438442233478
 30
0.0
 10
25.11029881230506
 20
-56.86568212109897
 30
0.0
 10
25.11029881230506
 20
-56.2772396178783
 30
0.0
 10
24.62785389906822
 20
-55.79843187684698
 30
0.0
 10
24.03499482959822
 20
-55.79843187684698
 30
0.0
  0
SPLINE
  5
EC
330
70
100
AcDbEntity
  8
Camada 1
 62
   250
420
  1907995
370
     9
100
AcDbSpline
210
0.0
220
0.0
230
1.0
 70
     9
 71
     3
 72
    17
 73
    13
 74
     0
 42
0.0000000001
 43
0.0000000001
 40
0.0
 40
0.0
 40
0.0
 40
0.0
 40
1.0
 40
1.0
 40
1.0
 40
2.0
 40
2.0
 40
2.0
 40
3.0
 40
3.0
 40
3.0
 40
4.0
 40
4.0
 40
4.0
 40
4.0
 10
24.03499482959822
 20
-58.1864952276663
 30
0.0
 10
23.30210463022257
 20
-58.1864952276663
 30
0.0
 10
22.70586818656187
 20
-57.59389595621112
 30
0.0
 10
22.70586818656187
 20
-56.86568212109897
 30
0.0
 10
22.70586818656187
 20
-56.13746828598746
 30
0.0
 10
23.30210463022257
 20
-55.54512881254678
 30
0.0
 10
24.03499482959822
 20
-55.54512881254678
 30
0.0
 10
24.76814482698836
 20
-55.54512881254678
 30
0.0
 10
25.36438127064938
 20
-56.13746828598746
 30
0.0
 10
25.36438127064938
 20
-56.86568212109897
 30
0.0
 10
25.36438127064938
 20
-57.59389595621112
 30
0.0
 10
24.76814482698836
 20
-58.1864952276663
 30
0.0
 10
24.03499482959822
 20
-58.1864952276663
 30
0.0
  0
LWPOLYLINE
  5
ED
330
70
100
AcDbEntity
  8
Camada 1
 62
   250
420
  1907995
370
     9
100
AcDbPolyline
 90
        4
 70
     1
 43
0.0
 10
24.55830921801711
 20
-55.78427694439147
 10
23.32444725948402
 20
-55.78427694439147
 10
23.32444725948402
 20
-55.25194269365091
 10
24.55830921801711
 20
-55.25194269365091
  0
SPLINE
  5
EE
330
70
100
AcDbEntity
  8
Camada 1
 62
   250
420
  1907995
370
     9
100
AcDbSpline
210
0.0
220
0.0
230
1.0
 70
    11
 71
     3
 72
    17
 73
    13
 74
     0
 42
0.0000000001
 43
0.0000000001
 40
0.0
 40
0.0
 40
0.0
 40
0.0
 40
1.0
 40
1.0
 40
1.0
 40
2.0
 40
2.0
 40
2.0
 40
3.0
 40
3.0
 40
3.0
 40
4.0
 40
4.0
 40
4.0
 40
4.0
 10
23.39745050160532
 20
-55.71087994590458
 30
0.0
 10
23.39745050160532
 20
-55.71087994590458
 30
0.0
 10
24.48548458703082
 20
-55.71087994590458
 30
0.0
 10
24.48548458703082
 20
-55.71087994590458
 30
0.0
 10
24.48548458703082
 20
-55.71087994590458
 30
0.0
 10
24.48548458703082
 20
-55.32533969213844
 30
0.0
 10
24.48548458703082
 20
-55.32533969213844
 30
0.0
 10
24.48548458703082
 20
-55.32533969213844
 30
0.0
 10
23.39745050160532
 20
-55.32533969213844
 30
0.0
 10
23.39745050160532
 20
-55.32533969213844
 30
0.0
 10
23.39745050160532
 20
-55.32533969213844
 30
0.0
 10
23.39745050160532
 20
-55.71087994590458
 30
0.0
 10
23.39745050160532
 20
-55.71087994590458
 30
0.0
  0
SPLINE
  5
EF
330
70
100
AcDbEntity
  8
Camada 1
 62
   250
420
  1907995
370
     9
100
AcDbSpline
210
0.0
220
0.0
230
1.0
 70
    11
 71
     3
 72
    17
 73
    13
 74
     0
 42
0.0000000001
 43
0.0000000001
 40
0.0
 40
0.0
 40
0.0
 40
0.0
 40
1.0
 40
1.0
 40
1.0
 40
2.0
 40
2.0
 40
2.0
 40
3.0
 40
3.0
 40
3.0
 40
4.0
 40
4.0
 40
4.0
 40
4.0
 10
24.61850117054025
 20
-55.84389652941402
 30
0.0
 10
24.61850117054025
 20
-55.84389652941402
 30
0.0
 10
23.26443391809589
 20
-55.84389652941402
 30
0.0
 10
23.26443391809589
 20
-55.84389652941402
 30
0.0
 10
23.26443391809589
 20
-55.84389652941402
 30
0.0
 10
23.26443391809589
 20
-55.192323108629
 30
0.0
 10
23.26443391809589
 20
-55.192323108629
 30
0.0
 10
23.26443391809589
 20
-55.192323108629
 30
0.0
 10
24.61850117054025
 20
-55.192323108629
 30
0.0
 10
24.61850117054025
 20
-55.192323108629
 30
0.0
 10
24.61850117054025
 20
-55.192323108629
 30
0.0
 10
24.61850117054025
 20
-55.84389652941402
 30
0.0
 10
24.61850117054025
 20
-55.84389652941402
 30
0.0
  0
SPLINE
  5
F0
330
70
100
AcDbEntity
  8
Camada 1
 62
   250
420
  1907995
370
     9
100
AcDbSpline
210
0.0
220
0.0
230
1.0
 70
    11
 71
     3
 72
    17
 73
    13
 74
     0
 42
0.0000000001
 43
0.0000000001
 40
0.0
 40
0.0
 40
0.0
 40
0.0
 40
1.0
 40
1.0
 40
1.0
 40
2.0
 40
2.0
 40
2.0
 40
3.0
 40
3.0
 40
3.0
 40
4.0
 40
4.0
 40
4.0
 40
4.0
 10
23.19249422409694
 20
-58.12643317415041
 30
0.0
 10
23.19249422409694
 20
-58.12643317415041
 30
0.0
 10
24.80625394826488
 20
-58.12643317415041
 30
0.0
 10
24.80625394826488
 20
-58.12643317415041
 30
0.0
 10
24.80625394826488
 20
-58.12643317415041
 30
0.0
 10
24.80625394826488
 20
-85.25995297120251
 30
0.0
 10
24.80625394826488
 20
-85.25995297120251
 30
0.0
 10
24.80625394826488
 20
-85.25995297120251
 30
0.0
 10
23.19249422409694
 20
-85.25995297120251
 30
0.0
 10
23.19249422409694
 20
-85.25995297120251
 30
0.0
 10
23.19249422409694
 20
-85.25995297120251
 30
0.0
 10
23.19249422409694
 20
-58.12643317415041
 30
0.0
 10
23.19249422409694
 20
-58.12643317415041
 30
0.0
  0
SPLINE
  5
F1
330
70
100
AcDbEntity
  8
Camada 1
 62
   250
420
  1907995
370
     9
100
AcDbSpline
210
0.0
220
0.0
230
1.0
 70
    11
 71
     3
 72
    17
 73
    13
 74
     0
 42
0.0000000001
 43
0.0000000001
 40
0.0
 40
0.0
 40
0.0
 40
0.0
 40
1.0
 40
1.0
 40
1.0
 40
2.0
 40
2.0
 40
2.0
 40
3.0
 40
3.0
 40
3.0
 40
4.0
 40
4.0
 40
4.0
 40
4.0
 10
23.07091687192074
 20
-85.38126443634812
 30
0.0
 10
23.07091687192074
 20
-85.38126443634812
 30
0.0
 10
24.9283590151584
 20
-85.38126443634812
 30
0.0
 10
24.9283590151584
 20
-85.38126443634812
 30
0.0
 10
24.9283590151584
 20
-85.38126443634812
 30
0.0
 10
24.9283590151584
 20
-58.00591937009655
 30
0.0
 10
24.9283590151584
 20
-58.00591937009655
 30
0.0
 10
24.9283590151584
 20
-58.00591937009655
 30
0.0
 10
23.07091687192074
 20
-58.00591937009655
 30
0.0
 10
23.07091687192074
 20
-58.00591937009655
 30
0.0
 10
23.07091687192074
 20
-58.00591937009655
 30
0.0
 10
23.07091687192074
 20
-85.38126443634812
 30
0.0
 10
23.07091687192074
 20
-85.38126443634812
 30
0.0
  0
LWPOLYLINE
  5
F2
330
70
100
AcDbEntity
  8
Camada 1
 62
   250
420
  1907995
370
     9
100
AcDbPolyline
 90
        4
 70
     1
 43
0.0
 10
23.13183950636025
 20
-84.43817734638704
 10
24.86743638071889
 20
-84.43817734638704
 10
24.86743638071889
 20
-84.317131768272
 10
23.13183950636025
 20
-84.317131768272
  0
LWPOLYLINE
  5
F3
330
70
100
AcDbEntity
  8
Camada 1
 62
   250
420
  1907995
370
     9
100
AcDbPolyline
 90
        4
 70
     1
 43
0.0
 10
24.92740100997926
 20
-84.49805875909566
 10
23.07140399319832
 20
-84.49805875909566
 10
23.07140399319832
 20
-84.25774559552865
 10
24.92740100997926
 20
-84.25774559552865
  0
SPLINE
  5
F4
330
70
100
AcDbEntity
  8
Camada 1
 62
   250
420
  1907995
370
     9
100
AcDbSpline
210
0.0
220
0.0
230
1.0
 70
    11
 71
     3
 72
    17
 73
    13
 74
     0
 42
0.0000000001
 43
0.0000000001
 40
0.0
 40
0.0
 40
0.0
 40
0.0
 40
1.0
 40
1.0
 40
1.0
 40
2.0
 40
2.0
 40
2.0
 40
3.0
 40
3.0
 40
3.0
 40
4.0
 40
4.0
 40
4.0
 40
4.0
 10
24.49419593921024
 20
-84.74837008688373
 30
0.0
 10
24.49419593921024
 20
-84.74837008688373
 30
0.0
 10
24.8065218649677
 20
-84.74837008688373
 30
0.0
 10
24.8065218649677
 20
-84.74837008688373
 30
0.0
 10
24.8065218649677
 20
-84.74837008688373
 30
0.0
 10
24.8065218649677
 20
-84.43817531671543
 30
0.0
 10
24.8065218649677
 20
-84.43817531671543
 30
0.0
 10
24.8065218649677
 20
-84.43817531671543
 30
0.0
 10
24.49419593921024
 20
-84.43817531671543
 30
0.0
 10
24.49419593921024
 20
-84.43817531671543
 30
0.0
 10
24.49419593921024
 20
-84.43817531671543
 30
0.0
 10
24.49419593921024
 20
-84.74837008688373
 30
0.0
 10
24.49419593921024
 20
-84.74837008688373
 30
0.0
  0
SPLINE
  5
F5
330
70
100
AcDbEntity
  8
Camada 1
 62
   250
420
  1907995
370
     9
100
AcDbSpline
210
0.0
220
0.0
230
1.0
 70
    11
 71
     3
 72
    17
 73
    13
 74
     0
 42
0.0000000001
 43
0.0000000001
 40
0.0
 40
0.0
 40
0.0
 40
0.0
 40
1.0
 40
1.0
 40
1.0
 40
2.0
 40
2.0
 40
2.0
 40
3.0
 40
3.0
 40
3.0
 40
4.0
 40
4.0
 40
4.0
 40
4.0
 10
24.92836713384641
 20
-84.86941566499874
 30
0.0
 10
24.92836713384641
 20
-84.86941566499874
 30
0.0
 10
24.37262670572173
 20
-84.86941566499874
 30
0.0
 10
24.37262670572173
 20
-84.86941566499874
 30
0.0
 10
24.37262670572173
 20
-84.86941566499874
 30
0.0
 10
24.37262670572173
 20
-84.31739765530259
 30
0.0
 10
24.37262670572173
 20
-84.31739765530259
 30
0.0
 10
24.37262670572173
 20
-84.31739765530259
 30
0.0
 10
24.92836713384641
 20
-84.31739765530259
 30
0.0
 10
24.92836713384641
 20
-84.31739765530259
 30
0.0
 10
24.92836713384641
 20
-84.31739765530259
 30
0.0
 10
24.92836713384641
 20
-84.86941566499874
 30
0.0
 10
24.92836713384641
 20
-84.86941566499874
 30
0.0
  0
SPLINE
  5
F6
330
70
100
AcDbEntity
  8
Camada 1
 62
   250
420
  1907995
370
     9
100
AcDbSpline
210
0.0
220
0.0
230
1.0
 70
    11
 71
     3
 72
    17
 73
    13
 74
     0
 42
0.0000000001
 43
0.0000000001
 40
0.0
 40
0.0
 40
0.0
 40
0.0
 40
1.0
 40
1.0
 40
1.0
 40
2.0
 40
2.0
 40
2.0
 40
3.0
 40
3.0
 40
3.0
 40
4.0
 40
4.0
 40
4.0
 40
4.0
 10
24.56446318348971
 20
-84.67783898524526
 30
0.0
 10
24.56446318348971
 20
-84.67783898524526
 30
0.0
 10
24.73618967118445
 20
-84.67783898524526
 30
0.0
 10
24.73618967118445
 20
-84.67783898524526
 30
0.0
 10
24.73618967118445
 20
-84.67783898524526
 30
0.0
 10
24.73618967118445
 20
-84.50845067968259
 30
0.0
 10
24.73618967118445
 20
-84.50845067968259
 30
0.0
 10
24.73618967118445
 20
-84.50845067968259
 30
0.0
 10
24.56446318348971
 20
-84.50845067968259
 30
0.0
 10
24.56446318348971
 20
-84.50845067968259
 30
0.0
 10
24.56446318348971
 20
-84.50845067968259
 30
0.0
 10
24.56446318348971
 20
-84.67783898524526
 30
0.0
 10
24.56446318348971
 20
-84.67783898524526
 30
0.0
  0
SPLINE
  5
F7
330
70
100
AcDbEntity
  8
Camada 1
 62
   250
420
  1907995
370
     9
100
AcDbSpline
210
0.0
220
0.0
230
1.0
 70
    11
 71
     3
 72
    17
 73
    13
 74
     0
 42
0.0000000001
 43
0.0000000001
 40
0.0
 40
0.0
 40
0.0
 40
0.0
 40
1.0
 40
1.0
 40
1.0
 40
2.0
 40
2.0
 40
2.0
 40
3.0
 40
3.0
 40
3.0
 40
4.0
 40
4.0
 40
4.0
 40
4.0
 10
24.98819374541153
 20
-84.92906366542822
 30
0.0
 10
24.98819374541153
 20
-84.92906366542822
 30
0.0
 10
24.31219931124781
 20
-84.92906366542822
 30
0.0
 10
24.31219931124781
 20
-84.92906366542822
 30
0.0
 10
24.31219931124781
 20
-84.92906366542822
 30
0.0
 10
24.31219931124781
 20
-84.25748579751415
 30
0.0
 10
24.31219931124781
 20
-84.25748579751415
 30
0.0
 10
24.31219931124781
 20
-84.25748579751415
 30
0.0
 10
24.98819374541153
 20
-84.25748579751415
 30
0.0
 10
24.98819374541153
 20
-84.25748579751415
 30
0.0
 10
24.98819374541153
 20
-84.25748579751415
 30
0.0
 10
24.98819374541153
 20
-84.92906366542822
 30
0.0
 10
24.98819374541153
 20
-84.92906366542822
 30
0.0
  0
SPLINE
  5
F8
330
70
100
AcDbEntity
  8
Camada 1
 62
   250
420
  1907995
370
     9
100
AcDbSpline
210
0.0
220
0.0
230
1.0
 70
    11
 71
     3
 72
    17
 73
    13
 74
     0
 42
0.0000000001
 43
0.0000000001
 40
0.0
 40
0.0
 40
0.0
 40
0.0
 40
1.0
 40
1.0
 40
1.0
 40
2.0
 40
2.0
 40
2.0
 40
3.0
 40
3.0
 40
3.0
 40
4.0
 40
4.0
 40
4.0
 40
4.0
 10
19.14294138260302
 20
-37.52003404480779
 30
0.0
 10
19.14294138260302
 20
-37.52003404480779
 30
0.0
 10
20.10199387243404
 20
-37.52003404480779
 30
0.0
 10
20.10199387243404
 20
-37.52003404480779
 30
0.0
 10
20.10199387243404
 20
-37.52003404480779
 30
0.0
 10
20.10199387243404
 20
-41.19528289667038
 30
0.0
 10
20.10199387243404
 20
-41.19528289667038
 30
0.0
 10
20.10199387243404
 20
-41.19528289667038
 30
0.0
 10
19.14294138260302
 20
-41.19528289667038
 30
0.0
 10
19.14294138260302
 20
-41.19528289667038
 30
0.0
 10
19.14294138260302
 20
-41.19528289667038
 30
0.0
 10
19.14294138260302
 20
-37.52003404480779
 30
0.0
 10
19.14294138260302
 20
-37.52003404480779
 30
0.0
  0
SPLINE
  5
F9
330
70
100
AcDbEntity
  8
Camada 1
 62
   250
420
  1907995
370
     9
100
AcDbSpline
210
0.0
220
0.0
230
1.0
 70
    11
 71
     3
 72
    17
 73
    13
 74
     0
 42
0.0000000001
 43
0.0000000001
 40
0.0
 40
0.0
 40
0.0
 40
0.0
 40
1.0
 40
1.0
 40
1.0
 40
2.0
 40
2.0
 40
2.0
 40
3.0
 40
3.0
 40
3.0
 40
4.0
 40
4.0
 40
4.0
 40
4.0
 10
19.02109611372399
 20
-41.31659233214375
 30
0.0
 10
19.02109611372399
 20
-41.31659233214375
 30
0.0
 10
20.22383102262506
 20
-41.31659233214375
 30
0.0
 10
20.22383102262506
 20
-41.31659233214375
 30
0.0
 10
20.22383102262506
 20
-41.31659233214375
 30
0.0
 10
20.22383102262506
 20
-37.39898440734891
 30
0.0
 10
20.22383102262506
 20
-37.39898440734891
 30
0.0
 10
20.22383102262506
 20
-37.39898440734891
 30
0.0
 10
19.02109611372399
 20
-37.39898440734891
 30
0.0
 10
19.02109611372399
 20
-37.39898440734891
 30
0.0
 10
19.02109611372399
 20
-37.39898440734891
 30
0.0
 10
19.02109611372399
 20
-41.31659233214375
 30
0.0
 10
19.02109611372399
 20
-41.31659233214375
 30
0.0
  0
SPLINE
  5
FA
330
70
100
AcDbEntity
  8
Camada 1
 62
   250
420
  1907995
370
     9
100
AcDbSpline
210
0.0
220
0.0
230
1.0
 70
    11
 71
     3
 72
    17
 73
    13
 74
     0
 42
0.0000000001
 43
0.0000000001
 40
0.0
 40
0.0
 40
0.0
 40
0.0
 40
1.0
 40
1.0
 40
1.0
 40
2.0
 40
2.0
 40
2.0
 40
3.0
 40
3.0
 40
3.0
 40
4.0
 40
4.0
 40
4.0
 40
4.0
 10
20.22409893932757
 20
-40.12157017680355
 30
0.0
 10
20.22409893932757
 20
-40.12157017680355
 30
0.0
 10
21.68568197640428
 20
-40.12157017680355
 30
0.0
 10
21.68568197640428
 20
-40.12157017680355
 30
0.0
 10
21.68568197640428
 20
-40.12157017680355
 30
0.0
 10
21.68568197640428
 20
-38.66955907282955
 30
0.0
 10
21.68568197640428
 20
-38.66955907282955
 30
0.0
 10
21.68568197640428
 20
-38.66955907282955
 30
0.0
 10
20.22409893932757
 20
-38.66955907282955
 30
0.0
 10
20.22409893932757
 20
-38.66955907282955
 30
0.0
 10
20.22409893932757
 20
-38.66955907282955
 30
0.0
 10
20.22409893932757
 20
-40.12157017680355
 30
0.0
 10
20.22409893932757
 20
-40.12157017680355
 30
0.0
  0
SPLINE
  5
FB
330
70
100
AcDbEntity
  8
Camada 1
 62
   250
420
  1907995
370
     9
100
AcDbSpline
210
0.0
220
0.0
230
1.0
 70
    11
 71
     3
 72
    17
 73
    13
 74
     0
 42
0.0000000001
 43
0.0000000001
 40
0.0
 40
0.0
 40
0.0
 40
0.0
 40
1.0
 40
1.0
 40
1.0
 40
2.0
 40
2.0
 40
2.0
 40
3.0
 40
3.0
 40
3.0
 40
4.0
 40
4.0
 40
4.0
 40
4.0
 10
21.80699953056599
 20
-40.24261981426241
 30
0.0
 10
21.80699953056599
 20
-40.24261981426241
 30
0.0
 10
20.10172595573154
 20
-40.24261981426241
 30
0.0
 10
20.10172595573154
 20
-40.24261981426241
 30
0.0
 10
20.10172595573154
 20
-40.24261981426241
 30
0.0
 10
20.10172595573154
 20
-38.54851755405901
 30
0.0
 10
20.10172595573154
 20
-38.54851755405901
 30
0.0
 10
20.10172595573154
 20
-38.54851755405901
 30
0.0
 10
21.80699953056599
 20
-38.54851755405901
 30
0.0
 10
21.80699953056599
 20
-38.54851755405901
 30
0.0
 10
21.80699953056599
 20
-38.54851755405901
 30
0.0
 10
21.80699953056599
 20
-40.24261981426241
 30
0.0
 10
21.80699953056599
 20
-40.24261981426241
 30
0.0
  0
SPLINE
  5
FC
330
70
100
AcDbEntity
  8
Camada 1
 62
   250
420
  1907995
370
     9
100
AcDbSpline
210
0.0
220
0.0
230
1.0
 70
    11
 71
     3
 72
    17
 73
    13
 74
     0
 42
0.0000000001
 43
0.0000000001
 40
0.0
 40
0.0
 40
0.0
 40
0.0
 40
1.0
 40
1.0
 40
1.0
 40
2.0
 40
2.0
 40
2.0
 40
3.0
 40
3.0
 40
3.0
 40
4.0
 40
4.0
 40
4.0
 40
4.0
 10
20.29624160052557
 20
-40.04921642971913
 30
0.0
 10
20.29624160052557
 20
-40.04921642971913
 30
0.0
 10
21.61367733290187
 20
-40.04921642971913
 30
0.0
 10
21.61367733290187
 20
-40.04921642971913
 30
0.0
 10
21.61367733290187
 20
-40.04921642971913
 30
0.0
 10
21.61367733290187
 20
-38.74191281991461
 30
0.0
 10
21.61367733290187
 20
-38.74191281991461
 30
0.0
 10
21.61367733290187
 20
-38.74191281991461
 30
0.0
 10
20.29624160052557
 20
-38.74191281991461
 30
0.0
 10
20.29624160052557
 20
-38.74191281991461
 30
0.0
 10
20.29624160052557
 20
-38.74191281991461
 30
0.0
 10
20.29624160052557
 20
-40.04921642971913
 30
0.0
 10
20.29624160052557
 20
-40.04921642971913
 30
0.0
  0
SPLINE
  5
FD
330
70
100
AcDbEntity
  8
Camada 1
 62
   250
420
  1907995
370
     9
100
AcDbSpline
210
0.0
220
0.0
230
1.0
 70
    11
 71
     3
 72
    17
 73
    13
 74
     0
 42
0.0000000001
 43
0.0000000001
 40
0.0
 40
0.0
 40
0.0
 40
0.0
 40
1.0
 40
1.0
 40
1.0
 40
2.0
 40
2.0
 40
2.0
 40
3.0
 40
3.0
 40
3.0
 40
4.0
 40
4.0
 40
4.0
 40
4.0
 10
21.86724019521689
 20
-40.30251949401933
 30
0.0
 10
21.86724019521689
 20
-40.30251949401933
 30
0.0
 10
20.04189934416642
 20
-40.30251949401933
 30
0.0
 10
20.04189934416642
 20
-40.30251949401933
 30
0.0
 10
20.04189934416642
 20
-40.30251949401933
 30
0.0
 10
20.04189934416642
 20
-38.4891293516434
 30
0.0
 10
20.04189934416642
 20
-38.4891293516434
 30
0.0
 10
20.04189934416642
 20
-38.4891293516434
 30
0.0
 10
21.86724019521689
 20
-38.4891293516434
 30
0.0
 10
21.86724019521689
 20
-38.4891293516434
 30
0.0
 10
21.86724019521689
 20
-38.4891293516434
 30
0.0
 10
21.86724019521689
 20
-40.30251949401933
 30
0.0
 10
21.86724019521689
 20
-40.30251949401933
 30
0.0
  0
SPLINE
  5
FE
330
70
100
AcDbEntity
  8
Camada 1
 62
   250
420
  1907995
370
     9
100
AcDbSpline
210
0.0
220
0.0
230
1.0
 70
    11
 71
     3
 72
    17
 73
    13
 74
     0
 42
0.0000000001
 43
0.0000000001
 40
0.0
 40
0.0
 40
0.0
 40
0.0
 40
1.0
 40
1.0
 40
1.0
 40
2.0
 40
2.0
 40
2.0
 40
3.0
 40
3.0
 40
3.0
 40
4.0
 40
4.0
 40
4.0
 40
4.0
 10
21.80699953056599
 20
-39.87948713926183
 30
0.0
 10
21.80699953056599
 20
-39.87948713926183
 30
0.0
 10
22.91848850550304
 20
-39.87948713926183
 30
0.0
 10
22.91848850550304
 20
-39.87948713926183
 30
0.0
 10
22.91848850550304
 20
-39.87948713926183
 30
0.0
 10
22.91848850550304
 20
-38.86616933911719
 30
0.0
 10
22.91848850550304
 20
-38.86616933911719
 30
0.0
 10
22.91848850550304
 20
-38.86616933911719
 30
0.0
 10
21.80699953056599
 20
-38.86616933911719
 30
0.0
 10
21.80699953056599
 20
-38.86616933911719
 30
0.0
 10
21.80699953056599
 20
-38.86616933911719
 30
0.0
 10
21.80699953056599
 20
-39.87948713926183
 30
0.0
 10
21.80699953056599
 20
-39.87948713926183
 30
0.0
  0
SPLINE
  5
FF
330
70
100
AcDbEntity
  8
Camada 1
 62
   250
420
  1907995
370
     9
100
AcDbSpline
210
0.0
220
0.0
230
1.0
 70
    11
 71
     3
 72
    17
 73
    13
 74
     0
 42
0.0000000001
 43
0.0000000001
 40
0.0
 40
0.0
 40
0.0
 40
0.0
 40
1.0
 40
1.0
 40
1.0
 40
2.0
 40
2.0
 40
2.0
 40
3.0
 40
3.0
 40
3.0
 40
4.0
 40
4.0
 40
4.0
 40
4.0
 10
23.04032565569373
 20
-40.00052865803237
 30
0.0
 10
23.04032565569373
 20
-40.00052865803237
 30
0.0
 10
21.68542217838979
 20
-40.00052865803237
 30
0.0
 10
21.68542217838979
 20
-40.00052865803237
 30
0.0
 10
21.68542217838979
 20
-40.00052865803237
 30
0.0
 10
21.68542217838979
 20
-38.74511970165831
 30
0.0
 10
21.68542217838979
 20
-38.74511970165831
 30
0.0
 10
21.68542217838979
 20
-38.74511970165831
 30
0.0
 10
23.04032565569373
 20
-38.74511970165831
 30
0.0
 10
23.04032565569373
 20
-38.74511970165831
 30
0.0
 10
23.04032565569373
 20
-38.74511970165831
 30
0.0
 10
23.04032565569373
 20
-40.00052865803237
 30
0.0
 10
23.04032565569373
 20
-40.00052865803237
 30
0.0
  0
SPLINE
  5
100
330
70
100
AcDbEntity
  8
Camada 1
 62
   250
420
  1907995
370
     9
100
AcDbSpline
210
0.0
220
0.0
230
1.0
 70
    11
 71
     3
 72
    17
 73
    13
 74
     0
 42
0.0000000001
 43
0.0000000001
 40
0.0
 40
0.0
 40
0.0
 40
0.0
 40
1.0
 40
1.0
 40
1.0
 40
2.0
 40
2.0
 40
2.0
 40
3.0
 40
3.0
 40
3.0
 40
4.0
 40
4.0
 40
4.0
 40
4.0
 10
21.87893110587693
 20
-39.80760427607833
 30
0.0
 10
21.87893110587693
 20
-39.80760427607833
 30
0.0
 10
22.84667871051134
 20
-39.80760427607833
 30
0.0
 10
22.84667871051134
 20
-39.80760427607833
 30
0.0
 10
22.84667871051134
 20
-39.80760427607833
 30
0.0
 10
22.84667871051134
 20
-38.93857991701737
 30
0.0
 10
22.84667871051134
 20
-38.93857991701737
 30
0.0
 10
22.84667871051134
 20
-38.93857991701737
 30
0.0
 10
21.87893110587693
 20
-38.93857991701737
 30
0.0
 10
21.87893110587693
 20
-38.93857991701737
 30
0.0
 10
21.87893110587693
 20
-38.93857991701737
 30
0.0
 10
21.87893110587693
 20
-39.80760427607833
 30
0.0
 10
21.87893110587693
 20
-39.80760427607833
 30
0.0
  0
SPLINE
  5
101
330
70
100
AcDbEntity
  8
Camada 1
 62
   250
420
  1907995
370
     9
100
AcDbSpline
210
0.0
220
0.0
230
1.0
 70
    11
 71
     3
 72
    17
 73
    13
 74
     0
 42
0.0000000001
 43
0.0000000001
 40
0.0
 40
0.0
 40
0.0
 40
0.0
 40
1.0
 40
1.0
 40
1.0
 40
2.0
 40
2.0
 40
2.0
 40
3.0
 40
3.0
 40
3.0
 40
4.0
 40
4.0
 40
4.0
 40
4.0
 10
23.10050137084117
 20
-40.06012794633504
 30
0.0
 10
23.10050137084117
 20
-40.06012794633504
 30
0.0
 10
21.62562804157641
 20
-40.06012794633504
 30
0.0
 10
21.62562804157641
 20
-40.06012794633504
 30
0.0
 10
21.62562804157641
 20
-40.06012794633504
 30
0.0
 10
21.62562804157641
 20
-38.68527685271717
 30
0.0
 10
21.62562804157641
 20
-38.68527685271717
 30
0.0
 10
21.62562804157641
 20
-38.68527685271717
 30
0.0
 10
23.10050137084117
 20
-38.68527685271717
 30
0.0
 10
23.10050137084117
 20
-38.68527685271717
 30
0.0
 10
23.10050137084117
 20
-38.68527685271717
 30
0.0
 10
23.10050137084117
 20
-40.06012794633504
 30
0.0
 10
23.10050137084117
 20
-40.06012794633504
 30
0.0
  0
LWPOLYLINE
  5
102
330
70
100
AcDbEntity
  8
Camada 1
 62
   250
420
  1907995
370
     9
100
AcDbPolyline
 90
        4
 70
     1
 43
0.0
 10
35.51169390783216
 20
-20.36062685537912
 10
36.45797570150509
 20
-20.36062685537912
 10
36.45797570150509
 20
-20.16270136164298
 10
35.51169390783216
 20
-20.16270136164298
  0
SPLINE
  5
103
330
70
100
AcDbEntity
  8
Camada 1
 62
   250
420
  1907995
370
     9
100
AcDbSpline
210
0.0
220
0.0
230
1.0
 70
    11
 71
     3
 72
    17
 73
    13
 74
     0
 42
0.0000000001
 43
0.0000000001
 40
0.0
 40
0.0
 40
0.0
 40
0.0
 40
1.0
 40
1.0
 40
1.0
 40
2.0
 40
2.0
 40
2.0
 40
3.0
 40
3.0
 40
3.0
 40
4.0
 40
4.0
 40
4.0
 40
4.0
 10
35.58483516764904
 20
-20.28716084804428
 30
0.0
 10
35.58483516764904
 20
-20.28716084804428
 30
0.0
 10
36.38527285083803
 20
-20.28716084804428
 30
0.0
 10
36.38527285083803
 20
-20.28716084804428
 30
0.0
 10
36.38527285083803
 20
-20.28716084804428
 30
0.0
 10
36.38527285083803
 20
-20.23598063915511
 30
0.0
 10
36.38527285083803
 20
-20.23598063915511
 30
0.0
 10
36.38527285083803
 20
-20.23598063915511
 30
0.0
 10
35.58483516764904
 20
-20.23598063915511
 30
0.0
 10
35.58483516764904
 20
-20.23598063915511
 30
0.0
 10
35.58483516764904
 20
-20.23598063915511
 30
0.0
 10
35.58483516764904
 20
-20.28716084804428
 30
0.0
 10
35.58483516764904
 20
-20.28716084804428
 30
0.0
  0
SPLINE
  5
104
330
70
100
AcDbEntity
  8
Camada 1
 62
   250
420
  1907995
370
     9
100
AcDbSpline
210
0.0
220
0.0
230
1.0
 70
    11
 71
     3
 72
    17
 73
    13
 74
     0
 42
0.0000000001
 43
0.0000000001
 40
0.0
 40
0.0
 40
0.0
 40
0.0
 40
1.0
 40
1.0
 40
1.0
 40
2.0
 40
2.0
 40
2.0
 40
3.0
 40
3.0
 40
3.0
 40
4.0
 40
4.0
 40
4.0
 40
4.0
 10
36.51828943434747
 20
-20.42017743155371
 30
0.0
 10
36.51828943434747
 20
-20.42017743155371
 30
0.0
 10
35.45181858413961
 20
-20.42017743155371
 30
0.0
 10
35.45181858413961
 20
-20.42017743155371
 30
0.0
 10
35.45181858413961
 20
-20.42017743155371
 30
0.0
 10
35.45181858413961
 20
-20.10296405564504
 30
0.0
 10
35.45181858413961
 20
-20.10296405564504
 30
0.0
 10
35.45181858413961
 20
-20.10296405564504
 30
0.0
 10
36.51828943434747
 20
-20.10296405564504
 30
0.0
 10
36.51828943434747
 20
-20.10296405564504
 30
0.0
 10
36.51828943434747
 20
-20.10296405564504
 30
0.0
 10
36.51828943434747
 20
-20.42017743155371
 30
0.0
 10
36.51828943434747
 20
-20.42017743155371
 30
0.0
  0
LWPOLYLINE
  5
105
330
70
100
AcDbEntity
  8
Camada 1
 62
   250
420
  1907995
370
     9
100
AcDbPolyline
 90
        4
 70
     1
 43
0.0
 10
36.72028239075126
 20
-20.36062685537912
 10
37.41782382275626
 20
-20.36062685537912
 10
37.41782382275626
 20
-20.16270136164298
 10
36.72028239075126
 20
-20.16270136164298
  0
SPLINE
  5
106
330
70
100
AcDbEntity
  8
Camada 1
 62
   250
420
  1907995
370
     9
100
AcDbSpline
210
0.0
220
0.0
230
1.0
 70
    11
 71
     3
 72
    17
 73
    13
 74
     0
 42
0.0000000001
 43
0.0000000001
 40
0.0
 40
0.0
 40
0.0
 40
0.0
 40
1.0
 40
1.0
 40
1.0
 40
2.0
 40
2.0
 40
2.0
 40
3.0
 40
3.0
 40
3.0
 40
4.0
 40
4.0
 40
4.0
 40
4.0
 10
36.7934155318798
 20
-20.28716084804428
 30
0.0
 10
36.7934155318798
 20
-20.28716084804428
 30
0.0
 10
37.34496671701792
 20
-20.28716084804428
 30
0.0
 10
37.34496671701792
 20
-20.28716084804428
 30
0.0
 10
37.34496671701792
 20
-20.28716084804428
 30
0.0
 10
37.34496671701792
 20
-20.23598063915511
 30
0.0
 10
37.34496671701792
 20
-20.23598063915511
 30
0.0
 10
37.34496671701792
 20
-20.23598063915511
 30
0.0
 10
36.7934155318798
 20
-20.23598063915511
 30
0.0
 10
36.7934155318798
 20
-20.23598063915511
 30
0.0
 10
36.7934155318798
 20
-20.23598063915511
 30
0.0
 10
36.7934155318798
 20
-20.28716084804428
 30
0.0
 10
36.7934155318798
 20
-20.28716084804428
 30
0.0
  0
SPLINE
  5
107
330
70
100
AcDbEntity
  8
Camada 1
 62
   250
420
  1907995
370
     9
100
AcDbSpline
210
0.0
220
0.0
230
1.0
 70
    11
 71
     3
 72
    17
 73
    13
 74
     0
 42
0.0000000001
 43
0.0000000001
 40
0.0
 40
0.0
 40
0.0
 40
0.0
 40
1.0
 40
1.0
 40
1.0
 40
2.0
 40
2.0
 40
2.0
 40
3.0
 40
3.0
 40
3.0
 40
4.0
 40
4.0
 40
4.0
 40
4.0
 10
37.47798330052735
 20
-20.42017743155371
 30
0.0
 10
37.47798330052735
 20
-20.42017743155371
 30
0.0
 10
36.66039894837037
 20
-20.42017743155371
 30
0.0
 10
36.66039894837037
 20
-20.42017743155371
 30
0.0
 10
36.66039894837037
 20
-20.42017743155371
 30
0.0
 10
36.66039894837037
 20
-20.10296405564504
 30
0.0
 10
36.66039894837037
 20
-20.10296405564504
 30
0.0
 10
36.66039894837037
 20
-20.10296405564504
 30
0.0
 10
37.47798330052735
 20
-20.10296405564504
 30
0.0
 10
37.47798330052735
 20
-20.10296405564504
 30
0.0
 10
37.47798330052735
 20
-20.10296405564504
 30
0.0
 10
37.47798330052735
 20
-20.42017743155371
 30
0.0
 10
37.47798330052735
 20
-20.42017743155371
 30
0.0
  0
LWPOLYLINE
  5
108
330
70
100
AcDbEntity
  8
Camada 1
 62
   250
420
  1907995
370
     9
100
AcDbPolyline
 90
        4
 70
     1
 43
0.0
 10
37.68013051200211
 20
-20.36062685537912
 10
38.51387917188423
 20
-20.36062685537912
 10
38.51387917188423
 20
-20.16270136164298
 10
37.68013051200211
 20
-20.16270136164298
  0
SPLINE
  5
109
330
70
100
AcDbEntity
  8
Camada 1
 62
   250
420
  1907995
370
     9
100
AcDbSpline
210
0.0
220
0.0
230
1.0
 70
    11
 71
     3
 72
    17
 73
    13
 74
     0
 42
0.0000000001
 43
0.0000000001
 40
0.0
 40
0.0
 40
0.0
 40
0.0
 40
1.0
 40
1.0
 40
1.0
 40
2.0
 40
2.0
 40
2.0
 40
3.0
 40
3.0
 40
3.0
 40
4.0
 40
4.0
 40
4.0
 40
4.0
 10
37.75336919607451
 20
-20.28716084804428
 30
0.0
 10
37.75336919607451
 20
-20.28716084804428
 30
0.0
 10
38.44105454089794
 20
-20.28716084804428
 30
0.0
 10
38.44105454089794
 20
-20.28716084804428
 30
0.0
 10
38.44105454089794
 20
-20.28716084804428
 30
0.0
 10
38.44105454089794
 20
-20.23598063915511
 30
0.0
 10
38.44105454089794
 20
-20.23598063915511
 30
0.0
 10
38.44105454089794
 20
-20.23598063915511
 30
0.0
 10
37.75336919607451
 20
-20.23598063915511
 30
0.0
 10
37.75336919607451
 20
-20.23598063915511
 30
0.0
 10
37.75336919607451
 20
-20.23598063915511
 30
0.0
 10
37.75336919607451
 20
-20.28716084804428
 30
0.0
 10
37.75336919607451
 20
-20.28716084804428
 30
0.0
  0
SPLINE
  5
10A
330
70
100
AcDbEntity
  8
Camada 1
 62
   250
420
  1907995
370
     9
100
AcDbSpline
210
0.0
220
0.0
230
1.0
 70
    11
 71
     3
 72
    17
 73
    13
 74
     0
 42
0.0000000001
 43
0.0000000001
 40
0.0
 40
0.0
 40
0.0
 40
0.0
 40
1.0
 40
1.0
 40
1.0
 40
2.0
 40
2.0
 40
2.0
 40
3.0
 40
3.0
 40
3.0
 40
4.0
 40
4.0
 40
4.0
 40
4.0
 10
38.57407112440737
 20
-20.42017743155371
 30
0.0
 10
38.57407112440737
 20
-20.42017743155371
 30
0.0
 10
37.62035261256507
 20
-20.42017743155371
 30
0.0
 10
37.62035261256507
 20
-20.42017743155371
 30
0.0
 10
37.62035261256507
 20
-20.42017743155371
 30
0.0
 10
37.62035261256507
 20
-20.10296405564504
 30
0.0
 10
37.62035261256507
 20
-20.10296405564504
 30
0.0
 10
37.62035261256507
 20
-20.10296405564504
 30
0.0
 10
38.57407112440737
 20
-20.10296405564504
 30
0.0
 10
38.57407112440737
 20
-20.10296405564504
 30
0.0
 10
38.57407112440737
 20
-20.10296405564504
 30
0.0
 10
38.57407112440737
 20
-20.42017743155371
 30
0.0
 10
38.57407112440737
 20
-20.42017743155371
 30
0.0
  0
SPLINE
  5
10B
330
70
100
AcDbEntity
  8
Camada 1
 62
   250
420
  1907995
370
     9
100
AcDbSpline
210
0.0
220
0.0
230
1.0
 70
    11
 71
     3
 72
    17
 73
    13
 74
     0
 42
0.0000000001
 43
0.0000000001
 40
0.0
 40
0.0
 40
0.0
 40
0.0
 40
1.0
 40
1.0
 40
1.0
 40
2.0
 40
2.0
 40
2.0
 40
3.0
 40
3.0
 40
3.0
 40
4.0
 40
4.0
 40
4.0
 40
4.0
 10
34.47762474126605
 20
-20.10204664390629
 30
0.0
 10
34.47762474126605
 20
-20.10204664390629
 30
0.0
 10
52.60059841103091
 20
-20.10204664390629
 30
0.0
 10
52.60059841103091
 20
-20.10204664390629
 30
0.0
 10
52.60059841103091
 20
-20.10204664390629
 30
0.0
 10
52.60059841103091
 20
-19.13900787828743
 30
0.0
 10
52.60059841103091
 20
-19.13900787828743
 30
0.0
 10
52.60059841103091
 20
-19.13900787828743
 30
0.0
 10
34.47762474126605
 20
-19.13900787828743
 30
0.0
 10
34.47762474126605
 20
-19.13900787828743
 30
0.0
 10
34.47762474126605
 20
-19.13900787828743
 30
0.0
 10
34.47762474126605
 20
-20.10204664390629
 30
0.0
 10
34.47762474126605
 20
-20.10204664390629
 30
0.0
  0
SPLINE
  5
10C
330
70
100
AcDbEntity
  8
Camada 1
 62
   250
420
  1907995
370
     9
100
AcDbSpline
210
0.0
220
0.0
230
1.0
 70
    11
 71
     3
 72
    17
 73
    13
 74
     0
 42
0.0000000001
 43
0.0000000001
 40
0.0
 40
0.0
 40
0.0
 40
0.0
 40
1.0
 40
1.0
 40
1.0
 40
2.0
 40
2.0
 40
2.0
 40
3.0
 40
3.0
 40
3.0
 40
4.0
 40
4.0
 40
4.0
 40
4.0
 10
52.7221757632071
 20
-20.22308816267683
 30
0.0
 10
52.7221757632071
 20
-20.22308816267683
 30
0.0
 10
34.35551155568452
 20
-20.22308816267683
 30
0.0
 10
34.35551155568452
 20
-20.22308816267683
 30
0.0
 10
34.35551155568452
 20
-20.22308816267683
 30
0.0
 10
34.35551155568452
 20
-19.01795824082856
 30
0.0
 10
34.35551155568452
 20
-19.01795824082856
 30
0.0
 10
34.35551155568452
 20
-19.01795824082856
 30
0.0
 10
52.7221757632071
 20
-19.01795824082856
 30
0.0
 10
52.7221757632071
 20
-19.01795824082856
 30
0.0
 10
52.7221757632071
 20
-19.01795824082856
 30
0.0
 10
52.7221757632071
 20
-20.22308816267683
 30
0.0
 10
52.7221757632071
 20
-20.22308816267683
 30
0.0
  0
SPLINE
  5
10D
330
70
100
AcDbEntity
  8
Camada 1
 62
   250
420
  1907995
370
     9
100
AcDbSpline
210
0.0
220
0.0
230
1.0
 70
    11
 71
     3
 72
    17
 73
    13
 74
     0
 42
0.0000000001
 43
0.0000000001
 40
0.0
 40
0.0
 40
0.0
 40
0.0
 40
1.0
 40
1.0
 40
1.0
 40
2.0
 40
2.0
 40
2.0
 40
3.0
 40
3.0
 40
3.0
 40
4.0
 40
4.0
 40
4.0
 40
4.0
 10
34.5505792712596
 20
-20.02996081352407
 30
0.0
 10
34.5505792712596
 20
-20.02996081352407
 30
0.0
 10
52.52782249217237
 20
-20.02996081352407
 30
0.0
 10
52.52782249217237
 20
-20.02996081352407
 30
0.0
 10
52.52782249217237
 20
-20.02996081352407
 30
0.0
 10
52.52782249217237
 20
-19.21107747129363
 30
0.0
 10
52.52782249217237
 20
-19.21107747129363
 30
0.0
 10
52.52782249217237
 20
-19.21107747129363
 30
0.0
 10
34.5505792712596
 20
-19.21107747129363
 30
0.0
 10
34.5505792712596
 20
-19.21107747129363
 30
0.0
 10
34.5505792712596
 20
-19.21107747129363
 30
0.0
 10
34.5505792712596
 20
-20.02996081352407
 30
0.0
 10
34.5505792712596
 20
-20.02996081352407
 30
0.0
  0
SPLINE
  5
10E
330
70
100
AcDbEntity
  8
Camada 1
 62
   250
420
  1907995
370
     9
100
AcDbSpline
210
0.0
220
0.0
230
1.0
 70
    11
 71
     3
 72
    17
 73
    13
 74
     0
 42
0.0000000001
 43
0.0000000001
 40
0.0
 40
0.0
 40
0.0
 40
0.0
 40
1.0
 40
1.0
 40
1.0
 40
2.0
 40
2.0
 40
2.0
 40
3.0
 40
3.0
 40
3.0
 40
4.0
 40
4.0
 40
4.0
 40
4.0
 10
52.7824245465457
 20
-20.28274428179463
 30
0.0
 10
52.7824245465457
 20
-20.28274428179463
 30
0.0
 10
34.29571741887146
 20
-20.28274428179463
 30
0.0
 10
34.29571741887146
 20
-20.28274428179463
 30
0.0
 10
34.29571741887146
 20
-20.28274428179463
 30
0.0
 10
34.29571741887146
 20
-18.95829400302243
 30
0.0
 10
34.29571741887146
 20
-18.95829400302243
 30
0.0
 10
34.29571741887146
 20
-18.95829400302243
 30
0.0
 10
52.7824245465457
 20
-18.95829400302243
 30
0.0
 10
52.7824245465457
 20
-18.95829400302243
 30
0.0
 10
52.7824245465457
 20
-18.95829400302243
 30
0.0
 10
52.7824245465457
 20
-20.28274428179463
 30
0.0
 10
52.7824245465457
 20
-20.28274428179463
 30
0.0
  0
SPLINE
  5
10F
330
70
100
AcDbEntity
  8
Camada 1
 62
   250
420
  1907995
370
     9
100
AcDbSpline
210
0.0
220
0.0
230
1.0
 70
    11
 71
     3
 72
    17
 73
    13
 74
     0
 42
0.0000000001
 43
0.0000000001
 40
0.0
 40
0.0
 40
0.0
 40
0.0
 40
1.0
 40
1.0
 40
1.0
 40
2.0
 40
2.0
 40
2.0
 40
3.0
 40
3.0
 40
3.0
 40
4.0
 40
4.0
 40
4.0
 40
4.0
 10
42.54428002848469
 20
-18.73569581658077
 30
0.0
 10
42.54428002848469
 20
-18.73569581658077
 30
0.0
 10
44.5334072904066
 20
-18.73569581658077
 30
0.0
 10
44.5334072904066
 20
-18.73569581658077
 30
0.0
 10
44.5334072904066
 20
-18.73569581658077
 30
0.0
 10
44.5334072904066
 20
-18.33239187356181
 30
0.0
 10
44.5334072904066
 20
-18.33239187356181
 30
0.0
 10
44.5334072904066
 20
-18.33239187356181
 30
0.0
 10
42.54428002848469
 20
-18.33239187356181
 30
0.0
 10
42.54428002848469
 20
-18.33239187356181
 30
0.0
 10
42.54428002848469
 20
-18.33239187356181
 30
0.0
 10
42.54428002848469
 20
-18.73569581658077
 30
0.0
 10
42.54428002848469
 20
-18.73569581658077
 30
0.0
  0
SPLINE
  5
110
330
70
100
AcDbEntity
  8
Camada 1
 62
   250
420
  1907995
370
     9
100
AcDbSpline
210
0.0
220
0.0
230
1.0
 70
    11
 71
     3
 72
    17
 73
    13
 74
     0
 42
0.0000000001
 43
0.0000000001
 40
0.0
 40
0.0
 40
0.0
 40
0.0
 40
1.0
 40
1.0
 40
1.0
 40
2.0
 40
2.0
 40
2.0
 40
3.0
 40
3.0
 40
3.0
 40
4.0
 40
4.0
 40
4.0
 40
4.0
 10
44.65525255928564
 20
-18.85647753733681
 30
0.0
 10
44.65525255928564
 20
-18.85647753733681
 30
0.0
 10
42.42243475960598
 20
-18.85647753733681
 30
0.0
 10
42.42243475960598
 20
-18.85647753733681
 30
0.0
 10
42.42243475960598
 20
-18.85647753733681
 30
0.0
 10
42.42243475960598
 20
-18.21135035479127
 30
0.0
 10
42.42243475960598
 20
-18.21135035479127
 30
0.0
 10
42.42243475960598
 20
-18.21135035479127
 30
0.0
 10
44.65525255928564
 20
-18.21135035479127
 30
0.0
 10
44.65525255928564
 20
-18.21135035479127
 30
0.0
 10
44.65525255928564
 20
-18.21135035479127
 30
0.0
 10
44.65525255928564
 20
-18.85647753733681
 30
0.0
 10
44.65525255928564
 20
-18.85647753733681
 30
0.0
  0
SPLINE
  5
111
330
70
100
AcDbEntity
  8
Camada 1
 62
   250
420
  1907995
370
     9
100
AcDbSpline
210
0.0
220
0.0
230
1.0
 70
    11
 71
     3
 72
    17
 73
    13
 74
     0
 42
0.0000000001
 43
0.0000000001
 40
0.0
 40
0.0
 40
0.0
 40
0.0
 40
1.0
 40
1.0
 40
1.0
 40
2.0
 40
2.0
 40
2.0
 40
3.0
 40
3.0
 40
3.0
 40
4.0
 40
4.0
 40
4.0
 40
4.0
 10
42.61652823262589
 20
-18.66498204446347
 30
0.0
 10
42.61652823262589
 20
-18.66498204446347
 30
0.0
 10
44.46135393477643
 20
-18.66498204446347
 30
0.0
 10
44.46135393477643
 20
-18.66498204446347
 30
0.0
 10
44.46135393477643
 20
-18.66498204446347
 30
0.0
 10
44.46135393477643
 20
-18.40336544369361
 30
0.0
 10
44.46135393477643
 20
-18.40336544369361
 30
0.0
 10
44.46135393477643
 20
-18.40336544369361
 30
0.0
 10
42.61652823262589
 20
-18.40336544369361
 30
0.0
 10
42.61652823262589
 20
-18.40336544369361
 30
0.0
 10
42.61652823262589
 20
-18.40336544369361
 30
0.0
 10
42.61652823262589
 20
-18.66498204446347
 30
0.0
 10
42.61652823262589
 20
-18.66498204446347
 30
0.0
  0
SPLINE
  5
112
330
70
100
AcDbEntity
  8
Camada 1
 62
   250
420
  1907995
370
     9
100
AcDbSpline
210
0.0
220
0.0
230
1.0
 70
    11
 71
     3
 72
    17
 73
    13
 74
     0
 42
0.0000000001
 43
0.0000000001
 40
0.0
 40
0.0
 40
0.0
 40
0.0
 40
1.0
 40
1.0
 40
1.0
 40
2.0
 40
2.0
 40
2.0
 40
3.0
 40
3.0
 40
3.0
 40
4.0
 40
4.0
 40
4.0
 40
4.0
 10
44.71543639312076
 20
-18.91620672464641
 30
0.0
 10
44.71543639312076
 20
-18.91620672464641
 30
0.0
 10
42.36270557229638
 20
-18.91620672464641
 30
0.0
 10
42.36270557229638
 20
-18.91620672464641
 30
0.0
 10
42.36270557229638
 20
-18.91620672464641
 30
0.0
 10
42.36270557229638
 20
-18.15188096549617
 30
0.0
 10
42.36270557229638
 20
-18.15188096549617
 30
0.0
 10
42.36270557229638
 20
-18.15188096549617
 30
0.0
 10
44.71543639312076
 20
-18.15188096549617
 30
0.0
 10
44.71543639312076
 20
-18.15188096549617
 30
0.0
 10
44.71543639312076
 20
-18.15188096549617
 30
0.0
 10
44.71543639312076
 20
-18.91620672464641
 30
0.0
 10
44.71543639312076
 20
-18.91620672464641
 30
0.0
  0
LWPOLYLINE
  5
113
330
70
100
AcDbEntity
  8
Camada 1
 62
   250
420
  1907995
370
     9
100
AcDbPolyline
 90
        4
 70
     1
 43
0.0
 10
44.54644590326785
 20
-19.07835316055075
 10
42.53150933232627
 20
-19.07835316055075
 10
42.53150933232627
 20
-18.79609073630296
 10
44.54644590326785
 20
-18.79609073630296
  0
SPLINE
  5
114
330
70
100
AcDbEntity
  8
Camada 1
 62
   250
420
  1907995
370
     9
100
AcDbSpline
210
0.0
220
0.0
230
1.0
 70
    11
 71
     3
 72
    17
 73
    13
 74
     0
 42
0.0000000001
 43
0.0000000001
 40
0.0
 40
0.0
 40
0.0
 40
0.0
 40
1.0
 40
1.0
 40
1.0
 40
2.0
 40
2.0
 40
2.0
 40
3.0
 40
3.0
 40
3.0
 40
4.0
 40
4.0
 40
4.0
 40
4.0
 10
42.60457752395136
 20
-19.00506006044473
 30
0.0
 10
42.60457752395136
 20
-19.00506006044473
 30
0.0
 10
44.47356444146579
 20
-19.00506006044473
 30
0.0
 10
44.47356444146579
 20
-19.00506006044473
 30
0.0
 10
44.47356444146579
 20
-19.00506006044473
 30
0.0
 10
44.47356444146579
 20
-18.86970288002076
 30
0.0
 10
44.47356444146579
 20
-18.86970288002076
 30
0.0
 10
44.47356444146579
 20
-18.86970288002076
 30
0.0
 10
42.60457752395136
 20
-18.86970288002076
 30
0.0
 10
42.60457752395136
 20
-18.86970288002076
 30
0.0
 10
42.60457752395136
 20
-18.86970288002076
 30
0.0
 10
42.60457752395136
 20
-19.00506006044473
 30
0.0
 10
42.60457752395136
 20
-19.00506006044473
 30
0.0
  0
SPLINE
  5
115
330
70
100
AcDbEntity
  8
Camada 1
 62
   250
420
  1907995
370
     9
100
AcDbSpline
210
0.0
220
0.0
230
1.0
 70
    11
 71
     3
 72
    17
 73
    13
 74
     0
 42
0.0000000001
 43
0.0000000001
 40
0.0
 40
0.0
 40
0.0
 40
0.0
 40
1.0
 40
1.0
 40
1.0
 40
2.0
 40
2.0
 40
2.0
 40
3.0
 40
3.0
 40
3.0
 40
4.0
 40
4.0
 40
4.0
 40
4.0
 10
44.60658102497522
 20
-19.13807664059422
 30
0.0
 10
44.60658102497522
 20
-19.13807664059422
 30
0.0
 10
42.47156094044193
 20
-19.13807664059422
 30
0.0
 10
42.47156094044193
 20
-19.13807664059422
 30
0.0
 10
42.47156094044193
 20
-19.13807664059422
 30
0.0
 10
42.47156094044193
 20
-18.73668629651132
 30
0.0
 10
42.47156094044193
 20
-18.73668629651132
 30
0.0
 10
42.47156094044193
 20
-18.73668629651132
 30
0.0
 10
44.60658102497522
 20
-18.73668629651132
 30
0.0
 10
44.60658102497522
 20
-18.73668629651132
 30
0.0
 10
44.60658102497522
 20
-18.73668629651132
 30
0.0
 10
44.60658102497522
 20
-19.13807664059422
 30
0.0
 10
44.60658102497522
 20
-19.13807664059422
 30
0.0
  0
SPLINE
  5
116
330
70
100
AcDbEntity
  8
Camada 1
 62
   250
420
  1907995
370
     9
100
AcDbSpline
210
0.0
220
0.0
230
1.0
 70
    11
 71
     3
 72
    17
 73
    13
 74
     0
 42
0.0000000001
 43
0.0000000001
 40
0.0
 40
0.0
 40
0.0
 40
0.0
 40
1.0
 40
1.0
 40
1.0
 40
2.0
 40
2.0
 40
2.0
 40
3.0
 40
3.0
 40
3.0
 40
4.0
 40
4.0
 40
4.0
 40
4.0
 10
42.65335460120499
 20
-18.95757143979407
 30
0.0
 10
42.65335460120499
 20
-18.95757143979407
 30
0.0
 10
44.42460063438882
 20
-18.95757143979407
 30
0.0
 10
44.42460063438882
 20
-18.95757143979407
 30
0.0
 10
44.42460063438882
 20
-18.95757143979407
 30
0.0
 10
44.42460063438882
 20
-18.91740017177633
 30
0.0
 10
44.42460063438882
 20
-18.91740017177633
 30
0.0
 10
44.42460063438882
 20
-18.91740017177633
 30
0.0
 10
42.65335460120499
 20
-18.91740017177633
 30
0.0
 10
42.65335460120499
 20
-18.91740017177633
 30
0.0
 10
42.65335460120499
 20
-18.91740017177633
 30
0.0
 10
42.65335460120499
 20
-18.95757143979407
 30
0.0
 10
42.65335460120499
 20
-18.95757143979407
 30
0.0
  0
SPLINE
  5
117
330
70
100
AcDbEntity
  8
Camada 1
 62
   250
420
  1907995
370
     9
100
AcDbSpline
210
0.0
220
0.0
230
1.0
 70
    11
 71
     3
 72
    17
 73
    13
 74
     0
 42
0.0000000001
 43
0.0000000001
 40
0.0
 40
0.0
 40
0.0
 40
0.0
 40
1.0
 40
1.0
 40
1.0
 40
2.0
 40
2.0
 40
2.0
 40
3.0
 40
3.0
 40
3.0
 40
4.0
 40
4.0
 40
4.0
 40
4.0
 10
44.66802325544405
 20
-19.19939467932129
 30
0.0
 10
44.66802325544405
 20
-19.19939467932129
 30
0.0
 10
42.40966406344757
 20
-19.19939467932129
 30
0.0
 10
42.40966406344757
 20
-19.19939467932129
 30
0.0
 10
42.40966406344757
 20
-19.19939467932129
 30
0.0
 10
42.40966406344757
 20
-18.67504109884409
 30
0.0
 10
42.40966406344757
 20
-18.67504109884409
 30
0.0
 10
42.40966406344757
 20
-18.67504109884409
 30
0.0
 10
44.66802325544405
 20
-18.67504109884409
 30
0.0
 10
44.66802325544405
 20
-18.67504109884409
 30
0.0
 10
44.66802325544405
 20
-18.67504109884409
 30
0.0
 10
44.66802325544405
 20
-19.19939467932129
 30
0.0
 10
44.66802325544405
 20
-19.19939467932129
 30
0.0
  0
SPLINE
  5
118
330
70
100
AcDbEntity
  8
Camada 1
 62
   250
420
  1907995
370
     9
100
AcDbSpline
210
0.0
220
0.0
230
1.0
 70
    11
 71
     3
 72
    17
 73
    13
 74
     0
 42
0.0000000001
 43
0.0000000001
 40
0.0
 40
0.0
 40
0.0
 40
0.0
 40
1.0
 40
1.0
 40
1.0
 40
2.0
 40
2.0
 40
2.0
 40
3.0
 40
3.0
 40
3.0
 40
4.0
 40
4.0
 40
4.0
 40
4.0
 10
44.48603474616963
 20
-19.02350330470402
 30
0.0
 10
44.48603474616963
 20
-19.02350330470402
 30
0.0
 10
42.59184742123269
 20
-19.02350330470402
 30
0.0
 10
42.59184742123269
 20
-19.02350330470402
 30
0.0
 10
42.59184742123269
 20
-19.02350330470402
 30
0.0
 10
42.59184742123269
 20
-18.85125722097996
 30
0.0
 10
42.59184742123269
 20
-18.85125722097996
 30
0.0
 10
42.59184742123269
 20
-18.85125722097996
 30
0.0
 10
44.48603474616963
 20
-18.85125722097996
 30
0.0
 10
44.48603474616963
 20
-18.85125722097996
 30
0.0
 10
44.48603474616963
 20
-18.85125722097996
 30
0.0
 10
44.48603474616963
 20
-19.02350330470402
 30
0.0
 10
44.48603474616963
 20
-19.02350330470402
 30
0.0
  0
SPLINE
  5
119
330
70
100
AcDbEntity
  8
Camada 1
 62
   250
420
  1907995
370
     9
100
AcDbSpline
210
0.0
220
0.0
230
1.0
 70
    11
 71
     3
 72
    17
 73
    13
 74
     0
 42
0.0000000001
 43
0.0000000001
 40
0.0
 40
0.0
 40
0.0
 40
0.0
 40
1.0
 40
1.0
 40
1.0
 40
2.0
 40
2.0
 40
2.0
 40
3.0
 40
3.0
 40
3.0
 40
4.0
 40
4.0
 40
4.0
 40
4.0
 10
42.48273225507265
 20
-19.12586372248298
 30
0.0
 10
42.48273225507265
 20
-19.12586372248298
 30
0.0
 10
44.59540971034449
 20
-19.12586372248298
 30
0.0
 10
44.59540971034449
 20
-19.12586372248298
 30
0.0
 10
44.59540971034449
 20
-19.12586372248298
 30
0.0
 10
44.59540971034449
 20
-18.74811740915686
 30
0.0
 10
44.59540971034449
 20
-18.74811740915686
 30
0.0
 10
44.59540971034449
 20
-18.74811740915686
 30
0.0
 10
42.48273225507265
 20
-18.74811740915686
 30
0.0
 10
42.48273225507265
 20
-18.74811740915686
 30
0.0
 10
42.48273225507265
 20
-18.74811740915686
 30
0.0
 10
42.48273225507265
 20
-19.12586372248298
 30
0.0
 10
42.48273225507265
 20
-19.12586372248298
 30
0.0
  0
SPLINE
  5
11A
330
70
100
AcDbEntity
  8
Camada 1
 62
   250
420
  1907995
370
     9
100
AcDbSpline
210
0.0
220
0.0
230
1.0
 70
    11
 71
     3
 72
    17
 73
    13
 74
     0
 42
0.0000000001
 43
0.0000000001
 40
0.0
 40
0.0
 40
0.0
 40
0.0
 40
1.0
 40
1.0
 40
1.0
 40
2.0
 40
2.0
 40
2.0
 40
3.0
 40
3.0
 40
3.0
 40
4.0
 40
4.0
 40
4.0
 40
4.0
 10
44.72842629385392
 20
-19.25888030599242
 30
0.0
 10
44.72842629385392
 20
-19.25888030599242
 30
0.0
 10
42.3497156715629
 20
-19.25888030599242
 30
0.0
 10
42.3497156715629
 20
-19.25888030599242
 30
0.0
 10
42.3497156715629
 20
-19.25888030599242
 30
0.0
 10
42.3497156715629
 20
-18.61510082564743
 30
0.0
 10
42.3497156715629
 20
-18.61510082564743
 30
0.0
 10
42.3497156715629
 20
-18.61510082564743
 30
0.0
 10
44.72842629385392
 20
-18.61510082564743
 30
0.0
 10
44.72842629385392
 20
-18.61510082564743
 30
0.0
 10
44.72842629385392
 20
-18.61510082564743
 30
0.0
 10
44.72842629385392
 20
-19.25888030599242
 30
0.0
 10
44.72842629385392
 20
-19.25888030599242
 30
0.0
  0
LWPOLYLINE
  5
11B
330
70
100
AcDbEntity
  8
Camada 1
 62
   250
420
  1907995
370
     9
100
AcDbPolyline
 90
        4
 70
     1
 43
0.0
 10
38.77618586113039
 20
-20.36062685537912
 10
39.72246765480333
 20
-20.36062685537912
 10
39.72246765480333
 20
-20.16270136164298
 10
38.77618586113039
 20
-20.16270136164298
  0
SPLINE
  5
11C
330
70
100
AcDbEntity
  8
Camada 1
 62
   250
420
  1907995
370
     9
100
AcDbSpline
210
0.0
220
0.0
230
1.0
 70
    11
 71
     3
 72
    17
 73
    13
 74
     0
 42
0.0000000001
 43
0.0000000001
 40
0.0
 40
0.0
 40
0.0
 40
0.0
 40
1.0
 40
1.0
 40
1.0
 40
2.0
 40
2.0
 40
2.0
 40
3.0
 40
3.0
 40
3.0
 40
4.0
 40
4.0
 40
4.0
 40
4.0
 10
38.84919722193971
 20
-20.28716084804428
 30
0.0
 10
38.84919722193971
 20
-20.28716084804428
 30
0.0
 10
39.64963490512902
 20
-20.28716084804428
 30
0.0
 10
39.64963490512902
 20
-20.28716084804428
 30
0.0
 10
39.64963490512902
 20
-20.28716084804428
 30
0.0
 10
39.64963490512902
 20
-20.23598063915511
 30
0.0
 10
39.64963490512902
 20
-20.23598063915511
 30
0.0
 10
39.64963490512902
 20
-20.23598063915511
 30
0.0
 10
38.84919722193971
 20
-20.23598063915511
 30
0.0
 10
38.84919722193971
 20
-20.23598063915511
 30
0.0
 10
38.84919722193971
 20
-20.23598063915511
 30
0.0
 10
38.84919722193971
 20
-20.28716084804428
 30
0.0
 10
38.84919722193971
 20
-20.28716084804428
 30
0.0
  0
SPLINE
  5
11D
330
70
100
AcDbEntity
  8
Camada 1
 62
   250
420
  1907995
370
     9
100
AcDbSpline
210
0.0
220
0.0
230
1.0
 70
    11
 71
     3
 72
    17
 73
    13
 74
     0
 42
0.0000000001
 43
0.0000000001
 40
0.0
 40
0.0
 40
0.0
 40
0.0
 40
1.0
 40
1.0
 40
1.0
 40
2.0
 40
2.0
 40
2.0
 40
3.0
 40
3.0
 40
3.0
 40
4.0
 40
4.0
 40
4.0
 40
4.0
 10
39.78265148863845
 20
-20.42017743155371
 30
0.0
 10
39.78265148863845
 20
-20.42017743155371
 30
0.0
 10
38.71618063843028
 20
-20.42017743155371
 30
0.0
 10
38.71618063843028
 20
-20.42017743155371
 30
0.0
 10
38.71618063843028
 20
-20.42017743155371
 30
0.0
 10
38.71618063843028
 20
-20.10296405564504
 30
0.0
 10
38.71618063843028
 20
-20.10296405564504
 30
0.0
 10
38.71618063843028
 20
-20.10296405564504
 30
0.0
 10
39.78265148863845
 20
-20.10296405564504
 30
0.0
 10
39.78265148863845
 20
-20.10296405564504
 30
0.0
 10
39.78265148863845
 20
-20.10296405564504
 30
0.0
 10
39.78265148863845
 20
-20.42017743155371
 30
0.0
 10
39.78265148863845
 20
-20.42017743155371
 30
0.0
  0
LWPOLYLINE
  5
11E
330
70
100
AcDbEntity
  8
Camada 1
 62
   250
420
  1907995
370
     9
100
AcDbPolyline
 90
        4
 70
     1
 43
0.0
 10
39.98477434404917
 20
-20.36062685537912
 10
40.682575574069
 20
-20.36062685537912
 10
40.682575574069
 20
-20.16270136164298
 10
39.98477434404917
 20
-20.16270136164298
  0
SPLINE
  5
11F
330
70
100
AcDbEntity
  8
Camada 1
 62
   250
420
  1907995
370
     9
100
AcDbSpline
210
0.0
220
0.0
230
1.0
 70
    11
 71
     3
 72
    17
 73
    13
 74
     0
 42
0.0000000001
 43
0.0000000001
 40
0.0
 40
0.0
 40
0.0
 40
0.0
 40
1.0
 40
1.0
 40
1.0
 40
2.0
 40
2.0
 40
2.0
 40
3.0
 40
3.0
 40
3.0
 40
4.0
 40
4.0
 40
4.0
 40
4.0
 10
40.05803738418528
 20
-20.28716084804428
 30
0.0
 10
40.05803738418528
 20
-20.28716084804428
 30
0.0
 10
40.6093287713089
 20
-20.28716084804428
 30
0.0
 10
40.6093287713089
 20
-20.28716084804428
 30
0.0
 10
40.6093287713089
 20
-20.28716084804428
 30
0.0
 10
40.6093287713089
 20
-20.23598063915511
 30
0.0
 10
40.6093287713089
 20
-20.23598063915511
 30
0.0
 10
40.6093287713089
 20
-20.23598063915511
 30
0.0
 10
40.05803738418528
 20
-20.23598063915511
 30
0.0
 10
40.05803738418528
 20
-20.23598063915511
 30
0.0
 10
40.05803738418528
 20
-20.23598063915511
 30
0.0
 10
40.05803738418528
 20
-20.28716084804428
 30
0.0
 10
40.05803738418528
 20
-20.28716084804428
 30
0.0
  0
SPLINE
  5
120
330
70
100
AcDbEntity
  8
Camada 1
 62
   250
420
  1907995
370
     9
100
AcDbSpline
210
0.0
220
0.0
230
1.0
 70
    11
 71
     3
 72
    17
 73
    13
 74
     0
 42
0.0000000001
 43
0.0000000001
 40
0.0
 40
0.0
 40
0.0
 40
0.0
 40
1.0
 40
1.0
 40
1.0
 40
2.0
 40
2.0
 40
2.0
 40
3.0
 40
3.0
 40
3.0
 40
4.0
 40
4.0
 40
4.0
 40
4.0
 10
40.74234535481834
 20
-20.42017743155371
 30
0.0
 10
40.74234535481834
 20
-20.42017743155371
 30
0.0
 10
39.92502080067585
 20
-20.42017743155371
 30
0.0
 10
39.92502080067585
 20
-20.42017743155371
 30
0.0
 10
39.92502080067585
 20
-20.42017743155371
 30
0.0
 10
39.92502080067585
 20
-20.10296405564504
 30
0.0
 10
39.92502080067585
 20
-20.10296405564504
 30
0.0
 10
39.92502080067585
 20
-20.10296405564504
 30
0.0
 10
40.74234535481834
 20
-20.10296405564504
 30
0.0
 10
40.74234535481834
 20
-20.10296405564504
 30
0.0
 10
40.74234535481834
 20
-20.10296405564504
 30
0.0
 10
40.74234535481834
 20
-20.42017743155371
 30
0.0
 10
40.74234535481834
 20
-20.42017743155371
 30
0.0
  0
LWPOLYLINE
  5
121
330
70
100
AcDbEntity
  8
Camada 1
 62
   250
420
  1907995
370
     9
100
AcDbPolyline
 90
        4
 70
     1
 43
0.0
 10
40.94462246530034
 20
-20.36062685537912
 10
41.77837112518246
 20
-20.36062685537912
 10
41.77837112518246
 20
-20.16270136164298
 10
40.94462246530034
 20
-20.16270136164298
  0
SPLINE
  5
122
330
70
100
AcDbEntity
  8
Camada 1
 62
   250
420
  1907995
370
     9
100
AcDbSpline
210
0.0
220
0.0
230
1.0
 70
    11
 71
     3
 72
    17
 73
    13
 74
     0
 42
0.0000000001
 43
0.0000000001
 40
0.0
 40
0.0
 40
0.0
 40
0.0
 40
1.0
 40
1.0
 40
1.0
 40
2.0
 40
2.0
 40
2.0
 40
3.0
 40
3.0
 40
3.0
 40
4.0
 40
4.0
 40
4.0
 40
4.0
 10
41.01747145235068
 20
-20.28716084804428
 30
0.0
 10
41.01747145235068
 20
-20.28716084804428
 30
0.0
 10
41.70541659518892
 20
-20.28716084804428
 30
0.0
 10
41.70541659518892
 20
-20.28716084804428
 30
0.0
 10
41.70541659518892
 20
-20.28716084804428
 30
0.0
 10
41.70541659518892
 20
-20.23598063915511
 30
0.0
 10
41.70541659518892
 20
-20.23598063915511
 30
0.0
 10
41.70541659518892
 20
-20.23598063915511
 30
0.0
 10
41.01747145235068
 20
-20.23598063915511
 30
0.0
 10
41.01747145235068
 20
-20.23598063915511
 30
0.0
 10
41.01747145235068
 20
-20.23598063915511
 30
0.0
 10
41.01747145235068
 20
-20.28716084804428
 30
0.0
 10
41.01747145235068
 20
-20.28716084804428
 30
0.0
  0
SPLINE
  5
123
330
70
100
AcDbEntity
  8
Camada 1
 62
   250
420
  1907995
370
     9
100
AcDbSpline
210
0.0
220
0.0
230
1.0
 70
    11
 71
     3
 72
    17
 73
    13
 74
     0
 42
0.0000000001
 43
0.0000000001
 40
0.0
 40
0.0
 40
0.0
 40
0.0
 40
1.0
 40
1.0
 40
1.0
 40
2.0
 40
2.0
 40
2.0
 40
3.0
 40
3.0
 40
3.0
 40
4.0
 40
4.0
 40
4.0
 40
4.0
 10
41.83843317869835
 20
-20.42017743155371
 30
0.0
 10
41.83843317869835
 20
-20.42017743155371
 30
0.0
 10
40.88445486884125
 20
-20.42017743155371
 30
0.0
 10
40.88445486884125
 20
-20.42017743155371
 30
0.0
 10
40.88445486884125
 20
-20.42017743155371
 30
0.0
 10
40.88445486884125
 20
-20.10296405564504
 30
0.0
 10
40.88445486884125
 20
-20.10296405564504
 30
0.0
 10
40.88445486884125
 20
-20.10296405564504
 30
0.0
 10
41.83843317869835
 20
-20.10296405564504
 30
0.0
 10
41.83843317869835
 20
-20.10296405564504
 30
0.0
 10
41.83843317869835
 20
-20.10296405564504
 30
0.0
 10
41.83843317869835
 20
-20.42017743155371
 30
0.0
 10
41.83843317869835
 20
-20.42017743155371
 30
0.0
  0
LWPOLYLINE
  5
124
330
70
100
AcDbEntity
  8
Camada 1
 62
   250
420
  1907995
370
     9
100
AcDbPolyline
 90
        4
 70
     1
 43
0.0
 10
42.04041801641413
 20
-20.36062685537912
 10
42.73795944841881
 20
-20.36062685537912
 10
42.73795944841881
 20
-20.16270136164298
 10
42.04041801641413
 20
-20.16270136164298
  0
SPLINE
  5
125
330
70
100
AcDbEntity
  8
Camada 1
 62
   250
420
  1907995
370
     9
100
AcDbSpline
210
0.0
220
0.0
230
1.0
 70
    11
 71
     3
 72
    17
 73
    13
 74
     0
 42
0.0000000001
 43
0.0000000001
 40
0.0
 40
0.0
 40
0.0
 40
0.0
 40
1.0
 40
1.0
 40
1.0
 40
2.0
 40
2.0
 40
2.0
 40
3.0
 40
3.0
 40
3.0
 40
4.0
 40
4.0
 40
4.0
 40
4.0
 10
42.1135592762307
 20
-20.28716084804428
 30
0.0
 10
42.1135592762307
 20
-20.28716084804428
 30
0.0
 10
42.66511046136881
 20
-20.28716084804428
 30
0.0
 10
42.66511046136881
 20
-20.28716084804428
 30
0.0
 10
42.66511046136881
 20
-20.28716084804428
 30
0.0
 10
42.66511046136881
 20
-20.23598063915511
 30
0.0
 10
42.66511046136881
 20
-20.23598063915511
 30
0.0
 10
42.66511046136881
 20
-20.23598063915511
 30
0.0
 10
42.1135592762307
 20
-20.23598063915511
 30
0.0
 10
42.1135592762307
 20
-20.23598063915511
 30
0.0
 10
42.1135592762307
 20
-20.23598063915511
 30
0.0
 10
42.1135592762307
 20
-20.28716084804428
 30
0.0
 10
42.1135592762307
 20
-20.28716084804428
 30
0.0
  0
SPLINE
  5
126
330
70
100
AcDbEntity
  8
Camada 1
 62
   250
420
  1907995
370
     9
100
AcDbSpline
210
0.0
220
0.0
230
1.0
 70
    11
 71
     3
 72
    17
 73
    13
 74
     0
 42
0.0000000001
 43
0.0000000001
 40
0.0
 40
0.0
 40
0.0
 40
0.0
 40
1.0
 40
1.0
 40
1.0
 40
2.0
 40
2.0
 40
2.0
 40
3.0
 40
3.0
 40
3.0
 40
4.0
 40
4.0
 40
4.0
 40
4.0
 10
42.79812704487824
 20
-20.42017743155371
 30
0.0
 10
42.79812704487824
 20
-20.42017743155371
 30
0.0
 10
41.98054269272126
 20
-20.42017743155371
 30
0.0
 10
41.98054269272126
 20
-20.42017743155371
 30
0.0
 10
41.98054269272126
 20
-20.42017743155371
 30
0.0
 10
41.98054269272126
 20
-20.10296405564504
 30
0.0
 10
41.98054269272126
 20
-20.10296405564504
 30
0.0
 10
41.98054269272126
 20
-20.10296405564504
 30
0.0
 10
42.79812704487824
 20
-20.10296405564504
 30
0.0
 10
42.79812704487824
 20
-20.10296405564504
 30
0.0
 10
42.79812704487824
 20
-20.10296405564504
 30
0.0
 10
42.79812704487824
 20
-20.42017743155371
 30
0.0
 10
42.79812704487824
 20
-20.42017743155371
 30
0.0
  0
LWPOLYLINE
  5
127
330
70
100
AcDbEntity
  8
Camada 1
 62
   250
420
  1907995
370
     9
100
AcDbPolyline
 90
        4
 70
     1
 43
0.0
 10
43.122103287856
 20
-20.36062685537912
 10
43.95585194773812
 20
-20.36062685537912
 10
43.95585194773812
 20
-20.16270136164298
 10
43.122103287856
 20
-20.16270136164298
  0
SPLINE
  5
128
330
70
100
AcDbEntity
  8
Camada 1
 62
   250
420
  1907995
370
     9
100
AcDbSpline
210
0.0
220
0.0
230
1.0
 70
    11
 71
     3
 72
    17
 73
    13
 74
     0
 42
0.0000000001
 43
0.0000000001
 40
0.0
 40
0.0
 40
0.0
 40
0.0
 40
1.0
 40
1.0
 40
1.0
 40
2.0
 40
2.0
 40
2.0
 40
3.0
 40
3.0
 40
3.0
 40
4.0
 40
4.0
 40
4.0
 40
4.0
 10
43.19509841128929
 20
-20.28716084804428
 30
0.0
 10
43.19509841128929
 20
-20.28716084804428
 30
0.0
 10
43.88304355412754
 20
-20.28716084804428
 30
0.0
 10
43.88304355412754
 20
-20.28716084804428
 30
0.0
 10
43.88304355412754
 20
-20.28716084804428
 30
0.0
 10
43.88304355412754
 20
-20.23598063915511
 30
0.0
 10
43.88304355412754
 20
-20.23598063915511
 30
0.0
 10
43.88304355412754
 20
-20.23598063915511
 30
0.0
 10
43.19509841128929
 20
-20.23598063915511
 30
0.0
 10
43.19509841128929
 20
-20.23598063915511
 30
0.0
 10
43.19509841128929
 20
-20.23598063915511
 30
0.0
 10
43.19509841128929
 20
-20.28716084804428
 30
0.0
 10
43.19509841128929
 20
-20.28716084804428
 30
0.0
  0
SPLINE
  5
129
330
70
100
AcDbEntity
  8
Camada 1
 62
   250
420
  1907995
370
     9
100
AcDbSpline
210
0.0
220
0.0
230
1.0
 70
    11
 71
     3
 72
    17
 73
    13
 74
     0
 42
0.0000000001
 43
0.0000000001
 40
0.0
 40
0.0
 40
0.0
 40
0.0
 40
1.0
 40
1.0
 40
1.0
 40
2.0
 40
2.0
 40
2.0
 40
3.0
 40
3.0
 40
3.0
 40
4.0
 40
4.0
 40
4.0
 40
4.0
 10
44.01606013763729
 20
-20.42017743155371
 30
0.0
 10
44.01606013763729
 20
-20.42017743155371
 30
0.0
 10
43.06208182777985
 20
-20.42017743155371
 30
0.0
 10
43.06208182777985
 20
-20.42017743155371
 30
0.0
 10
43.06208182777985
 20
-20.42017743155371
 30
0.0
 10
43.06208182777985
 20
-20.10296405564504
 30
0.0
 10
43.06208182777985
 20
-20.10296405564504
 30
0.0
 10
43.06208182777985
 20
-20.10296405564504
 30
0.0
 10
44.01606013763729
 20
-20.10296405564504
 30
0.0
 10
44.01606013763729
 20
-20.10296405564504
 30
0.0
 10
44.01606013763729
 20
-20.10296405564504
 30
0.0
 10
44.01606013763729
 20
-20.42017743155371
 30
0.0
 10
44.01606013763729
 20
-20.42017743155371
 30
0.0
  0
LWPOLYLINE
  5
12A
330
70
100
AcDbEntity
  8
Camada 1
 62
   250
420
  1907995
370
     9
100
AcDbPolyline
 90
        4
 70
     1
 43
0.0
 10
44.07742929991432
 20
-20.48167649283799
 10
43.0002580189773
 20
-20.48167649283799
 10
43.0002580189773
 20
-20.0416598428718
 10
44.07742929991432
 20
-20.0416598428718
  0
SPLINE
  5
12B
330
70
100
AcDbEntity
  8
Camada 1
 62
   250
420
  1907995
370
     9
100
AcDbSpline
210
0.0
220
0.0
230
1.0
 70
    11
 71
     3
 72
    17
 73
    13
 74
     0
 42
0.0000000001
 43
0.0000000001
 40
0.0
 40
0.0
 40
0.0
 40
0.0
 40
1.0
 40
1.0
 40
1.0
 40
2.0
 40
2.0
 40
2.0
 40
3.0
 40
3.0
 40
3.0
 40
4.0
 40
4.0
 40
4.0
 40
4.0
 10
43.07325314241058
 20
-20.40822672287918
 30
0.0
 10
43.07325314241058
 20
-20.40822672287918
 30
0.0
 10
44.00462902499175
 20
-20.40822672287918
 30
0.0
 10
44.00462902499175
 20
-20.40822672287918
 30
0.0
 10
44.00462902499175
 20
-20.40822672287918
 30
0.0
 10
44.00462902499175
 20
-20.11517456233471
 30
0.0
 10
44.00462902499175
 20
-20.11517456233471
 30
0.0
 10
44.00462902499175
 20
-20.11517456233471
 30
0.0
 10
43.07325314241058
 20
-20.11517456233471
 30
0.0
 10
43.07325314241058
 20
-20.11517456233471
 30
0.0
 10
43.07325314241058
 20
-20.11517456233471
 30
0.0
 10
43.07325314241058
 20
-20.40822672287918
 30
0.0
 10
43.07325314241058
 20
-20.40822672287918
 30
0.0
  0
SPLINE
  5
12C
330
70
100
AcDbEntity
  8
Camada 1
 62
   250
420
  1907995
370
     9
100
AcDbSpline
210
0.0
220
0.0
230
1.0
 70
    11
 71
     3
 72
    17
 73
    13
 74
     0
 42
0.0000000001
 43
0.0000000001
 40
0.0
 40
0.0
 40
0.0
 40
0.0
 40
1.0
 40
1.0
 40
1.0
 40
2.0
 40
2.0
 40
2.0
 40
3.0
 40
3.0
 40
3.0
 40
4.0
 40
4.0
 40
4.0
 40
4.0
 10
44.13764560850117
 20
-20.54124330638861
 30
0.0
 10
44.13764560850117
 20
-20.54124330638861
 30
0.0
 10
42.94023655890114
 20
-20.54124330638861
 30
0.0
 10
42.94023655890114
 20
-20.54124330638861
 30
0.0
 10
42.94023655890114
 20
-20.54124330638861
 30
0.0
 10
42.94023655890114
 20
-19.98215797882528
 30
0.0
 10
42.94023655890114
 20
-19.98215797882528
 30
0.0
 10
42.94023655890114
 20
-19.98215797882528
 30
0.0
 10
44.13764560850117
 20
-19.98215797882528
 30
0.0
 10
44.13764560850117
 20
-19.98215797882528
 30
0.0
 10
44.13764560850117
 20
-19.98215797882528
 30
0.0
 10
44.13764560850117
 20
-20.54124330638861
 30
0.0
 10
44.13764560850117
 20
-20.54124330638861
 30
0.0
  0
LWPOLYLINE
  5
12D
330
70
100
AcDbEntity
  8
Camada 1
 62
   250
420
  1907995
370
     9
100
AcDbPolyline
 90
        4
 70
     1
 43
0.0
 10
43.00026613766498
 20
-20.36062685537912
 10
43.94654793133791
 20
-20.36062685537912
 10
43.94654793133791
 20
-20.16270136164298
 10
43.00026613766498
 20
-20.16270136164298
  0
SPLINE
  5
12E
330
70
100
AcDbEntity
  8
Camada 1
 62
   250
420
  1907995
370
     9
100
AcDbSpline
210
0.0
220
0.0
230
1.0
 70
    11
 71
     3
 72
    17
 73
    13
 74
     0
 42
0.0000000001
 43
0.0000000001
 40
0.0
 40
0.0
 40
0.0
 40
0.0
 40
1.0
 40
1.0
 40
1.0
 40
2.0
 40
2.0
 40
2.0
 40
3.0
 40
3.0
 40
3.0
 40
4.0
 40
4.0
 40
4.0
 40
4.0
 10
43.07325314241058
 20
-20.28716084804428
 30
0.0
 10
43.07325314241058
 20
-20.28716084804428
 30
0.0
 10
43.87369082559957
 20
-20.28716084804428
 30
0.0
 10
43.87369082559957
 20
-20.28716084804428
 30
0.0
 10
43.87369082559957
 20
-20.28716084804428
 30
0.0
 10
43.87369082559957
 20
-20.23598063915511
 30
0.0
 10
43.87369082559957
 20
-20.23598063915511
 30
0.0
 10
43.87369082559957
 20
-20.23598063915511
 30
0.0
 10
43.07325314241058
 20
-20.23598063915511
 30
0.0
 10
43.07325314241058
 20
-20.23598063915511
 30
0.0
 10
43.07325314241058
 20
-20.23598063915511
 30
0.0
 10
43.07325314241058
 20
-20.28716084804428
 30
0.0
 10
43.07325314241058
 20
-20.28716084804428
 30
0.0
  0
SPLINE
  5
12F
330
70
100
AcDbEntity
  8
Camada 1
 62
   250
420
  1907995
370
     9
100
AcDbSpline
210
0.0
220
0.0
230
1.0
 70
    11
 71
     3
 72
    17
 73
    13
 74
     0
 42
0.0000000001
 43
0.0000000001
 40
0.0
 40
0.0
 40
0.0
 40
0.0
 40
1.0
 40
1.0
 40
1.0
 40
2.0
 40
2.0
 40
2.0
 40
3.0
 40
3.0
 40
3.0
 40
4.0
 40
4.0
 40
4.0
 40
4.0
 10
44.006707409109
 20
-20.42017743155371
 30
0.0
 10
44.006707409109
 20
-20.42017743155371
 30
0.0
 10
42.94023655890114
 20
-20.42017743155371
 30
0.0
 10
42.94023655890114
 20
-20.42017743155371
 30
0.0
 10
42.94023655890114
 20
-20.42017743155371
 30
0.0
 10
42.94023655890114
 20
-20.10296405564504
 30
0.0
 10
42.94023655890114
 20
-20.10296405564504
 30
0.0
 10
42.94023655890114
 20
-20.10296405564504
 30
0.0
 10
44.006707409109
 20
-20.10296405564504
 30
0.0
 10
44.006707409109
 20
-20.10296405564504
 30
0.0
 10
44.006707409109
 20
-20.10296405564504
 30
0.0
 10
44.006707409109
 20
-20.42017743155371
 30
0.0
 10
44.006707409109
 20
-20.42017743155371
 30
0.0
  0
LWPOLYLINE
  5
130
330
70
100
AcDbEntity
  8
Camada 1
 62
   250
420
  1907995
370
     9
100
AcDbPolyline
 90
        4
 70
     1
 43
0.0
 10
44.20911441859858
 20
-20.36062685537912
 10
44.90612001719824
 20
-20.36062685537912
 10
44.90612001719824
 20
-20.16270136164298
 10
44.20911441859858
 20
-20.16270136164298
  0
SPLINE
  5
131
330
70
100
AcDbEntity
  8
Camada 1
 62
   250
420
  1907995
370
     9
100
AcDbSpline
210
0.0
220
0.0
230
1.0
 70
    11
 71
     3
 72
    17
 73
    13
 74
     0
 42
0.0000000001
 43
0.0000000001
 40
0.0
 40
0.0
 40
0.0
 40
0.0
 40
1.0
 40
1.0
 40
1.0
 40
2.0
 40
2.0
 40
2.0
 40
3.0
 40
3.0
 40
3.0
 40
4.0
 40
4.0
 40
4.0
 40
4.0
 10
44.28183350664133
 20
-20.28716084804428
 30
0.0
 10
44.28183350664133
 20
-20.28716084804428
 30
0.0
 10
44.83312489376496
 20
-20.28716084804428
 30
0.0
 10
44.83312489376496
 20
-20.28716084804428
 30
0.0
 10
44.83312489376496
 20
-20.28716084804428
 30
0.0
 10
44.83312489376496
 20
-20.23598063915511
 30
0.0
 10
44.83312489376496
 20
-20.23598063915511
 30
0.0
 10
44.83312489376496
 20
-20.23598063915511
 30
0.0
 10
44.28183350664133
 20
-20.23598063915511
 30
0.0
 10
44.28183350664133
 20
-20.23598063915511
 30
0.0
 10
44.28183350664133
 20
-20.23598063915511
 30
0.0
 10
44.28183350664133
 20
-20.28716084804428
 30
0.0
 10
44.28183350664133
 20
-20.28716084804428
 30
0.0
  0
SPLINE
  5
132
330
70
100
AcDbEntity
  8
Camada 1
 62
   250
420
  1907995
370
     9
100
AcDbSpline
210
0.0
220
0.0
230
1.0
 70
    11
 71
     3
 72
    17
 73
    13
 74
     0
 42
0.0000000001
 43
0.0000000001
 40
0.0
 40
0.0
 40
0.0
 40
0.0
 40
1.0
 40
1.0
 40
1.0
 40
2.0
 40
2.0
 40
2.0
 40
3.0
 40
3.0
 40
3.0
 40
4.0
 40
4.0
 40
4.0
 40
4.0
 10
44.9661414772744
 20
-20.42017743155371
 30
0.0
 10
44.9661414772744
 20
-20.42017743155371
 30
0.0
 10
44.14881692313191
 20
-20.42017743155371
 30
0.0
 10
44.14881692313191
 20
-20.42017743155371
 30
0.0
 10
44.14881692313191
 20
-20.42017743155371
 30
0.0
 10
44.14881692313191
 20
-20.10296405564504
 30
0.0
 10
44.14881692313191
 20
-20.10296405564504
 30
0.0
 10
44.14881692313191
 20
-20.10296405564504
 30
0.0
 10
44.9661414772744
 20
-20.10296405564504
 30
0.0
 10
44.9661414772744
 20
-20.10296405564504
 30
0.0
 10
44.9661414772744
 20
-20.10296405564504
 30
0.0
 10
44.9661414772744
 20
-20.42017743155371
 30
0.0
 10
44.9661414772744
 20
-20.42017743155371
 30
0.0
  0
LWPOLYLINE
  5
133
330
70
100
AcDbEntity
  8
Camada 1
 62
   250
420
  1907995
370
     9
100
AcDbPolyline
 90
        4
 70
     1
 43
0.0
 10
45.16843482513243
 20
-20.36062685537912
 10
46.00245140171706
 20
-20.36062685537912
 10
46.00245140171706
 20
-20.16270136164298
 10
45.16843482513243
 20
-20.16270136164298
  0
SPLINE
  5
134
330
70
100
AcDbEntity
  8
Camada 1
 62
   250
420
  1907995
370
     9
100
AcDbSpline
210
0.0
220
0.0
230
1.0
 70
    11
 71
     3
 72
    17
 73
    13
 74
     0
 42
0.0000000001
 43
0.0000000001
 40
0.0
 40
0.0
 40
0.0
 40
0.0
 40
1.0
 40
1.0
 40
1.0
 40
2.0
 40
2.0
 40
2.0
 40
3.0
 40
3.0
 40
3.0
 40
4.0
 40
4.0
 40
4.0
 40
4.0
 10
45.24126757480673
 20
-20.28716084804428
 30
0.0
 10
45.24126757480673
 20
-20.28716084804428
 30
0.0
 10
45.92921271764498
 20
-20.28716084804428
 30
0.0
 10
45.92921271764498
 20
-20.28716084804428
 30
0.0
 10
45.92921271764498
 20
-20.28716084804428
 30
0.0
 10
45.92921271764498
 20
-20.23598063915511
 30
0.0
 10
45.92921271764498
 20
-20.23598063915511
 30
0.0
 10
45.92921271764498
 20
-20.23598063915511
 30
0.0
 10
45.24126757480673
 20
-20.23598063915511
 30
0.0
 10
45.24126757480673
 20
-20.23598063915511
 30
0.0
 10
45.24126757480673
 20
-20.23598063915511
 30
0.0
 10
45.24126757480673
 20
-20.28716084804428
 30
0.0
 10
45.24126757480673
 20
-20.28716084804428
 30
0.0
  0
SPLINE
  5
135
330
70
100
AcDbEntity
  8
Camada 1
 62
   250
420
  1907995
370
     9
100
AcDbSpline
210
0.0
220
0.0
230
1.0
 70
    11
 71
     3
 72
    17
 73
    13
 74
     0
 42
0.0000000001
 43
0.0000000001
 40
0.0
 40
0.0
 40
0.0
 40
0.0
 40
1.0
 40
1.0
 40
1.0
 40
2.0
 40
2.0
 40
2.0
 40
3.0
 40
3.0
 40
3.0
 40
4.0
 40
4.0
 40
4.0
 40
4.0
 10
46.06222930115442
 20
-20.42017743155371
 30
0.0
 10
46.06222930115442
 20
-20.42017743155371
 30
0.0
 10
45.10825099129729
 20
-20.42017743155371
 30
0.0
 10
45.10825099129729
 20
-20.42017743155371
 30
0.0
 10
45.10825099129729
 20
-20.42017743155371
 30
0.0
 10
45.10825099129729
 20
-20.10296405564504
 30
0.0
 10
45.10825099129729
 20
-20.10296405564504
 30
0.0
 10
45.10825099129729
 20
-20.10296405564504
 30
0.0
 10
46.06222930115442
 20
-20.10296405564504
 30
0.0
 10
46.06222930115442
 20
-20.10296405564504
 30
0.0
 10
46.06222930115442
 20
-20.10296405564504
 30
0.0
 10
46.06222930115442
 20
-20.42017743155371
 30
0.0
 10
46.06222930115442
 20
-20.42017743155371
 30
0.0
  0
LWPOLYLINE
  5
136
330
70
100
AcDbEntity
  8
Camada 1
 62
   250
420
  1907995
370
     9
100
AcDbPolyline
 90
        4
 70
     1
 43
0.0
 10
46.26449017426071
 20
-20.36062685537912
 10
47.21129968265064
 20
-20.36062685537912
 10
47.21129968265064
 20
-20.16270136164298
 10
46.26449017426071
 20
-20.16270136164298
  0
SPLINE
  5
137
330
70
100
AcDbEntity
  8
Camada 1
 62
   250
420
  1907995
370
     9
100
AcDbSpline
210
0.0
220
0.0
230
1.0
 70
    11
 71
     3
 72
    17
 73
    13
 74
     0
 42
0.0000000001
 43
0.0000000001
 40
0.0
 40
0.0
 40
0.0
 40
0.0
 40
1.0
 40
1.0
 40
1.0
 40
2.0
 40
2.0
 40
2.0
 40
3.0
 40
3.0
 40
3.0
 40
4.0
 40
4.0
 40
4.0
 40
4.0
 10
46.33735539868675
 20
-20.28716084804428
 30
0.0
 10
46.33735539868675
 20
-20.28716084804428
 30
0.0
 10
47.13805287989056
 20
-20.28716084804428
 30
0.0
 10
47.13805287989056
 20
-20.28716084804428
 30
0.0
 10
47.13805287989056
 20
-20.28716084804428
 30
0.0
 10
47.13805287989056
 20
-20.23598063915511
 30
0.0
 10
47.13805287989056
 20
-20.23598063915511
 30
0.0
 10
47.13805287989056
 20
-20.23598063915511
 30
0.0
 10
46.33735539868675
 20
-20.23598063915511
 30
0.0
 10
46.33735539868675
 20
-20.23598063915511
 30
0.0
 10
46.33735539868675
 20
-20.23598063915511
 30
0.0
 10
46.33735539868675
 20
-20.28716084804428
 30
0.0
 10
46.33735539868675
 20
-20.28716084804428
 30
0.0
  0
SPLINE
  5
138
330
70
100
AcDbEntity
  8
Camada 1
 62
   250
420
  1907995
370
     9
100
AcDbSpline
210
0.0
220
0.0
230
1.0
 70
    11
 71
     3
 72
    17
 73
    13
 74
     0
 42
0.0000000001
 43
0.0000000001
 40
0.0
 40
0.0
 40
0.0
 40
0.0
 40
1.0
 40
1.0
 40
1.0
 40
2.0
 40
2.0
 40
2.0
 40
3.0
 40
3.0
 40
3.0
 40
4.0
 40
4.0
 40
4.0
 40
4.0
 10
47.2710694634
 20
-20.42017743155371
 30
0.0
 10
47.2710694634
 20
-20.42017743155371
 30
0.0
 10
46.20433881517732
 20
-20.42017743155371
 30
0.0
 10
46.20433881517732
 20
-20.42017743155371
 30
0.0
 10
46.20433881517732
 20
-20.42017743155371
 30
0.0
 10
46.20433881517732
 20
-20.10296405564504
 30
0.0
 10
46.20433881517732
 20
-20.10296405564504
 30
0.0
 10
46.20433881517732
 20
-20.10296405564504
 30
0.0
 10
47.2710694634
 20
-20.10296405564504
 30
0.0
 10
47.2710694634
 20
-20.10296405564504
 30
0.0
 10
47.2710694634
 20
-20.10296405564504
 30
0.0
 10
47.2710694634
 20
-20.42017743155371
 30
0.0
 10
47.2710694634
 20
-20.42017743155371
 30
0.0
  0
LWPOLYLINE
  5
139
330
70
100
AcDbEntity
  8
Camada 1
 62
   250
420
  1907995
370
     9
100
AcDbPolyline
 90
        4
 70
     1
 43
0.0
 10
47.47307865717949
 20
-20.36062685537912
 10
48.17062008918449
 20
-20.36062685537912
 10
48.17062008918449
 20
-20.16270136164298
 10
47.47307865717949
 20
-20.16270136164298
  0
SPLINE
  5
13A
330
70
100
AcDbEntity
  8
Camada 1
 62
   250
420
  1907995
370
     9
100
AcDbSpline
210
0.0
220
0.0
230
1.0
 70
    11
 71
     3
 72
    17
 73
    13
 74
     0
 42
0.0000000001
 43
0.0000000001
 40
0.0
 40
0.0
 40
0.0
 40
0.0
 40
1.0
 40
1.0
 40
1.0
 40
2.0
 40
2.0
 40
2.0
 40
3.0
 40
3.0
 40
3.0
 40
4.0
 40
4.0
 40
4.0
 40
4.0
 10
47.54619556093233
 20
-20.28716084804428
 30
0.0
 10
47.54619556093233
 20
-20.28716084804428
 30
0.0
 10
48.09774674607044
 20
-20.28716084804428
 30
0.0
 10
48.09774674607044
 20
-20.28716084804428
 30
0.0
 10
48.09774674607044
 20
-20.28716084804428
 30
0.0
 10
48.09774674607044
 20
-20.23598063915511
 30
0.0
 10
48.09774674607044
 20
-20.23598063915511
 30
0.0
 10
48.09774674607044
 20
-20.23598063915511
 30
0.0
 10
47.54619556093233
 20
-20.23598063915511
 30
0.0
 10
47.54619556093233
 20
-20.23598063915511
 30
0.0
 10
47.54619556093233
 20
-20.23598063915511
 30
0.0
 10
47.54619556093233
 20
-20.28716084804428
 30
0.0
 10
47.54619556093233
 20
-20.28716084804428
 30
0.0
  0
SPLINE
  5
13B
330
70
100
AcDbEntity
  8
Camada 1
 62
   250
420
  1907995
370
     9
100
AcDbSpline
210
0.0
220
0.0
230
1.0
 70
    11
 71
     3
 72
    17
 73
    13
 74
     0
 42
0.0000000001
 43
0.0000000001
 40
0.0
 40
0.0
 40
0.0
 40
0.0
 40
1.0
 40
1.0
 40
1.0
 40
2.0
 40
2.0
 40
2.0
 40
3.0
 40
3.0
 40
3.0
 40
4.0
 40
4.0
 40
4.0
 40
4.0
 10
48.23076332957988
 20
-20.42017743155371
 30
0.0
 10
48.23076332957988
 20
-20.42017743155371
 30
0.0
 10
47.41317897742289
 20
-20.42017743155371
 30
0.0
 10
47.41317897742289
 20
-20.42017743155371
 30
0.0
 10
47.41317897742289
 20
-20.42017743155371
 30
0.0
 10
47.41317897742289
 20
-20.10296405564504
 30
0.0
 10
47.41317897742289
 20
-20.10296405564504
 30
0.0
 10
47.41317897742289
 20
-20.10296405564504
 30
0.0
 10
48.23076332957988
 20
-20.10296405564504
 30
0.0
 10
48.23076332957988
 20
-20.10296405564504
 30
0.0
 10
48.23076332957988
 20
-20.10296405564504
 30
0.0
 10
48.23076332957988
 20
-20.42017743155371
 30
0.0
 10
48.23076332957988
 20
-20.42017743155371
 30
0.0
  0
LWPOLYLINE
  5
13C
330
70
100
AcDbEntity
  8
Camada 1
 62
   250
420
  1907995
370
     9
100
AcDbPolyline
 90
        4
 70
     1
 43
0.0
 10
48.43265886172783
 20
-20.36062685537912
 10
49.26667543831278
 20
-20.36062685537912
 10
49.26667543831278
 20
-20.16270136164298
 10
48.43265886172783
 20
-20.16270136164298
  0
SPLINE
  5
13D
330
70
100
AcDbEntity
  8
Camada 1
 62
   250
420
  1907995
370
     9
100
AcDbSpline
210
0.0
220
0.0
230
1.0
 70
    11
 71
     3
 72
    17
 73
    13
 74
     0
 42
0.0000000001
 43
0.0000000001
 40
0.0
 40
0.0
 40
0.0
 40
0.0
 40
1.0
 40
1.0
 40
1.0
 40
2.0
 40
2.0
 40
2.0
 40
3.0
 40
3.0
 40
3.0
 40
4.0
 40
4.0
 40
4.0
 40
4.0
 10
48.50588942711222
 20
-20.28716084804428
 30
0.0
 10
48.50588942711222
 20
-20.28716084804428
 30
0.0
 10
49.19357477193565
 20
-20.28716084804428
 30
0.0
 10
49.19357477193565
 20
-20.28716084804428
 30
0.0
 10
49.19357477193565
 20
-20.28716084804428
 30
0.0
 10
49.19357477193565
 20
-20.23598063915511
 30
0.0
 10
49.19357477193565
 20
-20.23598063915511
 30
0.0
 10
49.19357477193565
 20
-20.23598063915511
 30
0.0
 10
48.50588942711222
 20
-20.23598063915511
 30
0.0
 10
48.50588942711222
 20
-20.23598063915511
 30
0.0
 10
48.50588942711222
 20
-20.23598063915511
 30
0.0
 10
48.50588942711222
 20
-20.28716084804428
 30
0.0
 10
48.50588942711222
 20
-20.28716084804428
 30
0.0
  0
SPLINE
  5
13E
330
70
100
AcDbEntity
  8
Camada 1
 62
   250
420
  1907995
370
     9
100
AcDbSpline
210
0.0
220
0.0
230
1.0
 70
    11
 71
     3
 72
    17
 73
    13
 74
     0
 42
0.0000000001
 43
0.0000000001
 40
0.0
 40
0.0
 40
0.0
 40
0.0
 40
1.0
 40
1.0
 40
1.0
 40
2.0
 40
2.0
 40
2.0
 40
3.0
 40
3.0
 40
3.0
 40
4.0
 40
4.0
 40
4.0
 40
4.0
 10
49.3265913554454
 20
-20.42017743155371
 30
0.0
 10
49.3265913554454
 20
-20.42017743155371
 30
0.0
 10
48.37287284360279
 20
-20.42017743155371
 30
0.0
 10
48.37287284360279
 20
-20.42017743155371
 30
0.0
 10
48.37287284360279
 20
-20.42017743155371
 30
0.0
 10
48.37287284360279
 20
-20.10296405564504
 30
0.0
 10
48.37287284360279
 20
-20.10296405564504
 30
0.0
 10
48.37287284360279
 20
-20.10296405564504
 30
0.0
 10
49.3265913554454
 20
-20.10296405564504
 30
0.0
 10
49.3265913554454
 20
-20.10296405564504
 30
0.0
 10
49.3265913554454
 20
-20.10296405564504
 30
0.0
 10
49.3265913554454
 20
-20.42017743155371
 30
0.0
 10
49.3265913554454
 20
-20.42017743155371
 30
0.0
  0
LWPOLYLINE
  5
13F
330
70
100
AcDbEntity
  8
Camada 1
 62
   250
420
  1907995
370
     9
100
AcDbPolyline
 90
        4
 70
     1
 43
0.0
 10
49.52898212755895
 20
-20.36062685537912
 10
50.22625564286112
 20
-20.36062685537912
 10
50.22625564286112
 20
-20.16270136164298
 10
49.52898212755895
 20
-20.16270136164298
  0
SPLINE
  5
140
330
70
100
AcDbEntity
  8
Camada 1
 62
   250
420
  1907995
370
     9
100
AcDbSpline
210
0.0
220
0.0
230
1.0
 70
    11
 71
     3
 72
    17
 73
    13
 74
     0
 42
0.0000000001
 43
0.0000000001
 40
0.0
 40
0.0
 40
0.0
 40
0.0
 40
1.0
 40
1.0
 40
1.0
 40
2.0
 40
2.0
 40
2.0
 40
3.0
 40
3.0
 40
3.0
 40
4.0
 40
4.0
 40
4.0
 40
4.0
 10
49.60197725099224
 20
-20.28716084804428
 30
0.0
 10
49.60197725099224
 20
-20.28716084804428
 30
0.0
 10
50.15326863811553
 20
-20.28716084804428
 30
0.0
 10
50.15326863811553
 20
-20.28716084804428
 30
0.0
 10
50.15326863811553
 20
-20.28716084804428
 30
0.0
 10
50.15326863811553
 20
-20.23598063915511
 30
0.0
 10
50.15326863811553
 20
-20.23598063915511
 30
0.0
 10
50.15326863811553
 20
-20.23598063915511
 30
0.0
 10
49.60197725099224
 20
-20.23598063915511
 30
0.0
 10
49.60197725099224
 20
-20.23598063915511
 30
0.0
 10
49.60197725099224
 20
-20.23598063915511
 30
0.0
 10
49.60197725099224
 20
-20.28716084804428
 30
0.0
 10
49.60197725099224
 20
-20.28716084804428
 30
0.0
  0
SPLINE
  5
141
330
70
100
AcDbEntity
  8
Camada 1
 62
   250
420
  1907995
370
     9
100
AcDbSpline
210
0.0
220
0.0
230
1.0
 70
    11
 71
     3
 72
    17
 73
    13
 74
     0
 42
0.0000000001
 43
0.0000000001
 40
0.0
 40
0.0
 40
0.0
 40
0.0
 40
1.0
 40
1.0
 40
1.0
 40
2.0
 40
2.0
 40
2.0
 40
3.0
 40
3.0
 40
3.0
 40
4.0
 40
4.0
 40
4.0
 40
4.0
 10
50.28628522162529
 20
-20.42017743155371
 30
0.0
 10
50.28628522162529
 20
-20.42017743155371
 30
0.0
 10
49.4689606674828
 20
-20.42017743155371
 30
0.0
 10
49.4689606674828
 20
-20.42017743155371
 30
0.0
 10
49.4689606674828
 20
-20.42017743155371
 30
0.0
 10
49.4689606674828
 20
-20.10296405564504
 30
0.0
 10
49.4689606674828
 20
-20.10296405564504
 30
0.0
 10
49.4689606674828
 20
-20.10296405564504
 30
0.0
 10
50.28628522162529
 20
-20.10296405564504
 30
0.0
 10
50.28628522162529
 20
-20.10296405564504
 30
0.0
 10
50.28628522162529
 20
-20.10296405564504
 30
0.0
 10
50.28628522162529
 20
-20.42017743155371
 30
0.0
 10
50.28628522162529
 20
-20.42017743155371
 30
0.0
  0
LWPOLYLINE
  5
142
330
70
100
AcDbEntity
  8
Camada 1
 62
   250
420
  1907995
370
     9
100
AcDbPolyline
 90
        4
 70
     1
 43
0.0
 10
50.48856233210697
 20
-20.36062685537912
 10
51.32231099198974
 20
-20.36062685537912
 10
51.32231099198974
 20
-20.16270136164298
 10
50.48856233210697
 20
-20.16270136164298
  0
SPLINE
  5
143
330
70
100
AcDbEntity
  8
Camada 1
 62
   250
420
  1907995
370
     9
100
AcDbSpline
210
0.0
220
0.0
230
1.0
 70
    11
 71
     3
 72
    17
 73
    13
 74
     0
 42
0.0000000001
 43
0.0000000001
 40
0.0
 40
0.0
 40
0.0
 40
0.0
 40
1.0
 40
1.0
 40
1.0
 40
2.0
 40
2.0
 40
2.0
 40
3.0
 40
3.0
 40
3.0
 40
4.0
 40
4.0
 40
4.0
 40
4.0
 10
50.56167111717244
 20
-20.28716084804428
 30
0.0
 10
50.56167111717244
 20
-20.28716084804428
 30
0.0
 10
51.24935646199555
 20
-20.28716084804428
 30
0.0
 10
51.24935646199555
 20
-20.28716084804428
 30
0.0
 10
51.24935646199555
 20
-20.28716084804428
 30
0.0
 10
51.24935646199555
 20
-20.23598063915511
 30
0.0
 10
51.24935646199555
 20
-20.23598063915511
 30
0.0
 10
51.24935646199555
 20
-20.23598063915511
 30
0.0
 10
50.56167111717244
 20
-20.23598063915511
 30
0.0
 10
50.56167111717244
 20
-20.23598063915511
 30
0.0
 10
50.56167111717244
 20
-20.23598063915511
 30
0.0
 10
50.56167111717244
 20
-20.28716084804428
 30
0.0
 10
50.56167111717244
 20
-20.28716084804428
 30
0.0
  0
SPLINE
  5
144
330
70
100
AcDbEntity
  8
Camada 1
 62
   250
420
  1907995
370
     9
100
AcDbSpline
210
0.0
220
0.0
230
1.0
 70
    11
 71
     3
 72
    17
 73
    13
 74
     0
 42
0.0000000001
 43
0.0000000001
 40
0.0
 40
0.0
 40
0.0
 40
0.0
 40
1.0
 40
1.0
 40
1.0
 40
2.0
 40
2.0
 40
2.0
 40
3.0
 40
3.0
 40
3.0
 40
4.0
 40
4.0
 40
4.0
 40
4.0
 10
51.38237304550499
 20
-20.42017743155371
 30
0.0
 10
51.38237304550499
 20
-20.42017743155371
 30
0.0
 10
50.42865453366268
 20
-20.42017743155371
 30
0.0
 10
50.42865453366268
 20
-20.42017743155371
 30
0.0
 10
50.42865453366268
 20
-20.42017743155371
 30
0.0
 10
50.42865453366268
 20
-20.10296405564504
 30
0.0
 10
50.42865453366268
 20
-20.10296405564504
 30
0.0
 10
50.42865453366268
 20
-20.10296405564504
 30
0.0
 10
51.38237304550499
 20
-20.10296405564504
 30
0.0
 10
51.38237304550499
 20
-20.10296405564504
 30
0.0
 10
51.38237304550499
 20
-20.10296405564504
 30
0.0
 10
51.38237304550499
 20
-20.42017743155371
 30
0.0
 10
51.38237304550499
 20
-20.42017743155371
 30
0.0
  0
SPLINE
  5
145
330
70
100
AcDbEntity
  8
Camada 1
 62
   250
420
  1907995
370
     9
100
AcDbSpline
210
0.0
220
0.0
230
1.0
 70
    11
 71
     3
 72
    20
 73
    16
 74
     0
 42
0.0000000001
 43
0.0000000001
 40
0.0
 40
0.0
 40
0.0
 40
0.0
 40
1.0
 40
1.0
 40
1.0
 40
2.0
 40
2.0
 40
2.0
 40
3.0
 40
3.0
 40
3.0
 40
4.0
 40
4.0
 40
4.0
 40
5.0
 40
5.0
 40
5.0
 40
5.0
 10
58.15296910574226
 20
-88.90864965409786
 30
0.0
 10
58.15296910574226
 20
-88.90864965409786
 30
0.0
 10
67.61844997211996
 20
-88.90864965409786
 30
0.0
 10
67.61844997211996
 20
-88.90864965409786
 30
0.0
 10
67.61844997211996
 20
-88.90864965409786
 30
0.0
 10
67.61844997211996
 20
-87.22723690317272
 30
0.0
 10
67.61844997211996
 20
-87.22723690317272
 30
0.0
 10
67.61844997211996
 20
-86.54162994246688
 30
0.0
 10
67.99359830529791
 20
-85.90798258469368
 30
0.0
 10
68.57632525219646
 20
-85.56998536761181
 30
0.0
 10
68.57632525219646
 20
-85.56998536761181
 30
0.0
 10
58.15296910574226
 20
-85.56998536761181
 30
0.0
 10
58.15296910574226
 20
-85.56998536761181
 30
0.0
 10
58.15296910574226
 20
-85.56998536761181
 30
0.0
 10
58.15296910574226
 20
-88.90864965409786
 30
0.0
 10
58.15296910574226
 20
-88.90864965409786
 30
0.0
  0
SPLINE
  5
146
330
70
100
AcDbEntity
  8
Camada 1
 62
   250
420
  1907995
370
     9
100
AcDbSpline
210
0.0
220
0.0
230
1.0
 70
    11
 71
     3
 72
    23
 73
    19
 74
     0
 42
0.0000000001
 43
0.0000000001
 40
0.0
 40
0.0
 40
0.0
 40
0.0
 40
1.0
 40
1.0
 40
1.0
 40
2.0
 40
2.0
 40
2.0
 40
3.0
 40
3.0
 40
3.0
 40
4.0
 40
4.0
 40
4.0
 40
5.0
 40
5.0
 40
5.0
 40
6.0
 40
6.0
 40
6.0
 40
6.0
 10
67.75146655562939
 20
-89.04166623760728
 30
0.0
 10
67.75146655562939
 20
-89.04166623760728
 30
0.0
 10
58.01995252223282
 20
-89.04166623760728
 30
0.0
 10
58.01995252223282
 20
-89.04166623760728
 30
0.0
 10
58.01995252223282
 20
-89.04166623760728
 30
0.0
 10
58.01995252223282
 20
-85.43696878410237
 30
0.0
 10
58.01995252223282
 20
-85.43696878410237
 30
0.0
 10
58.01995252223282
 20
-85.43696878410237
 30
0.0
 10
69.22711927893796
 20
-85.43696878410237
 30
0.0
 10
69.22711927893796
 20
-85.43696878410237
 30
0.0
 10
69.22711927893796
 20
-85.43696878410237
 30
0.0
 10
68.89275923406099
 20
-85.5655688013628
 30
0.0
 10
68.89275923406099
 20
-85.5655688013628
 30
0.0
 10
68.21001005151652
 20
-85.82796479617615
 30
0.0
 10
67.75146655562939
 20
-86.49590549188534
 30
0.0
 10
67.75146655562939
 20
-87.22723690317272
 30
0.0
 10
67.75146655562939
 20
-87.22723690317272
 30
0.0
 10
67.75146655562939
 20
-89.04166623760728
 30
0.0
 10
67.75146655562939
 20
-89.04166623760728
 30
0.0
  0
SPLINE
  5
147
330
70
100
AcDbEntity
  8
Camada 1
 62
   250
420
  1907995
370
     9
100
AcDbSpline
210
0.0
220
0.0
230
1.0
 70
    11
 71
     3
 72
    23
 73
    19
 74
     0
 42
0.0000000001
 43
0.0000000001
 40
0.0
 40
0.0
 40
0.0
 40
0.0
 40
1.0
 40
1.0
 40
1.0
 40
2.0
 40
2.0
 40
2.0
 40
3.0
 40
3.0
 40
3.0
 40
4.0
 40
4.0
 40
4.0
 40
5.0
 40
5.0
 40
5.0
 40
6.0
 40
6.0
 40
6.0
 40
6.0
 10
71.44943149639948
 20
-88.90864965409786
 30
0.0
 10
71.44943149639948
 20
-88.90864965409786
 30
0.0
 10
81.30850635499657
 20
-88.90864965409786
 30
0.0
 10
81.30850635499657
 20
-88.90864965409786
 30
0.0
 10
81.30850635499657
 20
-88.90864965409786
 30
0.0
 10
81.30850635499657
 20
-85.56998536761181
 30
0.0
 10
81.30850635499657
 20
-85.56998536761181
 30
0.0
 10
81.30850635499657
 20
-85.56998536761181
 30
0.0
 10
70.49415419646796
 20
-85.56998536761181
 30
0.0
 10
70.49415419646796
 20
-85.56998536761181
 30
0.0
 10
70.63782249857879
 20
-85.65260113627621
 30
0.0
 10
70.77031948605925
 20
-85.75444195802553
 30
0.0
 10
70.88982657280588
 20
-85.87394904477218
 30
0.0
 10
71.25068601517817
 20
-86.23480848714512
 30
0.0
 10
71.44943149639948
 20
-86.71543481427855
 30
0.0
 10
71.44943149639948
 20
-87.22723690317272
 30
0.0
 10
71.44943149639948
 20
-87.22723690317272
 30
0.0
 10
71.44943149639948
 20
-88.90864965409786
 30
0.0
 10
71.44943149639948
 20
-88.90864965409786
 30
0.0
  0
SPLINE
  5
148
330
70
100
AcDbEntity
  8
Camada 1
 62
   250
420
  1907995
370
     9
100
AcDbSpline
210
0.0
220
0.0
230
1.0
 70
    11
 71
     3
 72
    26
 73
    22
 74
     0
 42
0.0000000001
 43
0.0000000001
 40
0.0
 40
0.0
 40
0.0
 40
0.0
 40
1.0
 40
1.0
 40
1.0
 40
2.0
 40
2.0
 40
2.0
 40
3.0
 40
3.0
 40
3.0
 40
4.0
 40
4.0
 40
4.0
 40
5.0
 40
5.0
 40
5.0
 40
6.0
 40
6.0
 40
6.0
 40
7.0
 40
7.0
 40
7.0
 40
7.0
 10
81.441522938506
 20
-89.04166623760728
 30
0.0
 10
81.441522938506
 20
-89.04166623760728
 30
0.0
 10
71.31641491289006
 20
-89.04166623760728
 30
0.0
 10
71.31641491289006
 20
-89.04166623760728
 30
0.0
 10
71.31641491289006
 20
-89.04166623760728
 30
0.0
 10
71.31641491289006
 20
-87.22723690317272
 30
0.0
 10
71.31641491289006
 20
-87.22723690317272
 30
0.0
 10
71.31641491289006
 20
-86.75102714228831
 30
0.0
 10
71.13143872644669
 20
-86.30365496103157
 30
0.0
 10
70.79577969149657
 20
-85.96799592608212
 30
0.0
 10
70.61755825343524
 20
-85.78977448802016
 30
0.0
 10
70.40868064964282
 20
-85.65441972237897
 30
0.0
 10
70.17538203247231
 20
-85.5655688013628
 30
0.0
 10
70.17538203247231
 20
-85.5655688013628
 30
0.0
 10
69.83686521936082
 20
-85.43696878410237
 30
0.0
 10
69.83686521936082
 20
-85.43696878410237
 30
0.0
 10
69.83686521936082
 20
-85.43696878410237
 30
0.0
 10
81.441522938506
 20
-85.43696878410237
 30
0.0
 10
81.441522938506
 20
-85.43696878410237
 30
0.0
 10
81.441522938506
 20
-85.43696878410237
 30
0.0
 10
81.441522938506
 20
-89.04166623760728
 30
0.0
 10
81.441522938506
 20
-89.04166623760728
 30
0.0
  0
SPLINE
  5
149
330
70
100
AcDbEntity
  8
Camada 1
 62
   250
420
  1907995
370
     9
100
AcDbSpline
210
0.0
220
0.0
230
1.0
 70
    11
 71
     3
 72
    56
 73
    52
 74
     0
 42
0.0000000001
 43
0.0000000001
 40
0.0
 40
0.0
 40
0.0
 40
0.0
 40
1.0
 40
1.0
 40
1.0
 40
2.0
 40
2.0
 40
2.0
 40
3.0
 40
3.0
 40
3.0
 40
4.0
 40
4.0
 40
4.0
 40
5.0
 40
5.0
 40
5.0
 40
6.0
 40
6.0
 40
6.0
 40
7.0
 40
7.0
 40
7.0
 40
8.0
 40
8.0
 40
8.0
 40
9.0
 40
9.0
 40
9.0
 40
10.0
 40
10.0
 40
10.0
 40
11.0
 40
11.0
 40
11.0
 40
12.0
 40
12.0
 40
12.0
 40
13.0
 40
13.0
 40
13.0
 40
14.0
 40
14.0
 40
14.0
 40
15.0
 40
15.0
 40
15.0
 40
16.0
 40
16.0
 40
16.0
 40
17.0
 40
17.0
 40
17.0
 40
17.0
 10
28.58534081911489
 20
-93.56486333459111
 30
0.0
 10
28.58534081911489
 20
-93.56486333459111
 30
0.0
 10
28.33429475006695
 20
-93.56486333459111
 30
0.0
 10
28.33429475006695
 20
-93.56486333459111
 30
0.0
 10
28.33429475006695
 20
-93.56486333459111
 30
0.0
 10
28.33429475006695
 20
-89.17439054835018
 30
0.0
 10
28.33429475006695
 20
-89.17439054835018
 30
0.0
 10
28.33429475006695
 20
-89.17439054835018
 30
0.0
 10
28.32869285537572
 20
-89.14295498857558
 30
0.0
 10
28.32869285537572
 20
-89.14295498857558
 30
0.0
 10
28.31839835904432
 20
-88.98420216423764
 30
0.0
 10
28.18601503319575
 20
-88.85813517762064
 30
0.0
 10
28.02455056708003
 20
-88.85813517762064
 30
0.0
 10
28.02455056708003
 20
-88.85813517762064
 30
0.0
 10
27.84394223475887
 20
-88.86355846117686
 30
0.0
 10
27.84394223475887
 20
-88.86355846117686
 30
0.0
 10
27.84394223475887
 20
-88.86355846117686
 30
0.0
 10
27.84394223475887
 20
-88.86842967395203
 30
0.0
 10
27.84394223475887
 20
-88.86842967395203
 30
0.0
 10
27.84394223475887
 20
-88.86842967395203
 30
0.0
 10
27.21739061026169
 20
-88.86842967395203
 30
0.0
 10
27.21739061026169
 20
-88.86842967395203
 30
0.0
 10
27.21739061026169
 20
-88.86842967395203
 30
0.0
 10
27.2175692213967
 20
-88.85813517762064
 30
0.0
 10
27.2175692213967
 20
-88.85813517762064
 30
0.0
 10
27.2175692213967
 20
-88.85813517762064
 30
0.0
 10
26.43517126285105
 20
-88.85813517762064
 30
0.0
 10
26.43517126285105
 20
-88.85813517762064
 30
0.0
 10
26.43517126285105
 20
-88.85813517762064
 30
0.0
 10
26.43517126285105
 20
-88.65874020136407
 30
0.0
 10
26.43517126285105
 20
-88.65874020136407
 30
0.0
 10
26.43517126285105
 20
-88.65874020136407
 30
0.0
 10
26.42487676651998
 20
-88.66089977236081
 30
0.0
 10
26.42487676651998
 20
-88.66089977236081
 30
0.0
 10
26.42487676651998
 20
-88.66089977236081
 30
0.0
 10
26.42487676651998
 20
-87.05708544094195
 30
0.0
 10
26.42487676651998
 20
-87.05708544094195
 30
0.0
 10
26.42487676651998
 20
-87.05708544094195
 30
0.0
 10
26.98097441691467
 20
-85.86360583631334
 30
0.0
 10
26.98097441691467
 20
-85.86360583631334
 30
0.0
 10
26.98097441691467
 20
-85.86360583631334
 30
0.0
 10
26.9905544687054
 20
-85.86794121568351
 30
0.0
 10
26.9905544687054
 20
-85.86794121568351
 30
0.0
 10
26.9905544687054
 20
-85.86794121568351
 30
0.0
 10
27.19842535519094
 20
-85.42129971634283
 30
0.0
 10
27.19842535519094
 20
-85.42129971634283
 30
0.0
 10
27.19842535519094
 20
-85.42129971634283
 30
0.0
 10
28.58534081911489
 20
-85.42129971634283
 30
0.0
 10
28.58534081911489
 20
-85.42129971634283
 30
0.0
 10
28.58534081911489
 20
-85.42129971634283
 30
0.0
 10
28.58534081911489
 20
-93.56486333459111
 30
0.0
 10
28.58534081911489
 20
-93.56486333459111
 30
0.0
  0
SPLINE
  5
14A
330
70
100
AcDbEntity
  8
Camada 1
 62
   250
420
  1907995
370
     9
100
AcDbSpline
210
0.0
220
0.0
230
1.0
 70
     9
 71
     3
 72
    11
 73
     7
 74
     0
 42
0.0000000001
 43
0.0000000001
 40
0.0
 40
0.0
 40
0.0
 40
0.0
 40
1.0
 40
1.0
 40
1.0
 40
2.0
 40
2.0
 40
2.0
 40
2.0
 10
27.30318890460544
 20
-89.00786002094823
 30
0.0
 10
27.30318890460544
 20
-89.00786002094823
 30
0.0
 10
27.7473136106787
 20
-89.00786002094823
 30
0.0
 10
27.7473136106787
 20
-89.00786002094823
 30
0.0
 10
27.61275447645703
 20
-89.09076806237919
 30
0.0
 10
27.43592945272435
 20
-89.09003738046314
 30
0.0
 10
27.30318890460544
 20
-89.00786002094823
 30
0.0
  0
SPLINE
  5
14B
330
70
100
AcDbEntity
  8
Camada 1
 62
   250
420
  1907995
370
     9
100
AcDbSpline
210
0.0
220
0.0
230
1.0
 70
     9
 71
     3
 72
    29
 73
    25
 74
     0
 42
0.0000000001
 43
0.0000000001
 40
0.0
 40
0.0
 40
0.0
 40
0.0
 40
1.0
 40
1.0
 40
1.0
 40
2.0
 40
2.0
 40
2.0
 40
3.0
 40
3.0
 40
3.0
 40
4.0
 40
4.0
 40
4.0
 40
5.0
 40
5.0
 40
5.0
 40
6.0
 40
6.0
 40
6.0
 40
7.0
 40
7.0
 40
7.0
 40
8.0
 40
8.0
 40
8.0
 40
8.0
 10
26.33311935521466
 20
-87.02620195194839
 30
0.0
 10
26.33149561762293
 20
-87.02962803826684
 30
0.0
 10
26.33329796634999
 20
-87.03305412458531
 30
0.0
 10
26.33258352180964
 20
-87.0366750594148
 30
0.0
 10
26.33167422875827
 20
-87.04027975686827
 30
0.0
 10
26.32860536470982
 20
-87.04263417637603
 30
0.0
 10
26.32860536470982
 20
-87.04643372234054
 30
0.0
 10
26.32860536470982
 20
-87.04643372234054
 30
0.0
 10
26.32860536470982
 20
-88.68221944693965
 30
0.0
 10
26.32860536470982
 20
-88.68221944693965
 30
0.0
 10
26.32860536470982
 20
-88.68221944693965
 30
0.0
 10
26.31813225724374
 20
-88.6843790179364
 30
0.0
 10
26.31813225724374
 20
-88.6843790179364
 30
0.0
 10
26.24444704533382
 20
-88.70082747974008
 30
0.0
 10
26.16967392923753
 20
-88.71310293593321
 30
0.0
 10
26.09490081314091
 20
-88.72357604339898
 30
0.0
 10
26.09490081314091
 20
-88.72357604339898
 30
0.0
 10
26.09490081314091
 20
-85.59448756787
 30
0.0
 10
26.09490081314091
 20
-85.59448756787
 30
0.0
 10
26.37087125422116
 20
-85.63279153765753
 30
0.0
 10
26.63925884074812
 20
-85.70954561361622
 30
0.0
 10
26.89301655157385
 20
-85.82405158858012
 30
0.0
 10
26.89301655157385
 20
-85.82405158858012
 30
0.0
 10
26.33311935521466
 20
-87.02620195194839
 30
0.0
 10
26.33311935521466
 20
-87.02620195194839
 30
0.0
  0
SPLINE
  5
14C
330
70
100
AcDbEntity
  8
Camada 1
 62
   250
420
  1907995
370
     9
100
AcDbSpline
210
0.0
220
0.0
230
1.0
 70
    11
 71
     3
 72
    41
 73
    37
 74
     0
 42
0.0000000001
 43
0.0000000001
 40
0.0
 40
0.0
 40
0.0
 40
0.0
 40
1.0
 40
1.0
 40
1.0
 40
2.0
 40
2.0
 40
2.0
 40
3.0
 40
3.0
 40
3.0
 40
4.0
 40
4.0
 40
4.0
 40
5.0
 40
5.0
 40
5.0
 40
6.0
 40
6.0
 40
6.0
 40
7.0
 40
7.0
 40
7.0
 40
8.0
 40
8.0
 40
8.0
 40
9.0
 40
9.0
 40
9.0
 40
10.0
 40
10.0
 40
10.0
 40
11.0
 40
11.0
 40
11.0
 40
12.0
 40
12.0
 40
12.0
 40
12.0
 10
25.99845080019607
 20
-88.73693940377881
 30
0.0
 10
25.99845080019607
 20
-88.73693940377881
 30
0.0
 10
25.98779908159466
 20
-88.73838453023489
 30
0.0
 10
25.98779908159466
 20
-88.73838453023489
 30
0.0
 10
25.98779908159466
 20
-88.73838453023489
 30
0.0
 10
25.98779908159466
 20
-88.87710043269171
 30
0.0
 10
25.98779908159466
 20
-88.87710043269171
 30
0.0
 10
25.98779908159466
 20
-88.87710043269171
 30
0.0
 10
22.34559328972236
 20
-88.87710043269171
 30
0.0
 10
22.34559328972236
 20
-88.87710043269171
 30
0.0
 10
22.34559328972236
 20
-88.87710043269171
 30
0.0
 10
22.34559328972236
 20
-87.48062115435242
 30
0.0
 10
22.34559328972236
 20
-87.48062115435242
 30
0.0
 10
22.34559328972236
 20
-87.48062115435242
 30
0.0
 10
22.33494157112094
 20
-87.49921294977745
 30
0.0
 10
22.33494157112094
 20
-87.49921294977745
 30
0.0
 10
22.33494157112094
 20
-87.49921294977745
 30
0.0
 10
22.33494157112094
 20
-85.72164245867371
 30
0.0
 10
22.33494157112094
 20
-85.72164245867371
 30
0.0
 10
22.33494157112094
 20
-85.72164245867371
 30
0.0
 10
22.34559328972236
 20
-85.73862675388239
 30
0.0
 10
22.34559328972236
 20
-85.73862675388239
 30
0.0
 10
22.34559328972236
 20
-85.73862675388239
 30
0.0
 10
22.34559328972236
 20
-85.44531479532343
 30
0.0
 10
22.34559328972236
 20
-85.44531479532343
 30
0.0
 10
22.34559328972236
 20
-85.44531479532343
 30
0.0
 10
25.98779908159466
 20
-85.44531479532343
 30
0.0
 10
25.98779908159466
 20
-85.44531479532343
 30
0.0
 10
25.98779908159466
 20
-85.44531479532343
 30
0.0
 10
25.98779908159466
 20
-85.57987392954512
 30
0.0
 10
25.98779908159466
 20
-85.57987392954512
 30
0.0
 10
25.98779908159466
 20
-85.57987392954512
 30
0.0
 10
25.99845080019607
 20
-85.58130281862581
 30
0.0
 10
25.99845080019607
 20
-85.58130281862581
 30
0.0
 10
25.99845080019607
 20
-85.58130281862581
 30
0.0
 10
25.99845080019607
 20
-88.73693940377881
 30
0.0
 10
25.99845080019607
 20
-88.73693940377881
 30
0.0
  0
SPLINE
  5
14D
330
70
100
AcDbEntity
  8
Camada 1
 62
   250
420
  1907995
370
     9
100
AcDbSpline
210
0.0
220
0.0
230
1.0
 70
     9
 71
     3
 72
   107
 73
   103
 74
     0
 42
0.0000000001
 43
0.0000000001
 40
0.0
 40
0.0
 40
0.0
 40
0.0
 40
1.0
 40
1.0
 40
1.0
 40
2.0
 40
2.0
 40
2.0
 40
3.0
 40
3.0
 40
3.0
 40
4.0
 40
4.0
 40
4.0
 40
5.0
 40
5.0
 40
5.0
 40
6.0
 40
6.0
 40
6.0
 40
7.0
 40
7.0
 40
7.0
 40
8.0
 40
8.0
 40
8.0
 40
9.0
 40
9.0
 40
9.0
 40
10.0
 40
10.0
 40
10.0
 40
11.0
 40
11.0
 40
11.0
 40
12.0
 40
12.0
 40
12.0
 40
13.0
 40
13.0
 40
13.0
 40
14.0
 40
14.0
 40
14.0
 40
15.0
 40
15.0
 40
15.0
 40
16.0
 40
16.0
 40
16.0
 40
17.0
 40
17.0
 40
17.0
 40
18.0
 40
18.0
 40
18.0
 40
19.0
 40
19.0
 40
19.0
 40
20.0
 40
20.0
 40
20.0
 40
21.0
 40
21.0
 40
21.0
 40
22.0
 40
22.0
 40
22.0
 40
23.0
 40
23.0
 40
23.0
 40
24.0
 40
24.0
 40
24.0
 40
25.0
 40
25.0
 40
25.0
 40
26.0
 40
26.0
 40
26.0
 40
27.0
 40
27.0
 40
27.0
 40
28.0
 40
28.0
 40
28.0
 40
29.0
 40
29.0
 40
29.0
 40
30.0
 40
30.0
 40
30.0
 40
31.0
 40
31.0
 40
31.0
 40
32.0
 40
32.0
 40
32.0
 40
33.0
 40
33.0
 40
33.0
 40
34.0
 40
34.0
 40
34.0
 40
34.0
 10
28.77606503663212
 20
-85.36458256226591
 30
0.0
 10
28.76667983335242
 20
-85.30551098868121
 30
0.0
 10
28.72368326192503
 20
-85.25621431539763
 30
0.0
 10
28.66336141039464
 20
-85.2374276714622
 30
0.0
 10
28.66336141039464
 20
-85.2374276714622
 30
0.0
 10
27.16122552696581
 20
-85.22857830158752
 30
0.0
 10
27.16122552696581
 20
-85.22857830158752
 30
0.0
 10
27.14659565126489
 20
-85.22857830158752
 30
0.0
 10
27.13214438669899
 20
-85.23182577677097
 30
0.0
 10
27.11860241518446
 20
-85.23796350486787
 30
0.0
 10
27.11860241518446
 20
-85.23796350486787
 30
0.0
 10
27.09096640137435
 20
-85.25134310262307
 30
0.0
 10
27.09096640137435
 20
-85.25134310262307
 30
0.0
 10
27.08193842036467
 20
-85.25712360844933
 30
0.0
 10
27.07380349503033
 20
-85.26343994768058
 30
0.0
 10
27.06657786274738
 20
-85.27084419109852
 30
0.0
 10
27.06657786274738
 20
-85.27084419109852
 30
0.0
 10
26.89590680448729
 20
-85.61471933826215
 30
0.0
 10
26.89590680448729
 20
-85.61471933826215
 30
0.0
 10
26.66653763228789
 20
-85.51864278496367
 30
0.0
 10
26.4265005041117
 20
-85.45054323036863
 30
0.0
 10
26.18050425897394
 20
-85.41171966455211
 30
0.0
 10
26.18050425897394
 20
-85.41171966455211
 30
0.0
 10
26.18050425897394
 20
-85.38661668138479
 30
0.0
 10
26.18050425897394
 20
-85.38661668138479
 30
0.0
 10
26.18050425897394
 20
-85.31273662096415
 30
0.0
 10
26.12036101857856
 20
-85.25259338056876
 30
0.0
 10
26.04649719553332
 20
-85.25259338056876
 30
0.0
 10
26.04649719553332
 20
-85.25259338056876
 30
0.0
 10
22.28689517578369
 20
-85.25259338056876
 30
0.0
 10
22.28689517578369
 20
-85.25259338056876
 30
0.0
 10
22.27733136136866
 20
-85.25259338056876
 30
0.0
 10
22.16173748221775
 20
-85.25368128475482
 30
0.0
 10
22.15288811234307
 20
-85.25566224461657
 30
0.0
 10
22.15288811234307
 20
-85.25566224461657
 30
0.0
 10
22.15288811234307
 20
-88.93579854663038
 30
0.0
 10
22.15288811234307
 20
-88.93579854663038
 30
0.0
 10
22.15288811234307
 20
-89.00966236967498
 30
0.0
 10
22.21285274160345
 20
-89.06980561007101
 30
0.0
 10
22.28689517578369
 20
-89.06980561007101
 30
0.0
 10
22.28689517578369
 20
-89.06980561007101
 30
0.0
 10
26.04649719553332
 20
-89.06980561007101
 30
0.0
 10
26.04649719553332
 20
-89.06980561007101
 30
0.0
 10
26.12036101857856
 20
-89.06980561007101
 30
0.0
 10
26.18050425897394
 20
-89.00966236967498
 30
0.0
 10
26.18050425897394
 20
-88.93579854663038
 30
0.0
 10
26.18050425897394
 20
-88.93579854663038
 30
0.0
 10
26.18050425897394
 20
-88.90653879522856
 30
0.0
 10
26.18050425897394
 20
-88.90653879522856
 30
0.0
 10
26.2010932516361
 20
-88.90329132004509
 30
0.0
 10
26.22186085543358
 20
-88.89967038521561
 30
0.0
 10
26.24264469660709
 20
-88.89606568776214
 30
0.0
 10
26.24264469660709
 20
-88.89606568776214
 30
0.0
 10
26.24264469660709
 20
-88.91683329155931
 30
0.0
 10
26.24264469660709
 20
-88.91683329155931
 30
0.0
 10
26.24264469660709
 20
-88.99071335198057
 30
0.0
 10
26.30278793700247
 20
-89.05066174386492
 30
0.0
 10
26.37665176004739
 20
-89.05066174386492
 30
0.0
 10
26.37665176004739
 20
-89.05066174386492
 30
0.0
 10
27.0600829123808
 20
-89.05066174386492
 30
0.0
 10
27.0600829123808
 20
-89.05066174386492
 30
0.0
 10
27.17567679153172
 20
-89.19082277277782
 30
0.0
 10
27.34508133447042
 20
-89.27082432391932
 30
0.0
 10
27.52695618211328
 20
-89.27082432391932
 30
0.0
 10
27.69800070001974
 20
-89.27082432391932
 30
0.0
 10
27.86055307032152
 20
-89.19731772314472
 30
0.0
 10
27.97614694947244
 20
-89.06871770588429
 30
0.0
 10
27.98426563743074
 20
-89.06348927083911
 30
0.0
 10
27.99166988084903
 20
-89.05735154274287
 30
0.0
 10
27.99818106859131
 20
-89.05066174386492
 30
0.0
 10
27.99818106859131
 20
-89.05066174386492
 30
0.0
 10
28.02455056708003
 20
-89.05066174386492
 30
0.0
 10
28.02455056708003
 20
-89.05066174386492
 30
0.0
 10
28.08649615620246
 20
-89.05066174386492
 30
0.0
 10
28.13688073367179
 20
-89.1012411698456
 30
0.0
 10
28.13688073367179
 20
-89.16300814783271
 30
0.0
 10
28.13688073367179
 20
-89.16300814783271
 30
0.0
 10
28.13688073367179
 20
-93.59737056117639
 30
0.0
 10
28.13688073367179
 20
-93.59737056117639
 30
0.0
 10
28.13688073367179
 20
-93.67376741486442
 30
0.0
 10
28.19070763483559
 20
-93.73769396384828
 30
0.0
 10
28.26241188688377
 20
-93.7537689660059
 30
0.0
 10
28.26241188688377
 20
-93.7537689660059
 30
0.0
 10
28.62002385407294
 20
-93.7575685119704
 30
0.0
 10
28.62002385407294
 20
-93.7575685119704
 30
0.0
 10
28.62002385407294
 20
-93.7575685119704
 30
0.0
 10
28.65199524725288
 20
-93.75701644118871
 30
0.0
 10
28.65199524725288
 20
-93.75701644118871
 30
0.0
 10
28.65199524725288
 20
-93.75701644118871
 30
0.0
 10
28.6604711574812
 20
-93.7510735616035
 30
0.0
 10
28.6604711574812
 20
-93.7510735616035
 30
0.0
 10
28.72043578674158
 20
-93.73481994831086
 30
0.0
 10
28.7652347068957
 20
-93.68659494183861
 30
0.0
 10
28.77335339485401
 20
-93.63403455599618
 30
0.0
 10
28.77335339485401
 20
-93.63403455599618
 30
0.0
 10
28.77786738535885
 20
-85.38895486351654
 30
0.0
 10
28.77786738535885
 20
-85.38895486351654
 30
0.0
 10
28.77786738535885
 20
-85.38895486351654
 30
0.0
 10
28.77786738535885
 20
-85.38499294379304
 30
0.0
 10
28.77786738535885
 20
-85.38499294379304
 30
0.0
 10
28.77786738535885
 20
-85.38499294379304
 30
0.0
 10
28.77606503663212
 20
-85.36458256226591
 30
0.0
 10
28.77606503663212
 20
-85.36458256226591
 30
0.0
  0
SPLINE
  5
14E
330
70
100
AcDbEntity
  8
Camada 1
 62
   250
420
  1907995
370
     9
100
AcDbSpline
210
0.0
220
0.0
230
1.0
 70
     9
 71
     3
 72
    32
 73
    28
 74
     0
 42
0.0000000001
 43
0.0000000001
 40
0.0
 40
0.0
 40
0.0
 40
0.0
 40
1.0
 40
1.0
 40
1.0
 40
2.0
 40
2.0
 40
2.0
 40
3.0
 40
3.0
 40
3.0
 40
4.0
 40
4.0
 40
4.0
 40
5.0
 40
5.0
 40
5.0
 40
6.0
 40
6.0
 40
6.0
 40
7.0
 40
7.0
 40
7.0
 40
8.0
 40
8.0
 40
8.0
 40
9.0
 40
9.0
 40
9.0
 40
9.0
 10
69.53394073425908
 20
-85.4556742411583
 30
0.0
 10
69.31103403767486
 20
-85.4556742411583
 30
0.0
 10
69.09696047358863
 20
-85.49594293343156
 30
0.0
 10
68.89743559832449
 20
-85.57544112592008
 30
0.0
 10
68.2180637899704
 20
-85.83653813066032
 30
0.0
 10
67.76237807224466
 20
-86.50032205813435
 30
0.0
 10
67.76237807224466
 20
-87.22723690317272
 30
0.0
 10
67.76237807224466
 20
-87.22723690317272
 30
0.0
 10
67.76237807224466
 20
-92.03453936657082
 30
0.0
 10
67.76237807224466
 20
-92.03453936657082
 30
0.0
 10
67.76237807224466
 20
-93.01137990171902
 30
0.0
 10
68.55710019911088
 20
-93.80610202858525
 30
0.0
 10
69.53394073425908
 20
-93.80610202858525
 30
0.0
 10
70.51078126940727
 20
-93.80610202858525
 30
0.0
 10
71.30550339627351
 20
-93.01137990171902
 30
0.0
 10
71.30550339627351
 20
-92.03453936657082
 30
0.0
 10
71.30550339627351
 20
-92.03453936657082
 30
0.0
 10
71.30550339627351
 20
-87.22723690317272
 30
0.0
 10
71.30550339627351
 20
-87.22723690317272
 30
0.0
 10
71.30550339627351
 20
-86.75388492044969
 30
0.0
 10
71.12182619990325
 20
-86.30937051735434
 30
0.0
 10
70.78798575105655
 20
-85.9757898665215
 30
0.0
 10
70.61080350505449
 20
-85.79860762051881
 30
0.0
 10
70.40348468934904
 20
-85.66403224892111
 30
0.0
 10
70.17148506225166
 20
-85.57570092393458
 30
0.0
 10
69.97066119691439
 20
-85.49594293343156
 30
0.0
 10
69.75658763282817
 20
-85.4556742411583
 30
0.0
 10
69.53394073425908
 20
-85.4556742411583
 30
0.0
  0
SPLINE
  5
14F
330
70
100
AcDbEntity
  8
Camada 1
 62
   250
420
  1907995
370
     9
100
AcDbSpline
210
0.0
220
0.0
230
1.0
 70
    11
 71
     3
 72
    29
 73
    25
 74
     0
 42
0.0000000001
 43
0.0000000001
 40
0.0
 40
0.0
 40
0.0
 40
0.0
 40
1.0
 40
1.0
 40
1.0
 40
2.0
 40
2.0
 40
2.0
 40
3.0
 40
3.0
 40
3.0
 40
4.0
 40
4.0
 40
4.0
 40
5.0
 40
5.0
 40
5.0
 40
6.0
 40
6.0
 40
6.0
 40
7.0
 40
7.0
 40
7.0
 40
8.0
 40
8.0
 40
8.0
 40
8.0
 10
69.53394073425908
 20
-93.96094164532648
 30
0.0
 10
68.47162665228573
 20
-93.96094164532648
 30
0.0
 10
67.60753845550341
 20
-93.09685344854417
 30
0.0
 10
67.60753845550341
 20
-92.03453936657082
 30
0.0
 10
67.60753845550341
 20
-92.03453936657082
 30
0.0
 10
67.60753845550341
 20
-87.22723690317272
 30
0.0
 10
67.60753845550341
 20
-87.22723690317272
 30
0.0
 10
67.60753845550341
 20
-86.43667154454101
 30
0.0
 10
68.10323306748855
 20
-85.71495265979642
 30
0.0
 10
68.84105942914219
 20
-85.4312532277796
 30
0.0
 10
69.27492211363611
 20
-85.25848754802655
 30
0.0
 10
69.79166036480894
 20
-85.25796795199692
 30
0.0
 10
70.22760143342011
 20
-85.43151302579474
 30
0.0
 10
70.47908591161818
 20
-85.52711869519166
 30
0.0
 10
70.7048503863638
 20
-85.67338497744939
 30
0.0
 10
70.89762051324591
 20
-85.86615510433215
 30
0.0
 10
71.26055833973547
 20
-86.22909293082235
 30
0.0
 10
71.46034301301475
 20
-86.71257703611717
 30
0.0
 10
71.46034301301475
 20
-87.22723690317272
 30
0.0
 10
71.46034301301475
 20
-87.22723690317272
 30
0.0
 10
71.46034301301475
 20
-92.03453936657082
 30
0.0
 10
71.46034301301475
 20
-92.03453936657082
 30
0.0
 10
71.46034301301475
 20
-93.09685344854417
 30
0.0
 10
70.59625481623243
 20
-93.96094164532648
 30
0.0
 10
69.53394073425908
 20
-93.96094164532648
 30
0.0
  0
ENDSEC
  0
SECTION
  2
OBJECTS
  0
DICTIONARY
  5
C
330
0
100
AcDbDictionary
281
     1
  3
ACAD_COLOR
350
63
  3
ACAD_DETAILVIEWSTYLE
350
6A
  3
ACAD_GROUP
350
D
  3
ACAD_LAYOUT
350
62
  3
ACAD_MATERIAL
350
10
  3
ACAD_MLEADERSTYLE
350
66
  3
ACAD_MLINESTYLE
350
5F
  3
ACAD_PLOTSETTINGS
350
61
  3
ACAD_PLOTSTYLENAME
350
E
  3
ACAD_SCALELIST
350
42
  3
ACAD_SECTIONVIEWSTYLE
350
68
  3
ACAD_TABLESTYLE
350
64
  3
ACAD_VISUALSTYLE
350
29
  3
ACDB_RECOMPOSE_DATA
350
158
  3
AcDbVariableDictionary
350
150
  0
DICTIONARY
  5
63
102
{ACAD_REACTORS
330
C
102
}
330
C
100
AcDbDictionary
281
     1
  0
DICTIONARY
  5
6A
102
{ACAD_REACTORS
330
C
102
}
330
C
100
AcDbDictionary
281
     1
  3
Imperial24
350
6B
  0
DICTIONARY
  5
D
102
{ACAD_REACTORS
330
C
102
}
330
C
100
AcDbDictionary
281
     1
  0
DICTIONARY
  5
62
102
{ACAD_REACTORS
330
C
102
}
330
C
100
AcDbDictionary
281
     1
  3
Layout1
350
6F
  3
Layout2
350
77
  3
Model
350
73
  0
DICTIONARY
  5
10
102
{ACAD_REACTORS
330
C
102
}
330
C
100
AcDbDictionary
281
     1
  3
ByBlock
350
19
  3
ByLayer
350
11
  3
Global
350
21
  0
DICTIONARY
  5
66
102
{ACAD_REACTORS
330
C
102
}
330
C
100
AcDbDictionary
281
     1
  3
Standard
350
67
  0
DICTIONARY
  5
5F
102
{ACAD_REACTORS
330
C
102
}
330
C
100
AcDbDictionary
281
     1
  3
Standard
350
60
  0
DICTIONARY
  5
61
102
{ACAD_REACTORS
330
C
102
}
330
C
100
AcDbDictionary
281
     1
  0
ACDBDICTIONARYWDFLT
  5
E
102
{ACAD_REACTORS
330
C
102
}
330
C
100
AcDbDictionary
281
     1
  3
Normal
350
F
100
AcDbDictionaryWithDefault
340
F
  0
DICTIONARY
  5
42
102
{ACAD_REACTORS
330
C
102
}
330
C
100
AcDbDictionary
281
     1
  3
A0
350
43
  3
A1
350
44
  3
A2
350
45
  3
A3
350
46
  3
A4
350
47
  3
A5
350
48
  3
A6
350
49
  3
A7
350
4A
  3
A8
350
4B
  3
A9
350
4C
  3
B0
350
4D
  3
B1
350
4E
  3
B2
350
4F
  3
B3
350
50
  3
B4
350
51
  3
B5
350
52
  3
B6
350
53
  0
DICTIONARY
  5
68
102
{ACAD_REACTORS
330
C
102
}
330
C
100
AcDbDictionary
281
     1
  3
Imperial24
350
69
  0
DICTIONARY
  5
64
102
{ACAD_REACTORS
330
C
102
}
330
C
100
AcDbDictionary
281
     1
  3
Standard
350
65
  0
DICTIONARY
  5
29
102
{ACAD_REACTORS
330
C
102
}
330
C
100
AcDbDictionary
281
     1
  3
2dWireframe
350
2F
  3
Basic
350
2E
  3
Brighten
350
35
  3
ColorChange
350
39
  3
Conceptual
350
32
  3
Dim
350
34
  3
EdgeColorOff
350
41
  3
Facepattern
350
38
  3
Flat
350
2A
  3
FlatWithEdges
350
2B
  3
Gouraud
350
2C
  3
GouraudWithEdges
350
2D
  3
Hidden
350
31
  3
JitterOff
350
3F
  3
Linepattern
350
37
  3
OverhangOff
350
40
  3
Realistic
350
33
  3
Shaded
350
3E
  3
Shaded with edges
350
3D
  3
Shades of Gray
350
3A
  3
Sketchy
350
3B
  3
Thicken
350
36
  3
Wireframe
350
30
  3
X-Ray
350
3C
  0
XRECORD
  5
158
102
{ACAD_REACTORS
330
C
102
}
330
C
100
AcDbXrecord
280
     1
 90
        1
330
65
  0
DICTIONARY
  5
150
102
{ACAD_REACTORS
330
C
102
}
330
C
100
AcDbDictionary
281
     1
  3
CANNOSCALE
350
155
  3
CMLEADERSTYLE
350
152
  3
CTABLESTYLE
350
151
  3
CVIEWDETAILSTYLE
350
153
  3
CVIEWSECTIONSTYLE
350
154
  0
ACDBDETAILVIEWSTYLE
  5
6B
102
{ACAD_REACTORS
330
6A
102
}
330
6A
100
AcDbModelDocViewStyle
 70
     0
  3
Imperial24
290
     1
300
Imperial24
 90
        0
100
AcDbDetailViewStyle
 70
     0
 71
     0
 90
        3
 71
     1
340
55
 62
   256
 40
0.24
340
0
 62
   256
 40
0.24
300

 40
0.36
280
     3
 71
     2
340
5D
 90
       25
 62
   256
 71
     3
340
55
 62
   256
 40
0.24
 90
        1
 40
0.75
 90
        1
300
%<\AcVar ViewType \f "%tc1">% %<\AcVar ViewDetailId>%\PSCALE %<\AcVar ViewScale \f "%sn">%
 71
     4
340
5D
 90
       25
 62
   256
340
5D
 90
       25
 62
   256
280
     0
  0
LAYOUT
  5
6F
102
{ACAD_REACTORS
330
62
102
}
330
62
100
AcDbPlotSettings
  1

  2

  4

  6

 40
0.0
 41
0.0
 42
0.0
 43
0.0
 44
0.0
 45
0.0
 46
0.0
 47
0.0
 48
0.0
 49
0.0
140
0.0
141
0.0
142
1.0
143
1.0
 70
   688
 72
     0
 73
     0
 74
     5
  7

 75
    16
147
1.0
 76
     0
 77
     2
 78
   300
148
0.0
149
0.0
100
AcDbLayout
  1
Layout1
 70
     1
 71
     1
 10
0.0
 20
0.0
 11
12.0
 21
9.0
 12
0.0
 22
0.0
 32
0.0
 14
0.0
 24
0.0
 34
0.0
 15
0.0
 25
0.0
 35
0.0
146
0.0
 13
0.0
 23
0.0
 33
0.0
 16
1.0
 26
0.0
 36
0.0
 17
0.0
 27
1.0
 37
0.0
 76
     0
330
6C
  0
LAYOUT
  5
77
102
{ACAD_REACTORS
330
62
102
}
330
62
100
AcDbPlotSettings
  1

  2

  4

  6

 40
0.0
 41
0.0
 42
0.0
 43
0.0
 44
0.0
 45
0.0
 46
0.0
 47
0.0
 48
0.0
 49
0.0
140
0.0
141
0.0
142
1.0
143
1.0
 70
   688
 72
     0
 73
     0
 74
     5
  7

 75
    16
147
1.0
 76
     0
 77
     2
 78
   300
148
0.0
149
0.0
100
AcDbLayout
  1
Layout2
 70
     1
 71
     2
 10
0.0
 20
0.0
 11
12.0
 21
9.0
 12
0.0
 22
0.0
 32
0.0
 14
0.0
 24
0.0
 34
0.0
 15
0.0
 25
0.0
 35
0.0
146
0.0
 13
0.0
 23
0.0
 33
0.0
 16
1.0
 26
0.0
 36
0.0
 17
0.0
 27
1.0
 37
0.0
 76
     0
330
74
  0
LAYOUT
  5
73
102
{ACAD_REACTORS
330
62
102
}
330
62
100
AcDbPlotSettings
  1

  2

  4

  6

 40
0.0
 41
0.0
 42
0.0
 43
0.0
 44
0.0
 45
0.0
 46
0.0
 47
0.0
 48
0.0
 49
0.0
140
0.0
141
0.0
142
1.0
143
1.0
 70
  1712
 72
     0
 73
     0
 74
     0
  7

 75
     0
147
1.0
 76
     0
 77
     2
 78
   300
148
0.0
149
0.0
100
AcDbLayout
  1
Model
 70
     1
 71
     0
 10
0.0
 20
0.0
 11
12.0
 21
9.0
 12
0.0
 22
0.0
 32
0.0
 14
0.0
 24
0.0
 34
0.0
 15
0.0
 25
0.0
 35
0.0
146
0.0
 13
0.0
 23
0.0
 33
0.0
 16
1.0
 26
0.0
 36
0.0
 17
0.0
 27
1.0
 37
0.0
 76
     0
330
70
  0
MATERIAL
  5
19
102
{ACAD_XDICTIONARY
360
1A
102
}
102
{ACAD_REACTORS
330
10
102
}
330
10
100
AcDbMaterial
  1
ByBlock
 72
     0
 43
0.0208333333333333
 43
0.0
 43
0.0
 43
0.0
 43
0.0
 43
0.0208333333333333
 43
0.0
 43
0.0
 43
0.0
 43
0.0
 43
1.0
 43
0.0
 43
0.0
 43
0.0
 43
0.0
 43
1.0
 77
     0
 47
0.0208333333333333
 47
0.0
 47
0.0
 47
0.0
 47
0.0
 47
0.0208333333333333
 47
0.0
 47
0.0
 47
0.0
 47
0.0
 47
1.0
 47
0.0
 47
0.0
 47
0.0
 47
0.0
 47
1.0
171
     0
 49
0.0208333333333333
 49
0.0
 49
0.0
 49
0.0
 49
0.0
 49
0.0208333333333333
 49
0.0
 49
0.0
 49
0.0
 49
0.0
 49
1.0
 49
0.0
 49
0.0
 49
0.0
 49
0.0
 49
1.0
175
     0
142
0.0208333333333333
142
0.0
142
0.0
142
0.0
142
0.0
142
0.0208333333333333
142
0.0
142
0.0
142
0.0
142
0.0
142
1.0
142
0.0
142
0.0
142
0.0
142
0.0
142
1.0
179
     0
144
0.0208333333333333
144
0.0
144
0.0
144
0.0
144
0.0
144
0.0208333333333333
144
0.0
144
0.0
144
0.0
144
0.0
144
1.0
144
0.0
144
0.0
144
0.0
144
0.0
144
1.0
147
0.0208333333333333
147
0.0
147
0.0
147
0.0
147
0.0
147
0.0208333333333333
147
0.0
147
0.0
147
0.0
147
0.0
147
1.0
147
0.0
147
0.0
147
0.0
147
0.0
147
1.0
  0
MATERIAL
  5
11
102
{ACAD_XDICTIONARY
360
12
102
}
102
{ACAD_REACTORS
330
10
102
}
330
10
100
AcDbMaterial
  1
ByLayer
 72
     0
 43
0.0208333333333333
 43
0.0
 43
0.0
 43
0.0
 43
0.0
 43
0.0208333333333333
 43
0.0
 43
0.0
 43
0.0
 43
0.0
 43
1.0
 43
0.0
 43
0.0
 43
0.0
 43
0.0
 43
1.0
 77
     0
 47
0.0208333333333333
 47
0.0
 47
0.0
 47
0.0
 47
0.0
 47
0.0208333333333333
 47
0.0
 47
0.0
 47
0.0
 47
0.0
 47
1.0
 47
0.0
 47
0.0
 47
0.0
 47
0.0
 47
1.0
171
     0
 49
0.0208333333333333
 49
0.0
 49
0.0
 49
0.0
 49
0.0
 49
0.0208333333333333
 49
0.0
 49
0.0
 49
0.0
 49
0.0
 49
1.0
 49
0.0
 49
0.0
 49
0.0
 49
0.0
 49
1.0
175
     0
142
0.0208333333333333
142
0.0
142
0.0
142
0.0
142
0.0
142
0.0208333333333333
142
0.0
142
0.0
142
0.0
142
0.0
142
1.0
142
0.0
142
0.0
142
0.0
142
0.0
142
1.0
179
     0
144
0.0208333333333333
144
0.0
144
0.0
144
0.0
144
0.0
144
0.0208333333333333
144
0.0
144
0.0
144
0.0
144
0.0
144
1.0
144
0.0
144
0.0
144
0.0
144
0.0
144
1.0
147
0.0208333333333333
147
0.0
147
0.0
147
0.0
147
0.0
147
0.0208333333333333
147
0.0
147
0.0
147
0.0
147
0.0
147
1.0
147
0.0
147
0.0
147
0.0
147
0.0
147
1.0
  0
MATERIAL
  5
21
102
{ACAD_XDICTIONARY
360
22
102
}
102
{ACAD_REACTORS
330
10
102
}
330
10
100
AcDbMaterial
  1
Global
 72
     0
 43
0.0208333333333333
 43
0.0
 43
0.0
 43
0.0
 43
0.0
 43
0.0208333333333333
 43
0.0
 43
0.0
 43
0.0
 43
0.0
 43
1.0
 43
0.0
 43
0.0
 43
0.0
 43
0.0
 43
1.0
 77
     0
 47
0.0208333333333333
 47
0.0
 47
0.0
 47
0.0
 47
0.0
 47
0.0208333333333333
 47
0.0
 47
0.0
 47
0.0
 47
0.0
 47
1.0
 47
0.0
 47
0.0
 47
0.0
 47
0.0
 47
1.0
171
     0
 49
0.0208333333333333
 49
0.0
 49
0.0
 49
0.0
 49
0.0
 49
0.0208333333333333
 49
0.0
 49
0.0
 49
0.0
 49
0.0
 49
1.0
 49
0.0
 49
0.0
 49
0.0
 49
0.0
 49
1.0
175
     0
142
0.0208333333333333
142
0.0
142
0.0
142
0.0
142
0.0
142
0.0208333333333333
142
0.0
142
0.0
142
0.0
142
0.0
142
1.0
142
0.0
142
0.0
142
0.0
142
0.0
142
1.0
179
     0
144
0.0208333333333333
144
0.0
144
0.0
144
0.0
144
0.0
144
0.0208333333333333
144
0.0
144
0.0
144
0.0
144
0.0
144
1.0
144
0.0
144
0.0
144
0.0
144
0.0
144
1.0
147
0.0208333333333333
147
0.0
147
0.0
147
0.0
147
0.0
147
0.0208333333333333
147
0.0
147
0.0
147
0.0
147
0.0
147
1.0
147
0.0
147
0.0
147
0.0
147
0.0
147
1.0
  0
MLEADERSTYLE
  5
67
102
{ACAD_REACTORS
330
66
102
}
330
66
100
AcDbMLeaderStyle
179
     2
170
     2
171
     1
172
     0
 90
        2
 40
0.0
 41
0.0
173
     1
 91
-1056964608
340
5B
 92
       -2
290
     1
 42
0.09
291
     1
 43
0.36
  3
Standard
 44
0.18
300

342
55
174
     1
178
     6
175
     1
176
     0
 93
-1056964608
 45
0.18
292
     0
297
     0
 46
0.18
 94
-1056964608
 47
1.0
 49
1.0
140
1.0
293
     1
141
0.0
294
     1
177
     0
142
1.0
295
     1
296
     0
143
0.125
271
     0
272
     9
273
     9
298
     1
  0
MLINESTYLE
  5
60
102
{ACAD_REACTORS
330
5F
102
}
330
5F
100
AcDbMlineStyle
  2
STANDARD
 70
     0
  3

 62
   256
 51
90.0
 52
90.0
 71
     2
 49
0.5
 62
   256
  6
BYLAYER
 49
-0.5
 62
   256
  6
BYLAYER
  0
ACDBPLACEHOLDER
  5
F
102
{ACAD_REACTORS
330
E
102
}
330
E
  0
SCALE
  5
43
102
{ACAD_REACTORS
330
42
102
}
330
42
100
AcDbScale
 70
     0
300
1:1
140
1.0
141
1.0
290
     1
  0
SCALE
  5
44
102
{ACAD_REACTORS
330
42
102
}
330
42
100
AcDbScale
 70
     0
300
1/128" = 1'-0"
140
0.0078125
141
12.0
290
     0
  0
SCALE
  5
45
102
{ACAD_REACTORS
330
42
102
}
330
42
100
AcDbScale
 70
     0
300
1/64" = 1'-0"
140
0.015625
141
12.0
290
     0
  0
SCALE
  5
46
102
{ACAD_REACTORS
330
42
102
}
330
42
100
AcDbScale
 70
     0
300
1/32" = 1'-0"
140
0.03125
141
12.0
290
     0
  0
SCALE
  5
47
102
{ACAD_REACTORS
330
42
102
}
330
42
100
AcDbScale
 70
     0
300
1/16" = 1'-0"
140
0.0625
141
12.0
290
     0
  0
SCALE
  5
48
102
{ACAD_REACTORS
330
42
102
}
330
42
100
AcDbScale
 70
     0
300
3/32" = 1'-0"
140
0.09375
141
12.0
290
     0
  0
SCALE
  5
49
102
{ACAD_REACTORS
330
42
102
}
330
42
100
AcDbScale
 70
     0
300
1/8" = 1'-0"
140
0.125
141
12.0
290
     0
  0
SCALE
  5
4A
102
{ACAD_REACTORS
330
42
102
}
330
42
100
AcDbScale
 70
     0
300
3/16" = 1'-0"
140
0.1875
141
12.0
290
     0
  0
SCALE
  5
4B
102
{ACAD_REACTORS
330
42
102
}
330
42
100
AcDbScale
 70
     0
300
1/4" = 1'-0"
140
0.25
141
12.0
290
     0
  0
SCALE
  5
4C
102
{ACAD_REACTORS
330
42
102
}
330
42
100
AcDbScale
 70
     0
300
3/8" = 1'-0"
140
0.375
141
12.0
290
     0
  0
SCALE
  5
4D
102
{ACAD_REACTORS
330
42
102
}
330
42
100
AcDbScale
 70
     0
300
1/2" = 1'-0"
140
0.5
141
12.0
290
     0
  0
SCALE
  5
4E
102
{ACAD_REACTORS
330
42
102
}
330
42
100
AcDbScale
 70
     0
300
3/4" = 1'-0"
140
0.75
141
12.0
290
     0
  0
SCALE
  5
4F
102
{ACAD_REACTORS
330
42
102
}
330
42
100
AcDbScale
 70
     0
300
1" = 1'-0"
140
1.0
141
12.0
290
     0
  0
SCALE
  5
50
102
{ACAD_REACTORS
330
42
102
}
330
42
100
AcDbScale
 70
     0
300
1-1/2" = 1'-0"
140
1.5
141
12.0
290
     0
  0
SCALE
  5
51
102
{ACAD_REACTORS
330
42
102
}
330
42
100
AcDbScale
 70
     0
300
3" = 1'-0"
140
3.0
141
12.0
290
     0
  0
SCALE
  5
52
102
{ACAD_REACTORS
330
42
102
}
330
42
100
AcDbScale
 70
     0
300
6" = 1'-0"
140
6.0
141
12.0
290
     0
  0
SCALE
  5
53
102
{ACAD_REACTORS
330
42
102
}
330
42
100
AcDbScale
 70
     0
300
1'-0" = 1'-0"
140
12.0
141
12.0
290
     0
  0
ACDBSECTIONVIEWSTYLE
  5
69
102
{ACAD_REACTORS
330
68
102
}
330
68
100
AcDbModelDocViewStyle
 70
     0
  3
Imperial24
290
     1
300
Imperial24
 90
        0
100
AcDbSectionViewStyle
 70
     0
 71
     0
 90
       78
 71
     1
340
55
 62
   256
 40
0.24
340
0
340
0
 62
   256
 40
0.24
300
I, O, Q, S, X, Z
 40
0.48
 90
        3
 40
0.18
 90
        1
 71
     2
340
5D
 90
       25
 62
   256
340
5D
 90
       50
 62
   256
 40
0.24
 40
0.0
 40
0.24
 71
     3
340
55
 62
   256
 40
0.24
 90
        1
 40
0.75
 90
        1
300
%<\AcVar ViewType \f "%tc1">% %<\AcVar ViewSectionStartId>%-%<\AcVar ViewSectionEndId>%\PSCALE %<\AcVar ViewScale \f "%sn">%
 71
     4
 62
   256
 62
   257
300
ANSI31
 40
1.0
 90
        0
290
     0
290
     0
 90
        6
 40
0.0
 40
1.570796326794896
 40
0.2617993877991494
 40
1.308996938995747
 40
-0.2617993877991494
 40
1.832595714594046
  0
TABLESTYLE
  5
65
102
{ACAD_XDICTIONARY
360
156
102
}
102
{ACAD_REACTORS
330
64
102
}
330
64
100
AcDbTableStyle
280
     0
  3
Standard
 70
     0
 71
     0
 40
0.06
 41
0.06
280
     0
281
     0
  7
Standard
140
0.18
170
     2
 62
     0
 63
     7
283
     0
 90
      512
 91
        0
  1

274
    -2
284
     1
 64
     0
275
    -2
285
     1
 65
     0
276
    -2
286
     1
 66
     0
277
    -2
287
     1
 67
     0
278
    -2
288
     1
 68
     0
279
    -2
289
     1
 69
     0
  7
Standard
140
0.25
170
     5
 62
     0
 63
     7
283
     0
 90
      512
 91
        0
  1

274
    -2
284
     1
 64
     0
275
    -2
285
     1
 65
     0
276
    -2
286
     1
 66
     0
277
    -2
287
     1
 67
     0
278
    -2
288
     1
 68
     0
279
    -2
289
     1
 69
     0
  7
Standard
140
0.18
170
     5
 62
     0
 63
     7
283
     0
 90
      512
 91
        0
  1

274
    -2
284
     1
 64
     0
275
    -2
285
     1
 65
     0
276
    -2
286
     1
 66
     0
277
    -2
287
     1
 67
     0
278
    -2
288
     1
 68
     0
279
    -2
289
     1
 69
     0
  0
VISUALSTYLE
  5
2F
102
{ACAD_REACTORS
330
29
102
}
330
29
100
AcDbVisualStyle
  2
2dWireframe
 70
     4
177
     3
291
     0
 70
    58
 90
        0
176
     1
 90
        2
176
     1
 90
        0
176
     1
 90
        0
176
     1
 40
0.6
176
     1
 40
30.0
176
     1
 62
     7
420
 16777215
176
     1
 90
        1
176
     1
 90
        4
176
     1
 62
     7
176
     1
 62
   257
176
     1
 90
        1
176
     1
 90
        1
176
     1
 40
1.0
176
     1
 90
        0
176
     1
 62
   257
176
     1
 40
1.0
176
     1
 90
        1
176
     1
 90
        6
176
     1
 90
        2
176
     1
 62
     7
176
     1
 90
        5
176
     1
 90
        0
176
     1
 90
        0
176
     1
290
     0
176
     1
 90
        1
176
     1
 40
0.0
176
     1
 90
        0
176
     1
290
     1
176
     1
290
     1
176
     1
290
     0
176
     1
290
     0
176
     1
290
     0
176
     1
290
     0
176
     1
290
     0
176
     1
290
     0
176
     1
290
     0
176
     1
 90
       50
176
     1
 40
0.0
176
     1
 40
1.0
176
     1
 90
        0
176
     1
 62
    18
420
        0
176
     1
 90
       50
176
     1
 90
        3
176
     1
 62
     5
420
      255
176
     1
290
     0
176
     1
 90
       50
176
     1
 90
       50
176
     1
 90
       50
176
     1
290
     0
176
     1
 90
       50
176
     1
 62
   256
176
     0
 40
1.0
176
     0
 90
        2
176
     1
  1
strokes_ogs.tif
176
     1
290
     0
176
     1
 40
1.0
176
     1
 40
1.0
176
     1
  0
VISUALSTYLE
  5
2E
102
{ACAD_REACTORS
330
29
102
}
330
29
100
AcDbVisualStyle
  2
Basic
 70
     7
177
     3
291
     1
 70
    58
 90
        1
176
     1
 90
        0
176
     1
 90
        1
176
     1
 90
        0
176
     1
 40
0.6
176
     1
 40
30.0
176
     1
 62
     7
420
 16777215
176
     1
 90
        0
176
     1
 90
        4
176
     1
 62
     7
176
     1
 62
   257
176
     1
 90
        1
176
     1
 90
        1
176
     1
 40
1.0
176
     1
 90
        8
176
     1
 62
     7
176
     1
 40
1.0
176
     1
 90
        1
176
     1
 90
        6
176
     1
 90
        2
176
     1
 62
     7
176
     1
 90
        5
176
     1
 90
        0
176
     1
 90
        0
176
     1
290
     0
176
     1
 90
        1
176
     1
 40
0.0
176
     1
 90
        0
176
     1
290
     0
176
     1
290
     1
176
     1
290
     1
176
     1
290
     0
176
     1
290
     0
176
     1
290
     0
176
     1
290
     0
176
     1
290
     0
176
     1
290
     0
176
     1
 90
       50
176
     1
 40
0.0
176
     1
 40
1.0
176
     1
 90
        0
176
     1
 62
    18
420
        0
176
     1
 90
       50
176
     1
 90
        3
176
     1
 62
     5
420
      255
176
     1
290
     0
176
     1
 90
       50
176
     1
 90
       50
176
     1
 90
       50
176
     1
290
     0
176
     1
 90
       50
176
     1
 62
   256
176
     0
 40
1.0
176
     0
 90
        2
176
     1
  1
strokes_ogs.tif
176
     1
290
     0
176
     1
 40
1.0
176
     1
 40
1.0
176
     1
  0
VISUALSTYLE
  5
35
102
{ACAD_REACTORS
330
29
102
}
330
29
100
AcDbVisualStyle
  2
Brighten
 70
    12
177
     3
291
     1
 70
    58
 90
        2
176
     1
 90
        2
176
     1
 90
        0
176
     1
 90
        0
176
     1
 40
0.6
176
     1
 40
30.0
176
     1
 62
     7
420
 16777215
176
     1
 90
        1
176
     1
 90
        4
176
     1
 62
     7
176
     1
 62
   257
176
     1
 90
        1
176
     1
 90
        1
176
     1
 40
1.0
176
     1
 90
        8
176
     1
 62
     7
176
     1
 40
1.0
176
     1
 90
        1
176
     1
 90
        6
176
     1
 90
        2
176
     1
 62
     7
176
     1
 90
        5
176
     1
 90
        0
176
     1
 90
        0
176
     1
290
     0
176
     1
 90
        1
176
     1
 40
50.0
176
     1
 90
        0
176
     1
290
     0
176
     1
290
     1
176
     1
290
     1
176
     1
290
     0
176
     1
290
     0
176
     1
290
     0
176
     1
290
     0
176
     1
290
     0
176
     1
290
     0
176
     1
 90
       50
176
     1
 40
0.0
176
     1
 40
1.0
176
     1
 90
        0
176
     1
 62
    18
420
        0
176
     1
 90
       50
176
     1
 90
        3
176
     1
 62
     5
420
      255
176
     1
290
     0
176
     1
 90
       50
176
     1
 90
       50
176
     1
 90
       50
176
     1
290
     0
176
     1
 90
       50
176
     1
 62
   256
176
     0
 40
1.0
176
     0
 90
        2
176
     1
  1
strokes_ogs.tif
176
     1
290
     0
176
     1
 40
1.0
176
     1
 40
1.0
176
     1
  0
VISUALSTYLE
  5
39
102
{ACAD_REACTORS
330
29
102
}
330
29
100
AcDbVisualStyle
  2
ColorChange
 70
    16
177
     3
291
     1
 70
    58
 90
        2
176
     1
 90
        2
176
     1
 90
        3
176
     1
 90
        0
176
     1
 40
0.6
176
     1
 40
30.0
176
     1
 62
     8
420
  8421504
176
     1
 90
        1
176
     1
 90
        4
176
     1
 62
     7
176
     1
 62
   257
176
     1
 90
        1
176
     1
 90
        1
176
     1
 40
1.0
176
     1
 90
        8
176
     1
 62
     8
420
  8421504
176
     1
 40
1.0
176
     1
 90
        1
176
     1
 90
        6
176
     1
 90
        2
176
     1
 62
     7
176
     1
 90
        5
176
     1
 90
        0
176
     1
 90
        0
176
     1
290
     0
176
     1
 90
        1
176
     1
 40
0.0
176
     1
 90
        0
176
     1
290
     0
176
     1
290
     1
176
     1
290
     1
176
     1
290
     0
176
     1
290
     0
176
     1
290
     0
176
     1
290
     0
176
     1
290
     0
176
     1
290
     0
176
     1
 90
       50
176
     1
 40
0.0
176
     1
 40
1.0
176
     1
 90
        0
176
     1
 62
    18
420
        0
176
     1
 90
       50
176
     1
 90
        3
176
     1
 62
     5
420
      255
176
     1
290
     0
176
     1
 90
       50
176
     1
 90
       50
176
     1
 90
       50
176
     1
290
     0
176
     1
 90
       50
176
     1
 62
   256
176
     0
 40
1.0
176
     0
 90
        2
176
     1
  1
strokes_ogs.tif
176
     1
290
     0
176
     1
 40
1.0
176
     1
 40
1.0
176
     1
  0
VISUALSTYLE
  5
32
102
{ACAD_REACTORS
330
29
102
}
330
29
100
AcDbVisualStyle
  2
Conceptual
 70
     9
177
     3
291
     0
 70
    58
 90
        3
176
     1
 90
        2
176
     1
 90
        0
176
     1
 90
        0
176
     1
 40
0.6
176
     1
 40
30.0
176
     1
 62
     7
420
 16777215
176
     1
 90
        2
176
     1
 90
        2
176
     1
 62
     7
176
     1
 62
   257
176
     1
 90
        1
176
     1
 90
        1
176
     1
 40
179.0
176
     1
 90
        8
176
     1
 62
     7
176
     1
 40
1.0
176
     1
 90
        1
176
     1
 90
        6
176
     1
 90
        2
176
     1
 62
     7
176
     1
 90
        3
176
     1
 90
        0
176
     1
 90
        0
176
     1
290
     0
176
     1
 90
        1
176
     1
 40
0.0
176
     1
 90
        0
176
     1
290
     0
176
     1
290
     1
176
     1
290
     1
176
     1
290
     0
176
     1
290
     0
176
     1
290
     0
176
     1
290
     0
176
     1
290
     0
176
     1
290
     0
176
     1
 90
       50
176
     1
 40
0.0
176
     1
 40
1.0
176
     1
 90
        0
176
     1
 62
    18
420
        0
176
     1
 90
       50
176
     1
 90
        3
176
     1
 62
     5
420
      255
176
     1
290
     0
176
     1
 90
       50
176
     1
 90
       50
176
     1
 90
       50
176
     1
290
     0
176
     1
 90
       50
176
     1
 62
   256
176
     0
 40
1.0
176
     0
 90
        2
176
     1
  1
strokes_ogs.tif
176
     1
290
     0
176
     1
 40
1.0
176
     1
 40
1.0
176
     1
  0
VISUALSTYLE
  5
34
102
{ACAD_REACTORS
330
29
102
}
330
29
100
AcDbVisualStyle
  2
Dim
 70
    11
177
     3
291
     1
 70
    58
 90
        2
176
     1
 90
        2
176
     1
 90
        0
176
     1
 90
        0
176
     1
 40
0.6
176
     1
 40
30.0
176
     1
 62
     7
420
 16777215
176
     1
 90
        1
176
     1
 90
        4
176
     1
 62
     7
176
     1
 62
   257
176
     1
 90
        1
176
     1
 90
        1
176
     1
 40
1.0
176
     1
 90
        8
176
     1
 62
     7
176
     1
 40
1.0
176
     1
 90
        1
176
     1
 90
        6
176
     1
 90
        2
176
     1
 62
     7
176
     1
 90
        5
176
     1
 90
        0
176
     1
 90
        0
176
     1
290
     0
176
     1
 90
        1
176
     1
 40
-50.0
176
     1
 90
        0
176
     1
290
     0
176
     1
290
     1
176
     1
290
     1
176
     1
290
     0
176
     1
290
     0
176
     1
290
     0
176
     1
290
     0
176
     1
290
     0
176
     1
290
     0
176
     1
 90
       50
176
     1
 40
0.0
176
     1
 40
1.0
176
     1
 90
        0
176
     1
 62
    18
420
        0
176
     1
 90
       50
176
     1
 90
        3
176
     1
 62
     5
420
      255
176
     1
290
     0
176
     1
 90
       50
176
     1
 90
       50
176
     1
 90
       50
176
     1
290
     0
176
     1
 90
       50
176
     1
 62
   256
176
     0
 40
1.0
176
     0
 90
        2
176
     1
  1
strokes_ogs.tif
176
     1
290
     0
176
     1
 40
1.0
176
     1
 40
1.0
176
     1
  0
VISUALSTYLE
  5
41
102
{ACAD_REACTORS
330
29
102
}
330
29
100
AcDbVisualStyle
  2
EdgeColorOff
 70
    22
177
     3
291
     1
 70
    58
 90
        2
176
     0
 90
        2
176
     0
 90
        0
176
     0
 90
        0
176
     0
 40
0.6
176
     0
 40
30.0
176
     0
 62
     7
420
 16777215
176
     0
 90
        1
176
     0
 90
        4
176
     0
 62
     7
176
     0
 62
   257
176
     0
 90
        1
176
     0
 90
        1
176
     0
 40
1.0
176
     0
 90
        8
176
     2
 62
     7
176
     0
 40
1.0
176
     0
 90
        1
176
     0
 90
        6
176
     0
 90
        2
176
     0
 62
     7
176
     0
 90
        5
176
     0
 90
        0
176
     0
 90
        0
176
     0
290
     0
176
     0
 90
        1
176
     0
 40
0.0
176
     0
 90
        0
176
     0
290
     0
176
     0
290
     1
176
     0
290
     1
176
     0
290
     0
176
     0
290
     0
176
     0
290
     0
176
     0
290
     0
176
     0
290
     0
176
     0
290
     0
176
     0
 90
       50
176
     0
 40
0.0
176
     0
 40
1.0
176
     0
 90
        0
176
     0
 62
    18
420
        0
176
     0
 90
       50
176
     0
 90
        3
176
     0
 62
     5
420
      255
176
     0
290
     0
176
     0
 90
       50
176
     0
 90
       50
176
     0
 90
       50
176
     0
290
     0
176
     0
 90
       50
176
     0
 62
   256
176
     0
 40
1.0
176
     0
 90
        2
176
     0
  1
strokes_ogs.tif
176
     0
290
     0
176
     0
 40
1.0
176
     0
 40
1.0
176
     0
  0
VISUALSTYLE
  5
38
102
{ACAD_REACTORS
330
29
102
}
330
29
100
AcDbVisualStyle
  2
Facepattern
 70
    15
177
     3
291
     1
 70
    58
 90
        2
176
     1
 90
        2
176
     1
 90
        0
176
     1
 90
        0
176
     1
 40
0.6
176
     1
 40
30.0
176
     1
 62
     7
420
 16777215
176
     1
 90
        1
176
     1
 90
        4
176
     1
 62
     7
176
     1
 62
   257
176
     1
 90
        1
176
     1
 90
        1
176
     1
 40
1.0
176
     1
 90
        8
176
     1
 62
     7
176
     1
 40
1.0
176
     1
 90
        1
176
     1
 90
        6
176
     1
 90
        2
176
     1
 62
     7
176
     1
 90
        5
176
     1
 90
        0
176
     1
 90
        0
176
     1
290
     0
176
     1
 90
        1
176
     1
 40
0.0
176
     1
 90
        0
176
     1
290
     0
176
     1
290
     1
176
     1
290
     1
176
     1
290
     0
176
     1
290
     0
176
     1
290
     0
176
     1
290
     0
176
     1
290
     0
176
     1
290
     0
176
     1
 90
       50
176
     1
 40
0.0
176
     1
 40
1.0
176
     1
 90
        0
176
     1
 62
    18
420
        0
176
     1
 90
       50
176
     1
 90
        3
176
     1
 62
     5
420
      255
176
     1
290
     0
176
     1
 90
       50
176
     1
 90
       50
176
     1
 90
       50
176
     1
290
     0
176
     1
 90
       50
176
     1
 62
   256
176
     0
 40
1.0
176
     0
 90
        2
176
     1
  1
strokes_ogs.tif
176
     1
290
     0
176
     1
 40
1.0
176
     1
 40
1.0
176
     1
  0
VISUALSTYLE
  5
2A
102
{ACAD_REACTORS
330
29
102
}
330
29
100
AcDbVisualStyle
  2
Flat
 70
     0
177
     3
291
     1
 70
    58
 90
        2
176
     1
 90
        1
176
     1
 90
        1
176
     1
 90
        2
176
     1
 40
0.6
176
     1
 40
30.0
176
     1
 62
     7
420
 16777215
176
     1
 90
        0
176
     1
 90
        0
176
     1
 62
     7
176
     1
 62
   257
176
     1
 90
        1
176
     1
 90
        1
176
     1
 40
1.0
176
     1
 90
        8
176
     1
 62
     7
176
     1
 40
1.0
176
     1
 90
        1
176
     1
 90
        6
176
     1
 90
        2
176
     1
 62
     7
176
     1
 90
        5
176
     1
 90
        0
176
     1
 90
        0
176
     1
290
     0
176
     1
 90
       13
176
     1
 40
0.0
176
     1
 90
        0
176
     1
290
     0
176
     1
290
     1
176
     1
290
     1
176
     1
290
     0
176
     1
290
     0
176
     1
290
     0
176
     1
290
     0
176
     1
290
     0
176
     1
290
     0
176
     1
 90
       50
176
     1
 40
0.0
176
     1
 40
1.0
176
     1
 90
        0
176
     1
 62
    18
420
        0
176
     1
 90
       50
176
     1
 90
        3
176
     1
 62
     5
420
      255
176
     1
290
     0
176
     1
 90
       50
176
     1
 90
       50
176
     1
 90
       50
176
     1
290
     0
176
     1
 90
       50
176
     1
 62
   256
176
     0
 40
1.0
176
     0
 90
        2
176
     1
  1
strokes_ogs.tif
176
     1
290
     0
176
     1
 40
1.0
176
     1
 40
1.0
176
     1
  0
VISUALSTYLE
  5
2B
102
{ACAD_REACTORS
330
29
102
}
330
29
100
AcDbVisualStyle
  2
FlatWithEdges
 70
     1
177
     3
291
     1
 70
    58
 90
        2
176
     1
 90
        1
176
     1
 90
        1
176
     1
 90
        2
176
     1
 40
0.6
176
     1
 40
30.0
176
     1
 62
     7
420
 16777215
176
     1
 90
        1
176
     1
 90
        0
176
     1
 62
     7
176
     1
 62
   257
176
     1
 90
        1
176
     1
 90
        1
176
     1
 40
1.0
176
     1
 90
        0
176
     1
 62
   257
176
     1
 40
1.0
176
     1
 90
        1
176
     1
 90
        6
176
     1
 90
        2
176
     1
 62
     7
176
     1
 90
        5
176
     1
 90
        0
176
     1
 90
        0
176
     1
290
     0
176
     1
 90
       13
176
     1
 40
0.0
176
     1
 90
        0
176
     1
290
     0
176
     1
290
     1
176
     1
290
     1
176
     1
290
     0
176
     1
290
     0
176
     1
290
     0
176
     1
290
     0
176
     1
290
     0
176
     1
290
     0
176
     1
 90
       50
176
     1
 40
0.0
176
     1
 40
1.0
176
     1
 90
        0
176
     1
 62
    18
420
        0
176
     1
 90
       50
176
     1
 90
        3
176
     1
 62
     5
420
      255
176
     1
290
     0
176
     1
 90
       50
176
     1
 90
       50
176
     1
 90
       50
176
     1
290
     0
176
     1
 90
       50
176
     1
 62
   256
176
     0
 40
1.0
176
     0
 90
        2
176
     1
  1
strokes_ogs.tif
176
     1
290
     0
176
     1
 40
1.0
176
     1
 40
1.0
176
     1
  0
VISUALSTYLE
  5
2C
102
{ACAD_REACTORS
330
29
102
}
330
29
100
AcDbVisualStyle
  2
Gouraud
 70
     2
177
     3
291
     1
 70
    58
 90
        2
176
     1
 90
        2
176
     1
 90
        1
176
     1
 90
        2
176
     1
 40
0.6
176
     1
 40
30.0
176
     1
 62
     7
420
 16777215
176
     1
 90
        0
176
     1
 90
        0
176
     1
 62
     7
176
     1
 62
   257
176
     1
 90
        1
176
     1
 90
        1
176
     1
 40
1.0
176
     1
 90
        0
176
     1
 62
     7
176
     1
 40
1.0
176
     1
 90
        1
176
     1
 90
        6
176
     1
 90
        2
176
     1
 62
     7
176
     1
 90
        5
176
     1
 90
        0
176
     1
 90
        0
176
     1
290
     0
176
     1
 90
       13
176
     1
 40
0.0
176
     1
 90
        0
176
     1
290
     0
176
     1
290
     1
176
     1
290
     1
176
     1
290
     0
176
     1
290
     0
176
     1
290
     0
176
     1
290
     0
176
     1
290
     0
176
     1
290
     0
176
     1
 90
       50
176
     1
 40
0.0
176
     1
 40
1.0
176
     1
 90
        0
176
     1
 62
    18
420
        0
176
     1
 90
       50
176
     1
 90
        3
176
     1
 62
     5
420
      255
176
     1
290
     0
176
     1
 90
       50
176
     1
 90
       50
176
     1
 90
       50
176
     1
290
     0
176
     1
 90
       50
176
     1
 62
   256
176
     0
 40
1.0
176
     0
 90
        2
176
     1
  1
strokes_ogs.tif
176
     1
290
     0
176
     1
 40
1.0
176
     1
 40
1.0
176
     1
  0
VISUALSTYLE
  5
2D
102
{ACAD_REACTORS
330
29
102
}
330
29
100
AcDbVisualStyle
  2
GouraudWithEdges
 70
     3
177
     3
291
     1
 70
    58
 90
        2
176
     1
 90
        2
176
     1
 90
        1
176
     1
 90
        2
176
     1
 40
0.6
176
     1
 40
30.0
176
     1
 62
     7
420
 16777215
176
     1
 90
        1
176
     1
 90
        0
176
     1
 62
     7
176
     1
 62
   257
176
     1
 90
        1
176
     1
 90
        1
176
     1
 40
1.0
176
     1
 90
        0
176
     1
 62
   257
176
     1
 40
1.0
176
     1
 90
        1
176
     1
 90
        6
176
     1
 90
        2
176
     1
 62
     7
176
     1
 90
        5
176
     1
 90
        0
176
     1
 90
        0
176
     1
290
     0
176
     1
 90
       13
176
     1
 40
0.0
176
     1
 90
        0
176
     1
290
     0
176
     1
290
     1
176
     1
290
     1
176
     1
290
     0
176
     1
290
     0
176
     1
290
     0
176
     1
290
     0
176
     1
290
     0
176
     1
290
     0
176
     1
 90
       50
176
     1
 40
0.0
176
     1
 40
1.0
176
     1
 90
        0
176
     1
 62
    18
420
        0
176
     1
 90
       50
176
     1
 90
        3
176
     1
 62
     5
420
      255
176
     1
290
     0
176
     1
 90
       50
176
     1
 90
       50
176
     1
 90
       50
176
     1
290
     0
176
     1
 90
       50
176
     1
 62
   256
176
     0
 40
1.0
176
     0
 90
        2
176
     1
  1
strokes_ogs.tif
176
     1
290
     0
176
     1
 40
1.0
176
     1
 40
1.0
176
     1
  0
VISUALSTYLE
  5
31
102
{ACAD_REACTORS
330
29
102
}
330
29
100
AcDbVisualStyle
  2
Hidden
 70
     6
177
     3
291
     0
 70
    58
 90
        1
176
     1
 90
        2
176
     1
 90
        2
176
     1
 90
        0
176
     1
 40
0.6
176
     1
 40
30.0
176
     1
 62
     7
420
 16777215
176
     1
 90
        2
176
     1
 90
        2
176
     1
 62
     7
176
     1
 62
   257
176
     1
 90
        2
176
     1
 90
        1
176
     1
 40
40.0
176
     1
 90
        0
176
     1
 62
   257
176
     1
 40
1.0
176
     1
 90
        1
176
     1
 90
        6
176
     1
 90
        2
176
     1
 62
     7
176
     1
 90
        3
176
     1
 90
        0
176
     1
 90
        0
176
     1
290
     0
176
     1
 90
        1
176
     1
 40
0.0
176
     1
 90
        0
176
     1
290
     0
176
     1
290
     1
176
     1
290
     1
176
     1
290
     0
176
     1
290
     0
176
     1
290
     0
176
     1
290
     0
176
     1
290
     0
176
     1
290
     0
176
     1
 90
       50
176
     1
 40
0.0
176
     1
 40
1.0
176
     1
 90
        0
176
     1
 62
    18
420
        0
176
     1
 90
       50
176
     1
 90
        3
176
     1
 62
     5
420
      255
176
     1
290
     0
176
     1
 90
       50
176
     1
 90
       50
176
     1
 90
       50
176
     1
290
     0
176
     1
 90
       50
176
     1
 62
   256
176
     0
 40
1.0
176
     0
 90
        2
176
     1
  1
strokes_ogs.tif
176
     1
290
     0
176
     1
 40
1.0
176
     1
 40
1.0
176
     1
  0
VISUALSTYLE
  5
3F
102
{ACAD_REACTORS
330
29
102
}
330
29
100
AcDbVisualStyle
  2
JitterOff
 70
    20
177
     3
291
     1
 70
    58
 90
        2
176
     0
 90
        2
176
     0
 90
        0
176
     0
 90
        0
176
     0
 40
0.6
176
     0
 40
30.0
176
     0
 62
     7
420
 16777215
176
     0
 90
        1
176
     0
 90
        4
176
     0
 62
     7
176
     0
 62
   257
176
     0
 90
        1
176
     0
 90
        1
176
     0
 40
1.0
176
     0
 90
       10
176
     2
 62
     7
176
     0
 40
1.0
176
     0
 90
        1
176
     0
 90
        6
176
     0
 90
        2
176
     0
 62
     7
176
     0
 90
        5
176
     0
 90
        0
176
     0
 90
        0
176
     0
290
     0
176
     0
 90
        1
176
     0
 40
0.0
176
     0
 90
        0
176
     0
290
     0
176
     0
290
     1
176
     0
290
     1
176
     0
290
     0
176
     0
290
     0
176
     0
290
     0
176
     0
290
     0
176
     0
290
     0
176
     0
290
     0
176
     0
 90
       50
176
     0
 40
0.0
176
     0
 40
1.0
176
     0
 90
        0
176
     0
 62
    18
420
        0
176
     0
 90
       50
176
     0
 90
        3
176
     0
 62
     5
420
      255
176
     0
290
     0
176
     0
 90
       50
176
     0
 90
       50
176
     0
 90
       50
176
     0
290
     0
176
     0
 90
       50
176
     0
 62
   256
176
     0
 40
1.0
176
     0
 90
        2
176
     0
  1
strokes_ogs.tif
176
     0
290
     0
176
     0
 40
1.0
176
     0
 40
1.0
176
     0
  0
VISUALSTYLE
  5
37
102
{ACAD_REACTORS
330
29
102
}
330
29
100
AcDbVisualStyle
  2
Linepattern
 70
    14
177
     3
291
     1
 70
    58
 90
        2
176
     1
 90
        2
176
     1
 90
        0
176
     1
 90
        0
176
     1
 40
0.6
176
     1
 40
30.0
176
     1
 62
     7
420
 16777215
176
     1
 90
        1
176
     1
 90
        4
176
     1
 62
     7
176
     1
 62
   257
176
     1
 90
        7
176
     1
 90
        7
176
     1
 40
1.0
176
     1
 90
        8
176
     1
 62
     7
176
     1
 40
1.0
176
     1
 90
        1
176
     1
 90
        6
176
     1
 90
        2
176
     1
 62
     7
176
     1
 90
        5
176
     1
 90
        0
176
     1
 90
        0
176
     1
290
     0
176
     1
 90
        1
176
     1
 40
0.0
176
     1
 90
        0
176
     1
290
     0
176
     1
290
     1
176
     1
290
     1
176
     1
290
     0
176
     1
290
     0
176
     1
290
     0
176
     1
290
     0
176
     1
290
     0
176
     1
290
     0
176
     1
 90
       50
176
     1
 40
0.0
176
     1
 40
1.0
176
     1
 90
        0
176
     1
 62
    18
420
        0
176
     1
 90
       50
176
     1
 90
        3
176
     1
 62
     5
420
      255
176
     1
290
     0
176
     1
 90
       50
176
     1
 90
       50
176
     1
 90
       50
176
     1
290
     0
176
     1
 90
       50
176
     1
 62
   256
176
     0
 40
1.0
176
     0
 90
        2
176
     1
  1
strokes_ogs.tif
176
     1
290
     0
176
     1
 40
1.0
176
     1
 40
1.0
176
     1
  0
VISUALSTYLE
  5
40
102
{ACAD_REACTORS
330
29
102
}
330
29
100
AcDbVisualStyle
  2
OverhangOff
 70
    21
177
     3
291
     1
 70
    58
 90
        2
176
     0
 90
        2
176
     0
 90
        0
176
     0
 90
        0
176
     0
 40
0.6
176
     0
 40
30.0
176
     0
 62
     7
420
 16777215
176
     0
 90
        1
176
     0
 90
        4
176
     0
 62
     7
176
     0
 62
   257
176
     0
 90
        1
176
     0
 90
        1
176
     0
 40
1.0
176
     0
 90
        9
176
     2
 62
     7
176
     0
 40
1.0
176
     0
 90
        1
176
     0
 90
        6
176
     0
 90
        2
176
     0
 62
     7
176
     0
 90
        5
176
     0
 90
        0
176
     0
 90
        0
176
     0
290
     0
176
     0
 90
        1
176
     0
 40
0.0
176
     0
 90
        0
176
     0
290
     0
176
     0
290
     1
176
     0
290
     1
176
     0
290
     0
176
     0
290
     0
176
     0
290
     0
176
     0
290
     0
176
     0
290
     0
176
     0
290
     0
176
     0
 90
       50
176
     0
 40
0.0
176
     0
 40
1.0
176
     0
 90
        0
176
     0
 62
    18
420
        0
176
     0
 90
       50
176
     0
 90
        3
176
     0
 62
     5
420
      255
176
     0
290
     0
176
     0
 90
       50
176
     0
 90
       50
176
     0
 90
       50
176
     0
290
     0
176
     0
 90
       50
176
     0
 62
   256
176
     0
 40
1.0
176
     0
 90
        2
176
     0
  1
strokes_ogs.tif
176
     0
290
     0
176
     0
 40
1.0
176
     0
 40
1.0
176
     0
  0
VISUALSTYLE
  5
33
102
{ACAD_REACTORS
330
29
102
}
330
29
100
AcDbVisualStyle
  2
Realistic
 70
     8
177
     3
291
     0
 70
    58
 90
        2
176
     1
 90
        3
176
     1
 90
        0
176
     1
 90
        2
176
     1
 40
0.6
176
     1
 40
30.0
176
     1
 62
     7
420
 16777215
176
     1
 90
        0
176
     1
 90
        0
176
     1
 62
     7
176
     1
 62
   257
176
     1
 90
        1
176
     1
 90
        1
176
     1
 40
1.0
176
     1
 90
        8
176
     1
 62
   257
176
     1
 40
1.0
176
     1
 90
        1
176
     1
 90
        6
176
     1
 90
        2
176
     1
 62
     7
176
     1
 90
        3
176
     1
 90
        0
176
     1
 90
        0
176
     1
290
     0
176
     1
 90
       13
176
     1
 40
0.0
176
     1
 90
        0
176
     1
290
     0
176
     1
290
     1
176
     1
290
     1
176
     1
290
     0
176
     1
290
     0
176
     1
290
     0
176
     1
290
     0
176
     1
290
     0
176
     1
290
     0
176
     1
 90
       50
176
     1
 40
0.0
176
     1
 40
1.0
176
     1
 90
        0
176
     1
 62
    18
420
        0
176
     1
 90
       50
176
     1
 90
        3
176
     1
 62
     5
420
      255
176
     1
290
     0
176
     1
 90
       50
176
     1
 90
       50
176
     1
 90
       50
176
     1
290
     0
176
     1
 90
       50
176
     1
 62
   256
176
     0
 40
1.0
176
     0
 90
        2
176
     1
  1
strokes_ogs.tif
176
     1
290
     0
176
     1
 40
1.0
176
     1
 40
1.0
176
     1
  0
VISUALSTYLE
  5
3E
102
{ACAD_REACTORS
330
29
102
}
330
29
100
AcDbVisualStyle
  2
Shaded
 70
    27
177
     3
291
     0
 70
    58
 90
        2
176
     1
 90
        2
176
     1
 90
        1
176
     1
 90
        2
176
     1
 40
0.6
176
     1
 40
30.0
176
     1
 62
     7
420
 16777215
176
     1
 90
        0
176
     1
 90
        4
176
     1
 62
     7
176
     1
 62
   257
176
     1
 90
        1
176
     1
 90
        1
176
     1
 40
1.0
176
     1
 90
        8
176
     1
 62
   257
176
     1
 40
1.0
176
     1
 90
        1
176
     1
 90
        6
176
     1
 90
        2
176
     1
 62
     8
420
  7895160
176
     1
 90
        3
176
     1
 90
        0
176
     1
 90
        0
176
     1
290
     0
176
     1
 90
        5
176
     1
 40
0.0
176
     1
 90
        0
176
     1
290
     0
176
     1
290
     1
176
     1
290
     1
176
     1
290
     0
176
     1
290
     0
176
     1
290
     0
176
     1
290
     0
176
     1
290
     0
176
     1
290
     0
176
     1
 90
       50
176
     1
 40
0.0
176
     1
 40
1.0
176
     1
 90
        0
176
     1
 62
    18
420
        0
176
     1
 90
       50
176
     1
 90
        3
176
     1
 62
     5
420
      255
176
     1
290
     0
176
     1
 90
       50
176
     1
 90
       50
176
     1
 90
       50
176
     1
290
     0
176
     1
 90
       50
176
     1
 62
   256
176
     0
 40
1.0
176
     0
 90
        2
176
     1
  1
strokes_ogs.tif
176
     1
290
     0
176
     1
 40
1.0
176
     1
 40
1.0
176
     1
  0
VISUALSTYLE
  5
3D
102
{ACAD_REACTORS
330
29
102
}
330
29
100
AcDbVisualStyle
  2
Shaded with edges
 70
    26
177
     3
291
     0
 70
    58
 90
        2
176
     1
 90
        2
176
     1
 90
        1
176
     1
 90
        2
176
     1
 40
0.6
176
     1
 40
30.0
176
     1
 62
     7
420
 16777215
176
     1
 90
        1
176
     1
 90
        2
176
     1
 62
     7
176
     1
 62
   257
176
     1
 90
        2
176
     1
 90
        1
176
     1
 40
1.0
176
     1
 90
        8
176
     1
 62
   257
176
     1
 40
1.0
176
     1
 90
        1
176
     1
 90
        6
176
     1
 90
        2
176
     1
 62
     7
176
     1
 90
        3
176
     1
 90
        0
176
     1
 90
        0
176
     1
290
     0
176
     1
 90
        5
176
     1
 40
0.0
176
     1
 90
        0
176
     1
290
     0
176
     1
290
     1
176
     1
290
     1
176
     1
290
     0
176
     1
290
     0
176
     1
290
     0
176
     1
290
     0
176
     1
290
     0
176
     1
290
     0
176
     1
 90
       50
176
     1
 40
0.0
176
     1
 40
1.0
176
     1
 90
        0
176
     1
 62
    18
420
        0
176
     1
 90
       50
176
     1
 90
        3
176
     1
 62
     5
420
      255
176
     1
290
     0
176
     1
 90
       50
176
     1
 90
       50
176
     1
 90
       50
176
     1
290
     0
176
     1
 90
       50
176
     1
 62
   256
176
     0
 40
1.0
176
     0
 90
        2
176
     1
  1
strokes_ogs.tif
176
     1
290
     0
176
     1
 40
1.0
176
     1
 40
1.0
176
     1
  0
VISUALSTYLE
  5
3A
102
{ACAD_REACTORS
330
29
102
}
330
29
100
AcDbVisualStyle
  2
Shades of Gray
 70
    23
177
     3
291
     0
 70
    58
 90
        2
176
     1
 90
        2
176
     1
 90
        3
176
     1
 90
        0
176
     1
 40
0.6
176
     1
 40
30.0
176
     1
 62
     7
420
 16777215
176
     1
 90
        2
176
     1
 90
        2
176
     1
 62
     7
176
     1
 62
     7
176
     1
 90
        1
176
     1
 90
        1
176
     1
 40
40.0
176
     1
 90
        8
176
     1
 62
     7
176
     1
 40
1.0
176
     1
 90
        1
176
     1
 90
        6
176
     1
 90
        2
176
     1
 62
     7
176
     1
 90
        3
176
     1
 90
        0
176
     1
 90
        0
176
     1
290
     0
176
     1
 90
        1
176
     1
 40
0.0
176
     1
 90
        0
176
     1
290
     0
176
     1
290
     1
176
     1
290
     1
176
     1
290
     0
176
     1
290
     0
176
     1
290
     0
176
     1
290
     0
176
     1
290
     0
176
     1
290
     0
176
     1
 90
       50
176
     1
 40
0.0
176
     1
 40
1.0
176
     1
 90
        0
176
     1
 62
    18
420
        0
176
     1
 90
       50
176
     1
 90
        3
176
     1
 62
     5
420
      255
176
     1
290
     0
176
     1
 90
       50
176
     1
 90
       50
176
     1
 90
       50
176
     1
290
     0
176
     1
 90
       50
176
     1
 62
   256
176
     0
 40
1.0
176
     0
 90
        2
176
     1
  1
strokes_ogs.tif
176
     1
290
     0
176
     1
 40
1.0
176
     1
 40
1.0
176
     1
  0
VISUALSTYLE
  5
3B
102
{ACAD_REACTORS
330
29
102
}
330
29
100
AcDbVisualStyle
  2
Sketchy
 70
    24
177
     3
291
     0
 70
    58
 90
        1
176
     1
 90
        2
176
     1
 90
        2
176
     1
 90
        0
176
     1
 40
0.6
176
     1
 40
30.0
176
     1
 62
     7
420
 16777215
176
     1
 90
        2
176
     1
 90
        2
176
     1
 62
     7
176
     1
 62
     7
176
     1
 90
        1
176
     1
 90
        1
176
     1
 40
40.0
176
     1
 90
       11
176
     1
 62
     7
176
     1
 40
1.0
176
     1
 90
        1
176
     1
 90
        6
176
     1
 90
        2
176
     1
 62
     7
176
     1
 90
        6
176
     1
 90
        0
176
     1
 90
        0
176
     1
290
     0
176
     1
 90
        1
176
     1
 40
0.0
176
     1
 90
        0
176
     1
290
     0
176
     1
290
     1
176
     1
290
     1
176
     1
290
     0
176
     1
290
     0
176
     1
290
     0
176
     1
290
     0
176
     1
290
     0
176
     1
290
     0
176
     1
 90
       50
176
     1
 40
0.0
176
     1
 40
1.0
176
     1
 90
        0
176
     1
 62
    18
420
        0
176
     1
 90
       50
176
     1
 90
        3
176
     1
 62
     5
420
      255
176
     1
290
     0
176
     1
 90
       50
176
     1
 90
       50
176
     1
 90
       50
176
     1
290
     0
176
     1
 90
       50
176
     1
 62
   256
176
     0
 40
1.0
176
     0
 90
        2
176
     1
  1
strokes_ogs.tif
176
     1
290
     0
176
     1
 40
1.0
176
     1
 40
1.0
176
     1
  0
VISUALSTYLE
  5
36
102
{ACAD_REACTORS
330
29
102
}
330
29
100
AcDbVisualStyle
  2
Thicken
 70
    13
177
     3
291
     1
 70
    58
 90
        2
176
     1
 90
        2
176
     1
 90
        0
176
     1
 90
        0
176
     1
 40
0.6
176
     1
 40
30.0
176
     1
 62
     7
420
 16777215
176
     1
 90
        1
176
     1
 90
        4
176
     1
 62
     7
176
     1
 62
   257
176
     1
 90
        1
176
     1
 90
        1
176
     1
 40
1.0
176
     1
 90
       12
176
     1
 62
     7
176
     1
 40
1.0
176
     1
 90
        1
176
     1
 90
        6
176
     1
 90
        2
176
     1
 62
     7
176
     1
 90
        5
176
     1
 90
        0
176
     1
 90
        0
176
     1
290
     0
176
     1
 90
        1
176
     1
 40
0.0
176
     1
 90
        0
176
     1
290
     0
176
     1
290
     1
176
     1
290
     1
176
     1
290
     0
176
     1
290
     0
176
     1
290
     0
176
     1
290
     0
176
     1
290
     0
176
     1
290
     0
176
     1
 90
       50
176
     1
 40
0.0
176
     1
 40
1.0
176
     1
 90
        0
176
     1
 62
    18
420
        0
176
     1
 90
       50
176
     1
 90
        3
176
     1
 62
     5
420
      255
176
     1
290
     0
176
     1
 90
       50
176
     1
 90
       50
176
     1
 90
       50
176
     1
290
     0
176
     1
 90
       50
176
     1
 62
   256
176
     0
 40
1.0
176
     0
 90
        2
176
     1
  1
strokes_ogs.tif
176
     1
290
     0
176
     1
 40
1.0
176
     1
 40
1.0
176
     1
  0
VISUALSTYLE
  5
30
102
{ACAD_REACTORS
330
29
102
}
330
29
100
AcDbVisualStyle
  2
Wireframe
 70
     5
177
     3
291
     0
 70
    58
 90
        0
176
     1
 90
        2
176
     1
 90
        0
176
     1
 90
        0
176
     1
 40
0.6
176
     1
 40
30.0
176
     1
 62
     7
420
 16777215
176
     1
 90
        1
176
     1
 90
        4
176
     1
 62
     7
176
     1
 62
   257
176
     1
 90
        1
176
     1
 90
        1
176
     1
 40
1.0
176
     1
 90
        0
176
     1
 62
   257
176
     1
 40
1.0
176
     1
 90
        1
176
     1
 90
        6
176
     1
 90
        2
176
     1
 62
     7
176
     1
 90
        3
176
     1
 90
        0
176
     1
 90
        0
176
     1
290
     0
176
     1
 90
        1
176
     1
 40
0.0
176
     1
 90
        0
176
     1
290
     0
176
     1
290
     1
176
     1
290
     1
176
     1
290
     0
176
     1
290
     0
176
     1
290
     0
176
     1
290
     0
176
     1
290
     0
176
     1
290
     0
176
     1
 90
       50
176
     1
 40
0.0
176
     1
 40
1.0
176
     1
 90
        0
176
     1
 62
    18
420
        0
176
     1
 90
       50
176
     1
 90
        3
176
     1
 62
     5
420
      255
176
     1
290
     0
176
     1
 90
       50
176
     1
 90
       50
176
     1
 90
       50
176
     1
290
     0
176
     1
 90
       50
176
     1
 62
   256
176
     0
 40
1.0
176
     0
 90
        2
176
     1
  1
strokes_ogs.tif
176
     1
290
     0
176
     1
 40
1.0
176
     1
 40
1.0
176
     1
  0
VISUALSTYLE
  5
3C
102
{ACAD_REACTORS
330
29
102
}
330
29
100
AcDbVisualStyle
  2
X-Ray
 70
    25
177
     3
291
     0
 70
    58
 90
        2
176
     1
 90
        2
176
     1
 90
        1
176
     1
 90
        1
176
     1
 40
0.5
176
     1
 40
30.0
176
     1
 62
     7
420
 16777215
176
     1
 90
        1
176
     1
 90
        0
176
     1
 62
     7
176
     1
 62
   257
176
     1
 90
        1
176
     1
 90
        1
176
     1
 40
1.0
176
     1
 90
        8
176
     1
 62
     7
176
     1
 40
1.0
176
     1
 90
        1
176
     1
 90
        6
176
     1
 90
        2
176
     1
 62
     7
176
     1
 90
        3
176
     1
 90
        0
176
     1
 90
        0
176
     1
290
     0
176
     1
 90
       13
176
     1
 40
0.0
176
     1
 90
        0
176
     1
290
     0
176
     1
290
     1
176
     1
290
     1
176
     1
290
     0
176
     1
290
     0
176
     1
290
     0
176
     1
290
     0
176
     1
290
     0
176
     1
290
     0
176
     1
 90
       50
176
     1
 40
0.0
176
     1
 40
1.0
176
     1
 90
        0
176
     1
 62
    18
420
        0
176
     1
 90
       50
176
     1
 90
        3
176
     1
 62
     5
420
      255
176
     1
290
     0
176
     1
 90
       50
176
     1
 90
       50
176
     1
 90
       50
176
     1
290
     0
176
     1
 90
       50
176
     1
 62
   256
176
     0
 40
1.0
176
     0
 90
        2
176
     1
  1
strokes_ogs.tif
176
     1
290
     0
176
     1
 40
1.0
176
     1
 40
1.0
176
     1
  0
DICTIONARYVAR
  5
155
102
{ACAD_REACTORS
330
150
102
}
330
150
100
DictionaryVariables
280
     0
  1
1:1
  0
DICTIONARYVAR
  5
152
102
{ACAD_REACTORS
330
150
102
}
330
150
100
DictionaryVariables
280
     0
  1
STANDARD
  0
DICTIONARYVAR
  5
151
102
{ACAD_REACTORS
330
150
102
}
330
150
100
DictionaryVariables
280
     0
  1
STANDARD
  0
DICTIONARYVAR
  5
153
102
{ACAD_REACTORS
330
150
102
}
330
150
100
DictionaryVariables
280
     0
  1
Imperial24
  0
DICTIONARYVAR
  5
154
102
{ACAD_REACTORS
330
150
102
}
330
150
100
DictionaryVariables
280
     0
  1
Imperial24
  0
DICTIONARY
  5
1A
330
19
100
AcDbDictionary
280
     1
281
     1
  3
BUMPTILE
360
1C
  3
DIFFUSETILE
360
1B
  3
OPACITYTILE
360
1F
  3
REFLECTIONTILE
360
1E
  3
REFRACTIONTILE
360
20
  3
SPECULARTILE
360
1D
  0
DICTIONARY
  5
12
330
11
100
AcDbDictionary
280
     1
281
     1
  3
BUMPTILE
360
14
  3
DIFFUSETILE
360
13
  3
OPACITYTILE
360
17
  3
REFLECTIONTILE
360
16
  3
REFRACTIONTILE
360
18
  3
SPECULARTILE
360
15
  0
DICTIONARY
  5
22
330
21
100
AcDbDictionary
280
     1
281
     1
  3
BUMPTILE
360
24
  3
DIFFUSETILE
360
23
  3
OPACITYTILE
360
27
  3
REFLECTIONTILE
360
26
  3
REFRACTIONTILE
360
28
  3
SPECULARTILE
360
25
  0
DICTIONARY
  5
156
330
65
100
AcDbDictionary
280
     1
281
     1
  3
ACAD_ROUNDTRIP_2008_TABLESTYLE_CELLSTYLEMAP
360
157
  0
XRECORD
  5
1C
102
{ACAD_REACTORS
330
1A
102
}
330
1A
100
AcDbXrecord
280
     1
270
     1
271
     1
  0
XRECORD
  5
1B
102
{ACAD_REACTORS
330
1A
102
}
330
1A
100
AcDbXrecord
280
     1
270
     1
271
     1
  0
XRECORD
  5
1F
102
{ACAD_REACTORS
330
1A
102
}
330
1A
100
AcDbXrecord
280
     1
270
     1
271
     1
  0
XRECORD
  5
1E
102
{ACAD_REACTORS
330
1A
102
}
330
1A
100
AcDbXrecord
280
     1
270
     1
271
     1
  0
XRECORD
  5
20
102
{ACAD_REACTORS
330
1A
102
}
330
1A
100
AcDbXrecord
280
     1
270
     1
271
     1
  0
XRECORD
  5
1D
102
{ACAD_REACTORS
330
1A
102
}
330
1A
100
AcDbXrecord
280
     1
270
     1
271
     1
  0
XRECORD
  5
14
102
{ACAD_REACTORS
330
12
102
}
330
12
100
AcDbXrecord
280
     1
270
     1
271
     1
  0
XRECORD
  5
13
102
{ACAD_REACTORS
330
12
102
}
330
12
100
AcDbXrecord
280
     1
270
     1
271
     1
  0
XRECORD
  5
17
102
{ACAD_REACTORS
330
12
102
}
330
12
100
AcDbXrecord
280
     1
270
     1
271
     1
  0
XRECORD
  5
16
102
{ACAD_REACTORS
330
12
102
}
330
12
100
AcDbXrecord
280
     1
270
     1
271
     1
  0
XRECORD
  5
18
102
{ACAD_REACTORS
330
12
102
}
330
12
100
AcDbXrecord
280
     1
270
     1
271
     1
  0
XRECORD
  5
15
102
{ACAD_REACTORS
330
12
102
}
330
12
100
AcDbXrecord
280
     1
270
     1
271
     1
  0
XRECORD
  5
24
102
{ACAD_REACTORS
330
22
102
}
330
22
100
AcDbXrecord
280
     1
270
     1
271
     1
  0
XRECORD
  5
23
102
{ACAD_REACTORS
330
22
102
}
330
22
100
AcDbXrecord
280
     1
270
     1
271
     1
  0
XRECORD
  5
27
102
{ACAD_REACTORS
330
22
102
}
330
22
100
AcDbXrecord
280
     1
270
     1
271
     1
  0
XRECORD
  5
26
102
{ACAD_REACTORS
330
22
102
}
330
22
100
AcDbXrecord
280
     1
270
     1
271
     1
  0
XRECORD
  5
28
102
{ACAD_REACTORS
330
22
102
}
330
22
100
AcDbXrecord
280
     1
270
     1
271
     1
  0
XRECORD
  5
25
102
{ACAD_REACTORS
330
22
102
}
330
22
100
AcDbXrecord
280
     1
270
     1
271
     1
  0
CELLSTYLEMAP
  5
157
102
{ACAD_REACTORS
330
156
102
}
330
156
100
AcDbCellStyleMap
 90
        3
300
CELLSTYLE
  1
TABLEFORMAT_BEGIN
 90
        5
170
     1
 91
        0
 92
    32768
 62
   257
 93
        1
300
CONTENTFORMAT
  1
CONTENTFORMAT_BEGIN
 90
        0
 91
        0
 92
      512
 93
        0
300

 40
0.0
140
1.0
 94
        5
 62
     0
340
55
144
0.25
309
CONTENTFORMAT_END
171
     0
 94
        0
309
TABLEFORMAT_END
  1
CELLSTYLE_BEGIN
 90
        1
 91
        1
300
_TITLE
309
CELLSTYLE_END
300
CELLSTYLE
  1
TABLEFORMAT_BEGIN
 90
        5
170
     1
 91
        0
 92
        0
 62
   257
 93
        1
300
CONTENTFORMAT
  1
CONTENTFORMAT_BEGIN
 90
        0
 91
        0
 92
      512
 93
        0
300

 40
0.0
140
1.0
 94
        5
 62
     0
340
55
144
0.18
309
CONTENTFORMAT_END
171
     0
 94
        0
309
TABLEFORMAT_END
  1
CELLSTYLE_BEGIN
 90
        2
 91
        1
300
_HEADER
309
CELLSTYLE_END
300
CELLSTYLE
  1
TABLEFORMAT_BEGIN
 90
        5
170
     1
 91
        0
 92
        0
 62
   257
 93
        1
300
CONTENTFORMAT
  1
CONTENTFORMAT_BEGIN
 90
        0
 91
        0
 92
      512
 93
        0
300

 40
0.0
140
1.0
 94
        2
 62
     0
340
55
144
0.18
309
CONTENTFORMAT_END
171
     0
 94
        0
309
TABLEFORMAT_END
  1
CELLSTYLE_BEGIN
 90
        3
 91
        2
300
_DATA
309
CELLSTYLE_END
  0
ENDSEC
  0
EOF
