  0
SECTION
  2
HEADER
  9
$ACADVER
  1
AC1014
  9
$ACADMAINTVER
 70
     9
  9
$DWGCODEPAGE
  3
ANSI_1252
  9
$INSBASE
 10
0.0
 20
0.0
 30
0.0
  9
$EXTMIN
 10
1.000000000000000E+20
 20
1.000000000000000E+20
 30
1.000000000000000E+20
  9
$EXTMAX
 10
-1.000000000000000E+20
 20
-1.000000000000000E+20
 30
-1.000000000000000E+20
  9
$LIMMIN
 10
0.0
 20
0.0
  9
$LIMMAX
 10
12.0
 20
9.0
  9
$ORTHOMODE
 70
     0
  9
$REGENMODE
 70
     1
  9
$FILLMODE
 70
     1
  9
$QTEXTMODE
 70
     0
  9
$MIRRTEXT
 70
     1
  9
$DRAGMODE
 70
     2
  9
$LTSCALE
 40
1.0
  9
$OSMODE
 70
    37
  9
$ATTMODE
 70
     1
  9
$TEXTSIZE
 40
0.2
  9
$TRACEWID
 40
0.05
  9
$TEXTSTYLE
  7
STANDARD
  9
$CLAYER
  8
0
  9
$CELTYPE
  6
BYLAYER
  9
$CECOLOR
 62
   256
  9
$CELTSCALE
 40
1.0
  9
$DELOBJ
 70
     1
  9
$DISPSILH
 70
     0
  9
$DIMSCALE
 40
1.0
  9
$DIMASZ
 40
0.18
  9
$DIMEXO
 40
0.0625
  9
$DIMDLI
 40
0.38
  9
$DIMRND
 40
0.0
  9
$DIMDLE
 40
0.0
  9
$DIMEXE
 40
0.18
  9
$DIMTP
 40
0.0
  9
$DIMTM
 40
0.0
  9
$DIMTXT
 40
0.18
  9
$DIMCEN
 40
0.09
  9
$DIMTSZ
 40
0.0
  9
$DIMTOL
 70
     0
  9
$DIMLIM
 70
     0
  9
$DIMTIH
 70
     1
  9
$DIMTOH
 70
     1
  9
$DIMSE1
 70
     0
  9
$DIMSE2
 70
     0
  9
$DIMTAD
 70
     0
  9
$DIMZIN
 70
     0
  9
$DIMBLK
  1

  9
$DIMASO
 70
     1
  9
$DIMSHO
 70
     1
  9
$DIMPOST
  1

  9
$DIMAPOST
  1

  9
$DIMALT
 70
     0
  9
$DIMALTD
 70
     2
  9
$DIMALTF
 40
25.4
  9
$DIMLFAC
 40
1.0
  9
$DIMTOFL
 70
     0
  9
$DIMTVP
 40
0.0
  9
$DIMTIX
 70
     0
  9
$DIMSOXD
 70
     0
  9
$DIMSAH
 70
     0
  9
$DIMBLK1
  1

  9
$DIMBLK2
  1

  9
$DIMSTYLE
  2
STANDARD
  9
$DIMCLRD
 70
     0
  9
$DIMCLRE
 70
     0
  9
$DIMCLRT
 70
     0
  9
$DIMTFAC
 40
1.0
  9
$DIMGAP
 40
0.09
  9
$DIMJUST
 70
     0
  9
$DIMSD1
 70
     0
  9
$DIMSD2
 70
     0
  9
$DIMTOLJ
 70
     1
  9
$DIMTZIN
 70
     0
  9
$DIMALTZ
 70
     0
  9
$DIMALTTZ
 70
     0
  9
$DIMFIT
 70
     3
  9
$DIMUPT
 70
     0
  9
$DIMUNIT
 70
     2
  9
$DIMDEC
 70
     4
  9
$DIMTDEC
 70
     4
  9
$DIMALTU
 70
     2
  9
$DIMALTTD
 70
     2
  9
$DIMTXSTY
  7
STANDARD
  9
$DIMAUNIT
 70
     0
  9
$LUNITS
 70
     2
  9
$LUPREC
 70
     4
  9
$SKETCHINC
 40
0.1
  9
$FILLETRAD
 40
0.0
  9
$AUNITS
 70
     0
  9
$AUPREC
 70
     0
  9
$MENU
  1
.
  9
$ELEVATION
 40
0.0
  9
$PELEVATION
 40
0.0
  9
$THICKNESS
 40
0.0
  9
$LIMCHECK
 70
     0
  9
$CHAMFERA
 40
0.0
  9
$CHAMFERB
 40
0.0
  9
$CHAMFERC
 40
0.0
  9
$CHAMFERD
 40
0.0
  9
$SKPOLY
 70
     0
  9
$TDCREATE
 40
2460518.529699039
  9
$TDUPDATE
 40
2460518.529704676
  9
$TDINDWG
 40
0.0000000116
  9
$TDUSRTIMER
 40
0.0000000116
  9
$USRTIMER
 70
     1
  9
$ANGBASE
 50
0.0
  9
$ANGDIR
 70
     0
  9
$PDMODE
 70
     0
  9
$PDSIZE
 40
0.0
  9
$PLINEWID
 40
0.0
  9
$COORDS
 70
     1
  9
$SPLFRAME
 70
     0
  9
$SPLINETYPE
 70
     6
  9
$SPLINESEGS
 70
     8
  9
$ATTDIA
 70
     0
  9
$ATTREQ
 70
     1
  9
$HANDLING
 70
     1
  9
$HANDSEED
  5
3AA
  9
$SURFTAB1
 70
     6
  9
$SURFTAB2
 70
     6
  9
$SURFTYPE
 70
     6
  9
$SURFU
 70
     6
  9
$SURFV
 70
     6
  9
$UCSNAME
  2

  9
$UCSORG
 10
0.0
 20
0.0
 30
0.0
  9
$UCSXDIR
 10
1.0
 20
0.0
 30
0.0
  9
$UCSYDIR
 10
0.0
 20
1.0
 30
0.0
  9
$PUCSNAME
  2

  9
$PUCSORG
 10
0.0
 20
0.0
 30
0.0
  9
$PUCSXDIR
 10
1.0
 20
0.0
 30
0.0
  9
$PUCSYDIR
 10
0.0
 20
1.0
 30
0.0
  9
$USERI1
 70
     0
  9
$USERI2
 70
     0
  9
$USERI3
 70
     0
  9
$USERI4
 70
     0
  9
$USERI5
 70
     0
  9
$USERR1
 40
0.0
  9
$USERR2
 40
0.0
  9
$USERR3
 40
0.0
  9
$USERR4
 40
0.0
  9
$USERR5
 40
0.0
  9
$WORLDVIEW
 70
     1
  9
$SHADEDGE
 70
     3
  9
$SHADEDIF
 70
    70
  9
$TILEMODE
 70
     1
  9
$MAXACTVP
 70
    64
  9
$PINSBASE
 10
0.0
 20
0.0
 30
0.0
  9
$PLIMCHECK
 70
     0
  9
$PEXTMIN
 10
1.000000000000000E+20
 20
1.000000000000000E+20
 30
1.000000000000000E+20
  9
$PEXTMAX
 10
-1.000000000000000E+20
 20
-1.000000000000000E+20
 30
-1.000000000000000E+20
  9
$PLIMMIN
 10
0.0
 20
0.0
  9
$PLIMMAX
 10
12.0
 20
9.0
  9
$UNITMODE
 70
     0
  9
$VISRETAIN
 70
     1
  9
$PLINEGEN
 70
     0
  9
$PSLTSCALE
 70
     1
  9
$TREEDEPTH
 70
  3020
  9
$PICKSTYLE
 70
     1
  9
$CMLSTYLE
  2
STANDARD
  9
$CMLJUST
 70
     0
  9
$CMLSCALE
 40
1.0
  9
$PROXYGRAPHICS
 70
     1
  9
$MEASUREMENT
 70
     1
  0
ENDSEC
  0
SECTION
  2
CLASSES
  0
CLASS
  1
ACDBDICTIONARYWDFLT
  2
AcDbDictionaryWithDefault
  3
ObjectDBX Classes
 90
        0
280
     0
281
     0
  0
CLASS
  1
VISUALSTYLE
  2
AcDbVisualStyle
  3
ObjectDBX Classes
 90
     4095
280
     0
281
     0
  0
CLASS
  1
MATERIAL
  2
AcDbMaterial
  3
ObjectDBX Classes
 90
     1153
280
     0
281
     0
  0
CLASS
  1
SCALE
  2
AcDbScale
  3
ObjectDBX Classes
 90
     1153
280
     0
281
     0
  0
CLASS
  1
TABLESTYLE
  2
AcDbTableStyle
  3
ObjectDBX Classes
 90
     4095
280
     0
281
     0
  0
CLASS
  1
MLEADERSTYLE
  2
AcDbMLeaderStyle
  3
ACDB_MLEADERSTYLE_CLASS
 90
     4095
280
     0
281
     0
  0
CLASS
  1
SUN
  2
AcDbSun
  3
SCENEOE
 90
     1153
280
     0
281
     0
  0
CLASS
  1
DICTIONARYVAR
  2
AcDbDictionaryVar
  3
ObjectDBX Classes
 90
        0
280
     0
281
     0
  0
CLASS
  1
XRECORD
  2
AcDbXrecord
  3
ObjectDBX Classes
 90
        0
280
     0
281
     0
  0
CLASS
  1
LWPOLYLINE
  2
AcDbPolyline
  3
ObjectDBX Classes
 90
        0
280
     0
281
     1
  0
CLASS
  1
HATCH
  2
AcDbHatch
  3
ObjectDBX Classes
 90
        0
280
     0
281
     1
  0
CLASS
  1
ACDBPLACEHOLDER
  2
AcDbPlaceHolder
  3
ObjectDBX Classes
 90
        0
280
     0
281
     0
  0
CLASS
  1
LAYOUT
  2
AcDbLayout
  3
ObjectDBX Classes
 90
        0
280
     0
281
     0
  0
ENDSEC
  0
SECTION
  2
TABLES
  0
TABLE
  2
VPORT
  5
8
102
{ACAD_XDICTIONARY
360
39F
102
}
330
0
100
AcDbSymbolTable
 70
     1
  0
VPORT
  5
29
330
8
100
AcDbSymbolTableRecord
100
AcDbViewportTableRecord
  2
*ACTIVE
 70
     0
 10
0.0
 20
0.0
 11
1.0
 21
1.0
 12
0.0
 22
0.0
 13
0.0
 23
0.0
 14
0.5
 24
0.5
 15
0.5
 25
0.5
 16
0.0
 26
0.0
 36
1.0
 17
0.0
 27
0.0
 37
-1000.0
 40
0.5764785602743111
 41
1.892903225806452
 42
50.0
 43
0.818873723913273
 44
1.01471279466485
 50
0.0
 51
0.0
 71
     0
 72
   100
 73
     1
 74
     3
 75
     0
 76
     0
 77
     0
 78
     0
  0
ENDTAB
  0
TABLE
  2
LTYPE
  5
5
330
0
100
AcDbSymbolTable
 70
     1
  0
LTYPE
  5
14
330
5
100
AcDbSymbolTableRecord
100
AcDbLinetypeTableRecord
  2
BYBLOCK
 70
     0
  3

 72
    65
 73
     0
 40
0.0
  0
LTYPE
  5
15
330
5
100
AcDbSymbolTableRecord
100
AcDbLinetypeTableRecord
  2
BYLAYER
 70
     0
  3

 72
    65
 73
     0
 40
0.0
  0
LTYPE
  5
16
330
5
100
AcDbSymbolTableRecord
100
AcDbLinetypeTableRecord
  2
CONTINUOUS
 70
     0
  3
Solid line
 72
    65
 73
     0
 40
0.0
  0
ENDTAB
  0
TABLE
  2
LAYER
  5
2
330
0
100
AcDbSymbolTable
 70
     3
  0
LAYER
  5
10
330
2
100
AcDbSymbolTableRecord
100
AcDbLayerTableRecord
  2
0
 70
     0
 62
     7
  6
CONTINUOUS
  0
LAYER
  5
5E
330
2
100
AcDbSymbolTableRecord
100
AcDbLayerTableRecord
  2
PROFILEEDGES
 70
     0
 62
     7
  6
CONTINUOUS
  0
LAYER
  5
5F
330
2
100
AcDbSymbolTableRecord
100
AcDbLayerTableRecord
  2
SECTIONCUTEDGES
 70
     0
 62
     7
  6
CONTINUOUS
  0
ENDTAB
  0
TABLE
  2
STYLE
  5
3
330
0
100
AcDbSymbolTable
 70
     1
  0
STYLE
  5
11
330
3
100
AcDbSymbolTableRecord
100
AcDbTextStyleTableRecord
  2
STANDARD
 70
     0
 40
0.0
 41
1.0
 50
0.0
 71
     0
 42
0.2
  3
txt
  4

  0
ENDTAB
  0
TABLE
  2
VIEW
  5
6
330
0
100
AcDbSymbolTable
 70
     0
  0
ENDTAB
  0
TABLE
  2
UCS
  5
7
330
0
100
AcDbSymbolTable
 70
     0
  0
ENDTAB
  0
TABLE
  2
APPID
  5
9
330
0
100
AcDbSymbolTable
 70
     2
  0
APPID
  5
12
330
9
100
AcDbSymbolTableRecord
100
AcDbRegAppTableRecord
  2
ACAD
 70
     0
  0
APPID
  5
3A9
330
9
100
AcDbSymbolTableRecord
100
AcDbRegAppTableRecord
  2
ACAD_MLEADERVER
 70
     0
  0
ENDTAB
  0
TABLE
  2
DIMSTYLE
  5
A
330
0
100
AcDbSymbolTable
 70
     1
  0
DIMSTYLE
105
27
330
A
100
AcDbSymbolTableRecord
100
AcDbDimStyleTableRecord
  2
STANDARD
 70
     0
  3

  4

  5

  6

  7

 40
1.0
 41
0.18
 42
0.0625
 43
0.38
 44
0.18
 45
0.0
 46
0.0
 47
0.0
 48
0.0
140
0.18
141
0.09
142
0.0
143
25.4
144
1.0
145
0.0
146
1.0
147
0.09
 71
     0
 72
     0
 73
     1
 74
     1
 75
     0
 76
     0
 77
     0
 78
     0
170
     0
171
     2
172
     0
173
     0
174
     0
175
     0
176
     0
177
     0
178
     0
270
     2
271
     4
272
     4
273
     2
274
     2
340
11
275
     0
280
     0
281
     0
282
     0
283
     1
284
     0
285
     0
286
     0
287
     3
288
     0
  0
ENDTAB
  0
TABLE
  2
BLOCK_RECORD
  5
1
330
0
100
AcDbSymbolTable
 70
     0
  0
BLOCK_RECORD
  5
1F
330
1
100
AcDbSymbolTableRecord
100
AcDbBlockTableRecord
  2
*MODEL_SPACE
  0
BLOCK_RECORD
  5
1B
330
1
100
AcDbSymbolTableRecord
100
AcDbBlockTableRecord
  2
*PAPER_SPACE
  0
ENDTAB
  0
ENDSEC
  0
SECTION
  2
BLOCKS
  0
BLOCK
  5
20
330
1F
100
AcDbEntity
  8
0
100
AcDbBlockBegin
  2
*MODEL_SPACE
 70
     0
 10
0.0
 20
0.0
 30
0.0
  3
*MODEL_SPACE
  1

  0
ENDBLK
  5
21
330
1F
100
AcDbEntity
  8
0
100
AcDbBlockEnd
  0
BLOCK
  5
1C
330
1B
100
AcDbEntity
 67
     1
  8
0
100
AcDbBlockBegin
  2
*PAPER_SPACE
 70
     0
 10
0.0
 20
0.0
 30
0.0
  3
*PAPER_SPACE
  1

  0
ENDBLK
  5
1D
330
1B
100
AcDbEntity
 67
     1
  8
0
100
AcDbBlockEnd
  0
ENDSEC
  0
SECTION
  2
ENTITIES
  0
LINE
  5
60
330
1F
100
AcDbEntity
  8
0
100
AcDbLine
 10
-0.1331324982706457
 20
-0.2662035004124195
 30
0.0
 11
-0.1331662194364764
 21
-0.2664612127565672
 31
0.0
  0
LINE
  5
61
330
1F
100
AcDbEntity
  8
0
100
AcDbLine
 10
-0.0813826959414758
 20
-0.2662035004124195
 30
0.0
 11
-0.0813489747756451
 21
-0.2664612127565672
 31
0.0
  0
LINE
  5
62
330
1F
100
AcDbEntity
  8
0
100
AcDbLine
 10
-0.0820833827418802
 20
-0.2654967852381167
 30
0.0
 11
-0.0823404212232176
 21
-0.2654612363782428
 31
0.0
  0
LINE
  5
63
330
1F
100
AcDbEntity
  8
0
100
AcDbLine
 10
-0.1324318114702414
 20
-0.2654967852381167
 30
0.0
 11
-0.132174772988904
 21
-0.2654612363782428
 31
0.0
  0
LINE
  5
64
330
1F
100
AcDbEntity
  8
0
100
AcDbLine
 10
-0.1330336128613683
 20
-0.2659631982449223
 30
0.0
 11
-0.1331324982706457
 21
-0.2662035004124195
 31
0.0
  0
LINE
  5
65
330
1F
100
AcDbEntity
  8
0
100
AcDbLine
 10
-0.0814815813507533
 20
-0.2659631982449223
 30
0.0
 11
-0.0813826959414758
 21
-0.2662035004124195
 31
0.0
  0
LINE
  5
66
330
1F
100
AcDbEntity
  8
0
100
AcDbLine
 10
-0.1328762435733327
 20
-0.2657565402579202
 30
0.0
 11
-0.1330336128613683
 21
-0.2659631982449223
 31
0.0
  0
LINE
  5
67
330
1F
100
AcDbEntity
  8
0
100
AcDbLine
 10
-0.0816389506387889
 20
-0.2657565402579202
 30
0.0
 11
-0.0814815813507533
 21
-0.2659631982449223
 31
0.0
  0
LINE
  5
68
330
1F
100
AcDbEntity
  8
0
100
AcDbLine
 10
-0.1326710217447979
 20
-0.2655974875679125
 30
0.0
 11
-0.1328762435733327
 21
-0.2657565402579202
 31
0.0
  0
LINE
  5
69
330
1F
100
AcDbEntity
  8
0
100
AcDbLine
 10
-0.0818441724673237
 20
-0.2655974875679125
 30
0.0
 11
-0.0816389506387889
 21
-0.2657565402579202
 31
0.0
  0
LINE
  5
6A
330
1F
100
AcDbEntity
  8
0
100
AcDbLine
 10
-0.1324318114702414
 20
-0.2654967852381167
 30
0.0
 11
-0.1326710217447979
 21
-0.2655974875679125
 31
0.0
  0
LINE
  5
6B
330
1F
100
AcDbEntity
  8
0
100
AcDbLine
 10
-0.0820833827418802
 20
-0.2654967852381167
 30
0.0
 11
-0.0818441724673237
 21
-0.2655974875679125
 31
0.0
  0
LINE
  5
6C
330
1F
100
AcDbEntity
  8
0
100
AcDbLine
 10
-0.0813489747756451
 20
-0.2664612127565672
 30
0.0
 11
-0.0813489747756451
 21
-0.2724877308715082
 31
0.0
  0
LINE
  5
6D
330
1F
100
AcDbEntity
  8
0
100
AcDbLine
 10
-0.1331662194364764
 20
-0.2664612127565672
 30
0.0
 11
-0.1331662194364764
 21
-0.2724877308715082
 31
0.0
  0
LINE
  5
6E
330
1F
100
AcDbEntity
  8
0
100
AcDbLine
 10
-0.0853208807458163
 20
-0.2624811743572799
 30
0.0
 11
-0.0851719280880181
 21
-0.2632504292351984
 31
0.0
  0
LINE
  5
6F
330
1F
100
AcDbEntity
  8
0
100
AcDbLine
 10
-0.1314477719929366
 20
-0.2653554633459018
 30
0.0
 11
-0.132174772988904
 21
-0.2654612363782428
 31
0.0
  0
LINE
  5
70
330
1F
100
AcDbEntity
  8
0
100
AcDbLine
 10
-0.1307314547193573
 20
-0.2650558139483392
 30
0.0
 11
-0.1314477719929366
 21
-0.2653554633459018
 31
0.0
  0
LINE
  5
71
330
1F
100
AcDbEntity
  8
0
100
AcDbLine
 10
-0.1301160338420955
 20
-0.2645823613723424
 30
0.0
 11
-0.1307314547193573
 21
-0.2650558139483392
 31
0.0
  0
LINE
  5
72
330
1F
100
AcDbEntity
  8
0
100
AcDbLine
 10
-0.1291943134663052
 20
-0.2624811743572799
 30
0.0
 11
-0.1293432661241035
 21
-0.2632504292351984
 31
0.0
  0
LINE
  5
73
330
1F
100
AcDbEntity
  8
0
100
AcDbLine
 10
-0.0848724584766721
 20
-0.263966821690329
 30
0.0
 11
-0.0851719280880181
 21
-0.2632504292351984
 31
0.0
  0
LINE
  5
74
330
1F
100
AcDbEntity
  8
0
100
AcDbLine
 10
-0.0843991603700261
 20
-0.2645823613723424
 30
0.0
 11
-0.0848724584766721
 21
-0.263966821690329
 31
0.0
  0
LINE
  5
75
330
1F
100
AcDbEntity
  8
0
100
AcDbLine
 10
-0.0837837394927643
 20
-0.2650558139483392
 30
0.0
 11
-0.0843991603700261
 21
-0.2645823613723424
 31
0.0
  0
LINE
  5
76
330
1F
100
AcDbEntity
  8
0
100
AcDbLine
 10
-0.0830674222191849
 20
-0.2653554633459018
 30
0.0
 11
-0.0837837394927643
 21
-0.2650558139483392
 31
0.0
  0
LINE
  5
77
330
1F
100
AcDbEntity
  8
0
100
AcDbLine
 10
-0.0823404212232176
 20
-0.2654612363782428
 30
0.0
 11
-0.0830674222191849
 21
-0.2653554633459018
 31
0.0
  0
LINE
  5
78
330
1F
100
AcDbEntity
  8
0
100
AcDbLine
 10
-0.1296427357354495
 20
-0.263966821690329
 30
0.0
 11
-0.1301160338420955
 21
-0.2645823613723424
 31
0.0
  0
LINE
  5
79
330
1F
100
AcDbEntity
  8
0
100
AcDbLine
 10
-0.1293432661241035
 20
-0.2632504292351984
 30
0.0
 11
-0.1296427357354495
 21
-0.263966821690329
 31
0.0
  0
LINE
  5
7A
330
1F
100
AcDbEntity
  8
0
100
AcDbLine
 10
-0.0855819007944213
 20
-0.1603263023931239
 30
0.0
 11
-0.0860058960868769
 21
-0.1588393443803495
 31
0.0
  0
LINE
  5
7B
330
1F
100
AcDbEntity
  8
0
100
AcDbLine
 10
-0.1285092981252447
 20
-0.1588393443803486
 30
0.0
 11
-0.1289332934177006
 21
-0.1603263023931239
 31
0.0
  0
LINE
  5
7C
330
1F
100
AcDbEntity
  8
0
100
AcDbLine
 10
-0.0852941451125002
 20
-0.165183276832176
 30
0.0
 11
-0.0852978971677362
 21
-0.1651173413525588
 31
0.0
  0
LINE
  5
7D
330
1F
100
AcDbEntity
  8
0
100
AcDbLine
 10
-0.0854516551697546
 20
-0.1624153268644049
 30
0.0
 11
-0.0855647732980104
 21
-0.160427483517016
 31
0.0
  0
LINE
  5
7E
330
1F
100
AcDbEntity
  8
0
100
AcDbLine
 10
-0.0855647732980104
 20
-0.160427483517016
 30
0.0
 11
-0.0855786785231907
 21
-0.1603779847699475
 31
0.0
  0
LINE
  5
7F
330
1F
100
AcDbEntity
  8
0
100
AcDbLine
 10
-0.0854582761550808
 20
-0.166199196726923
 30
0.0
 11
-0.0852941451125002
 21
-0.165183276832176
 31
0.0
  0
LINE
  5
80
330
1F
100
AcDbEntity
  8
0
100
AcDbLine
 10
-0.1292210490996216
 20
-0.165183276832176
 30
0.0
 11
-0.129056918057041
 21
-0.1661991967269232
 31
0.0
  0
LINE
  5
81
330
1F
100
AcDbEntity
  8
0
100
AcDbLine
 10
-0.1289504209141115
 20
-0.160427483517016
 30
0.0
 11
-0.1290635390423674
 21
-0.1624153268644063
 31
0.0
  0
LINE
  5
82
330
1F
100
AcDbEntity
  8
0
100
AcDbLine
 10
-0.1292172970443856
 20
-0.1651173413525588
 30
0.0
 11
-0.1292210490996216
 21
-0.165183276832176
 31
0.0
  0
LINE
  5
83
330
1F
100
AcDbEntity
  8
0
100
AcDbLine
 10
-0.1289365156889311
 20
-0.1603779847699475
 30
0.0
 11
-0.1289504209141115
 21
-0.160427483517016
 31
0.0
  0
LINE
  5
84
330
1F
100
AcDbEntity
  8
0
100
AcDbLine
 10
-0.0937575971060608
 20
0.0291922714530732
 30
0.0
 11
-0.0937575971060608
 21
-0.114487728546927
 31
0.0
  0
LINE
  5
85
330
1F
100
AcDbEntity
  8
0
100
AcDbLine
 10
-0.1219991329826391
 20
0.0296122714530732
 30
0.0
 11
-0.1220977148033201
 21
0.0298148634551871
 31
0.0
  0
LINE
  5
86
330
1F
100
AcDbEntity
  8
0
100
AcDbLine
 10
-0.0938478555943153
 20
0.0294251504213728
 30
0.0
 11
-0.0937094579969794
 21
0.0295497794998286
 31
0.0
  0
LINE
  5
87
330
1F
100
AcDbEntity
  8
0
100
AcDbLine
 10
-0.0940183128049384
 20
0.0293239086442667
 30
0.0
 11
-0.0938478555943153
 21
0.0294251504213728
 31
0.0
  0
LINE
  5
88
330
1F
100
AcDbEntity
  8
0
100
AcDbLine
 10
-0.0942023104211248
 20
0.0292513193028284
 30
0.0
 11
-0.0940183128049384
 21
0.0293239086442667
 31
0.0
  0
LINE
  5
89
330
1F
100
AcDbEntity
  8
0
100
AcDbLine
 10
-0.1218420179444625
 20
0.0294383017568765
 30
0.0
 11
-0.1219991329826391
 21
0.0296122714530732
 31
0.0
  0
LINE
  5
8A
330
1F
100
AcDbEntity
  8
0
100
AcDbLine
 10
-0.1216371040717221
 20
0.0293048101138942
 30
0.0
 11
-0.1218420179444625
 21
0.0294383017568765
 31
0.0
  0
LINE
  5
8B
330
1F
100
AcDbEntity
  8
0
100
AcDbLine
 10
-0.1208325971060608
 20
0.0291922714530732
 30
0.0
 11
-0.1211421548013243
 21
0.0291922714530732
 31
0.0
  0
LINE
  5
8C
330
1F
100
AcDbEntity
  8
0
100
AcDbLine
 10
-0.1211421548013243
 20
0.0291922714530732
 30
0.0
 11
-0.1213983839158291
 21
0.0292208937589903
 31
0.0
  0
LINE
  5
8D
330
1F
100
AcDbEntity
  8
0
100
AcDbLine
 10
-0.0937094579969794
 20
0.0295497794998286
 30
0.0
 11
-0.0935999151003305
 21
0.0296984019822576
 31
0.0
  0
LINE
  5
8E
330
1F
100
AcDbEntity
  8
0
100
AcDbLine
 10
-0.122131018492226
 20
0.0300322714530732
 30
0.0
 11
-0.1220977148033201
 21
0.0298148634551871
 31
0.0
  0
LINE
  5
8F
330
1F
100
AcDbEntity
  8
0
100
AcDbLine
 10
-0.0935999151003305
 20
0.0296984019822576
 30
0.0
 11
-0.0935341608039231
 21
0.0298604250654984
 31
0.0
  0
LINE
  5
90
330
1F
100
AcDbEntity
  8
0
100
AcDbLine
 10
-0.0935341608039231
 20
0.0298604250654984
 30
0.0
 11
-0.093509870021193
 21
0.0300322714530732
 31
0.0
  0
LINE
  5
91
330
1F
100
AcDbEntity
  8
0
100
AcDbLine
 10
-0.1213983839158291
 20
0.0292208937589903
 30
0.0
 11
-0.1216371040717221
 21
0.0293048101138942
 31
0.0
  0
LINE
  5
92
330
1F
100
AcDbEntity
  8
0
100
AcDbLine
 10
0.1127424028939394
 20
0.0291922714530735
 30
0.0
 11
0.1127424028939393
 21
0.0485122714530735
 31
0.0
  0
LINE
  5
93
330
1F
100
AcDbEntity
  8
0
100
AcDbLine
 10
-0.0942023104211248
 20
0.0292513193028284
 30
0.0
 11
-0.0941809002754385
 21
0.0293346876838773
 31
0.0
  0
LINE
  5
94
330
1F
100
AcDbEntity
  8
0
100
AcDbLine
 10
-0.1211429415215533
 20
0.0292208937589903
 30
0.0
 11
-0.1211421548013243
 21
0.0291922714530732
 31
0.0
  0
LINE
  5
95
330
1F
100
AcDbEntity
  8
0
100
AcDbLine
 10
0.0937424028939394
 20
0.0485122714530735
 30
0.0
 11
0.0937424028939394
 21
0.0291922714530735
 31
0.0
  0
LINE
  5
96
330
1F
100
AcDbEntity
  8
0
100
AcDbLine
 10
-0.093509870021193
 20
0.0485122714530732
 30
0.0
 11
-0.093509870021193
 21
0.0300322714530732
 31
0.0
  0
LINE
  5
97
330
1F
100
AcDbEntity
  8
0
100
AcDbLine
 10
-0.122131018492226
 20
0.0300322714530732
 30
0.0
 11
-0.1221310184922261
 21
0.0485122714530732
 31
0.0
  0
LINE
  5
98
330
1F
100
AcDbEntity
  8
0
100
AcDbLine
 10
0.0937424028939394
 20
0.0485122714530735
 30
0.0
 11
-0.093509870021193
 21
0.0485122714530732
 31
0.0
  0
LINE
  5
99
330
1F
100
AcDbEntity
  8
0
100
AcDbLine
 10
-0.0937575971060608
 20
0.0291922714530732
 30
0.0
 11
0.0937424028939394
 21
0.0291922714530735
 31
0.0
  0
LINE
  5
9A
330
1F
100
AcDbEntity
  8
0
100
AcDbLine
 10
0.1282424028939374
 20
0.0485122714530733
 30
0.0
 11
0.1282424028939374
 21
0.0515122714530732
 31
0.0
  0
LINE
  5
9B
330
1F
100
AcDbEntity
  8
0
100
AcDbLine
 10
0.0972926646178572
 20
0.0485122714530735
 30
0.0
 11
0.0972926646178572
 21
0.0515122714530732
 31
0.0
  0
LINE
  5
9C
330
1F
100
AcDbEntity
  8
0
100
AcDbLine
 10
0.1272424028939373
 20
0.0255122714530733
 30
0.0
 11
0.1272424028939374
 21
0.0485122714530733
 31
0.0
  0
LINE
  5
9D
330
1F
100
AcDbEntity
  8
0
100
AcDbLine
 10
0.0982424028939374
 20
0.0255122714530734
 30
0.0
 11
0.0982424028939374
 21
0.0291922714530735
 31
0.0
  0
LINE
  5
9E
330
1F
100
AcDbEntity
  8
0
100
AcDbLine
 10
0.1277007951938968
 20
-0.0013716692179731
 30
0.0
 11
0.1277270921051266
 21
0.0255122714530733
 31
0.0
  0
LINE
  5
9F
330
1F
100
AcDbEntity
  8
0
100
AcDbLine
 10
0.0977577100356902
 20
-0.0664877285469266
 30
0.0
 11
0.0977577136827492
 21
0.0255122714530734
 31
0.0
  0
LINE
  5
A0
330
1F
100
AcDbEntity
  8
0
100
AcDbLine
 10
0.1237424061721949
 20
0.151512276355555
 30
0.0
 11
0.1237424061721949
 21
0.0715122714530732
 31
0.0
  0
LINE
  5
A1
330
1F
100
AcDbEntity
  8
0
100
AcDbLine
 10
0.1017424061721948
 20
0.151512276355555
 30
0.0
 11
0.1017424061721948
 21
0.0715122714530732
 31
0.0
  0
LINE
  5
A2
330
1F
100
AcDbEntity
  8
0
100
AcDbLine
 10
-0.0962575971064213
 20
0.1486622738819573
 30
0.0
 11
-0.0962616871887167
 21
0.1488122156792136
 31
0.0
  0
LINE
  5
A3
330
1F
100
AcDbEntity
  8
0
100
AcDbLine
 10
0.1226107532781949
 20
0.1680236536593572
 30
0.0
 11
0.1237424061721949
 21
0.151512276355555
 31
0.0
  0
LINE
  5
A4
330
1F
100
AcDbEntity
  8
0
100
AcDbLine
 10
0.1008164735708863
 20
0.1650220920591905
 30
0.0
 11
0.1017424061721948
 21
0.151512276355555
 31
0.0
  0
LINE
  5
A5
330
1F
100
AcDbEntity
  8
0
100
AcDbLine
 10
-0.0352909988163688
 20
0.266407733099112
 30
0.0
 11
-0.0181569957896306
 21
0.2707180642157362
 31
0.0
  0
LINE
  5
A6
330
1F
100
AcDbEntity
  8
0
100
AcDbLine
 10
-0.1182575971060609
 20
0.1483658473374009
 30
0.0
 11
-0.117888691088348
 21
0.16146335801422
 31
0.0
  0
LINE
  5
A7
330
1F
100
AcDbEntity
  8
0
100
AcDbLine
 10
-0.0959631903315943
 20
0.1596543758237072
 30
0.0
 11
-0.093726039570733
 21
0.1739362801092204
 31
0.0
  0
LINE
  5
A8
330
1F
100
AcDbEntity
  8
0
100
AcDbLine
 10
-0.093726039570733
 20
0.1739362801092204
 30
0.0
 11
-0.0894332673606404
 21
0.1877402556343958
 31
0.0
  0
LINE
  5
A9
330
1F
100
AcDbEntity
  8
0
100
AcDbLine
 10
-0.0894332673606404
 20
0.1877402556343958
 30
0.0
 11
-0.0831763666880772
 21
0.2007720946266893
 31
0.0
  0
LINE
  5
AA
330
1F
100
AcDbEntity
  8
0
100
AcDbLine
 10
-0.0831763666880772
 20
0.2007720946266893
 30
0.0
 11
-0.0750886925279596
 21
0.2127540460632103
 31
0.0
  0
LINE
  5
AB
330
1F
100
AcDbEntity
  8
0
100
AcDbLine
 10
-0.0750886925279596
 20
0.2127540460632103
 30
0.0
 11
-0.0653426196135933
 21
0.223430735451557
 31
0.0
  0
LINE
  5
AC
330
1F
100
AcDbEntity
  8
0
100
AcDbLine
 10
-0.0653426196135933
 20
0.223430735451557
 30
0.0
 11
-0.0541458685685012
 21
0.2325746076937537
 31
0.0
  0
LINE
  5
AD
330
1F
100
AcDbEntity
  8
0
100
AcDbLine
 10
-0.0541458685685012
 20
0.2325746076937537
 30
0.0
 11
-0.0417370787019678
 21
0.2399907770280934
 31
0.0
  0
LINE
  5
AE
330
1F
100
AcDbEntity
  8
0
100
AcDbLine
 10
-0.0417370787019678
 20
0.2399907770280934
 30
0.0
 11
-0.028380721826475
 21
0.2455211806807988
 31
0.0
  0
LINE
  5
AF
330
1F
100
AcDbEntity
  8
0
100
AcDbLine
 10
-0.028380721826475
 20
0.2455211806807988
 30
0.0
 11
-0.0143614655001819
 21
0.249047947699624
 31
0.0
  0
LINE
  5
B0
330
1F
100
AcDbEntity
  8
0
100
AcDbLine
 10
-0.0143614655001819
 20
0.249047947699624
 30
0.0
 11
0.0000218941678515
 21
0.2504959111685603
 31
0.0
  0
LINE
  5
B1
330
1F
100
AcDbEntity
  8
0
100
AcDbLine
 10
0.0000218941678515
 20
0.2504959111685603
 30
0.0
 11
0.014462800837974
 21
0.2498342102601491
 31
0.0
  0
LINE
  5
B2
330
1F
100
AcDbEntity
  8
0
100
AcDbLine
 10
0.014462800837974
 20
0.2498342102601491
 30
0.0
 11
0.0286534716560955
 21
0.2470769479804411
 31
0.0
  0
LINE
  5
B3
330
1F
100
AcDbEntity
  8
0
100
AcDbLine
 10
0.0286534716560955
 20
0.2470769479804411
 30
0.0
 11
0.0422914571108637
 21
0.2422828905879069
 31
0.0
  0
LINE
  5
B4
330
1F
100
AcDbEntity
  8
0
100
AcDbLine
 10
0.0422914571108637
 20
0.2422828905879069
 30
0.0
 11
0.0550860872199019
 21
0.2355542150926644
 31
0.0
  0
LINE
  5
B5
330
1F
100
AcDbEntity
  8
0
100
AcDbLine
 10
0.0550860872199019
 20
0.2355542150926644
 30
0.0
 11
0.0667646666558357
 21
0.2270343315309034
 31
0.0
  0
LINE
  5
B6
330
1F
100
AcDbEntity
  8
0
100
AcDbLine
 10
0.0667646666558357
 20
0.2270343315309034
 30
0.0
 11
0.0770782867737565
 21
0.2169048264289449
 31
0.0
  0
LINE
  5
B7
330
1F
100
AcDbEntity
  8
0
100
AcDbLine
 10
0.0770782867737565
 20
0.2169048264289449
 30
0.0
 11
0.0858071306668447
 21
0.2053815926016948
 31
0.0
  0
LINE
  5
B8
330
1F
100
AcDbEntity
  8
0
100
AcDbLine
 10
0.0858071306668447
 20
0.2053815926016948
 30
0.0
 11
0.0927651581821032
 21
0.1927102277721159
 31
0.0
  0
LINE
  5
B9
330
1F
100
AcDbEntity
  8
0
100
AcDbLine
 10
0.0927651581821032
 20
0.1927102277721159
 30
0.0
 11
0.0978040710432255
 21
0.179160800082158
 31
0.0
  0
LINE
  5
BA
330
1F
100
AcDbEntity
  8
0
100
AcDbLine
 10
0.0978040710432255
 20
0.179160800082158
 30
0.0
 11
0.1008164735708863
 21
0.1650220920591905
 31
0.0
  0
LINE
  5
BB
330
1F
100
AcDbEntity
  8
0
100
AcDbLine
 10
-0.0962616871887167
 20
0.1488122156792136
 30
0.0
 11
-0.0959631903315943
 21
0.1596543758237072
 31
0.0
  0
LINE
  5
BC
330
1F
100
AcDbEntity
  8
0
100
AcDbLine
 10
-0.0516148218355461
 20
0.2596486047460038
 30
0.0
 11
-0.0352909988163688
 21
0.266407733099112
 31
0.0
  0
LINE
  5
BD
330
1F
100
AcDbEntity
  8
0
100
AcDbLine
 10
-0.0005779942826433
 20
0.2724877308715081
 30
0.0
 11
0.0170713398072591
 21
0.2716790156940668
 31
0.0
  0
LINE
  5
BE
330
1F
100
AcDbEntity
  8
0
100
AcDbLine
 10
0.0170713398072591
 20
0.2716790156940668
 30
0.0
 11
0.0344148415658455
 21
0.2683091550433686
 31
0.0
  0
LINE
  5
BF
330
1F
100
AcDbEntity
  8
0
100
AcDbLine
 10
0.0344148415658455
 20
0.2683091550433686
 30
0.0
 11
0.0510828643640561
 21
0.2624499716485988
 31
0.0
  0
LINE
  5
C0
330
1F
100
AcDbEntity
  8
0
100
AcDbLine
 10
0.0510828643640561
 20
0.2624499716485988
 30
0.0
 11
0.0667201582341384
 21
0.2542263438313942
 31
0.0
  0
LINE
  5
C1
330
1F
100
AcDbEntity
  8
0
100
AcDbLine
 10
0.0667201582341384
 20
0.2542263438313942
 30
0.0
 11
0.0809934414059429
 21
0.2438135439412256
 31
0.0
  0
LINE
  5
C2
330
1F
100
AcDbEntity
  8
0
100
AcDbLine
 10
0.0809934414059429
 20
0.2438135439412256
 30
0.0
 11
0.0935985036292263
 21
0.2314335027295669
 31
0.0
  0
LINE
  5
C3
330
1F
100
AcDbEntity
  8
0
100
AcDbLine
 10
0.0935985036292263
 20
0.2314335027295669
 30
0.0
 11
0.1042666898869807
 21
0.2173500792812333
 31
0.0
  0
LINE
  5
C4
330
1F
100
AcDbEntity
  8
0
100
AcDbLine
 10
0.1042666898869807
 20
0.2173500792812333
 30
0.0
 11
0.1127706263106963
 21
0.2018634373160873
 31
0.0
  0
LINE
  5
C5
330
1F
100
AcDbEntity
  8
0
100
AcDbLine
 10
0.1127706263106963
 20
0.2018634373160873
 30
0.0
 11
0.1189290662596124
 21
0.1853036477204793
 31
0.0
  0
LINE
  5
C6
330
1F
100
AcDbEntity
  8
0
100
AcDbLine
 10
0.1189290662596124
 20
0.1853036477204793
 30
0.0
 11
0.1226107532781949
 21
0.1680236536593572
 31
0.0
  0
LINE
  5
C7
330
1F
100
AcDbEntity
  8
0
100
AcDbLine
 10
-0.0181569957896306
 20
0.2707180642157362
 30
0.0
 11
-0.0005779942826433
 21
0.2724877308715081
 31
0.0
  0
LINE
  5
C8
330
1F
100
AcDbEntity
  8
0
100
AcDbLine
 10
-0.1151544984168027
 20
0.1789183631557282
 30
0.0
 11
-0.117888691088348
 21
0.16146335801422
 31
0.0
  0
LINE
  5
C9
330
1F
100
AcDbEntity
  8
0
100
AcDbLine
 10
-0.0667805509001176
 20
0.250584738242396
 30
0.0
 11
-0.0516148218355461
 21
0.2596486047460038
 31
0.0
  0
LINE
  5
CA
330
1F
100
AcDbEntity
  8
0
100
AcDbLine
 10
-0.1099079738987455
 20
0.195789255086407
 30
0.0
 11
-0.1151544984168027
 21
0.1789183631557282
 31
0.0
  0
LINE
  5
CB
330
1F
100
AcDbEntity
  8
0
100
AcDbLine
 10
-0.1022609380955243
 20
0.2117164600351564
 30
0.0
 11
-0.1099079738987455
 21
0.195789255086407
 31
0.0
  0
LINE
  5
CC
330
1F
100
AcDbEntity
  8
0
100
AcDbLine
 10
-0.0923763742988818
 20
0.2263605172805143
 30
0.0
 11
-0.1022609380955243
 21
0.2117164600351564
 31
0.0
  0
LINE
  5
CD
330
1F
100
AcDbEntity
  8
0
100
AcDbLine
 10
-0.080464954825056
 20
0.2394093141665791
 30
0.0
 11
-0.0923763742988818
 21
0.2263605172805143
 31
0.0
  0
LINE
  5
CE
330
1F
100
AcDbEntity
  8
0
100
AcDbLine
 10
-0.0667805509001176
 20
0.250584738242396
 30
0.0
 11
-0.080464954825056
 21
0.2394093141665791
 31
0.0
  0
LINE
  5
CF
330
1F
100
AcDbEntity
  8
0
100
AcDbLine
 10
-0.1182575971060609
 20
0.0485122714530732
 30
0.0
 11
-0.1182575971060609
 21
0.1483658473374009
 31
0.0
  0
LINE
  5
D0
330
1F
100
AcDbEntity
  8
0
100
AcDbLine
 10
-0.0962575971060609
 20
0.0485122714530732
 30
0.0
 11
-0.0962575971064213
 21
0.1486622738819573
 31
0.0
  0
LINE
  5
D1
330
1F
100
AcDbEntity
  8
0
100
AcDbLine
 10
0.1277103653760582
 20
-0.0374285581378945
 30
0.0
 11
0.1277427237152131
 21
-0.0374255967021901
 31
0.0
  0
LINE
  5
D2
330
1F
100
AcDbEntity
  8
0
100
AcDbLine
 10
0.1279431805641453
 20
-0.0373671884746812
 30
0.0
 11
0.1277427237152131
 21
-0.0374255967021901
 31
0.0
  0
LINE
  5
D3
330
1F
100
AcDbEntity
  8
0
100
AcDbLine
 10
0.1281216735831474
 20
-0.0372588842162228
 30
0.0
 11
0.1279431805641453
 21
-0.0373671884746812
 31
0.0
  0
LINE
  5
D4
330
1F
100
AcDbEntity
  8
0
100
AcDbLine
 10
0.128266038767948
 20
-0.0371080646830475
 30
0.0
 11
0.1281216735831474
 21
-0.0372588842162228
 31
0.0
  0
LINE
  5
D5
330
1F
100
AcDbEntity
  8
0
100
AcDbLine
 10
0.1283664378697778
 20
-0.0369250079771002
 30
0.0
 11
0.128266038767948
 21
-0.0371080646830475
 31
0.0
  0
LINE
  5
D6
330
1F
100
AcDbEntity
  8
0
100
AcDbLine
 10
0.1284160288557645
 20
-0.0367221891103758
 30
0.0
 11
0.1283664378697778
 21
-0.0369250079771002
 31
0.0
  0
LINE
  5
D7
330
1F
100
AcDbEntity
  8
0
100
AcDbLine
 10
0.130909676147605
 20
-0.0023352676110628
 30
0.0
 11
0.1303192549720729
 21
-0.0022421086940422
 31
0.0
  0
LINE
  5
D8
330
1F
100
AcDbEntity
  8
0
100
AcDbLine
 10
0.1312591893894939
 20
-0.002403628258542
 30
0.0
 11
0.130909676147605
 21
-0.0023352676110628
 31
0.0
  0
LINE
  5
D9
330
1F
100
AcDbEntity
  8
0
100
AcDbLine
 10
0.1314598853457757
 20
-0.0024523823389475
 30
0.0
 11
0.1312591893894939
 21
-0.002403628258542
 31
0.0
  0
LINE
  5
DA
330
1F
100
AcDbEntity
  8
0
100
AcDbLine
 10
0.1314598853457757
 20
-0.0024523823389475
 30
0.0
 11
0.131561382918328
 21
-0.0024950353446888
 31
0.0
  0
LINE
  5
DB
330
1F
100
AcDbEntity
  8
0
100
AcDbLine
 10
0.1317444726109286
 20
-0.0025954903431388
 30
0.0
 11
0.131561382918328
 21
-0.0024950353446888
 31
0.0
  0
LINE
  5
DC
330
1F
100
AcDbEntity
  8
0
100
AcDbLine
 10
0.1318953384738741
 20
-0.0027399009823544
 30
0.0
 11
0.1317444726109286
 21
-0.0025954903431388
 31
0.0
  0
LINE
  5
DD
330
1F
100
AcDbEntity
  8
0
100
AcDbLine
 10
0.1320036992479224
 20
-0.0029184259159229
 30
0.0
 11
0.1318953384738741
 21
-0.0027399009823544
 31
0.0
  0
LINE
  5
DE
330
1F
100
AcDbEntity
  8
0
100
AcDbLine
 10
0.1320621703253967
 20
-0.0031188989646479
 30
0.0
 11
0.1320036992479224
 21
-0.0029184259159229
 31
0.0
  0
LINE
  5
DF
330
1F
100
AcDbEntity
  8
0
100
AcDbLine
 10
0.1320667669989952
 20
-0.0033276582215564
 30
0.0
 11
0.1320621703253967
 21
-0.0031188989646479
 31
0.0
  0
LINE
  5
E0
330
1F
100
AcDbEntity
  8
0
100
AcDbLine
 10
0.1297319570196019
 20
-0.0021669231505094
 30
0.0
 11
0.1294702040150868
 21
-0.0021367335636981
 31
0.0
  0
LINE
  5
E1
330
1F
100
AcDbEntity
  8
0
100
AcDbLine
 10
0.1299686895653095
 20
-0.0021955247368211
 30
0.0
 11
0.1297319570196019
 21
-0.0021669231505094
 31
0.0
  0
LINE
  5
E2
330
1F
100
AcDbEntity
  8
0
100
AcDbLine
 10
0.1301679492989117
 20
-0.0022210338524447
 30
0.0
 11
0.1299686895653095
 21
-0.0021955247368211
 31
0.0
  0
LINE
  5
E3
330
1F
100
AcDbEntity
  8
0
100
AcDbLine
 10
0.1303192549720729
 20
-0.0022421086940422
 30
0.0
 11
0.1301679492989117
 21
-0.0022210338524447
 31
0.0
  0
LINE
  5
E4
330
1F
100
AcDbEntity
  8
0
100
AcDbLine
 10
0.1294702040150868
 20
-0.0021367335636981
 30
0.0
 11
0.1268616734949905
 21
-0.0018422061087508
 31
0.0
  0
LINE
  5
E5
330
1F
100
AcDbEntity
  8
0
100
AcDbLine
 10
0.1284160288557645
 20
-0.0367221891103758
 30
0.0
 11
0.1320667669989952
 21
-0.0033276582215564
 31
0.0
  0
LINE
  5
E6
330
1F
100
AcDbEntity
  8
0
100
AcDbLine
 10
0.1080228945197543
 20
-0.0672382052460171
 30
0.0
 11
0.108062285777906
 21
-0.0672382052460171
 31
0.0
  0
LINE
  5
E7
330
1F
100
AcDbEntity
  8
0
100
AcDbLine
 10
0.1071443743713186
 20
-0.0665737862998123
 30
0.0
 11
0.1071443226426751
 21
-0.066606962778323
 31
0.0
  0
LINE
  5
E8
330
1F
100
AcDbEntity
  8
0
100
AcDbLine
 10
0.1071429117486414
 20
-0.0675118482030694
 30
0.0
 11
0.1071428408969346
 21
-0.0675572893738577
 31
0.0
  0
LINE
  5
E9
330
1F
100
AcDbEntity
  8
0
100
AcDbLine
 10
0.1072072877189842
 20
-0.0670420575186614
 30
0.0
 11
0.1072072877189842
 21
-0.0670720224918947
 31
0.0
  0
LINE
  5
EA
330
1F
100
AcDbEntity
  8
0
100
AcDbLine
 10
0.1177318241574687
 20
-0.0672382052460171
 30
0.0
 11
0.117702742592216
 21
-0.0672382052460171
 31
0.0
  0
LINE
  5
EB
330
1F
100
AcDbEntity
  8
0
100
AcDbLine
 10
0.1178371992620017
 20
-0.0671755661303517
 30
0.0
 11
0.1178371992620017
 21
-0.0672062270594141
 31
0.0
  0
LINE
  5
EC
330
1F
100
AcDbEntity
  8
0
100
AcDbLine
 10
0.1183414258368627
 20
-0.06721156377959
 30
0.0
 11
0.1183414880369146
 21
-0.0672514561592553
 31
0.0
  0
LINE
  5
ED
330
1F
100
AcDbEntity
  8
0
100
AcDbLine
 10
0.118342074267885
 20
-0.0676274389389294
 30
0.0
 11
0.1183421584479954
 21
-0.0676814283620597
 31
0.0
  0
LINE
  5
EE
330
1F
100
AcDbEntity
  8
0
100
AcDbLine
 10
0.1183423285461841
 20
-0.0677905218644753
 30
0.0
 11
0.1183424028939376
 21
-0.0678382052460171
 31
0.0
  0
LINE
  5
EF
330
1F
100
AcDbEntity
  8
0
100
AcDbLine
 10
0.1148676586067334
 20
-0.0668452072320888
 30
0.0
 11
0.1148676586067334
 21
-0.0668803876069539
 31
0.0
  0
LINE
  5
F0
330
1F
100
AcDbEntity
  8
0
100
AcDbLine
 10
0.1071928533626693
 20
-0.0665874690183363
 30
0.0
 11
0.1071928533626693
 21
-0.0666259438265289
 31
0.0
  0
LINE
  5
F1
330
1F
100
AcDbEntity
  8
0
100
AcDbLine
 10
0.1182132665229106
 20
-0.0672382052460171
 30
0.0
 11
0.1182919524252059
 21
-0.0672382052460171
 31
0.0
  0
LINE
  5
F2
330
1F
100
AcDbEntity
  8
0
100
AcDbLine
 10
0.1076328530116094
 20
-0.067164458971441
 30
0.0
 11
0.1076328530116094
 21
-0.0672010405143347
 31
0.0
  0
LINE
  5
F3
330
1F
100
AcDbEntity
  8
0
100
AcDbLine
 10
0.1072738968051198
 20
-0.0672382052460171
 30
0.0
 11
0.1072072877189842
 21
-0.0672382052460171
 31
0.0
  0
LINE
  5
F4
330
1F
100
AcDbEntity
  8
0
100
AcDbLine
 10
0.1117897749497747
 20
-0.0670828792228873
 30
0.0
 11
0.1117897749497747
 21
-0.0671518612267168
 31
0.0
  0
LINE
  5
F5
330
1F
100
AcDbEntity
  8
0
100
AcDbLine
 10
0.1107005637911582
 20
-0.0672382052460171
 30
0.0
 11
0.1106651708723783
 21
-0.0672382052460171
 31
0.0
  0
LINE
  5
F6
330
1F
100
AcDbEntity
  8
0
100
AcDbLine
 10
0.1067564535565744
 20
-0.0668881448040919
 30
0.0
 11
0.1067565891295615
 21
-0.0669353848437325
 31
0.0
  0
LINE
  5
F7
330
1F
100
AcDbEntity
  8
0
100
AcDbLine
 10
0.1067582780527519
 20
-0.0675238855483361
 30
0.0
 11
0.1067583571297909
 21
-0.0675514397280773
 31
0.0
  0
LINE
  5
F8
330
1F
100
AcDbEntity
  8
0
100
AcDbLine
 10
0.1067589466270857
 20
-0.0677568484614807
 30
0.0
 11
0.1067591801108505
 21
-0.0678382052460171
 31
0.0
  0
LINE
  5
F9
330
1F
100
AcDbEntity
  8
0
100
AcDbLine
 10
0.1187265277351233
 20
-0.0675238855483361
 30
0.0
 11
0.1187262883463153
 21
-0.0676072999291514
 31
0.0
  0
LINE
  5
FA
330
1F
100
AcDbEntity
  8
0
100
AcDbLine
 10
0.1143462520636093
 20
-0.0672382052460171
 30
0.0
 11
0.1143065396796671
 21
-0.0672382052460171
 31
0.0
  0
LINE
  5
FB
330
1F
100
AcDbEntity
  8
0
100
AcDbLine
 10
0.1113642238595134
 20
-0.0672382052460171
 30
0.0
 11
0.1113282547758989
 21
-0.0672382052460171
 31
0.0
  0
LINE
  5
FC
330
1F
100
AcDbEntity
  8
0
100
AcDbLine
 10
0.1104907368440981
 20
-0.0672382052460171
 30
0.0
 11
0.1105593878438976
 21
-0.0672382052460171
 31
0.0
  0
LINE
  5
FD
330
1F
100
AcDbEntity
  8
0
100
AcDbLine
 10
0.1173323375339951
 20
-0.067138117307602
 30
0.0
 11
0.1173323375339951
 21
-0.067055453492525
 31
0.0
  0
LINE
  5
FE
330
1F
100
AcDbEntity
  8
0
100
AcDbLine
 10
0.1104041343037196
 20
-0.0666753794064551
 30
0.0
 11
0.1104041343037196
 21
-0.0667161113190816
 31
0.0
  0
LINE
  5
FF
330
1F
100
AcDbEntity
  8
0
100
AcDbLine
 10
0.1104907368440981
 20
-0.0672382052460171
 30
0.0
 11
0.1104907368440981
 21
-0.0672108006314933
 31
0.0
  0
LINE
  5
100
330
1F
100
AcDbEntity
  8
0
100
AcDbLine
 10
0.1104907368440981
 20
-0.0669844614192275
 30
0.0
 11
0.1104907368440981
 21
-0.0669549200577539
 31
0.0
  0
LINE
  5
101
330
1F
100
AcDbEntity
  8
0
100
AcDbLine
 10
0.1150806714841556
 20
-0.0672382052460171
 30
0.0
 11
0.1150806714841556
 21
-0.0671887317835129
 31
0.0
  0
LINE
  5
102
330
1F
100
AcDbEntity
  8
0
100
AcDbLine
 10
0.1149940689437771
 20
-0.0667071442711271
 30
0.0
 11
0.1149940689437771
 21
-0.0667936379315794
 31
0.0
  0
LINE
  5
103
330
1F
100
AcDbEntity
  8
0
100
AcDbLine
 10
0.1149940689437771
 20
-0.0672100057892065
 30
0.0
 11
0.1149940689437771
 21
-0.0672382052460171
 31
0.0
  0
LINE
  5
104
330
1F
100
AcDbEntity
  8
0
100
AcDbLine
 10
0.1150806714841556
 20
-0.0666778761719462
 30
0.0
 11
0.1150806714841556
 21
-0.0667342065398109
 31
0.0
  0
LINE
  5
105
330
1F
100
AcDbEntity
  8
0
100
AcDbLine
 10
0.1172873574198525
 20
-0.0673382052460171
 30
0.0
 11
0.1173323375339951
 21
-0.0673382052460171
 31
0.0
  0
LINE
  5
106
330
1F
100
AcDbEntity
  8
0
100
AcDbLine
 10
0.1173323375339951
 20
-0.0673382052460171
 30
0.0
 11
0.1173323375339951
 21
-0.0672738855483361
 31
0.0
  0
LINE
  5
107
330
1F
100
AcDbEntity
  8
0
100
AcDbLine
 10
0.1081974483680227
 20
-0.0673382052460171
 30
0.0
 11
0.1081524682538801
 21
-0.0673382052460171
 31
0.0
  0
LINE
  5
108
330
1F
100
AcDbEntity
  8
0
100
AcDbLine
 10
0.1032466803291403
 20
-0.0672738855483361
 30
0.0
 11
0.1032466803291403
 21
-0.067358324140432
 31
0.0
  0
LINE
  5
109
330
1F
100
AcDbEntity
  8
0
100
AcDbLine
 10
0.1032466803291403
 20
-0.067640570997582
 30
0.0
 11
0.1032466803291403
 21
-0.0677068982502284
 31
0.0
  0
LINE
  5
10A
330
1F
100
AcDbEntity
  8
0
100
AcDbLine
 10
0.1032466803291403
 20
-0.0677387847334069
 30
0.0
 11
0.1032466803291403
 21
-0.0677738855483361
 31
0.0
  0
LINE
  5
10B
330
1F
100
AcDbEntity
  8
0
100
AcDbLine
 10
0.104238125190514
 20
-0.0675238855483361
 30
0.0
 11
0.104238125190514
 21
-0.0675907483598754
 31
0.0
  0
LINE
  5
10C
330
1F
100
AcDbEntity
  8
0
100
AcDbLine
 10
0.104238125190514
 20
-0.067637977636355
 30
0.0
 11
0.104238125190514
 21
-0.0677068982502284
 31
0.0
  0
LINE
  5
10D
330
1F
100
AcDbEntity
  8
0
100
AcDbLine
 10
0.1024906746203171
 20
-0.0674032950708874
 30
0.0
 11
0.1024737832881014
 21
-0.0672738855483361
 31
0.0
  0
LINE
  5
10E
330
1F
100
AcDbEntity
  8
0
100
AcDbLine
 10
0.1049902553815735
 20
-0.0672738855483361
 30
0.0
 11
0.1049245679110475
 21
-0.0672738855483361
 31
0.0
  0
LINE
  5
10F
330
1F
100
AcDbEntity
  8
0
100
AcDbLine
 10
0.1029695057187884
 20
-0.0677738855483361
 30
0.0
 11
0.1028412033126421
 21
-0.0677568484614807
 31
0.0
  0
LINE
  5
110
330
1F
100
AcDbEntity
  8
0
100
AcDbLine
 10
0.1025401975005877
 20
-0.0675238855483361
 30
0.0
 11
0.1024906746203171
 21
-0.0674032950708874
 31
0.0
  0
LINE
  5
111
330
1F
100
AcDbEntity
  8
0
100
AcDbLine
 10
0.1026189770264634
 20
-0.0676274389389294
 30
0.0
 11
0.1025401975005877
 21
-0.0675238855483361
 31
0.0
  0
LINE
  5
112
330
1F
100
AcDbEntity
  8
0
100
AcDbLine
 10
0.1047631610162094
 20
-0.0677068982502284
 30
0.0
 11
0.1048658284931909
 21
-0.0676274389389294
 31
0.0
  0
LINE
  5
113
330
1F
100
AcDbEntity
  8
0
100
AcDbLine
 10
0.1027216445034449
 20
-0.0677068982502284
 30
0.0
 11
0.1026189770264634
 21
-0.0676274389389294
 31
0.0
  0
LINE
  5
114
330
1F
100
AcDbEntity
  8
0
100
AcDbLine
 10
0.1028412033126421
 20
-0.0677568484614807
 30
0.0
 11
0.1027216445034449
 21
-0.0677068982502284
 31
0.0
  0
LINE
  5
115
330
1F
100
AcDbEntity
  8
0
100
AcDbLine
 10
0.1024737832881014
 20
-0.0668635965193431
 30
0.0
 11
0.1024737832881014
 21
-0.0668373006134528
 31
0.0
  0
LINE
  5
116
330
1F
100
AcDbEntity
  8
0
100
AcDbLine
 10
0.1029199382121055
 20
-0.0668128855483361
 30
0.0
 11
0.1029499638718577
 21
-0.0668128855483361
 31
0.0
  0
LINE
  5
117
330
1F
100
AcDbEntity
  8
0
100
AcDbLine
 10
0.1039274869774341
 20
-0.0675238855483361
 30
0.0
 11
0.1039274869774341
 21
-0.067600165815273
 31
0.0
  0
LINE
  5
118
330
1F
100
AcDbEntity
  8
0
100
AcDbLine
 10
0.1039274869774341
 20
-0.0676274389389294
 30
0.0
 11
0.1039337444760097
 21
-0.0677738855483361
 31
0.0
  0
LINE
  5
119
330
1F
100
AcDbEntity
  8
0
100
AcDbLine
 10
0.1049274869774341
 20
-0.0676274389389294
 30
0.0
 11
0.1049104498905787
 21
-0.0677738855483361
 31
0.0
  0
LINE
  5
11A
330
1F
100
AcDbEntity
  8
0
100
AcDbLine
 10
0.1031649577251511
 20
-0.0674032950708874
 30
0.0
 11
0.1031479206382957
 21
-0.0672738855483361
 31
0.0
  0
LINE
  5
11B
330
1F
100
AcDbEntity
  8
0
100
AcDbLine
 10
0.1053364628391238
 20
-0.0677568484614807
 30
0.0
 11
0.1052070533165725
 21
-0.0677738855483361
 31
0.0
  0
LINE
  5
11C
330
1F
100
AcDbEntity
  8
0
100
AcDbLine
 10
0.1032149079364035
 20
-0.0675238855483361
 30
0.0
 11
0.1031649577251511
 21
-0.0674032950708874
 31
0.0
  0
LINE
  5
11D
330
1F
100
AcDbEntity
  8
0
100
AcDbLine
 10
0.1055606067071658
 20
-0.0676274389389294
 30
0.0
 11
0.1054570533165726
 21
-0.0677068982502284
 31
0.0
  0
LINE
  5
11E
330
1F
100
AcDbEntity
  8
0
100
AcDbLine
 10
0.1033979206382957
 20
-0.0677068982502284
 30
0.0
 11
0.1032943672477024
 21
-0.0676274389389294
 31
0.0
  0
LINE
  5
11F
330
1F
100
AcDbEntity
  8
0
100
AcDbLine
 10
0.1058827193377414
 20
-0.0677068982502284
 30
0.0
 11
0.1058827193377414
 21
-0.0676274389389294
 31
0.0
  0
LINE
  5
120
330
1F
100
AcDbEntity
  8
0
100
AcDbLine
 10
0.1067589466270857
 20
-0.0677568484614807
 30
0.0
 11
0.1066828224829326
 21
-0.0677738855483361
 31
0.0
  0
LINE
  5
121
330
1F
100
AcDbEntity
  8
0
100
AcDbLine
 10
0.1068403815346839
 20
-0.0677738855483361
 30
0.0
 11
0.1067589466270857
 21
-0.0677568484614807
 31
0.0
  0
LINE
  5
122
330
1F
100
AcDbEntity
  8
0
100
AcDbLine
 10
0.1068741641991152
 20
-0.0676063245669992
 30
0.0
 11
0.1068741641991152
 21
-0.0677303658979932
 31
0.0
  0
LINE
  5
123
330
1F
100
AcDbEntity
  8
0
100
AcDbLine
 10
0.1051098222967026
 20
-0.0672738855483361
 30
0.0
 11
0.1051267136289182
 21
-0.0674032950708874
 31
0.0
  0
LINE
  5
124
330
1F
100
AcDbEntity
  8
0
100
AcDbLine
 10
0.107428934294402
 20
-0.0672738855483361
 30
0.0
 11
0.107393589997708
 21
-0.0672738855483361
 31
0.0
  0
LINE
  5
125
330
1F
100
AcDbEntity
  8
0
100
AcDbLine
 10
0.1054772423212432
 20
-0.0677568484614807
 30
0.0
 11
0.1056055447273895
 21
-0.0677738855483361
 31
0.0
  0
LINE
  5
126
330
1F
100
AcDbEntity
  8
0
100
AcDbLine
 10
0.1071513388094671
 20
-0.0677738855483361
 30
0.0
 11
0.107098667153393
 21
-0.0677738855483361
 31
0.0
  0
LINE
  5
127
330
1F
100
AcDbEntity
  8
0
100
AcDbLine
 10
0.1072796412156134
 20
-0.0677568484614807
 30
0.0
 11
0.1071513388094671
 21
-0.0677738855483361
 31
0.0
  0
LINE
  5
128
330
1F
100
AcDbEntity
  8
0
100
AcDbLine
 10
0.1051762365091889
 20
-0.0675238855483361
 30
0.0
 11
0.1051267136289182
 21
-0.0674032950708874
 31
0.0
  0
LINE
  5
129
330
1F
100
AcDbEntity
  8
0
100
AcDbLine
 10
0.1052550160350645
 20
-0.0676274389389294
 30
0.0
 11
0.1051762365091889
 21
-0.0675238855483361
 31
0.0
  0
LINE
  5
12A
330
1F
100
AcDbEntity
  8
0
100
AcDbLine
 10
0.105357683512046
 20
-0.0677068982502284
 30
0.0
 11
0.1052550160350645
 21
-0.0676274389389294
 31
0.0
  0
LINE
  5
12B
330
1F
100
AcDbEntity
  8
0
100
AcDbLine
 10
0.1072796412156134
 20
-0.0677568484614807
 30
0.0
 11
0.1073992000248105
 21
-0.0677068982502284
 31
0.0
  0
LINE
  5
12C
330
1F
100
AcDbEntity
  8
0
100
AcDbLine
 10
0.10979825195133
 20
-0.0675238855483361
 30
0.0
 11
0.10979825195133
 21
-0.0675590486733864
 31
0.0
  0
LINE
  5
12D
330
1F
100
AcDbEntity
  8
0
100
AcDbLine
 10
0.10979825195133
 20
-0.0676274389389294
 30
0.0
 11
0.10979825195133
 21
-0.0677191450288892
 31
0.0
  0
LINE
  5
12E
330
1F
100
AcDbEntity
  8
0
100
AcDbLine
 10
0.1087982519513299
 20
-0.0676274389389294
 30
0.0
 11
0.1087982519513299
 21
-0.0677191450288892
 31
0.0
  0
LINE
  5
12F
330
1F
100
AcDbEntity
  8
0
100
AcDbLine
 10
0.1105778182904684
 20
-0.0672738855483361
 30
0.0
 11
0.1105342181247539
 21
-0.0672738855483361
 31
0.0
  0
LINE
  5
130
330
1F
100
AcDbEntity
  8
0
100
AcDbLine
 10
0.1105607812036129
 20
-0.0674032950708874
 30
0.0
 11
0.1105778182904684
 21
-0.0672738855483361
 31
0.0
  0
LINE
  5
131
330
1F
100
AcDbEntity
  8
0
100
AcDbLine
 10
0.1083892760896403
 20
-0.0677568484614807
 30
0.0
 11
0.1085186856121915
 21
-0.0677738855483361
 31
0.0
  0
LINE
  5
132
330
1F
100
AcDbEntity
  8
0
100
AcDbLine
 10
0.1082686856121915
 20
-0.0677068982502284
 30
0.0
 11
0.1081651322215982
 21
-0.0676274389389294
 31
0.0
  0
LINE
  5
133
330
1F
100
AcDbEntity
  8
0
100
AcDbLine
 10
0.1103278182904684
 20
-0.0677068982502284
 30
0.0
 11
0.1104313716810617
 21
-0.0676274389389294
 31
0.0
  0
LINE
  5
134
330
1F
100
AcDbEntity
  8
0
100
AcDbLine
 10
0.1083892760896403
 20
-0.0677568484614807
 30
0.0
 11
0.1082686856121915
 21
-0.0677068982502284
 31
0.0
  0
LINE
  5
135
330
1F
100
AcDbEntity
  8
0
100
AcDbLine
 10
0.1102072278130196
 20
-0.0677568484614807
 30
0.0
 11
0.1103278182904684
 21
-0.0677068982502284
 31
0.0
  0
LINE
  5
136
330
1F
100
AcDbEntity
  8
0
100
AcDbLine
 10
0.1105778182904684
 20
-0.0672738855483361
 30
0.0
 11
0.1105593878438976
 21
-0.0672382052460171
 31
0.0
  0
LINE
  5
137
330
1F
100
AcDbEntity
  8
0
100
AcDbLine
 10
0.1105778182904684
 20
-0.0671111361263488
 30
0.0
 11
0.1105778182904684
 21
-0.0670712357136972
 31
0.0
  0
LINE
  5
138
330
1F
100
AcDbEntity
  8
0
100
AcDbLine
 10
0.1122466804632507
 20
-0.0676274389389294
 30
0.0
 11
0.1122466804632507
 21
-0.0677068982502284
 31
0.0
  0
LINE
  5
139
330
1F
100
AcDbEntity
  8
0
100
AcDbLine
 10
0.1122466804632507
 20
-0.0677387847334069
 30
0.0
 11
0.1122466804632507
 21
-0.0677738855483361
 31
0.0
  0
LINE
  5
13A
330
1F
100
AcDbEntity
  8
0
100
AcDbLine
 10
0.1139941310334477
 20
-0.0674032950708874
 30
0.0
 11
0.1140110223656633
 21
-0.0672738855483361
 31
0.0
  0
LINE
  5
13B
330
1F
100
AcDbEntity
  8
0
100
AcDbLine
 10
0.1114906747544275
 20
-0.0674032950708874
 30
0.0
 11
0.1114737834222119
 21
-0.0672738855483361
 31
0.0
  0
LINE
  5
13C
330
1F
100
AcDbEntity
  8
0
100
AcDbLine
 10
0.1118412034467525
 20
-0.0677568484614807
 30
0.0
 11
0.1119695058528988
 21
-0.0677738855483361
 31
0.0
  0
LINE
  5
13D
330
1F
100
AcDbEntity
  8
0
100
AcDbLine
 10
0.1136436023411227
 20
-0.0677568484614807
 30
0.0
 11
0.1135152999349764
 21
-0.0677738855483361
 31
0.0
  0
LINE
  5
13E
330
1F
100
AcDbEntity
  8
0
100
AcDbLine
 10
0.1138658286273014
 20
-0.0676274389389294
 30
0.0
 11
0.113944608153177
 21
-0.0675238855483361
 31
0.0
  0
LINE
  5
13F
330
1F
100
AcDbEntity
  8
0
100
AcDbLine
 10
0.1137631611503199
 20
-0.0677068982502284
 30
0.0
 11
0.1138658286273014
 21
-0.0676274389389294
 31
0.0
  0
LINE
  5
140
330
1F
100
AcDbEntity
  8
0
100
AcDbLine
 10
0.1118412034467525
 20
-0.0677568484614807
 30
0.0
 11
0.1117216446375554
 21
-0.0677068982502284
 31
0.0
  0
LINE
  5
141
330
1F
100
AcDbEntity
  8
0
100
AcDbLine
 10
0.1136436023411227
 20
-0.0677568484614807
 30
0.0
 11
0.1137631611503199
 21
-0.0677068982502284
 31
0.0
  0
LINE
  5
142
330
1F
100
AcDbEntity
  8
0
100
AcDbLine
 10
0.1140110223656633
 20
-0.0672738855483361
 30
0.0
 11
0.1140110223656633
 21
-0.0671350545227319
 31
0.0
  0
LINE
  5
143
330
1F
100
AcDbEntity
  8
0
100
AcDbLine
 10
0.1114737834222119
 20
-0.0672738855483361
 30
0.0
 11
0.1114737834222119
 21
-0.0671411801810537
 31
0.0
  0
LINE
  5
144
330
1F
100
AcDbEntity
  8
0
100
AcDbLine
 10
0.1166865538365452
 20
-0.0676274389389294
 30
0.0
 11
0.1166865538365452
 21
-0.0677191450288892
 31
0.0
  0
LINE
  5
145
330
1F
100
AcDbEntity
  8
0
100
AcDbLine
 10
0.1156865538365453
 20
-0.0676274389389294
 30
0.0
 11
0.1156865538365453
 21
-0.0677068982502284
 31
0.0
  0
LINE
  5
146
330
1F
100
AcDbEntity
  8
0
100
AcDbLine
 10
0.1174661201756837
 20
-0.0672738855483361
 30
0.0
 11
0.1174225200099692
 21
-0.0672738855483361
 31
0.0
  0
LINE
  5
147
330
1F
100
AcDbEntity
  8
0
100
AcDbLine
 10
0.1149069874974068
 20
-0.0672738855483361
 30
0.0
 11
0.1149505876631213
 21
-0.0672738855483361
 31
0.0
  0
LINE
  5
148
330
1F
100
AcDbEntity
  8
0
100
AcDbLine
 10
0.1149240245842623
 20
-0.0674032950708874
 30
0.0
 11
0.1149069874974068
 21
-0.0672738855483361
 31
0.0
  0
LINE
  5
149
330
1F
100
AcDbEntity
  8
0
100
AcDbLine
 10
0.1170955296982349
 20
-0.0677568484614807
 30
0.0
 11
0.1169661201756837
 21
-0.0677738855483361
 31
0.0
  0
LINE
  5
14A
330
1F
100
AcDbEntity
  8
0
100
AcDbLine
 10
0.1149739747955146
 20
-0.0675238855483361
 30
0.0
 11
0.1149240245842623
 21
-0.0674032950708874
 31
0.0
  0
LINE
  5
14B
330
1F
100
AcDbEntity
  8
0
100
AcDbLine
 10
0.1173991328775759
 20
-0.0675238855483361
 30
0.0
 11
0.1174490830888282
 21
-0.0674032950708874
 31
0.0
  0
LINE
  5
14C
330
1F
100
AcDbEntity
  8
0
100
AcDbLine
 10
0.1151569874974068
 20
-0.0677068982502284
 30
0.0
 11
0.1150534341068136
 21
-0.0676274389389294
 31
0.0
  0
LINE
  5
14D
330
1F
100
AcDbEntity
  8
0
100
AcDbLine
 10
0.1172161201756837
 20
-0.0677068982502284
 30
0.0
 11
0.117319673566277
 21
-0.0676274389389294
 31
0.0
  0
LINE
  5
14E
330
1F
100
AcDbEntity
  8
0
100
AcDbLine
 10
0.1152775779748556
 20
-0.0677568484614807
 30
0.0
 11
0.1151569874974068
 21
-0.0677068982502284
 31
0.0
  0
LINE
  5
14F
330
1F
100
AcDbEntity
  8
0
100
AcDbLine
 10
0.1170955296982349
 20
-0.0677568484614807
 30
0.0
 11
0.1172161201756837
 21
-0.0677068982502284
 31
0.0
  0
LINE
  5
150
330
1F
100
AcDbEntity
  8
0
100
AcDbLine
 10
0.1149069874974068
 20
-0.0672738855483361
 30
0.0
 11
0.1149040183156955
 21
-0.0672382052460171
 31
0.0
  0
LINE
  5
151
330
1F
100
AcDbEntity
  8
0
100
AcDbLine
 10
0.1196020864501338
 20
-0.0676063245669992
 30
0.0
 11
0.1196020864501338
 21
-0.0677068982502284
 31
0.0
  0
LINE
  5
152
330
1F
100
AcDbEntity
  8
0
100
AcDbLine
 10
0.1187096873493013
 20
-0.0677738855483361
 30
0.0
 11
0.1188019833049426
 21
-0.0677738855483361
 31
0.0
  0
LINE
  5
153
330
1F
100
AcDbEntity
  8
0
100
AcDbLine
 10
0.11861064158876
 20
-0.0676274389389294
 30
0.0
 11
0.11861064158876
 21
-0.0677068982502284
 31
0.0
  0
LINE
  5
154
330
1F
100
AcDbEntity
  8
0
100
AcDbLine
 10
0.11861064158876
 20
-0.0677387847334069
 30
0.0
 11
0.11861064158876
 21
-0.0677738855483361
 31
0.0
  0
LINE
  5
155
330
1F
100
AcDbEntity
  8
0
100
AcDbLine
 10
0.1178546358799369
 20
-0.0674032950708874
 30
0.0
 11
0.1178439796754629
 21
-0.0673216547173865
 31
0.0
  0
LINE
  5
156
330
1F
100
AcDbEntity
  8
0
100
AcDbLine
 10
0.1180912157901672
 20
-0.0672738855483361
 30
0.0
 11
0.118055003648003
 21
-0.0672738855483361
 31
0.0
  0
LINE
  5
157
330
1F
100
AcDbEntity
  8
0
100
AcDbLine
 10
0.1183423285461841
 20
-0.0677905218644753
 30
0.0
 11
0.1183861386344822
 21
-0.0677738855483361
 31
0.0
  0
LINE
  5
158
330
1F
100
AcDbEntity
  8
0
100
AcDbLine
 10
0.1182051645722619
 20
-0.0677568484614807
 30
0.0
 11
0.1183423285461841
 21
-0.0677905218644753
 31
0.0
  0
LINE
  5
159
330
1F
100
AcDbEntity
  8
0
100
AcDbLine
 10
0.120007563466632
 20
-0.0677568484614807
 30
0.0
 11
0.1198792610604857
 21
-0.0677738855483361
 31
0.0
  0
LINE
  5
15A
330
1F
100
AcDbEntity
  8
0
100
AcDbLine
 10
0.1179041587602075
 20
-0.0675238855483361
 30
0.0
 11
0.1178546358799369
 21
-0.0674032950708874
 31
0.0
  0
LINE
  5
15B
330
1F
100
AcDbEntity
  8
0
100
AcDbLine
 10
0.1201271222758292
 20
-0.0677068982502284
 30
0.0
 11
0.1202297897528107
 21
-0.0676274389389294
 31
0.0
  0
LINE
  5
15C
330
1F
100
AcDbEntity
  8
0
100
AcDbLine
 10
0.1215573188104411
 20
-0.0676274389389294
 30
0.0
 11
0.1215573188104411
 21
-0.0677191450288892
 31
0.0
  0
LINE
  5
15D
330
1F
100
AcDbEntity
  8
0
100
AcDbLine
 10
0.1205573188104411
 20
-0.0676274389389294
 30
0.0
 11
0.1205573188104411
 21
-0.0677191450288892
 31
0.0
  0
LINE
  5
15E
330
1F
100
AcDbEntity
  8
0
100
AcDbLine
 10
0.122319848062724
 20
-0.0674032950708874
 30
0.0
 11
0.1223368851495795
 21
-0.0672738855483361
 31
0.0
  0
LINE
  5
15F
330
1F
100
AcDbEntity
  8
0
100
AcDbLine
 10
0.1201483429487514
 20
-0.0677568484614807
 30
0.0
 11
0.1202777524713027
 21
-0.0677738855483361
 31
0.0
  0
LINE
  5
160
330
1F
100
AcDbEntity
  8
0
100
AcDbLine
 10
0.1222698978514717
 20
-0.0675238855483361
 30
0.0
 11
0.122319848062724
 21
-0.0674032950708874
 31
0.0
  0
LINE
  5
161
330
1F
100
AcDbEntity
  8
0
100
AcDbLine
 10
0.1200277524713026
 20
-0.0677068982502284
 30
0.0
 11
0.1199241990807094
 21
-0.0676274389389294
 31
0.0
  0
LINE
  5
162
330
1F
100
AcDbEntity
  8
0
100
AcDbLine
 10
0.1220868851495795
 20
-0.0677068982502284
 30
0.0
 11
0.1221904385401728
 21
-0.0676274389389294
 31
0.0
  0
LINE
  5
163
330
1F
100
AcDbEntity
  8
0
100
AcDbLine
 10
0.1223368851495795
 20
-0.0668948775494893
 30
0.0
 11
0.1223368851495795
 21
-0.0668666644047162
 31
0.0
  0
LINE
  5
164
330
1F
100
AcDbEntity
  8
0
100
AcDbLine
 10
0.1220332175724769
 20
-0.0669497020620149
 30
0.0
 11
0.1220074682550786
 21
-0.0669340968060958
 31
0.0
  0
LINE
  5
165
330
1F
100
AcDbEntity
  8
0
100
AcDbLine
 10
0.1222381254587349
 20
-0.0676184897501979
 30
0.0
 11
0.1222381254587349
 21
-0.0677738855483361
 31
0.0
  0
LINE
  5
166
330
1F
100
AcDbEntity
  8
0
100
AcDbLine
 10
0.1212466805973611
 20
-0.0675238855483361
 30
0.0
 11
0.1212466805973611
 21
-0.067564957592661
 31
0.0
  0
LINE
  5
167
330
1F
100
AcDbEntity
  8
0
100
AcDbLine
 10
0.1212466805973611
 20
-0.0676508852905614
 30
0.0
 11
0.1212466805973611
 21
-0.0677213524867363
 31
0.0
  0
LINE
  5
168
330
1F
100
AcDbEntity
  8
0
100
AcDbLine
 10
0.1229941311675581
 20
-0.0674032950708874
 30
0.0
 11
0.1230110224997737
 21
-0.0672738855483361
 31
0.0
  0
LINE
  5
169
330
1F
100
AcDbEntity
  8
0
100
AcDbLine
 10
0.1205602378768277
 20
-0.0672738855483361
 30
0.0
 11
0.1204940023584608
 21
-0.0672738855483361
 31
0.0
  0
LINE
  5
16A
330
1F
100
AcDbEntity
  8
0
100
AcDbLine
 10
0.1225153000690868
 20
-0.0677738855483361
 30
0.0
 11
0.1226436024752331
 21
-0.0677568484614807
 31
0.0
  0
LINE
  5
16B
330
1F
100
AcDbEntity
  8
0
100
AcDbLine
 10
0.1229446082872875
 20
-0.0675238855483361
 30
0.0
 11
0.1229941311675581
 21
-0.0674032950708874
 31
0.0
  0
LINE
  5
16C
330
1F
100
AcDbEntity
  8
0
100
AcDbLine
 10
0.1228658287614118
 20
-0.0676274389389294
 30
0.0
 11
0.1229446082872875
 21
-0.0675238855483361
 31
0.0
  0
LINE
  5
16D
330
1F
100
AcDbEntity
  8
0
100
AcDbLine
 10
0.1207216447716658
 20
-0.0677068982502284
 30
0.0
 11
0.1206189772946843
 21
-0.0676274389389294
 31
0.0
  0
LINE
  5
16E
330
1F
100
AcDbEntity
  8
0
100
AcDbLine
 10
0.1227631612844303
 20
-0.0677068982502284
 30
0.0
 11
0.1228658287614118
 21
-0.0676274389389294
 31
0.0
  0
LINE
  5
16F
330
1F
100
AcDbEntity
  8
0
100
AcDbLine
 10
0.1226436024752331
 20
-0.0677568484614807
 30
0.0
 11
0.1227631612844303
 21
-0.0677068982502284
 31
0.0
  0
LINE
  5
170
330
1F
100
AcDbEntity
  8
0
100
AcDbLine
 10
0.1230110224997737
 20
-0.0669042650827205
 30
0.0
 11
0.1230110224997737
 21
-0.0668516817305341
 31
0.0
  0
LINE
  5
171
330
1F
100
AcDbEntity
  8
0
100
AcDbLine
 10
0.1204737835563223
 20
-0.0671834787259154
 30
0.0
 11
0.1204737835563223
 21
-0.067145508745462
 31
0.0
  0
LINE
  5
172
330
1F
100
AcDbEntity
  8
0
100
AcDbLine
 10
0.1203749834911726
 20
-0.0672166627938582
 30
0.0
 11
0.1203749834911726
 21
-0.0670321430892276
 31
0.0
  0
LINE
  5
173
330
1F
100
AcDbEntity
  8
0
100
AcDbLine
 10
0.1115023576587767
 20
-0.0674317434770737
 30
0.0
 11
0.1114906747544275
 21
-0.0674032950708874
 31
0.0
  0
LINE
  5
174
330
1F
100
AcDbEntity
  8
0
100
AcDbLine
 10
0.108035722699047
 20
-0.0674032950708874
 30
0.0
 11
0.1080300341209248
 21
-0.0673600860302204
 31
0.0
  0
LINE
  5
175
330
1F
100
AcDbEntity
  8
0
100
AcDbLine
 10
0.1080186856121915
 20
-0.0671626106373269
 30
0.0
 11
0.1080186856121915
 21
-0.0670747375698712
 31
0.0
  0
LINE
  5
176
330
1F
100
AcDbEntity
  8
0
100
AcDbLine
 10
0.1075496690189405
 20
-0.0675646052378985
 30
0.0
 11
0.1075806470276677
 21
-0.0675238855483361
 31
0.0
  0
LINE
  5
177
330
1F
100
AcDbEntity
  8
0
100
AcDbLine
 10
0.1051098222967026
 20
-0.0671949162388223
 30
0.0
 11
0.1051098222967026
 21
-0.067022483307071
 31
0.0
  0
LINE
  5
178
330
1F
100
AcDbEntity
  8
0
100
AcDbLine
 10
0.1035185111157444
 20
-0.0677568484614807
 30
0.0
 11
0.1034737634158342
 21
-0.0677383133572929
 31
0.0
  0
LINE
  5
179
330
1F
100
AcDbEntity
  8
0
100
AcDbLine
 10
0.1102690296975393
 20
-0.0666236923416193
 30
0.0
 11
0.1127424028939359
 21
-0.0666677921068052
 31
0.0
  0
LINE
  5
17A
330
1F
100
AcDbEntity
  8
0
100
AcDbLine
 10
0.1102424028566847
 20
-0.0664877285469267
 30
0.0
 11
0.1102424028566847
 21
-0.0666232175902025
 31
0.0
  0
LINE
  5
17B
330
1F
100
AcDbEntity
  8
0
100
AcDbLine
 10
0.1152424029311905
 20
-0.0666232175902025
 30
0.0
 11
0.1152424029311905
 21
-0.0664877285469267
 31
0.0
  0
LINE
  5
17C
330
1F
100
AcDbEntity
  8
0
100
AcDbLine
 10
0.1002424028939376
 20
-0.0666232175902025
 30
0.0
 11
0.1002424028939376
 21
-0.0666677921068052
 31
0.0
  0
LINE
  5
17D
330
1F
100
AcDbEntity
  8
0
100
AcDbLine
 10
0.0994759037395361
 20
-0.0664877285469268
 30
0.0
 11
0.1002424028939376
 21
-0.0666232175902025
 31
0.0
  0
LINE
  5
17E
330
1F
100
AcDbEntity
  8
0
100
AcDbLine
 10
0.1252424028939376
 20
-0.0666232175902025
 30
0.0
 11
0.1252424028939376
 21
-0.0666677921068052
 31
0.0
  0
LINE
  5
17F
330
1F
100
AcDbEntity
  8
0
100
AcDbLine
 10
0.1178412801145082
 20
-0.0675603599985999
 30
0.0
 11
0.1177051203452885
 21
-0.0675401097766642
 31
0.0
  0
LINE
  5
180
330
1F
100
AcDbEntity
  8
0
100
AcDbLine
 10
0.1203471871105614
 20
-0.0675456555788587
 30
0.0
 11
0.120281289519754
 21
-0.0675597439963353
 31
0.0
  0
LINE
  5
181
330
1F
100
AcDbEntity
  8
0
100
AcDbLine
 10
0.1200612400819283
 20
-0.0675355938625423
 30
0.0
 11
0.120150270857654
 21
-0.0675238855483361
 31
0.0
  0
LINE
  5
182
330
1F
100
AcDbEntity
  8
0
100
AcDbLine
 10
0.1137152019962219
 20
-0.06749103439857
 30
0.0
 11
0.1137794427081072
 21
-0.0674796208418663
 31
0.0
  0
LINE
  5
183
330
1F
100
AcDbEntity
  8
0
100
AcDbLine
 10
0.1139004176834631
 20
-0.0674526864082419
 30
0.0
 11
0.1139556673978965
 21
-0.0674385807800513
 31
0.0
  0
LINE
  5
184
330
1F
100
AcDbEntity
  8
0
100
AcDbLine
 10
0.1102469911123172
 20
-0.0675525736218459
 30
0.0
 11
0.1102881638325812
 21
-0.0675489378012163
 31
0.0
  0
LINE
  5
185
330
1F
100
AcDbEntity
  8
0
100
AcDbLine
 10
0.1103344441828115
 20
-0.0675448509434369
 30
0.0
 11
0.1103635068767504
 21
-0.0675422845173787
 31
0.0
  0
LINE
  5
186
330
1F
100
AcDbEntity
  8
0
100
AcDbLine
 10
0.1104675026350112
 20
-0.0675265984195369
 30
0.0
 11
0.1105347073166385
 21
-0.0675151577913017
 31
0.0
  0
LINE
  5
187
330
1F
100
AcDbEntity
  8
0
100
AcDbLine
 10
0.1075496690189405
 20
-0.0675646052378985
 30
0.0
 11
0.1076225360840814
 21
-0.0675612436376706
 31
0.0
  0
LINE
  5
188
330
1F
100
AcDbEntity
  8
0
100
AcDbLine
 10
0.1072397229301919
 20
-0.0675622029557693
 30
0.0
 11
0.1071838604048933
 21
-0.0675603599985999
 31
0.0
  0
LINE
  5
189
330
1F
100
AcDbEntity
  8
0
100
AcDbLine
 10
0.1077708085122484
 20
-0.0673841320440351
 30
0.0
 11
0.1078538873746462
 21
-0.0674348546507343
 31
0.0
  0
LINE
  5
18A
330
1F
100
AcDbEntity
  8
0
100
AcDbLine
 10
0.1100421786720109
 20
-0.0675642925798558
 30
0.0
 11
0.1098879281829439
 21
-0.0675671872675814
 31
0.0
  0
LINE
  5
18B
330
1F
100
AcDbEntity
  8
0
100
AcDbLine
 10
0.10979825195133
 20
-0.0675590486733864
 30
0.0
 11
0.109604598491736
 21
-0.067561609883325
 31
0.0
  0
LINE
  5
18C
330
1F
100
AcDbEntity
  8
0
100
AcDbLine
 10
0.1116544693159865
 20
-0.0674705786186135
 30
0.0
 11
0.1115960151910212
 21
-0.0674556548826011
 31
0.0
  0
LINE
  5
18D
330
1F
100
AcDbEntity
  8
0
100
AcDbLine
 10
0.1142214228403422
 20
-0.0673206810013913
 30
0.0
 11
0.1142392321227162
 21
-0.0672751787689841
 31
0.0
  0
LINE
  5
18E
330
1F
100
AcDbEntity
  8
0
100
AcDbLine
 10
0.1141757594574293
 20
-0.0673519041008605
 30
0.0
 11
0.1142214228403422
 21
-0.0673206810013913
 31
0.0
  0
LINE
  5
18F
330
1F
100
AcDbEntity
  8
0
100
AcDbLine
 10
0.1141693928238651
 20
-0.067199712967121
 30
0.0
 11
0.1141230426488777
 21
-0.0671760527872612
 31
0.0
  0
LINE
  5
190
330
1F
100
AcDbEntity
  8
0
100
AcDbLine
 10
0.1117897749497747
 20
-0.0670828792228873
 30
0.0
 11
0.1117272546646579
 21
-0.0670914640997147
 31
0.0
  0
LINE
  5
191
330
1F
100
AcDbEntity
  8
0
100
AcDbLine
 10
0.1115881607355374
 20
-0.0671153036710953
 30
0.0
 11
0.1115602377427172
 21
-0.0671210800128975
 31
0.0
  0
LINE
  5
192
330
1F
100
AcDbEntity
  8
0
100
AcDbLine
 10
0.1112568563716491
 20
-0.0672498623138387
 30
0.0
 11
0.111245573665159
 21
-0.0672751787689841
 31
0.0
  0
LINE
  5
193
330
1F
100
AcDbEntity
  8
0
100
AcDbLine
 10
0.111255563489802
 20
-0.0673007024994224
 30
0.0
 11
0.111275174093955
 21
-0.067331961603268
 31
0.0
  0
LINE
  5
194
330
1F
100
AcDbEntity
  8
0
100
AcDbLine
 10
0.111275174093955
 20
-0.067331961603268
 30
0.0
 11
0.111309046330446
 21
-0.0673519041008606
 31
0.0
  0
LINE
  5
195
330
1F
100
AcDbEntity
  8
0
100
AcDbLine
 10
0.1130674353223513
 20
-0.0675603599985999
 30
0.0
 11
0.1131055737246518
 21
-0.0675569246278734
 31
0.0
  0
LINE
  5
196
330
1F
100
AcDbEntity
  8
0
100
AcDbLine
 10
0.1133549987507248
 20
-0.0675401097766642
 30
0.0
 11
0.11349344514236
 21
-0.0675238855483361
 31
0.0
  0
LINE
  5
197
330
1F
100
AcDbEntity
  8
0
100
AcDbLine
 10
0.1033487258345762
 20
-0.0672072887706292
 30
0.0
 11
0.1033193500219128
 21
-0.0672023166620487
 31
0.0
  0
LINE
  5
198
330
1F
100
AcDbEntity
  8
0
100
AcDbLine
 10
0.1025120129529301
 20
-0.0670700336716107
 30
0.0
 11
0.1024800716389614
 21
-0.0670649657530333
 31
0.0
  0
LINE
  5
199
330
1F
100
AcDbEntity
  8
0
100
AcDbLine
 10
0.1022650560080982
 20
-0.0670314113585682
 30
0.0
 11
0.1002424028939376
 21
-0.0666677921068052
 31
0.0
  0
LINE
  5
19A
330
1F
100
AcDbEntity
  8
0
100
AcDbLine
 10
0.1025120129529301
 20
-0.0670700336716107
 30
0.0
 11
0.1027272545305474
 21
-0.0671043670029361
 31
0.0
  0
LINE
  5
19B
330
1F
100
AcDbEntity
  8
0
100
AcDbLine
 10
0.1052963999476114
 20
-0.0675778200696506
 30
0.0
 11
0.1053624861840269
 21
-0.0675897203748112
 31
0.0
  0
LINE
  5
19C
330
1F
100
AcDbEntity
  8
0
100
AcDbLine
 10
0.1054680925233343
 20
-0.0676087371585293
 30
0.0
 11
0.1054996835949153
 21
-0.0676144258376334
 31
0.0
  0
LINE
  5
19D
330
1F
100
AcDbEntity
  8
0
100
AcDbLine
 10
0.111255563489802
 20
-0.0673007024994224
 30
0.0
 11
0.1112568563716491
 21
-0.0672498623138387
 31
0.0
  0
LINE
  5
19E
330
1F
100
AcDbEntity
  8
0
100
AcDbLine
 10
0.1114719575617927
 20
-0.0674239821253742
 30
0.0
 11
0.1113392274779232
 21
-0.067372540963696
 31
0.0
  0
LINE
  5
19F
330
1F
100
AcDbEntity
  8
0
100
AcDbLine
 10
0.1112568563716491
 20
-0.0672498623138387
 30
0.0
 11
0.1112787164620259
 21
-0.0672184452769215
 31
0.0
  0
LINE
  5
1A0
330
1F
100
AcDbEntity
  8
0
100
AcDbLine
 10
0.1119327879695492
 20
-0.0670649657530333
 30
0.0
 11
0.1121988029699764
 21
-0.0670437405126528
 31
0.0
  0
LINE
  5
1A1
330
1F
100
AcDbEntity
  8
0
100
AcDbLine
 10
0.1121988029699764
 20
-0.0670437405126528
 30
0.0
 11
0.1124853215473019
 21
-0.0670314113585682
 31
0.0
  0
LINE
  5
1A2
330
1F
100
AcDbEntity
  8
0
100
AcDbLine
 10
0.1124853215473019
 20
-0.0670314113585682
 30
0.0
 11
0.1127740458697467
 21
-0.0670279731738462
 31
0.0
  0
LINE
  5
1A3
330
1F
100
AcDbEntity
  8
0
100
AcDbLine
 10
0.1127740458697467
 20
-0.0670279731738462
 30
0.0
 11
0.1130637646456435
 21
-0.067033371540695
 31
0.0
  0
LINE
  5
1A4
330
1F
100
AcDbEntity
  8
0
100
AcDbLine
 10
0.1130637646456435
 20
-0.067033371540695
 30
0.0
 11
0.1133472879491327
 21
-0.0670476829580576
 31
0.0
  0
LINE
  5
1A5
330
1F
100
AcDbEntity
  8
0
100
AcDbLine
 10
0.1133472879491327
 20
-0.0670476829580576
 30
0.0
 11
0.1136066112262238
 21
-0.0670707775669284
 31
0.0
  0
LINE
  5
1A6
330
1F
100
AcDbEntity
  8
0
100
AcDbLine
 10
0.1136066112262238
 20
-0.0670707775669284
 30
0.0
 11
0.1138282282611175
 21
-0.067101150504433
 31
0.0
  0
LINE
  5
1A7
330
1F
100
AcDbEntity
  8
0
100
AcDbLine
 10
0.1138282282611175
 20
-0.067101150504433
 30
0.0
 11
0.1140110223656633
 21
-0.0671350545227319
 31
0.0
  0
LINE
  5
1A8
330
1F
100
AcDbEntity
  8
0
100
AcDbLine
 10
0.1140110223656633
 20
-0.0671350545227319
 30
0.0
 11
0.1141230426488777
 21
-0.0671760527872612
 31
0.0
  0
LINE
  5
1A9
330
1F
100
AcDbEntity
  8
0
100
AcDbLine
 10
0.1142227542467598
 20
-0.0672382052460171
 30
0.0
 11
0.1142392321227162
 21
-0.0672751787689841
 31
0.0
  0
LINE
  5
1AA
330
1F
100
AcDbEntity
  8
0
100
AcDbLine
 10
0.1141210204505543
 20
-0.0673841320440351
 30
0.0
 11
0.1139820130156352
 21
-0.0674328029982485
 31
0.0
  0
LINE
  5
1AB
330
1F
100
AcDbEntity
  8
0
100
AcDbLine
 10
0.1130020574681423
 20
-0.0675631442214372
 30
0.0
 11
0.1128965754456994
 21
-0.0675648292978657
 31
0.0
  0
LINE
  5
1AC
330
1F
100
AcDbEntity
  8
0
100
AcDbLine
 10
0.122293284983865
 20
-0.0671806804690875
 30
0.0
 11
0.1223509802851952
 21
-0.0671709150438349
 31
0.0
  0
LINE
  5
1AD
330
1F
100
AcDbEntity
  8
0
100
AcDbLine
 10
0.1228223702077682
 20
-0.0670939002422684
 30
0.0
 11
0.1230047341489138
 21
-0.0670649657530333
 31
0.0
  0
LINE
  5
1AE
330
1F
100
AcDbEntity
  8
0
100
AcDbLine
 10
0.123219749779777
 20
-0.0670314113585682
 30
0.0
 11
0.1252424028939376
 21
-0.0666677921068052
 31
0.0
  0
LINE
  5
1AF
330
1F
100
AcDbEntity
  8
0
100
AcDbLine
 10
0.1228223702077682
 20
-0.0670939002422684
 30
0.0
 11
0.1227771176340483
 21
-0.067101150504433
 31
0.0
  0
LINE
  5
1B0
330
1F
100
AcDbEntity
  8
0
100
AcDbLine
 10
0.122605325765163
 20
-0.0671289478976156
 30
0.0
 11
0.1225520057528395
 21
-0.0671376652404013
 31
0.0
  0
LINE
  5
1B1
330
1F
100
AcDbEntity
  8
0
100
AcDbLine
 10
0.1202421916336538
 20
-0.0675681347344073
 30
0.0
 11
0.1201884058402638
 21
-0.0675778200696506
 31
0.0
  0
LINE
  5
1B2
330
1F
100
AcDbEntity
  8
0
100
AcDbLine
 10
0.1200631801695645
 20
-0.0676003697528538
 30
0.0
 11
0.1200167132645409
 21
-0.0676087371585293
 31
0.0
  0
LINE
  5
1B3
330
1F
100
AcDbEntity
  8
0
100
AcDbLine
 10
0.1203733410766509
 20
-0.0675401097766642
 30
0.0
 11
0.1204513301041354
 21
-0.0675237557724626
 31
0.0
  0
LINE
  5
1B4
330
1F
100
AcDbEntity
  8
0
100
AcDbLine
 10
0.1174716557697101
 20
-0.0673382052460171
 30
0.0
 11
0.1175706665954035
 21
-0.067275193059561
 31
0.0
  0
LINE
  5
1B5
330
1F
100
AcDbEntity
  8
0
100
AcDbLine
 10
0.1176155906539948
 20
-0.0671153409412105
 30
0.0
 11
0.117588851969113
 21
-0.0671047924409205
 31
0.0
  0
LINE
  5
1B6
330
1F
100
AcDbEntity
  8
0
100
AcDbLine
 10
0.1175057831432524
 20
-0.0670827278279347
 30
0.0
 11
0.1174339623168252
 21
-0.067068259244955
 31
0.0
  0
LINE
  5
1B7
330
1F
100
AcDbEntity
  8
0
100
AcDbLine
 10
0.1173323375339951
 20
-0.067055453492525
 30
0.0
 11
0.117302830505467
 21
-0.067034583424283
 31
0.0
  0
LINE
  5
1B8
330
1F
100
AcDbEntity
  8
0
100
AcDbLine
 10
0.1152047011274694
 20
-0.0666802440739726
 30
0.0
 11
0.115215776090336
 21
-0.0666236923416193
 31
0.0
  0
LINE
  5
1B9
330
1F
100
AcDbEntity
  8
0
100
AcDbLine
 10
0.1147117911810907
 20
-0.067331961603268
 30
0.0
 11
0.1146897959921531
 21
-0.0673780769255523
 31
0.0
  0
LINE
  5
1BA
330
1F
100
AcDbEntity
  8
0
100
AcDbLine
 10
0.1150231648313522
 20
-0.0675275962857985
 30
0.0
 11
0.1150966717360772
 21
-0.0675401097766642
 31
0.0
  0
LINE
  5
1BB
330
1F
100
AcDbEntity
  8
0
100
AcDbLine
 10
0.1201131426224842
 20
-0.0673540183463271
 30
0.0
 11
0.1202061105052404
 21
-0.0673329647159326
 31
0.0
  0
LINE
  5
1BC
330
1F
100
AcDbEntity
  8
0
100
AcDbLine
 10
0.1213851264305913
 20
-0.0671289478976156
 30
0.0
 11
0.1216568523535272
 21
-0.0670939002422684
 31
0.0
  0
LINE
  5
1BD
330
1F
100
AcDbEntity
  8
0
100
AcDbLine
 10
0.1221407894500628
 20
-0.0670437405126528
 30
0.0
 11
0.1223368851495795
 21
-0.0670310689229136
 31
0.0
  0
LINE
  5
1BE
330
1F
100
AcDbEntity
  8
0
100
AcDbLine
 10
0.1223368851495795
 20
-0.0670310689229136
 30
0.0
 11
0.1224549225666183
 21
-0.0670279731738462
 31
0.0
  0
LINE
  5
1BF
330
1F
100
AcDbEntity
  8
0
100
AcDbLine
 10
0.1224549225666183
 20
-0.0670279731738462
 30
0.0
 11
0.1225334794968609
 21
-0.067033371540695
 31
0.0
  0
LINE
  5
1C0
330
1F
100
AcDbEntity
  8
0
100
AcDbLine
 10
0.1225334794968609
 20
-0.067033371540695
 30
0.0
 11
0.1225569287376474
 21
-0.0670476829580576
 31
0.0
  0
LINE
  5
1C1
330
1F
100
AcDbEntity
  8
0
100
AcDbLine
 10
0.1225569287376474
 20
-0.0670476829580576
 30
0.0
 11
0.122520228740581
 21
-0.0670707775669284
 31
0.0
  0
LINE
  5
1C2
330
1F
100
AcDbEntity
  8
0
100
AcDbLine
 10
0.122520228740581
 20
-0.0670707775669284
 30
0.0
 11
0.1224287978353767
 21
-0.067101150504433
 31
0.0
  0
LINE
  5
1C3
330
1F
100
AcDbEntity
  8
0
100
AcDbLine
 10
0.1219934385103329
 20
-0.0672028592680817
 30
0.0
 11
0.1219621088458239
 21
-0.0672094018851227
 31
0.0
  0
LINE
  5
1C4
330
1F
100
AcDbEntity
  8
0
100
AcDbLine
 10
0.1078995895801871
 20
-0.0672693540887734
 30
0.0
 11
0.1078205525639253
 21
-0.0672184452769215
 31
0.0
  0
LINE
  5
1C5
330
1F
100
AcDbEntity
  8
0
100
AcDbLine
 10
0.1078205525639253
 20
-0.0672184452769215
 30
0.0
 11
0.1077991133818949
 21
-0.0671709150438349
 31
0.0
  0
LINE
  5
1C6
330
1F
100
AcDbEntity
  8
0
100
AcDbLine
 10
0.1077991133818949
 20
-0.0671709150438349
 30
0.0
 11
0.1078347237740176
 21
-0.0671289478976156
 31
0.0
  0
LINE
  5
1C7
330
1F
100
AcDbEntity
  8
0
100
AcDbLine
 10
0.1078347237740176
 20
-0.0671289478976156
 30
0.0
 11
0.1079235637215374
 21
-0.0670939002422684
 31
0.0
  0
LINE
  5
1C8
330
1F
100
AcDbEntity
  8
0
100
AcDbLine
 10
0.1080671920873576
 20
-0.0670649657530333
 30
0.0
 11
0.1082610754001904
 21
-0.0670437405126528
 31
0.0
  0
LINE
  5
1C9
330
1F
100
AcDbEntity
  8
0
100
AcDbLine
 10
0.1082610754001904
 20
-0.0670437405126528
 30
0.0
 11
0.1084953836312377
 21
-0.0670314113585682
 31
0.0
  0
LINE
  5
1CA
330
1F
100
AcDbEntity
  8
0
100
AcDbLine
 10
0.1084953836312377
 20
-0.0670314113585682
 30
0.0
 11
0.1087535956309076
 21
-0.0670279731738462
 31
0.0
  0
LINE
  5
1CB
330
1F
100
AcDbEntity
  8
0
100
AcDbLine
 10
0.1087535956309076
 20
-0.0670279731738462
 30
0.0
 11
0.1090346456282917
 21
-0.067033371540695
 31
0.0
  0
LINE
  5
1CC
330
1F
100
AcDbEntity
  8
0
100
AcDbLine
 10
0.1090346456282917
 20
-0.067033371540695
 30
0.0
 11
0.1093318160470284
 21
-0.0670476829580576
 31
0.0
  0
LINE
  5
1CD
330
1F
100
AcDbEntity
  8
0
100
AcDbLine
 10
0.1093318160470284
 20
-0.0670476829580576
 30
0.0
 11
0.10962770717603
 21
-0.0670707775669284
 31
0.0
  0
LINE
  5
1CE
330
1F
100
AcDbEntity
  8
0
100
AcDbLine
 10
0.1099054556470066
 20
-0.067101150504433
 30
0.0
 11
0.1101546791885807
 21
-0.0671376652404013
 31
0.0
  0
LINE
  5
1CF
330
1F
100
AcDbEntity
  8
0
100
AcDbLine
 10
0.1101546791885807
 20
-0.0671376652404013
 30
0.0
 11
0.1103781767091695
 21
-0.0671810262725074
 31
0.0
  0
LINE
  5
1D0
330
1F
100
AcDbEntity
  8
0
100
AcDbLine
 10
0.1103781767091695
 20
-0.0671810262725074
 30
0.0
 11
0.1102424028566847
 21
-0.0666232175902025
 31
0.0
  0
LINE
  5
1D1
330
1F
100
AcDbEntity
  8
0
100
AcDbLine
 10
0.1106944464696909
 20
-0.0672807915588306
 30
0.0
 11
0.1107730146067845
 21
-0.067331961603268
 31
0.0
  0
LINE
  5
1D2
330
1F
100
AcDbEntity
  8
0
100
AcDbLine
 10
0.1107730146067845
 20
-0.067331961603268
 30
0.0
 11
0.1107978978482927
 21
-0.0673841320440351
 31
0.0
  0
LINE
  5
1D3
330
1F
100
AcDbEntity
  8
0
100
AcDbLine
 10
0.1107978978482927
 20
-0.0673841320440351
 30
0.0
 11
0.1107644583010882
 21
-0.0674348546507343
 31
0.0
  0
LINE
  5
1D4
330
1F
100
AcDbEntity
  8
0
100
AcDbLine
 10
0.1107644583010882
 20
-0.0674348546507343
 30
0.0
 11
0.1106740997240692
 21
-0.0674798634308492
 31
0.0
  0
LINE
  5
1D5
330
1F
100
AcDbEntity
  8
0
100
AcDbLine
 10
0.1106740997240692
 20
-0.0674798634308492
 30
0.0
 11
0.1105108309923606
 21
-0.0675238855483361
 31
0.0
  0
LINE
  5
1D6
330
1F
100
AcDbEntity
  8
0
100
AcDbLine
 10
0.1095111211290689
 20
-0.0675572011522011
 30
0.0
 11
0.1092982519513299
 21
-0.0675429289286488
 31
0.0
  0
LINE
  5
1D7
330
1F
100
AcDbEntity
  8
0
100
AcDbLine
 10
0.108201256919475
 20
-0.0673716093704578
 30
0.0
 11
0.108125196458933
 21
-0.067349317680296
 31
0.0
  0
LINE
  5
1D8
330
1F
100
AcDbEntity
  8
0
100
AcDbLine
 10
0.1080698141341695
 20
-0.067333086308368
 30
0.0
 11
0.1080274865513365
 21
-0.0673206810013913
 31
0.0
  0
LINE
  5
1D9
330
1F
100
AcDbEntity
  8
0
100
AcDbLine
 10
0.105290979418781
 20
-0.0673357465977446
 30
0.0
 11
0.1052244532867468
 21
-0.0673206810013913
 31
0.0
  0
LINE
  5
1DA
330
1F
100
AcDbEntity
  8
0
100
AcDbLine
 10
0.1048589781190533
 20
-0.0672497362244355
 30
0.0
 11
0.1047586631154753
 21
-0.0672317145099033
 31
0.0
  0
LINE
  5
1DB
330
1F
100
AcDbEntity
  8
0
100
AcDbLine
 10
0.1044898715302262
 20
-0.0671870457204208
 30
0.0
 11
0.1044274869774341
 21
-0.067176996768837
 31
0.0
  0
LINE
  5
1DC
330
1F
100
AcDbEntity
  8
0
100
AcDbLine
 10
0.1036376673827513
 20
-0.0670738855483361
 30
0.0
 11
0.1035999185060585
 21
-0.0670682150211237
 31
0.0
  0
LINE
  5
1DD
330
1F
100
AcDbEntity
  8
0
100
AcDbLine
 10
0.1034178235222395
 20
-0.0670506400542825
 30
0.0
 11
0.1033686092273998
 21
-0.0670460394713087
 31
0.0
  0
LINE
  5
1DE
330
1F
100
AcDbEntity
  8
0
100
AcDbLine
 10
0.103109452663276
 20
-0.0670300600292867
 30
0.0
 11
0.1030540271546604
 21
-0.0670286063930507
 31
0.0
  0
LINE
  5
1DF
330
1F
100
AcDbEntity
  8
0
100
AcDbLine
 10
0.1029994791669151
 20
-0.0670300625151496
 30
0.0
 11
0.1029634521267018
 21
-0.0670325382633611
 31
0.0
  0
LINE
  5
1E0
330
1F
100
AcDbEntity
  8
0
100
AcDbLine
 10
0.1030009063200642
 20
-0.0670828459887489
 30
0.0
 11
0.1030560079524985
 21
-0.067101150504433
 31
0.0
  0
LINE
  5
1E1
330
1F
100
AcDbEntity
  8
0
100
AcDbLine
 10
0.1033193500219128
 20
-0.0671656598133139
 30
0.0
 11
0.1033627302325374
 21
-0.0671755399373756
 31
0.0
  0
LINE
  5
1E2
330
1F
100
AcDbEntity
  8
0
100
AcDbLine
 10
0.1035226969420513
 20
-0.0672094018851227
 30
0.0
 11
0.1035557924907075
 21
-0.0672163132741851
 31
0.0
  0
LINE
  5
1E3
330
1F
100
AcDbEntity
  8
0
100
AcDbLine
 10
0.1055057439007466
 20
-0.0675456555788587
 30
0.0
 11
0.1055935216507849
 21
-0.067553992544517
 31
0.0
  0
LINE
  5
1E4
330
1F
100
AcDbEntity
  8
0
100
AcDbLine
 10
0.1104486115237147
 20
-0.067199657659674
 30
0.0
 11
0.1104063889068513
 21
-0.0671892856291582
 31
0.0
  0
LINE
  5
1E5
330
1F
100
AcDbEntity
  8
0
100
AcDbLine
 10
0.1081524682538801
 20
-0.0673382052460171
 30
0.0
 11
0.108201256919475
 21
-0.0673716093704578
 31
0.0
  0
LINE
  5
1E6
330
1F
100
AcDbEntity
  8
0
100
AcDbLine
 10
0.1075563990473963
 20
-0.0673084809277572
 30
0.0
 11
0.1075245038557952
 21
-0.0672997648676517
 31
0.0
  0
LINE
  5
1E7
330
1F
100
AcDbEntity
  8
0
100
AcDbLine
 10
0.1032274036007844
 20
-0.0671444787539872
 30
0.0
 11
0.1031915208040101
 21
-0.0671361088050201
 31
0.0
  0
LINE
  5
1E8
330
1F
100
AcDbEntity
  8
0
100
AcDbLine
 10
0.1029514188734553
 20
-0.0670649657530333
 30
0.0
 11
0.1029279629683427
 21
-0.0670437405126528
 31
0.0
  0
LINE
  5
1E9
330
1F
100
AcDbEntity
  8
0
100
AcDbLine
 10
0.1029279629683427
 20
-0.0670437405126528
 30
0.0
 11
0.1029634521267018
 21
-0.0670325382633611
 31
0.0
  0
LINE
  5
1EA
330
1F
100
AcDbEntity
  8
0
100
AcDbLine
 10
0.1036376673827513
 20
-0.0670738855483361
 30
0.0
 11
0.1038870627094216
 21
-0.067101150504433
 31
0.0
  0
LINE
  5
1EB
330
1F
100
AcDbEntity
  8
0
100
AcDbLine
 10
0.1038870627094216
 20
-0.067101150504433
 30
0.0
 11
0.1041625876551384
 21
-0.0671376652404013
 31
0.0
  0
LINE
  5
1EC
330
1F
100
AcDbEntity
  8
0
100
AcDbLine
 10
0.1147117911810907
 20
-0.067331961603268
 30
0.0
 11
0.1148152240164887
 21
-0.0672693540887734
 31
0.0
  0
LINE
  5
1ED
330
1F
100
AcDbEntity
  8
0
100
AcDbLine
 10
0.1147076728187571
 20
-0.0674239821253742
 30
0.0
 11
0.1146897959921531
 21
-0.0673780769255523
 31
0.0
  0
LINE
  5
1EE
330
1F
100
AcDbEntity
  8
0
100
AcDbLine
 10
0.1147863928270247
 20
-0.0674705786186135
 30
0.0
 11
0.1147076728187571
 21
-0.0674239821253742
 31
0.0
  0
LINE
  5
1EF
330
1F
100
AcDbEntity
  8
0
100
AcDbLine
 10
0.1149145292497427
 20
-0.0675091026441026
 30
0.0
 11
0.1147863928270247
 21
-0.0674705786186135
 31
0.0
  0
LINE
  5
1F0
330
1F
100
AcDbEntity
  8
0
100
AcDbLine
 10
0.115153200134359
 20
-0.0671709150438349
 30
0.0
 11
0.115383478129043
 21
-0.0671289478976156
 31
0.0
  0
LINE
  5
1F1
330
1F
100
AcDbEntity
  8
0
100
AcDbLine
 10
0.115383478129043
 20
-0.0671289478976156
 30
0.0
 11
0.1156384367011066
 21
-0.0670939002422684
 31
0.0
  0
LINE
  5
1F2
330
1F
100
AcDbEntity
  8
0
100
AcDbLine
 10
0.1156384367011066
 20
-0.0670939002422684
 30
0.0
 11
0.1159216403848013
 21
-0.0670649657530333
 31
0.0
  0
LINE
  5
1F3
330
1F
100
AcDbEntity
  8
0
100
AcDbLine
 10
0.1159216403848013
 20
-0.0670649657530333
 30
0.0
 11
0.1162192887004399
 21
-0.0670437405126528
 31
0.0
  0
LINE
  5
1F4
330
1F
100
AcDbEntity
  8
0
100
AcDbLine
 10
0.1162192887004399
 20
-0.0670437405126528
 30
0.0
 11
0.1165143977679432
 21
-0.0670314113585682
 31
0.0
  0
LINE
  5
1F5
330
1F
100
AcDbEntity
  8
0
100
AcDbLine
 10
0.1165143977679432
 20
-0.0670314113585682
 30
0.0
 11
0.1167896787523632
 21
-0.0670279731738462
 31
0.0
  0
LINE
  5
1F6
330
1F
100
AcDbEntity
  8
0
100
AcDbLine
 10
0.1167896787523632
 20
-0.0670279731738462
 30
0.0
 11
0.1170439592494497
 21
-0.067033371540695
 31
0.0
  0
LINE
  5
1F7
330
1F
100
AcDbEntity
  8
0
100
AcDbLine
 10
0.1170439592494497
 20
-0.067033371540695
 30
0.0
 11
0.1172706715848803
 21
-0.0670476829580576
 31
0.0
  0
LINE
  5
1F8
330
1F
100
AcDbEntity
  8
0
100
AcDbLine
 10
0.1176626241729466
 20
-0.0671376652404013
 30
0.0
 11
0.117686039456982
 21
-0.0671810262725074
 31
0.0
  0
LINE
  5
1F9
330
1F
100
AcDbEntity
  8
0
100
AcDbLine
 10
0.117686039456982
 20
-0.0671810262725074
 30
0.0
 11
0.1176361093154337
 21
-0.0672382052460171
 31
0.0
  0
LINE
  5
1FA
330
1F
100
AcDbEntity
  8
0
100
AcDbLine
 10
0.1176361093154337
 20
-0.0672382052460171
 30
0.0
 11
0.1175706665954035
 21
-0.067275193059561
 31
0.0
  0
LINE
  5
1FB
330
1F
100
AcDbEntity
  8
0
100
AcDbLine
 10
0.1220019626006927
 20
-0.0670567181331105
 30
0.0
 11
0.1219621088458239
 21
-0.0670738855483361
 31
0.0
  0
LINE
  5
1FC
330
1F
100
AcDbEntity
  8
0
100
AcDbLine
 10
0.1217573120916437
 20
-0.0670825847363105
 30
0.0
 11
0.1216971019800103
 21
-0.0670895901501366
 31
0.0
  0
LINE
  5
1FD
330
1F
100
AcDbEntity
  8
0
100
AcDbLine
 10
0.1211352803089256
 20
-0.067165362479573
 30
0.0
 11
0.1210637666041936
 21
-0.0671759581532769
 31
0.0
  0
LINE
  5
1FE
330
1F
100
AcDbEntity
  8
0
100
AcDbLine
 10
0.120360723912512
 20
-0.0673005785895041
 30
0.0
 11
0.1202833988055007
 21
-0.0673160652816701
 31
0.0
  0
LINE
  5
1FF
330
1F
100
AcDbEntity
  8
0
100
AcDbLine
 10
0.1205365375542292
 20
-0.0671544171462396
 30
0.0
 11
0.1205752701480308
 21
-0.067133603687594
 31
0.0
  0
LINE
  5
200
330
1F
100
AcDbEntity
  8
0
100
AcDbLine
 10
0.1205360441542316
 20
-0.0670568178245013
 30
0.0
 11
0.1205074353204974
 21
-0.06705023429669
 31
0.0
  0
LINE
  5
201
330
1F
100
AcDbEntity
  8
0
100
AcDbLine
 10
0.1204210006200662
 20
-0.0670388387237864
 30
0.0
 11
0.1203749834911726
 21
-0.0670321430892276
 31
0.0
  0
LINE
  5
202
330
1F
100
AcDbEntity
  8
0
100
AcDbLine
 10
0.1176212541094784
 20
-0.0674528274690438
 30
0.0
 11
0.1176067163924338
 21
-0.0674798634308491
 31
0.0
  0
LINE
  5
203
330
1F
100
AcDbEntity
  8
0
100
AcDbLine
 10
0.1176067163924338
 20
-0.0674798634308491
 30
0.0
 11
0.1176355643530994
 21
-0.0675124765594176
 31
0.0
  0
LINE
  5
204
330
1F
100
AcDbEntity
  8
0
100
AcDbLine
 10
0.117953094652597
 20
-0.0675650672700561
 30
0.0
 11
0.1180235420834494
 21
-0.067568033030914
 31
0.0
  0
LINE
  5
205
330
1F
100
AcDbEntity
  8
0
100
AcDbLine
 10
0.1185714617142105
 20
-0.0675401097766642
 30
0.0
 11
0.1186178688752629
 21
-0.0675351053397405
 31
0.0
  0
LINE
  5
206
330
1F
100
AcDbEntity
  8
0
100
AcDbLine
 10
0.1186447727930124
 20
-0.0675322040857891
 30
0.0
 11
0.1187265277351233
 21
-0.0675238855483361
 31
0.0
  0
LINE
  5
207
330
1F
100
AcDbEntity
  8
0
100
AcDbLine
 10
0.1185675502899095
 20
-0.0671709150438349
 30
0.0
 11
0.1188491507840481
 21
-0.0671289478976156
 31
0.0
  0
LINE
  5
208
330
1F
100
AcDbEntity
  8
0
100
AcDbLine
 10
0.1188491507840481
 20
-0.0671289478976156
 30
0.0
 11
0.1191341903787493
 21
-0.0670939002422684
 31
0.0
  0
LINE
  5
209
330
1F
100
AcDbEntity
  8
0
100
AcDbLine
 10
0.1191341903787493
 20
-0.0670939002422684
 30
0.0
 11
0.119426482711929
 21
-0.0670649657530333
 31
0.0
  0
LINE
  5
20A
330
1F
100
AcDbEntity
  8
0
100
AcDbLine
 10
0.119426482711929
 20
-0.0670649657530333
 30
0.0
 11
0.1197104500849117
 21
-0.0670437405126528
 31
0.0
  0
LINE
  5
20B
330
1F
100
AcDbEntity
  8
0
100
AcDbLine
 10
0.1197104500849117
 20
-0.0670437405126528
 30
0.0
 11
0.1199692219622357
 21
-0.0670314113585682
 31
0.0
  0
LINE
  5
20C
330
1F
100
AcDbEntity
  8
0
100
AcDbLine
 10
0.1205839936180096
 20
-0.0670707775669284
 30
0.0
 11
0.1206058122142597
 21
-0.067101150504433
 31
0.0
  0
LINE
  5
20D
330
1F
100
AcDbEntity
  8
0
100
AcDbLine
 10
0.1206058122142597
 20
-0.067101150504433
 30
0.0
 11
0.1205752701480308
 21
-0.067133603687594
 31
0.0
  0
LINE
  5
20E
330
1F
100
AcDbEntity
  8
0
100
AcDbLine
 10
0.1185092209324596
 20
-0.0675456555788587
 30
0.0
 11
0.1184052580943697
 21
-0.0675525513921963
 31
0.0
  0
LINE
  5
20F
330
1F
100
AcDbEntity
  8
0
100
AcDbLine
 10
0.1181097367458468
 20
-0.0675661350188707
 30
0.0
 11
0.1180235420834494
 21
-0.067568033030914
 31
0.0
  0
LINE
  5
210
330
1F
100
AcDbEntity
  8
0
100
AcDbLine
 10
0.1177051203452885
 20
-0.0675401097766642
 30
0.0
 11
0.1176355643530994
 21
-0.0675124765594176
 31
0.0
  0
LINE
  5
211
330
1F
100
AcDbEntity
  8
0
100
AcDbLine
 10
0.1176355643530994
 20
-0.0675124765594176
 30
0.0
 11
0.1176212541094784
 21
-0.0674528274690438
 31
0.0
  0
LINE
  5
212
330
1F
100
AcDbEntity
  8
0
100
AcDbLine
 10
0.1176212541094784
 20
-0.0674528274690438
 30
0.0
 11
0.117644193544884
 21
-0.0674239821253742
 31
0.0
  0
LINE
  5
213
330
1F
100
AcDbEntity
  8
0
100
AcDbLine
 10
0.117644193544884
 20
-0.0674239821253742
 30
0.0
 11
0.1177399080405782
 21
-0.067372540963696
 31
0.0
  0
LINE
  5
214
330
1F
100
AcDbEntity
  8
0
100
AcDbLine
 10
0.1051098222967026
 20
-0.0671949162388223
 30
0.0
 11
0.1049789698280815
 21
-0.0671709150438349
 31
0.0
  0
LINE
  5
215
330
1F
100
AcDbEntity
  8
0
100
AcDbLine
 10
0.1049008714949213
 20
-0.0671289478976156
 30
0.0
 11
0.1048789638952525
 21
-0.0670939002422684
 31
0.0
  0
LINE
  5
216
330
1F
100
AcDbEntity
  8
0
100
AcDbLine
 10
0.1048789638952525
 20
-0.0670939002422684
 30
0.0
 11
0.1049274869774341
 21
-0.0670738855483361
 31
0.0
  0
LINE
  5
217
330
1F
100
AcDbEntity
  8
0
100
AcDbLine
 10
0.1053404051392369
 20
-0.0670279731738462
 30
0.0
 11
0.1055699990437311
 21
-0.067033371540695
 31
0.0
  0
LINE
  5
218
330
1F
100
AcDbEntity
  8
0
100
AcDbLine
 10
0.1055699990437311
 20
-0.067033371540695
 30
0.0
 11
0.1058355750753192
 21
-0.0670476829580576
 31
0.0
  0
LINE
  5
219
330
1F
100
AcDbEntity
  8
0
100
AcDbLine
 10
0.1058355750753192
 20
-0.0670476829580576
 30
0.0
 11
0.1061229873141007
 21
-0.0670707775669284
 31
0.0
  0
LINE
  5
21A
330
1F
100
AcDbEntity
  8
0
100
AcDbLine
 10
0.1061229873141007
 20
-0.0670707775669284
 30
0.0
 11
0.1064145825342501
 21
-0.067101150504433
 31
0.0
  0
LINE
  5
21B
330
1F
100
AcDbEntity
  8
0
100
AcDbLine
 10
0.1064145825342501
 20
-0.067101150504433
 30
0.0
 11
0.1066985743691295
 21
-0.0671376652404013
 31
0.0
  0
LINE
  5
21C
330
1F
100
AcDbEntity
  8
0
100
AcDbLine
 10
0.1066985743691295
 20
-0.0671376652404013
 30
0.0
 11
0.1069779156918688
 21
-0.0671810262725074
 31
0.0
  0
LINE
  5
21D
330
1F
100
AcDbEntity
  8
0
100
AcDbLine
 10
0.1078538873746462
 20
-0.0674348546507343
 30
0.0
 11
0.1078780893954414
 21
-0.0674798634308492
 31
0.0
  0
LINE
  5
21E
330
1F
100
AcDbEntity
  8
0
100
AcDbLine
 10
0.1078780893954414
 20
-0.0674798634308492
 30
0.0
 11
0.1078455229455055
 21
-0.0675166803771522
 31
0.0
  0
LINE
  5
21F
330
1F
100
AcDbEntity
  8
0
100
AcDbLine
 10
0.1078455229455055
 20
-0.0675166803771522
 30
0.0
 11
0.1077544319543894
 21
-0.0675456555788587
 31
0.0
  0
LINE
  5
220
330
1F
100
AcDbEntity
  8
0
100
AcDbLine
 10
0.1077544319543894
 20
-0.0675456555788587
 30
0.0
 11
0.1076225360840814
 21
-0.0675612436376706
 31
0.0
  0
LINE
  5
221
330
1F
100
AcDbEntity
  8
0
100
AcDbLine
 10
0.1068227652377871
 20
-0.067530341972289
 30
0.0
 11
0.1067582780527519
 21
-0.0675238855483361
 31
0.0
  0
LINE
  5
222
330
1F
100
AcDbEntity
  8
0
100
AcDbLine
 10
0.105225963312186
 20
-0.0670300617864442
 30
0.0
 11
0.1051962766172079
 21
-0.0670309514738222
 31
0.0
  0
LINE
  5
223
330
1F
100
AcDbEntity
  8
0
100
AcDbLine
 10
0.1049487616336436
 20
-0.0670568178245013
 30
0.0
 11
0.1049274869774341
 21
-0.0670738855483361
 31
0.0
  0
LINE
  5
224
330
1F
100
AcDbEntity
  8
0
100
AcDbLine
 10
0.1077708085122484
 20
-0.0673841320440351
 30
0.0
 11
0.107744897747297
 21
-0.067372540963696
 31
0.0
  0
LINE
  5
225
330
1F
100
AcDbEntity
  8
0
100
AcDbLine
 10
0.1176070021132618
 20
-0.0673555292888892
 30
0.0
 11
0.1176212541094784
 21
-0.0674528274690438
 31
0.0
  0
LINE
  5
226
330
1F
100
AcDbEntity
  8
0
100
AcDbLine
 10
0.1107979178664003
 20
-0.0673518384101398
 30
0.0
 11
0.1107978978482927
 21
-0.0673841320440351
 31
0.0
  0
LINE
  5
227
330
1F
100
AcDbEntity
  8
0
100
AcDbLine
 10
0.1232422754100096
 20
-0.0668909667751619
 30
0.0
 11
0.123219749779777
 21
-0.0670314113585682
 31
0.0
  0
LINE
  5
228
330
1F
100
AcDbEntity
  8
0
100
AcDbLine
 10
0.1202427161072616
 20
-0.0674818792086447
 30
0.0
 11
0.1202421916336538
 21
-0.0675681347344073
 31
0.0
  0
LINE
  5
229
330
1F
100
AcDbEntity
  8
0
100
AcDbLine
 10
0.102242548909345
 20
-0.0669023049892748
 30
0.0
 11
0.1022426289367315
 21
-0.0669512685730581
 31
0.0
  0
LINE
  5
22A
330
1F
100
AcDbEntity
  8
0
100
AcDbLine
 10
0.105225963312186
 20
-0.0670300617864442
 30
0.0
 11
0.1052422463992682
 21
-0.0671469997856027
 31
0.0
  0
LINE
  5
22B
330
1F
100
AcDbEntity
  8
0
100
AcDbLine
 10
0.1052244532867468
 20
-0.0673206810013913
 30
0.0
 11
0.1052421385156795
 21
-0.0673775275044964
 31
0.0
  0
LINE
  5
22C
330
1F
100
AcDbEntity
  8
0
100
AcDbLine
 10
0.1052420896806136
 20
-0.0674818792086446
 30
0.0
 11
0.1052221247737957
 21
-0.0675091026441026
 31
0.0
  0
LINE
  5
22D
330
1F
100
AcDbEntity
  8
0
100
AcDbLine
 10
-0.0859359486607619
 20
-0.1694222887469853
 30
0.0
 11
-0.0853208807458163
 21
-0.2624811743572799
 31
0.0
  0
LINE
  5
22E
330
1F
100
AcDbEntity
  8
0
100
AcDbLine
 10
-0.1285092981252447
 20
-0.1588393443803486
 30
0.0
 11
-0.1282161584030545
 21
-0.114487728546927
 31
0.0
  0
LINE
  5
22F
330
1F
100
AcDbEntity
  8
0
100
AcDbLine
 10
-0.0852875449589007
 20
-0.1650475093069107
 30
0.0
 11
-0.0854516551697546
 21
-0.1624153268644049
 31
0.0
  0
LINE
  5
230
330
1F
100
AcDbEntity
  8
0
100
AcDbLine
 10
-0.1290635390423674
 20
-0.1624153268644063
 30
0.0
 11
-0.1292276492532212
 21
-0.1650475093069107
 31
0.0
  0
LINE
  5
231
330
1F
100
AcDbEntity
  8
0
100
AcDbLine
 10
-0.0859359486607619
 20
-0.1694222887469853
 30
0.0
 11
-0.0854582761550808
 21
-0.166199196726923
 31
0.0
  0
LINE
  5
232
330
1F
100
AcDbEntity
  8
0
100
AcDbLine
 10
-0.0852978971677362
 20
-0.1651173413525588
 30
0.0
 11
-0.0852875449589007
 21
-0.1650475093069107
 31
0.0
  0
LINE
  5
233
330
1F
100
AcDbEntity
  8
0
100
AcDbLine
 10
-0.0855786785231907
 20
-0.1603779847699475
 30
0.0
 11
-0.0855819007944213
 21
-0.1603263023931239
 31
0.0
  0
LINE
  5
234
330
1F
100
AcDbEntity
  8
0
100
AcDbLine
 10
-0.1285792455513597
 20
-0.169422288746987
 30
0.0
 11
-0.129056918057041
 21
-0.1661991967269232
 31
0.0
  0
LINE
  5
235
330
1F
100
AcDbEntity
  8
0
100
AcDbLine
 10
-0.1292276492532212
 20
-0.1650475093069107
 30
0.0
 11
-0.1292172970443856
 21
-0.1651173413525588
 31
0.0
  0
LINE
  5
236
330
1F
100
AcDbEntity
  8
0
100
AcDbLine
 10
-0.1289332934177006
 20
-0.1603263023931239
 30
0.0
 11
-0.1289365156889311
 21
-0.1603779847699475
 31
0.0
  0
LINE
  5
237
330
1F
100
AcDbEntity
  8
0
100
AcDbLine
 10
-0.1208325971060608
 20
0.0292208937589903
 30
0.0
 11
-0.1208325971060608
 21
0.0291922714530732
 31
0.0
  0
LINE
  5
238
330
1F
100
AcDbEntity
  8
0
100
AcDbLine
 10
-0.1208325971060608
 20
0.0291922714530732
 30
0.0
 11
-0.1208325971060608
 21
-0.114487728546927
 31
0.0
  0
LINE
  5
239
330
1F
100
AcDbEntity
  8
0
100
AcDbLine
 10
-0.0944037908594381
 20
0.0292078363785154
 30
0.0
 11
-0.0943147783426396
 21
0.0291922714530732
 31
0.0
  0
LINE
  5
23A
330
1F
100
AcDbEntity
  8
0
100
AcDbLine
 10
-0.0943147783426396
 20
0.0291922714530732
 30
0.0
 11
-0.0942023104211248
 21
0.0292513193028284
 31
0.0
  0
LINE
  5
23B
330
1F
100
AcDbEntity
  8
0
100
AcDbLine
 10
-0.0944573389510041
 20
0.0291922714530732
 30
0.0
 11
-0.0944037908594381
 21
0.0292078363785154
 31
0.0
  0
LINE
  5
23C
330
1F
100
AcDbEntity
  8
0
100
AcDbLine
 10
-0.1211421548013243
 20
0.0291922714530732
 30
0.0
 11
-0.1208325971060608
 21
0.0292208937589903
 31
0.0
  0
LINE
  5
23D
330
1F
100
AcDbEntity
  8
0
100
AcDbLine
 10
-0.1208325971060608
 20
0.0292208937589903
 30
0.0
 11
-0.1202300080448497
 21
0.0291922714530732
 31
0.0
  0
LINE
  5
23E
330
1F
100
AcDbEntity
  8
0
100
AcDbLine
 10
0.1268616734949905
 20
-0.001371669217973
 30
0.0
 11
0.1268616734949905
 21
-0.0018422061087508
 31
0.0
  0
LINE
  5
23F
330
1F
100
AcDbEntity
  8
0
100
AcDbLine
 10
0.1268616734949905
 20
-0.0018422061087508
 30
0.0
 11
0.1268616734949905
 21
-0.0373716692179729
 31
0.0
  0
LINE
  5
240
330
1F
100
AcDbEntity
  8
0
100
AcDbLine
 10
0.1277270921051266
 20
0.0255122714530733
 30
0.0
 11
0.1272424028939373
 21
0.0255122714530733
 31
0.0
  0
LINE
  5
241
330
1F
100
AcDbEntity
  8
0
100
AcDbLine
 10
0.1277008025701878
 20
-0.0373798351483997
 30
0.0
 11
0.1277103653760582
 21
-0.0374285581378945
 31
0.0
  0
LINE
  5
242
330
1F
100
AcDbEntity
  8
0
100
AcDbLine
 10
0.1277103653760582
 20
-0.0374285581378945
 30
0.0
 11
0.1277270957521856
 21
-0.0664877285469268
 31
0.0
  0
LINE
  5
243
330
1F
100
AcDbEntity
  8
0
100
AcDbLine
 10
0.1071427315199902
 20
-0.0676274389389294
 30
0.0
 11
0.107098667153393
 21
-0.0677738855483361
 31
0.0
  0
LINE
  5
244
330
1F
100
AcDbEntity
  8
0
100
AcDbLine
 10
0.1175005024823211
 20
-0.0672382052460171
 30
0.0
 11
0.1174661201756837
 21
-0.0672738855483361
 31
0.0
  0
LINE
  5
245
330
1F
100
AcDbEntity
  8
0
100
AcDbLine
 10
0.1174661201756837
 20
-0.0672738855483361
 30
0.0
 11
0.1174225200099692
 21
-0.0672382052460171
 31
0.0
  0
LINE
  5
246
330
1F
100
AcDbEntity
  8
0
100
AcDbLine
 10
0.117302830505467
 20
-0.0672382052460171
 30
0.0
 11
0.1173323375339951
 21
-0.067138117307602
 31
0.0
  0
LINE
  5
247
330
1F
100
AcDbEntity
  8
0
100
AcDbLine
 10
0.1175706665954035
 20
-0.067275193059561
 30
0.0
 11
0.1175005024823211
 21
-0.0672382052460171
 31
0.0
  0
LINE
  5
248
330
1F
100
AcDbEntity
  8
0
100
AcDbLine
 10
0.1187259602834221
 20
-0.067721612554427
 30
0.0
 11
0.1187096873493013
 21
-0.0677738855483361
 31
0.0
  0
LINE
  5
249
330
1F
100
AcDbEntity
  8
0
100
AcDbLine
 10
0.1187096873493013
 20
-0.0677738855483361
 30
0.0
 11
0.1187256256770247
 21
-0.0678382052460171
 31
0.0
  0
LINE
  5
24A
330
1F
100
AcDbEntity
  8
0
100
AcDbLine
 10
0.1149505876631213
 20
-0.0672738855483361
 30
0.0
 11
0.1149040183156955
 21
-0.0672382052460171
 31
0.0
  0
LINE
  5
24B
330
1F
100
AcDbEntity
  8
0
100
AcDbLine
 10
0.1142227542467598
 20
-0.0672382052460171
 30
0.0
 11
0.1141693928238651
 21
-0.067199712967121
 31
0.0
  0
LINE
  5
24C
330
1F
100
AcDbEntity
  8
0
100
AcDbLine
 10
0.1149940689437771
 20
-0.0672382052460171
 30
0.0
 11
0.1149505876631213
 21
-0.0672738855483361
 31
0.0
  0
LINE
  5
24D
330
1F
100
AcDbEntity
  8
0
100
AcDbLine
 10
0.1173323375339951
 20
-0.0673382052460171
 30
0.0
 11
0.1174149916537057
 21
-0.067333086308368
 31
0.0
  0
LINE
  5
24E
330
1F
100
AcDbEntity
  8
0
100
AcDbLine
 10
0.1174149916537057
 20
-0.067333086308368
 30
0.0
 11
0.1174716557697101
 21
-0.0673382052460171
 31
0.0
  0
LINE
  5
24F
330
1F
100
AcDbEntity
  8
0
100
AcDbLine
 10
0.1035999185060585
 20
-0.0670682150211237
 30
0.0
 11
0.1035510610436446
 21
-0.0670738855483361
 31
0.0
  0
LINE
  5
250
330
1F
100
AcDbEntity
  8
0
100
AcDbLine
 10
0.1035510610436446
 20
-0.0677738855483361
 30
0.0
 11
0.1035185111157444
 21
-0.0677568484614807
 31
0.0
  0
LINE
  5
251
330
1F
100
AcDbEntity
  8
0
100
AcDbLine
 10
0.1049245679110475
 20
-0.0672738855483361
 30
0.0
 11
0.1048589781190533
 21
-0.0672497362244355
 31
0.0
  0
LINE
  5
252
330
1F
100
AcDbEntity
  8
0
100
AcDbLine
 10
0.1048589781190533
 20
-0.0672497362244355
 30
0.0
 11
0.1047586631154753
 21
-0.0672738855483361
 31
0.0
  0
LINE
  5
253
330
1F
100
AcDbEntity
  8
0
100
AcDbLine
 10
0.1046436022070122
 20
-0.0677568484614807
 30
0.0
 11
0.1045568964999854
 21
-0.0677738855483361
 31
0.0
  0
LINE
  5
254
330
1F
100
AcDbEntity
  8
0
100
AcDbLine
 10
0.1024737832881014
 20
-0.0672738855483361
 30
0.0
 11
0.1025120129529301
 21
-0.0670700336716107
 31
0.0
  0
LINE
  5
255
330
1F
100
AcDbEntity
  8
0
100
AcDbLine
 10
0.1025120129529301
 20
-0.0670700336716107
 30
0.0
 11
0.1024737832881014
 21
-0.0669436728729258
 31
0.0
  0
LINE
  5
256
330
1F
100
AcDbEntity
  8
0
100
AcDbLine
 10
0.1046774869774341
 20
-0.0677738855483361
 30
0.0
 11
0.1046436022070122
 21
-0.0677568484614807
 31
0.0
  0
LINE
  5
257
330
1F
100
AcDbEntity
  8
0
100
AcDbLine
 10
0.1049274869774341
 20
-0.0670738855483361
 30
0.0
 11
0.1049008714949213
 21
-0.0671289478976156
 31
0.0
  0
LINE
  5
258
330
1F
100
AcDbEntity
  8
0
100
AcDbLine
 10
0.1049008714949213
 20
-0.0671289478976156
 30
0.0
 11
0.1049274869774341
 21
-0.0672000184300886
 31
0.0
  0
LINE
  5
259
330
1F
100
AcDbEntity
  8
0
100
AcDbLine
 10
0.105357683512046
 20
-0.0677068982502284
 30
0.0
 11
0.1053364628391238
 21
-0.0677568484614807
 31
0.0
  0
LINE
  5
25A
330
1F
100
AcDbEntity
  8
0
100
AcDbLine
 10
0.1034737634158342
 20
-0.0677383133572929
 30
0.0
 11
0.1033979206382957
 21
-0.0677068982502284
 31
0.0
  0
LINE
  5
25B
330
1F
100
AcDbEntity
  8
0
100
AcDbLine
 10
0.1031479206382957
 20
-0.0672738855483361
 30
0.0
 11
0.1031572824748897
 21
-0.0671748995330513
 31
0.0
  0
LINE
  5
25C
330
1F
100
AcDbEntity
  8
0
100
AcDbLine
 10
0.1072072877189842
 20
-0.0672382052460171
 30
0.0
 11
0.1071573924015536
 21
-0.0672738855483361
 31
0.0
  0
LINE
  5
25D
330
1F
100
AcDbEntity
  8
0
100
AcDbLine
 10
0.1076301699079383
 20
-0.0674032950708874
 30
0.0
 11
0.1076362190338186
 21
-0.067331961603268
 31
0.0
  0
LINE
  5
25E
330
1F
100
AcDbEntity
  8
0
100
AcDbLine
 10
0.1076362190338186
 20
-0.067331961603268
 30
0.0
 11
0.107644460881297
 21
-0.067293807671343
 31
0.0
  0
LINE
  5
25F
330
1F
100
AcDbEntity
  8
0
100
AcDbLine
 10
0.107501867501792
 20
-0.0676274389389294
 30
0.0
 11
0.1075496690189405
 21
-0.0675646052378985
 31
0.0
  0
LINE
  5
260
330
1F
100
AcDbEntity
  8
0
100
AcDbLine
 10
0.1051098222967026
 20
-0.0671949162388223
 30
0.0
 11
0.1051098222967026
 21
-0.0672738855483361
 31
0.0
  0
LINE
  5
261
330
1F
100
AcDbEntity
  8
0
100
AcDbLine
 10
0.1105342181247539
 20
-0.0672738855483361
 30
0.0
 11
0.1104907368440981
 21
-0.0672382052460171
 31
0.0
  0
LINE
  5
262
330
1F
100
AcDbEntity
  8
0
100
AcDbLine
 10
0.1104907368440981
 20
-0.0672382052460171
 30
0.0
 11
0.1104063889068513
 21
-0.0672738855483361
 31
0.0
  0
LINE
  5
263
330
1F
100
AcDbEntity
  8
0
100
AcDbLine
 10
0.1104313716810617
 20
-0.0676274389389294
 30
0.0
 11
0.1104675026350112
 21
-0.0675265984195369
 31
0.0
  0
LINE
  5
264
330
1F
100
AcDbEntity
  8
0
100
AcDbLine
 10
0.1104675026350112
 20
-0.0675265984195369
 30
0.0
 11
0.1105108309923606
 21
-0.0675238855483361
 31
0.0
  0
LINE
  5
265
330
1F
100
AcDbEntity
  8
0
100
AcDbLine
 10
0.1080186856121915
 20
-0.0672738855483361
 30
0.0
 11
0.1080228945197543
 21
-0.0672382052460171
 31
0.0
  0
LINE
  5
266
330
1F
100
AcDbEntity
  8
0
100
AcDbLine
 10
0.1132381253246245
 20
-0.0675238855483361
 30
0.0
 11
0.1131983723486335
 21
-0.0675513489845501
 31
0.0
  0
LINE
  5
267
330
1F
100
AcDbEntity
  8
0
100
AcDbLine
 10
0.1115401976346982
 20
-0.0675238855483361
 30
0.0
 11
0.1115023576587767
 21
-0.0674317434770737
 31
0.0
  0
LINE
  5
268
330
1F
100
AcDbEntity
  8
0
100
AcDbLine
 10
0.113944608153177
 20
-0.0675238855483361
 30
0.0
 11
0.1139556673978965
 21
-0.0674385807800513
 31
0.0
  0
LINE
  5
269
330
1F
100
AcDbEntity
  8
0
100
AcDbLine
 10
0.1139556673978965
 20
-0.0674385807800513
 30
0.0
 11
0.1139941310334477
 21
-0.0674032950708874
 31
0.0
  0
LINE
  5
26A
330
1F
100
AcDbEntity
  8
0
100
AcDbLine
 10
0.1174225200099692
 20
-0.0672738855483361
 30
0.0
 11
0.1173323375339951
 21
-0.0672738855483361
 31
0.0
  0
LINE
  5
26B
330
1F
100
AcDbEntity
  8
0
100
AcDbLine
 10
0.1174490830888282
 20
-0.0674032950708874
 30
0.0
 11
0.1174149916537057
 21
-0.067333086308368
 31
0.0
  0
LINE
  5
26C
330
1F
100
AcDbEntity
  8
0
100
AcDbLine
 10
0.1150784168810239
 20
-0.0672738855483361
 30
0.0
 11
0.1149940689437771
 21
-0.0672382052460171
 31
0.0
  0
LINE
  5
26D
330
1F
100
AcDbEntity
  8
0
100
AcDbLine
 10
0.1150534341068136
 20
-0.0676274389389294
 30
0.0
 11
0.1150231648313522
 21
-0.0675275962857985
 31
0.0
  0
LINE
  5
26E
330
1F
100
AcDbEntity
  8
0
100
AcDbLine
 10
0.1150231648313522
 20
-0.0675275962857985
 30
0.0
 11
0.1149739747955146
 21
-0.0675238855483361
 31
0.0
  0
LINE
  5
26F
330
1F
100
AcDbEntity
  8
0
100
AcDbLine
 10
0.1175005024823211
 20
-0.0672382052460171
 30
0.0
 11
0.1174661201756837
 21
-0.0670648204011755
 31
0.0
  0
LINE
  5
270
330
1F
100
AcDbEntity
  8
0
100
AcDbLine
 10
0.120358092158957
 20
-0.0674032950708874
 30
0.0
 11
0.120360723912512
 21
-0.0673005785895041
 31
0.0
  0
LINE
  5
271
330
1F
100
AcDbEntity
  8
0
100
AcDbLine
 10
0.120360723912512
 20
-0.0673005785895041
 30
0.0
 11
0.1203749834911726
 21
-0.0672738855483361
 31
0.0
  0
LINE
  5
272
330
1F
100
AcDbEntity
  8
0
100
AcDbLine
 10
0.1179829382860832
 20
-0.0676274389389294
 30
0.0
 11
0.1179599071915701
 21
-0.0675971652364745
 31
0.0
  0
LINE
  5
273
330
1F
100
AcDbEntity
  8
0
100
AcDbLine
 10
0.1202297897528107
 20
-0.0676274389389294
 30
0.0
 11
0.1202421916336538
 21
-0.0675681347344073
 31
0.0
  0
LINE
  5
274
330
1F
100
AcDbEntity
  8
0
100
AcDbLine
 10
0.120007563466632
 20
-0.0677568484614807
 30
0.0
 11
0.1200776508171991
 21
-0.0677275668218387
 31
0.0
  0
LINE
  5
275
330
1F
100
AcDbEntity
  8
0
100
AcDbLine
 10
0.1200776508171991
 20
-0.0677275668218387
 30
0.0
 11
0.1201271222758292
 21
-0.0677068982502284
 31
0.0
  0
LINE
  5
276
330
1F
100
AcDbEntity
  8
0
100
AcDbLine
 10
0.1203749834911726
 20
-0.0672738855483361
 30
0.0
 11
0.1203749834911726
 21
-0.0672166627938582
 31
0.0
  0
LINE
  5
277
330
1F
100
AcDbEntity
  8
0
100
AcDbLine
 10
0.1205365375542292
 20
-0.0671544171462396
 30
0.0
 11
0.1205573188104411
 21
-0.0672004650092092
 31
0.0
  0
LINE
  5
278
330
1F
100
AcDbEntity
  8
0
100
AcDbLine
 10
0.1219662946721308
 20
-0.0677568484614807
 30
0.0
 11
0.1219337447442306
 21
-0.0677738855483361
 31
0.0
  0
LINE
  5
279
330
1F
100
AcDbEntity
  8
0
100
AcDbLine
 10
0.1221904385401728
 20
-0.0676274389389294
 30
0.0
 11
0.1222381254587349
 21
-0.0676184897501979
 31
0.0
  0
LINE
  5
27A
330
1F
100
AcDbEntity
  8
0
100
AcDbLine
 10
0.1222381254587349
 20
-0.0676184897501979
 30
0.0
 11
0.1222698978514717
 21
-0.0675238855483361
 31
0.0
  0
LINE
  5
27B
330
1F
100
AcDbEntity
  8
0
100
AcDbLine
 10
0.1200776508171991
 20
-0.0677275668218387
 30
0.0
 11
0.1200277524713026
 21
-0.0677068982502284
 31
0.0
  0
LINE
  5
27C
330
1F
100
AcDbEntity
  8
0
100
AcDbLine
 10
0.1223368851495795
 20
-0.0672738855483361
 30
0.0
 11
0.122293284983865
 21
-0.0671806804690875
 31
0.0
  0
LINE
  5
27D
330
1F
100
AcDbEntity
  8
0
100
AcDbLine
 10
0.1220019626006927
 20
-0.0670567181331105
 30
0.0
 11
0.1220467837425524
 21
-0.0670738855483361
 31
0.0
  0
LINE
  5
27E
330
1F
100
AcDbEntity
  8
0
100
AcDbLine
 10
0.1219662946721308
 20
-0.0677568484614807
 30
0.0
 11
0.1220467837425524
 21
-0.0677738855483361
 31
0.0
  0
LINE
  5
27F
330
1F
100
AcDbEntity
  8
0
100
AcDbLine
 10
0.1207261426723999
 20
-0.0672738855483361
 30
0.0
 11
0.1206258276688197
 21
-0.0672497362244359
 31
0.0
  0
LINE
  5
280
330
1F
100
AcDbEntity
  8
0
100
AcDbLine
 10
0.1206258276688197
 20
-0.0672497362244359
 30
0.0
 11
0.1205602378768277
 21
-0.0672738855483361
 31
0.0
  0
LINE
  5
281
330
1F
100
AcDbEntity
  8
0
100
AcDbLine
 10
0.1230110224997737
 20
-0.0672738855483361
 30
0.0
 11
0.1230047341489138
 21
-0.0670649657530333
 31
0.0
  0
LINE
  5
282
330
1F
100
AcDbEntity
  8
0
100
AcDbLine
 10
0.1230047341489138
 20
-0.0670649657530333
 30
0.0
 11
0.1230110224997737
 21
-0.066931206838664
 31
0.0
  0
LINE
  5
283
330
1F
100
AcDbEntity
  8
0
100
AcDbLine
 10
0.1179599071915701
 20
-0.0675971652364745
 30
0.0
 11
0.117953094652597
 21
-0.0675650672700561
 31
0.0
  0
LINE
  5
284
330
1F
100
AcDbEntity
  8
0
100
AcDbLine
 10
0.117953094652597
 20
-0.0675650672700561
 30
0.0
 11
0.1179041587602075
 21
-0.0675238855483361
 31
0.0
  0
LINE
  5
285
330
1F
100
AcDbEntity
  8
0
100
AcDbLine
 10
0.1131983723486335
 20
-0.0675513489845501
 30
0.0
 11
0.1132381253246245
 21
-0.0676431980958548
 31
0.0
  0
LINE
  5
286
330
1F
100
AcDbEntity
  8
0
100
AcDbLine
 10
0.1127424028939359
 20
-0.0666677921068052
 30
0.0
 11
0.115215776090336
 21
-0.0666236923416193
 31
0.0
  0
LINE
  5
287
330
1F
100
AcDbEntity
  8
0
100
AcDbLine
 10
0.115215776090336
 20
-0.0666236923416193
 30
0.0
 11
0.1152424029311905
 21
-0.0666232175902025
 31
0.0
  0
LINE
  5
288
330
1F
100
AcDbEntity
  8
0
100
AcDbLine
 10
0.1259491946973761
 20
-0.0664877285469266
 30
0.0
 11
0.1252424028939376
 21
-0.0666232175902025
 31
0.0
  0
LINE
  5
289
330
1F
100
AcDbEntity
  8
0
100
AcDbLine
 10
0.1133549987507248
 20
-0.0675401097766642
 30
0.0
 11
0.1132931309591294
 21
-0.0675456555788587
 31
0.0
  0
LINE
  5
28A
330
1F
100
AcDbEntity
  8
0
100
AcDbLine
 10
0.1132931309591294
 20
-0.0675456555788587
 30
0.0
 11
0.1132381253246245
 21
-0.0675238855483361
 31
0.0
  0
LINE
  5
28B
330
1F
100
AcDbEntity
  8
0
100
AcDbLine
 10
0.1149739747955146
 20
-0.0675238855483361
 30
0.0
 11
0.1149145292497427
 21
-0.0675091026441026
 31
0.0
  0
LINE
  5
28C
330
1F
100
AcDbEntity
  8
0
100
AcDbLine
 10
0.1179041587602075
 20
-0.0675238855483361
 30
0.0
 11
0.1178412801145082
 21
-0.0675603599985999
 31
0.0
  0
LINE
  5
28D
330
1F
100
AcDbEntity
  8
0
100
AcDbLine
 10
0.1203733410766509
 20
-0.0675401097766642
 30
0.0
 11
0.1203471871105614
 21
-0.0675456555788587
 31
0.0
  0
LINE
  5
28E
330
1F
100
AcDbEntity
  8
0
100
AcDbLine
 10
0.1185092209324596
 20
-0.0675456555788587
 30
0.0
 11
0.1185714617142105
 21
-0.0675401097766642
 31
0.0
  0
LINE
  5
28F
330
1F
100
AcDbEntity
  8
0
100
AcDbLine
 10
0.1055057439007466
 20
-0.0675456555788587
 30
0.0
 11
0.105457905007942
 21
-0.0675401097766642
 31
0.0
  0
LINE
  5
290
330
1F
100
AcDbEntity
  8
0
100
AcDbLine
 10
0.105457905007942
 20
-0.0675401097766642
 30
0.0
 11
0.1053613031486962
 21
-0.0675274057997334
 31
0.0
  0
LINE
  5
291
330
1F
100
AcDbEntity
  8
0
100
AcDbLine
 10
0.1071838604048933
 20
-0.0675603599985999
 30
0.0
 11
0.1071428408969346
 21
-0.0675572893738577
 31
0.0
  0
LINE
  5
292
330
1F
100
AcDbEntity
  8
0
100
AcDbLine
 10
0.1071428408969346
 20
-0.0675572893738577
 30
0.0
 11
0.1071024228693493
 21
-0.067554263774534
 31
0.0
  0
LINE
  5
293
330
1F
100
AcDbEntity
  8
0
100
AcDbLine
 10
0.1115629472706024
 20
-0.0674472124174183
 30
0.0
 11
0.1115023576587767
 21
-0.0674317434770737
 31
0.0
  0
LINE
  5
294
330
1F
100
AcDbEntity
  8
0
100
AcDbLine
 10
0.1115023576587767
 20
-0.0674317434770737
 30
0.0
 11
0.1114719575617927
 21
-0.0674239821253742
 31
0.0
  0
LINE
  5
295
330
1F
100
AcDbEntity
  8
0
100
AcDbLine
 10
0.1130020574681423
 20
-0.0675631442214372
 30
0.0
 11
0.1130674353223513
 21
-0.0675603599985999
 31
0.0
  0
LINE
  5
296
330
1F
100
AcDbEntity
  8
0
100
AcDbLine
 10
0.1052221247737957
 20
-0.0675091026441026
 30
0.0
 11
0.1051762365091889
 21
-0.0675238855483361
 31
0.0
  0
LINE
  5
297
330
1F
100
AcDbEntity
  8
0
100
AcDbLine
 10
0.1051762365091889
 20
-0.0675238855483361
 30
0.0
 11
0.1050424117582235
 21
-0.0674821908233998
 31
0.0
  0
LINE
  5
298
330
1F
100
AcDbEntity
  8
0
100
AcDbLine
 10
0.1055606067071658
 20
-0.0676274389389294
 30
0.0
 11
0.1058827193377414
 21
-0.0677068982502284
 31
0.0
  0
LINE
  5
299
330
1F
100
AcDbEntity
  8
0
100
AcDbLine
 10
0.1058827193377414
 20
-0.0677068982502284
 30
0.0
 11
0.1060132127555693
 21
-0.0677068982502284
 31
0.0
  0
LINE
  5
29A
330
1F
100
AcDbEntity
  8
0
100
AcDbLine
 10
0.1113392274779232
 20
-0.067372540963696
 30
0.0
 11
0.111275174093955
 21
-0.067331961603268
 31
0.0
  0
LINE
  5
29B
330
1F
100
AcDbEntity
  8
0
100
AcDbLine
 10
0.1112787164620259
 20
-0.0672184452769215
 30
0.0
 11
0.1113282547758989
 21
-0.0672382052460171
 31
0.0
  0
LINE
  5
29C
330
1F
100
AcDbEntity
  8
0
100
AcDbLine
 10
0.1113282547758989
 20
-0.0672382052460171
 30
0.0
 11
0.1113718279528858
 21
-0.0671709150438349
 31
0.0
  0
LINE
  5
29D
330
1F
100
AcDbEntity
  8
0
100
AcDbLine
 10
0.1113718279528858
 20
-0.0671709150438349
 30
0.0
 11
0.1114737834222119
 21
-0.0671411801810537
 31
0.0
  0
LINE
  5
29E
330
1F
100
AcDbEntity
  8
0
100
AcDbLine
 10
0.1114737834222119
 20
-0.0671411801810537
 30
0.0
 11
0.1115157257108997
 21
-0.0671289478976156
 31
0.0
  0
LINE
  5
29F
330
1F
100
AcDbEntity
  8
0
100
AcDbLine
 10
0.1115157257108997
 20
-0.0671289478976156
 30
0.0
 11
0.1115881607355374
 21
-0.0671153036710953
 31
0.0
  0
LINE
  5
2A0
330
1F
100
AcDbEntity
  8
0
100
AcDbLine
 10
0.1115881607355374
 20
-0.0671153036710953
 30
0.0
 11
0.1117017881289343
 21
-0.0670939002422684
 31
0.0
  0
LINE
  5
2A1
330
1F
100
AcDbEntity
  8
0
100
AcDbLine
 10
0.1117897749497747
 20
-0.0670828792228873
 30
0.0
 11
0.1119327879695492
 21
-0.0670649657530333
 31
0.0
  0
LINE
  5
2A2
330
1F
100
AcDbEntity
  8
0
100
AcDbLine
 10
0.1141757594574293
 20
-0.0673519041008605
 30
0.0
 11
0.1141210204505543
 21
-0.0673841320440351
 31
0.0
  0
LINE
  5
2A3
330
1F
100
AcDbEntity
  8
0
100
AcDbLine
 10
0.122605325765163
 20
-0.0671289478976156
 30
0.0
 11
0.1227771176340483
 21
-0.067101150504433
 31
0.0
  0
LINE
  5
2A4
330
1F
100
AcDbEntity
  8
0
100
AcDbLine
 10
0.1199241990807094
 20
-0.0676274389389294
 30
0.0
 11
0.1196020864501338
 21
-0.0677068982502284
 31
0.0
  0
LINE
  5
2A5
330
1F
100
AcDbEntity
  8
0
100
AcDbLine
 10
0.1196020864501338
 20
-0.0677068982502284
 30
0.0
 11
0.1194715930323058
 21
-0.0677068982502284
 31
0.0
  0
LINE
  5
2A6
330
1F
100
AcDbEntity
  8
0
100
AcDbLine
 10
0.1179284585663468
 20
-0.0673089070185356
 30
0.0
 11
0.1178837622931716
 21
-0.0673206810013913
 31
0.0
  0
LINE
  5
2A7
330
1F
100
AcDbEntity
  8
0
100
AcDbLine
 10
0.1178837622931716
 20
-0.0673206810013913
 30
0.0
 11
0.1178439796754629
 21
-0.0673216547173865
 31
0.0
  0
LINE
  5
2A8
330
1F
100
AcDbEntity
  8
0
100
AcDbLine
 10
0.1150361942641606
 20
-0.0671996576596739
 30
0.0
 11
0.1149940689437771
 21
-0.0672382052460171
 31
0.0
  0
LINE
  5
2A9
330
1F
100
AcDbEntity
  8
0
100
AcDbLine
 10
0.1149940689437771
 20
-0.0672382052460171
 30
0.0
 11
0.1149432804420163
 21
-0.0672242351843636
 31
0.0
  0
LINE
  5
2AA
330
1F
100
AcDbEntity
  8
0
100
AcDbLine
 10
0.1172835488684002
 20
-0.0673716093704578
 30
0.0
 11
0.1173323375339951
 21
-0.0673382052460171
 31
0.0
  0
LINE
  5
2AB
330
1F
100
AcDbEntity
  8
0
100
AcDbLine
 10
0.120360723912512
 20
-0.0673005785895041
 30
0.0
 11
0.1204940023584608
 21
-0.0672738855483361
 31
0.0
  0
LINE
  5
2AC
330
1F
100
AcDbEntity
  8
0
100
AcDbLine
 10
0.1207261426723999
 20
-0.0672738855483361
 30
0.0
 11
0.120800003744368
 21
-0.0672184452769215
 31
0.0
  0
LINE
  5
2AD
330
1F
100
AcDbEntity
  8
0
100
AcDbLine
 10
0.120800003744368
 20
-0.0672184452769215
 30
0.0
 11
0.1210637666041936
 21
-0.0671759581532769
 31
0.0
  0
LINE
  5
2AE
330
1F
100
AcDbEntity
  8
0
100
AcDbLine
 10
0.1210637666041936
 20
-0.0671759581532769
 30
0.0
 11
0.1210950745595159
 21
-0.0671709150438349
 31
0.0
  0
LINE
  5
2AF
330
1F
100
AcDbEntity
  8
0
100
AcDbLine
 10
0.1210950745595159
 20
-0.0671709150438349
 30
0.0
 11
0.1211352803089256
 21
-0.067165362479573
 31
0.0
  0
LINE
  5
2B0
330
1F
100
AcDbEntity
  8
0
100
AcDbLine
 10
0.1211352803089256
 20
-0.067165362479573
 30
0.0
 11
0.1213851264305913
 21
-0.0671289478976156
 31
0.0
  0
LINE
  5
2B1
330
1F
100
AcDbEntity
  8
0
100
AcDbLine
 10
0.1217573120916437
 20
-0.0670825847363105
 30
0.0
 11
0.121913734478102
 21
-0.0670649657530333
 31
0.0
  0
LINE
  5
2B2
330
1F
100
AcDbEntity
  8
0
100
AcDbLine
 10
0.121913734478102
 20
-0.0670649657530333
 30
0.0
 11
0.1219621088458239
 21
-0.0670738855483361
 31
0.0
  0
LINE
  5
2B3
330
1F
100
AcDbEntity
  8
0
100
AcDbLine
 10
0.1224287978353767
 20
-0.067101150504433
 30
0.0
 11
0.1223368851495795
 21
-0.0671250501373329
 31
0.0
  0
LINE
  5
2B4
330
1F
100
AcDbEntity
  8
0
100
AcDbLine
 10
0.1223368851495795
 20
-0.0671250501373329
 30
0.0
 11
0.122293284983865
 21
-0.0671363872878678
 31
0.0
  0
LINE
  5
2B5
330
1F
100
AcDbEntity
  8
0
100
AcDbLine
 10
0.1080274865513365
 20
-0.0673206810013913
 30
0.0
 11
0.1080186856121915
 21
-0.0672738855483361
 31
0.0
  0
LINE
  5
2B6
330
1F
100
AcDbEntity
  8
0
100
AcDbLine
 10
0.1080186856121915
 20
-0.0672738855483361
 30
0.0
 11
0.1078995895801871
 21
-0.0672693540887734
 31
0.0
  0
LINE
  5
2B7
330
1F
100
AcDbEntity
  8
0
100
AcDbLine
 10
0.1074589421827446
 20
-0.0672807915588306
 30
0.0
 11
0.1075245038557952
 21
-0.0672997648676517
 31
0.0
  0
LINE
  5
2B8
330
1F
100
AcDbEntity
  8
0
100
AcDbLine
 10
0.1079235637215374
 20
-0.0670939002422684
 30
0.0
 11
0.1080186856121915
 21
-0.0670747375698712
 31
0.0
  0
LINE
  5
2B9
330
1F
100
AcDbEntity
  8
0
100
AcDbLine
 10
0.1080186856121915
 20
-0.0670747375698712
 30
0.0
 11
0.1080671920873576
 21
-0.0670649657530333
 31
0.0
  0
LINE
  5
2BA
330
1F
100
AcDbEntity
  8
0
100
AcDbLine
 10
0.1103781767091695
 20
-0.0671810262725074
 30
0.0
 11
0.1102690296975393
 21
-0.0666236923416193
 31
0.0
  0
LINE
  5
2BB
330
1F
100
AcDbEntity
  8
0
100
AcDbLine
 10
0.1102690296975393
 20
-0.0666236923416193
 30
0.0
 11
0.1102424028566847
 21
-0.0664877285469267
 31
0.0
  0
LINE
  5
2BC
330
1F
100
AcDbEntity
  8
0
100
AcDbLine
 10
0.1102469911123172
 20
-0.0675525736218459
 30
0.0
 11
0.1101356633191733
 21
-0.067560767513632
 31
0.0
  0
LINE
  5
2BD
330
1F
100
AcDbEntity
  8
0
100
AcDbLine
 10
0.1076362190338186
 20
-0.067331961603268
 30
0.0
 11
0.107744897747297
 21
-0.067372540963696
 31
0.0
  0
LINE
  5
2BE
330
1F
100
AcDbEntity
  8
0
100
AcDbLine
 10
0.1051763056439553
 20
-0.0673110379792055
 30
0.0
 11
0.1051098222967026
 21
-0.0672738855483361
 31
0.0
  0
LINE
  5
2BF
330
1F
100
AcDbEntity
  8
0
100
AcDbLine
 10
0.1051098222967026
 20
-0.0672738855483361
 30
0.0
 11
0.105042315624502
 21
-0.0672842024239145
 31
0.0
  0
LINE
  5
2C0
330
1F
100
AcDbEntity
  8
0
100
AcDbLine
 10
0.1073242802273415
 20
-0.0672498004785319
 30
0.0
 11
0.1072738968051198
 21
-0.0672382052460171
 31
0.0
  0
LINE
  5
2C1
330
1F
100
AcDbEntity
  8
0
100
AcDbLine
 10
0.1031479206382957
 20
-0.0671254516262294
 30
0.0
 11
0.1030560079524985
 21
-0.067101150504433
 31
0.0
  0
LINE
  5
2C2
330
1F
100
AcDbEntity
  8
0
100
AcDbLine
 10
0.1030560079524985
 20
-0.067101150504433
 30
0.0
 11
0.1030315013742654
 21
-0.0670939002422684
 31
0.0
  0
LINE
  5
2C3
330
1F
100
AcDbEntity
  8
0
100
AcDbLine
 10
0.1030315013742654
 20
-0.0670939002422684
 30
0.0
 11
0.1030009063200642
 21
-0.0670828459887489
 31
0.0
  0
LINE
  5
2C4
330
1F
100
AcDbEntity
  8
0
100
AcDbLine
 10
0.1030009063200642
 20
-0.0670828459887489
 30
0.0
 11
0.1029514188734553
 21
-0.0670649657530333
 31
0.0
  0
LINE
  5
2C5
330
1F
100
AcDbEntity
  8
0
100
AcDbLine
 10
0.1029994791669151
 20
-0.0670300625151496
 30
0.0
 11
0.1030540271546604
 21
-0.0670286063930507
 31
0.0
  0
LINE
  5
2C6
330
1F
100
AcDbEntity
  8
0
100
AcDbLine
 10
0.1031972859273617
 20
-0.067033371540695
 30
0.0
 11
0.1033193500219128
 21
-0.0670738855483361
 31
0.0
  0
LINE
  5
2C7
330
1F
100
AcDbEntity
  8
0
100
AcDbLine
 10
0.1033193500219128
 20
-0.0670738855483361
 30
0.0
 11
0.1033686092273998
 21
-0.0670460394713087
 31
0.0
  0
LINE
  5
2C8
330
1F
100
AcDbEntity
  8
0
100
AcDbLine
 10
0.1041625876551384
 20
-0.0671376652404013
 30
0.0
 11
0.1044274869774341
 21
-0.067176996768837
 31
0.0
  0
LINE
  5
2C9
330
1F
100
AcDbEntity
  8
0
100
AcDbLine
 10
0.1044274869774341
 20
-0.067176996768837
 30
0.0
 11
0.1044552455958765
 21
-0.0671810262725074
 31
0.0
  0
LINE
  5
2CA
330
1F
100
AcDbEntity
  8
0
100
AcDbLine
 10
0.1044552455958765
 20
-0.0671810262725074
 30
0.0
 11
0.1044898715302262
 21
-0.0671870457204208
 31
0.0
  0
LINE
  5
2CB
330
1F
100
AcDbEntity
  8
0
100
AcDbLine
 10
0.1044898715302262
 20
-0.0671870457204208
 30
0.0
 11
0.1047586631154753
 21
-0.0672317145099033
 31
0.0
  0
LINE
  5
2CC
330
1F
100
AcDbEntity
  8
0
100
AcDbLine
 10
0.1148152240164887
 20
-0.0672693540887734
 30
0.0
 11
0.1149069874974068
 21
-0.0672738855483361
 31
0.0
  0
LINE
  5
2CD
330
1F
100
AcDbEntity
  8
0
100
AcDbLine
 10
0.1149069874974068
 20
-0.0672738855483361
 30
0.0
 11
0.1149432804420163
 21
-0.0672242351843636
 31
0.0
  0
LINE
  5
2CE
330
1F
100
AcDbEntity
  8
0
100
AcDbLine
 10
0.1172706715848803
 20
-0.0670476829580576
 30
0.0
 11
0.117302830505467
 21
-0.067034583424283
 31
0.0
  0
LINE
  5
2CF
330
1F
100
AcDbEntity
  8
0
100
AcDbLine
 10
0.1174661201756837
 20
-0.0670648204011755
 30
0.0
 11
0.1175057831432524
 21
-0.0670827278279347
 31
0.0
  0
LINE
  5
2D0
330
1F
100
AcDbEntity
  8
0
100
AcDbLine
 10
0.1175057831432524
 20
-0.0670827278279347
 30
0.0
 11
0.117588851969113
 21
-0.0671047924409205
 31
0.0
  0
LINE
  5
2D1
330
1F
100
AcDbEntity
  8
0
100
AcDbLine
 10
0.1176155906539948
 20
-0.0671153409412105
 30
0.0
 11
0.1176626241729466
 21
-0.0671376652404013
 31
0.0
  0
LINE
  5
2D2
330
1F
100
AcDbEntity
  8
0
100
AcDbLine
 10
0.1174661201756837
 20
-0.0672738855483361
 30
0.0
 11
0.1174425576618555
 21
-0.0673246577727077
 31
0.0
  0
LINE
  5
2D3
330
1F
100
AcDbEntity
  8
0
100
AcDbLine
 10
0.1177399080405782
 20
-0.067372540963696
 30
0.0
 11
0.1178439796754629
 21
-0.0673216547173865
 31
0.0
  0
LINE
  5
2D4
330
1F
100
AcDbEntity
  8
0
100
AcDbLine
 10
0.1179284585663468
 20
-0.0673089070185356
 30
0.0
 11
0.118055003648003
 21
-0.0672738855483361
 31
0.0
  0
LINE
  5
2D5
330
1F
100
AcDbEntity
  8
0
100
AcDbLine
 10
0.1183694927693071
 20
-0.0672068277661893
 30
0.0
 11
0.1183414258368627
 21
-0.06721156377959
 31
0.0
  0
LINE
  5
2D6
330
1F
100
AcDbEntity
  8
0
100
AcDbLine
 10
0.1183414258368627
 20
-0.06721156377959
 30
0.0
 11
0.1182919524252059
 21
-0.0672382052460171
 31
0.0
  0
LINE
  5
2D7
330
1F
100
AcDbEntity
  8
0
100
AcDbLine
 10
0.1181605255605333
 20
-0.067249800478532
 30
0.0
 11
0.1180912157901672
 21
-0.0672738855483361
 31
0.0
  0
LINE
  5
2D8
330
1F
100
AcDbEntity
  8
0
100
AcDbLine
 10
0.1199692219622357
 20
-0.0670314113585682
 30
0.0
 11
0.120165047319947
 21
-0.0670283499844836
 31
0.0
  0
LINE
  5
2D9
330
1F
100
AcDbEntity
  8
0
100
AcDbLine
 10
0.1204210006200662
 20
-0.0670388387237864
 30
0.0
 11
0.1205074353204974
 21
-0.06705023429669
 31
0.0
  0
LINE
  5
2DA
330
1F
100
AcDbEntity
  8
0
100
AcDbLine
 10
0.1205360441542316
 20
-0.0670568178245013
 30
0.0
 11
0.1205839936180096
 21
-0.0670707775669284
 31
0.0
  0
LINE
  5
2DB
330
1F
100
AcDbEntity
  8
0
100
AcDbLine
 10
0.1205365375542292
 20
-0.0671544171462396
 30
0.0
 11
0.1204737835563223
 21
-0.0671834787259154
 31
0.0
  0
LINE
  5
2DC
330
1F
100
AcDbEntity
  8
0
100
AcDbLine
 10
0.1049487616336436
 20
-0.0670568178245013
 30
0.0
 11
0.1050055893179926
 21
-0.0670437405126528
 31
0.0
  0
LINE
  5
2DD
330
1F
100
AcDbEntity
  8
0
100
AcDbLine
 10
0.1050055893179926
 20
-0.0670437405126528
 30
0.0
 11
0.1051098222967026
 21
-0.067022483307071
 31
0.0
  0
LINE
  5
2DE
330
1F
100
AcDbEntity
  8
0
100
AcDbLine
 10
0.1051098222967026
 20
-0.067022483307071
 30
0.0
 11
0.1051520158985941
 21
-0.0670314113585682
 31
0.0
  0
LINE
  5
2DF
330
1F
100
AcDbEntity
  8
0
100
AcDbLine
 10
0.1051520158985941
 20
-0.0670314113585682
 30
0.0
 11
0.105225963312186
 21
-0.0670300617864442
 31
0.0
  0
LINE
  5
2E0
330
1F
100
AcDbEntity
  8
0
100
AcDbLine
 10
0.105225963312186
 20
-0.0670300617864442
 30
0.0
 11
0.1053404051392369
 21
-0.0670279731738462
 31
0.0
  0
LINE
  5
2E1
330
1F
100
AcDbEntity
  8
0
100
AcDbLine
 10
0.1069779156918688
 20
-0.0671810262725074
 30
0.0
 11
0.1072072877189842
 21
-0.0672382052460171
 31
0.0
  0
LINE
  5
2E2
330
1F
100
AcDbEntity
  8
0
100
AcDbLine
 10
0.1072072877189842
 20
-0.0672382052460171
 30
0.0
 11
0.1072361790979592
 21
-0.0672295248990861
 31
0.0
  0
LINE
  5
2E3
330
1F
100
AcDbEntity
  8
0
100
AcDbLine
 10
0.1072361790979592
 20
-0.0672295248990861
 30
0.0
 11
0.1072738968051198
 21
-0.0672382052460171
 31
0.0
  0
LINE
  5
2E4
330
1F
100
AcDbEntity
  8
0
100
AcDbLine
 10
0.1076225360840814
 20
-0.0675612436376706
 30
0.0
 11
0.1075806470276677
 21
-0.0675238855483361
 31
0.0
  0
LINE
  5
2E5
330
1F
100
AcDbEntity
  8
0
100
AcDbLine
 10
0.1078778569973582
 20
-0.067310182894597
 30
0.0
 11
0.1078538873746462
 21
-0.0674348546507343
 31
0.0
  0
LINE
  5
2E6
330
1F
100
AcDbEntity
  8
0
100
AcDbLine
 10
0.1176361093154337
 20
-0.0672382052460171
 30
0.0
 11
0.1176069087281829
 21
-0.067276113335646
 31
0.0
  0
LINE
  5
2E7
330
1F
100
AcDbEntity
  8
0
100
AcDbLine
 10
-0.0862990358090671
 20
-0.114487728546927
 30
0.0
 11
-0.0860058960868769
 21
-0.1588393443803495
 31
0.0
  0
LINE
  5
2E8
330
1F
100
AcDbEntity
  8
0
100
AcDbLine
 10
-0.0860058960868769
 20
-0.1588393443803495
 30
0.0
 11
-0.0859359486607619
 21
-0.1694222887469853
 31
0.0
  0
LINE
  5
2E9
330
1F
100
AcDbEntity
  8
0
100
AcDbLine
 10
-0.1291943134663052
 20
-0.2624811743572799
 30
0.0
 11
-0.1285792455513597
 21
-0.169422288746987
 31
0.0
  0
LINE
  5
2EA
330
1F
100
AcDbEntity
  8
0
100
AcDbLine
 10
-0.1285792455513597
 20
-0.169422288746987
 30
0.0
 11
-0.1285092981252447
 21
-0.1588393443803486
 31
0.0
  0
LINE
  5
2EB
330
1F
100
AcDbEntity
  8
0
100
AcDbLine
 10
0.1071513388094671
 20
-0.0677738855483361
 30
0.0
 11
0.1071424028939376
 21
-0.0678382052460171
 31
0.0
  0
LINE
  5
2EC
330
1F
100
AcDbEntity
  8
0
100
AcDbLine
 10
0.1141230426488777
 20
-0.0671760527872612
 30
0.0
 11
0.1141006916178154
 21
-0.0672382052460171
 31
0.0
  0
LINE
  5
2ED
330
1F
100
AcDbEntity
  8
0
100
AcDbLine
 10
0.1104907368440981
 20
-0.0672382052460171
 30
0.0
 11
0.1104486115237147
 21
-0.067199657659674
 31
0.0
  0
LINE
  5
2EE
330
1F
100
AcDbEntity
  8
0
100
AcDbLine
 10
0.1104486115237147
 20
-0.067199657659674
 30
0.0
 11
0.1104063889068513
 21
-0.0672382052460171
 31
0.0
  0
LINE
  5
2EF
330
1F
100
AcDbEntity
  8
0
100
AcDbLine
 10
0.1034737634158342
 20
-0.0677383133572929
 30
0.0
 11
0.1034380220453228
 21
-0.0677738855483361
 31
0.0
  0
LINE
  5
2F0
330
1F
100
AcDbEntity
  8
0
100
AcDbLine
 10
0.1031572824748897
 20
-0.0671748995330513
 30
0.0
 11
0.1031479206382957
 21
-0.0671254516262294
 31
0.0
  0
LINE
  5
2F1
330
1F
100
AcDbEntity
  8
0
100
AcDbLine
 10
0.1080300341209248
 20
-0.0673600860302204
 30
0.0
 11
0.1080274865513365
 21
-0.0673206810013913
 31
0.0
  0
LINE
  5
2F2
330
1F
100
AcDbEntity
  8
0
100
AcDbLine
 10
0.1080228945197543
 20
-0.0672382052460171
 30
0.0
 11
0.1080186856121915
 21
-0.0671626106373269
 31
0.0
  0
LINE
  5
2F3
330
1F
100
AcDbEntity
  8
0
100
AcDbLine
 10
0.1132381253246245
 20
-0.0676431980958548
 30
0.0
 11
0.1132381253246245
 21
-0.0677303658979932
 31
0.0
  0
LINE
  5
2F4
330
1F
100
AcDbEntity
  8
0
100
AcDbLine
 10
0.1174149916537057
 20
-0.067333086308368
 30
0.0
 11
0.1174225200099692
 21
-0.0672738855483361
 31
0.0
  0
LINE
  5
2F5
330
1F
100
AcDbEntity
  8
0
100
AcDbLine
 10
0.1183274133863216
 20
-0.0672738855483361
 30
0.0
 11
0.1182919524252059
 21
-0.0672382052460171
 31
0.0
  0
LINE
  5
2F6
330
1F
100
AcDbEntity
  8
0
100
AcDbLine
 10
0.1182132665229106
 20
-0.0672382052460171
 30
0.0
 11
0.1181605255605333
 21
-0.067249800478532
 31
0.0
  0
LINE
  5
2F7
330
1F
100
AcDbEntity
  8
0
100
AcDbLine
 10
0.1202421916336538
 20
-0.0675681347344073
 30
0.0
 11
0.120281289519754
 21
-0.0675597439963353
 31
0.0
  0
LINE
  5
2F8
330
1F
100
AcDbEntity
  8
0
100
AcDbLine
 10
0.120281289519754
 20
-0.0675597439963353
 30
0.0
 11
0.1203085692786864
 21
-0.0675238855483361
 31
0.0
  0
LINE
  5
2F9
330
1F
100
AcDbEntity
  8
0
100
AcDbLine
 10
0.1205573188104411
 20
-0.0670738855483361
 30
0.0
 11
0.1205752701480308
 21
-0.067133603687594
 31
0.0
  0
LINE
  5
2FA
330
1F
100
AcDbEntity
  8
0
100
AcDbLine
 10
0.1201483429487514
 20
-0.0677568484614807
 30
0.0
 11
0.1201271222758292
 21
-0.0677068982502284
 31
0.0
  0
LINE
  5
2FB
330
1F
100
AcDbEntity
  8
0
100
AcDbLine
 10
0.122293284983865
 20
-0.0671806804690875
 30
0.0
 11
0.122293284983865
 21
-0.0671363872878678
 31
0.0
  0
LINE
  5
2FC
330
1F
100
AcDbEntity
  8
0
100
AcDbLine
 10
0.1167068719195468
 20
-0.0677738855483361
 30
0.0
 11
0.1166695167496898
 21
-0.0677738855483361
 31
0.0
  0
LINE
  5
2FD
330
1F
100
AcDbEntity
  8
0
100
AcDbLine
 10
0.1053613031486962
 20
-0.0675274057997334
 30
0.0
 11
0.1052764151019404
 21
-0.0675166803771522
 31
0.0
  0
LINE
  5
2FE
330
1F
100
AcDbEntity
  8
0
100
AcDbLine
 10
0.1052764151019404
 20
-0.0675166803771522
 30
0.0
 11
0.1052221247737957
 21
-0.0675091026441026
 31
0.0
  0
LINE
  5
2FF
330
1F
100
AcDbEntity
  8
0
100
AcDbLine
 10
0.1029328000350357
 20
-0.0671376652404013
 30
0.0
 11
0.1029634521267018
 21
-0.0671428033416633
 31
0.0
  0
LINE
  5
300
330
1F
100
AcDbEntity
  8
0
100
AcDbLine
 10
0.1117017881289343
 20
-0.0670939002422684
 30
0.0
 11
0.1117272546646579
 21
-0.0670914640997147
 31
0.0
  0
LINE
  5
301
330
1F
100
AcDbEntity
  8
0
100
AcDbLine
 10
0.1216568523535272
 20
-0.0670939002422684
 30
0.0
 11
0.1216971019800103
 21
-0.0670895901501366
 31
0.0
  0
LINE
  5
302
330
1F
100
AcDbEntity
  8
0
100
AcDbLine
 10
0.1220467837425524
 20
-0.0670738855483361
 30
0.0
 11
0.1221407894500628
 21
-0.0670437405126528
 31
0.0
  0
LINE
  5
303
330
1F
100
AcDbEntity
  8
0
100
AcDbLine
 10
0.1075563990473963
 20
-0.0673084809277572
 30
0.0
 11
0.1076362190338186
 21
-0.067331961603268
 31
0.0
  0
LINE
  5
304
330
1F
100
AcDbEntity
  8
0
100
AcDbLine
 10
0.1103781767091695
 20
-0.0671810262725074
 30
0.0
 11
0.1104063889068513
 21
-0.0672382052460171
 31
0.0
  0
LINE
  5
305
330
1F
100
AcDbEntity
  8
0
100
AcDbLine
 10
0.1105778182904684
 20
-0.0672738855483361
 30
0.0
 11
0.1106651708723783
 21
-0.0672382052460171
 31
0.0
  0
LINE
  5
306
330
1F
100
AcDbEntity
  8
0
100
AcDbLine
 10
0.1106651708723783
 20
-0.0672382052460171
 30
0.0
 11
0.1106944464696909
 21
-0.0672807915588306
 31
0.0
  0
LINE
  5
307
330
1F
100
AcDbEntity
  8
0
100
AcDbLine
 10
0.1104675026350112
 20
-0.0675265984195369
 30
0.0
 11
0.1103635068767504
 21
-0.0675422845173787
 31
0.0
  0
LINE
  5
308
330
1F
100
AcDbEntity
  8
0
100
AcDbLine
 10
0.103109452663276
 20
-0.0670300600292867
 30
0.0
 11
0.1031479206382957
 21
-0.0670317295268311
 31
0.0
  0
LINE
  5
309
330
1F
100
AcDbEntity
  8
0
100
AcDbLine
 10
0.1031479206382957
 20
-0.0670317295268311
 30
0.0
 11
0.1031972859273617
 21
-0.067033371540695
 31
0.0
  0
LINE
  5
30A
330
1F
100
AcDbEntity
  8
0
100
AcDbLine
 10
0.1049902553815735
 20
-0.0672738855483361
 30
0.0
 11
0.105042315624502
 21
-0.0672842024239145
 31
0.0
  0
LINE
  5
30B
330
1F
100
AcDbEntity
  8
0
100
AcDbLine
 10
0.1183694927693071
 20
-0.0672068277661893
 30
0.0
 11
0.1185675502899095
 21
-0.0671709150438349
 31
0.0
  0
LINE
  5
30C
330
1F
100
AcDbEntity
  8
0
100
AcDbLine
 10
0.107393589997708
 20
-0.0672738855483361
 30
0.0
 11
0.1074589421827446
 21
-0.0672807915588306
 31
0.0
  0
LINE
  5
30D
330
1F
100
AcDbEntity
  8
0
100
AcDbLine
 10
0.1075496690189405
 20
-0.0675646052378985
 30
0.0
 11
0.1074683689448655
 21
-0.0675666969792944
 31
0.0
  0
LINE
  5
30E
330
1F
100
AcDbEntity
  8
0
100
AcDbLine
 10
0.1150806714841556
 20
-0.0672382052460171
 30
0.0
 11
0.1150361942641606
 21
-0.0671996576596739
 31
0.0
  0
LINE
  5
30F
330
1F
100
AcDbEntity
  8
0
100
AcDbLine
 10
0.1031479206382957
 20
-0.0671254516262294
 30
0.0
 11
0.103109452663276
 21
-0.0670300600292867
 31
0.0
  0
LINE
  5
310
330
1F
100
AcDbEntity
  8
0
100
AcDbLine
 10
0.103109452663276
 20
-0.0670300600292867
 30
0.0
 11
0.1031479206382957
 21
-0.0669631575838941
 31
0.0
  0
LINE
  5
311
330
1F
100
AcDbEntity
  8
0
100
AcDbLine
 10
0.107393589997708
 20
-0.0672738855483361
 30
0.0
 11
0.1073242802273415
 21
-0.0672498004785319
 31
0.0
  0
LINE
  5
312
330
1F
100
AcDbEntity
  8
0
100
AcDbLine
 10
0.1223368851495795
 20
-0.0671250501373329
 30
0.0
 11
0.1223368851495795
 21
-0.0670310689229136
 31
0.0
  0
LINE
  5
313
330
1F
100
AcDbEntity
  8
0
100
AcDbLine
 10
0.1033686092273998
 20
-0.0670460394713087
 30
0.0
 11
0.1034075699438818
 21
-0.0670738855483361
 31
0.0
  0
LINE
  5
314
330
1F
100
AcDbEntity
  8
0
100
AcDbLine
 10
0.1150806714841556
 20
-0.0671887317835129
 30
0.0
 11
0.115153200134359
 21
-0.0671709150438349
 31
0.0
  0
LINE
  5
315
330
1F
100
AcDbEntity
  8
0
100
AcDbLine
 10
0.1173323375339951
 20
-0.067055453492525
 30
0.0
 11
0.1174339623168252
 21
-0.067068259244955
 31
0.0
  0
LINE
  5
316
330
1F
100
AcDbEntity
  8
0
100
AcDbLine
 10
0.1174339623168252
 20
-0.067068259244955
 30
0.0
 11
0.1174661201756837
 21
-0.0670648204011755
 31
0.0
  0
LINE
  5
317
330
1F
100
AcDbEntity
  8
0
100
AcDbLine
 10
0.1066828224829326
 20
-0.0677738855483361
 30
0.0
 11
0.1067591801108505
 21
-0.0678382052460171
 31
0.0
  0
LINE
  5
318
330
1F
100
AcDbEntity
  8
0
100
AcDbLine
 10
0.1188019833049426
 20
-0.0677738855483361
 30
0.0
 11
0.1187256256770247
 21
-0.0678382052460171
 31
0.0
  0
LINE
  5
319
330
1F
100
AcDbEntity
  8
0
100
AcDbLine
 10
-0.0813489747756451
 20
-0.2724877308715082
 30
0.0
 11
-0.1331662194364764
 21
-0.2724877308715082
 31
0.0
  0
LINE
  5
31A
330
1F
100
AcDbEntity
  8
0
100
AcDbLine
 10
-0.0937575971060608
 20
-0.114487728546927
 30
0.0
 11
-0.0862990358090671
 21
-0.114487728546927
 31
0.0
  0
LINE
  5
31B
330
1F
100
AcDbEntity
  8
0
100
AcDbLine
 10
-0.1208325971060608
 20
-0.114487728546927
 30
0.0
 11
-0.0937575971060608
 21
-0.114487728546927
 31
0.0
  0
LINE
  5
31C
330
1F
100
AcDbEntity
  8
0
100
AcDbLine
 10
-0.1282161584030545
 20
-0.114487728546927
 30
0.0
 11
-0.1208325971060608
 21
-0.114487728546927
 31
0.0
  0
LINE
  5
31D
330
1F
100
AcDbEntity
  8
0
100
AcDbLine
 10
-0.0944573389510041
 20
0.0291922714530732
 30
0.0
 11
-0.1202300080448497
 21
0.0291922714530732
 31
0.0
  0
LINE
  5
31E
330
1F
100
AcDbEntity
  8
0
100
AcDbLine
 10
-0.0943147783426396
 20
0.0291922714530732
 30
0.0
 11
-0.0937575971060608
 21
0.0291922714530732
 31
0.0
  0
LINE
  5
31F
330
1F
100
AcDbEntity
  8
0
100
AcDbLine
 10
0.0982424028939374
 20
0.0291922714530735
 30
0.0
 11
0.0937424028939394
 21
0.0291922714530735
 31
0.0
  0
LINE
  5
320
330
1F
100
AcDbEntity
  8
0
100
AcDbLine
 10
0.0982424028939374
 20
0.0291922714530735
 30
0.0
 11
0.1127424028939394
 21
0.0291922714530735
 31
0.0
  0
LINE
  5
321
330
1F
100
AcDbEntity
  8
0
100
AcDbLine
 10
0.0972926646178572
 20
0.0485122714530735
 30
0.0
 11
0.1127424028939393
 21
0.0485122714530735
 31
0.0
  0
LINE
  5
322
330
1F
100
AcDbEntity
  8
0
100
AcDbLine
 10
0.0937424028939394
 20
0.0485122714530735
 30
0.0
 11
0.0972926646178572
 21
0.0485122714530735
 31
0.0
  0
LINE
  5
323
330
1F
100
AcDbEntity
  8
0
100
AcDbLine
 10
-0.1182575971060609
 20
0.0485122714530732
 30
0.0
 11
-0.1221310184922261
 21
0.0485122714530732
 31
0.0
  0
LINE
  5
324
330
1F
100
AcDbEntity
  8
0
100
AcDbLine
 10
-0.0962575971060609
 20
0.0485122714530732
 30
0.0
 11
-0.1182575971060609
 21
0.0485122714530732
 31
0.0
  0
LINE
  5
325
330
1F
100
AcDbEntity
  8
0
100
AcDbLine
 10
-0.093509870021193
 20
0.0485122714530732
 30
0.0
 11
-0.0962575971060609
 21
0.0485122714530732
 31
0.0
  0
LINE
  5
326
330
1F
100
AcDbEntity
  8
0
100
AcDbLine
 10
0.1282424028939374
 20
0.0485122714530733
 30
0.0
 11
0.1272424028939374
 21
0.0485122714530733
 31
0.0
  0
LINE
  5
327
330
1F
100
AcDbEntity
  8
0
100
AcDbLine
 10
0.1272424028939374
 20
0.0485122714530733
 30
0.0
 11
0.1127424028939393
 21
0.0485122714530735
 31
0.0
  0
LINE
  5
328
330
1F
100
AcDbEntity
  8
0
100
AcDbLine
 10
0.1017424061721948
 20
0.0715122714530732
 30
0.0
 11
0.0972926646178573
 21
0.0715122714530732
 31
0.0
  0
LINE
  5
329
330
1F
100
AcDbEntity
  8
0
100
AcDbLine
 10
0.1237424061721949
 20
0.0715122714530732
 30
0.0
 11
0.1017424061721948
 21
0.0715122714530732
 31
0.0
  0
LINE
  5
32A
330
1F
100
AcDbEntity
  8
0
100
AcDbLine
 10
0.1282424028939375
 20
0.0715122714530732
 30
0.0
 11
0.1237424061721949
 21
0.0715122714530732
 31
0.0
  0
LINE
  5
32B
330
1F
100
AcDbEntity
  8
0
100
AcDbLine
 10
0.1268616734949905
 20
-0.0373716692179729
 30
0.0
 11
0.127649680306393
 21
-0.037371669217973
 31
0.0
  0
LINE
  5
32C
330
1F
100
AcDbEntity
  8
0
100
AcDbLine
 10
0.1277007951938968
 20
-0.0013716692179731
 30
0.0
 11
0.1268616734949905
 21
-0.001371669217973
 31
0.0
  0
LINE
  5
32D
330
1F
100
AcDbEntity
  8
0
100
AcDbLine
 10
0.1152424029311905
 20
-0.0664877285469267
 30
0.0
 11
0.1259491946973761
 21
-0.0664877285469266
 31
0.0
  0
LINE
  5
32E
330
1F
100
AcDbEntity
  8
0
100
AcDbLine
 10
0.1152424029311905
 20
-0.0664877285469267
 30
0.0
 11
0.1102424028566847
 21
-0.0664877285469267
 31
0.0
  0
LINE
  5
32F
330
1F
100
AcDbEntity
  8
0
100
AcDbLine
 10
0.0994759037395361
 20
-0.0664877285469268
 30
0.0
 11
0.1102424028566847
 21
-0.0664877285469267
 31
0.0
  0
LINE
  5
330
330
1F
100
AcDbEntity
  8
0
100
AcDbLine
 10
0.0994759037395361
 20
-0.0664877285469268
 30
0.0
 11
0.0977577100356902
 21
-0.0664877285469266
 31
0.0
  0
LINE
  5
331
330
1F
100
AcDbEntity
  8
0
100
AcDbLine
 10
0.1259491946973761
 20
-0.0664877285469266
 30
0.0
 11
0.1277270957521856
 21
-0.0664877285469268
 31
0.0
  0
LINE
  5
332
330
1F
100
AcDbEntity
  8
0
100
AcDbLine
 10
0.0977577136827492
 20
0.0255122714530734
 30
0.0
 11
0.0982424028939374
 21
0.0255122714530734
 31
0.0
  0
LINE
  5
333
330
1F
100
AcDbEntity
  8
0
100
AcDbLine
 10
0.1272424028939373
 20
0.0255122714530733
 30
0.0
 11
0.0982424028939374
 21
0.0255122714530734
 31
0.0
  0
LINE
  5
334
330
1F
100
AcDbEntity
  8
0
100
AcDbLine
 10
0.1017424061721948
 20
0.151512276355555
 30
0.0
 11
0.1237424061721949
 21
0.151512276355555
 31
0.0
  0
LINE
  5
335
330
1F
100
AcDbEntity
  8
0
100
AcDbLine
 10
-0.0962616871887167
 20
0.1488122156792136
 30
0.0
 11
-0.1072574189875098
 21
0.1485122714530729
 31
0.0
  0
LINE
  5
336
330
1F
100
AcDbEntity
  8
0
100
AcDbLine
 10
-0.0962575971064213
 20
0.1486622738819573
 30
0.0
 11
-0.1072574189875098
 21
0.1485122714530729
 31
0.0
  0
LINE
  5
337
330
1F
100
AcDbEntity
  8
0
100
AcDbLine
 10
-0.1072574189875098
 20
0.1485122714530729
 30
0.0
 11
-0.1182575971060609
 21
0.1483658473374009
 31
0.0
  0
LINE
  5
338
330
1F
100
AcDbEntity
  8
0
100
AcDbLine
 10
0.1071424028939376
 20
-0.0678382052460171
 30
0.0
 11
0.1067591801108505
 21
-0.0678382052460171
 31
0.0
  0
LINE
  5
339
330
1F
100
AcDbEntity
  8
0
100
AcDbLine
 10
0.1183424028939376
 20
-0.0678382052460171
 30
0.0
 11
0.1187256256770247
 21
-0.0678382052460171
 31
0.0
  0
LINE
  5
33A
330
1F
100
AcDbEntity
  8
0
100
AcDbLine
 10
0.1067585752379914
 20
-0.0676274389389294
 30
0.0
 11
0.1067589466270857
 21
-0.0677568484614807
 31
0.0
  0
LINE
  5
33B
330
1F
100
AcDbEntity
  8
0
100
AcDbLine
 10
0.1035510610436446
 20
-0.0670738855483361
 30
0.0
 11
0.1034075699438818
 21
-0.0670738855483361
 31
0.0
  0
LINE
  5
33C
330
1F
100
AcDbEntity
  8
0
100
AcDbLine
 10
0.1034075699438818
 20
-0.0670738855483361
 30
0.0
 11
0.1033193500219128
 21
-0.0670738855483361
 31
0.0
  0
LINE
  5
33D
330
1F
100
AcDbEntity
  8
0
100
AcDbLine
 10
0.1034380220453228
 20
-0.0677738855483361
 30
0.0
 11
0.1032466803291403
 21
-0.0677738855483361
 31
0.0
  0
LINE
  5
33E
330
1F
100
AcDbEntity
  8
0
100
AcDbLine
 10
0.1031479206382957
 20
-0.0672738855483361
 30
0.0
 11
0.1024737832881014
 21
-0.0672738855483361
 31
0.0
  0
LINE
  5
33F
330
1F
100
AcDbEntity
  8
0
100
AcDbLine
 10
0.1032466803291403
 20
-0.0677738855483361
 30
0.0
 11
0.1029695057187884
 21
-0.0677738855483361
 31
0.0
  0
LINE
  5
340
330
1F
100
AcDbEntity
  8
0
100
AcDbLine
 10
0.1031479206382957
 20
-0.0672738855483361
 30
0.0
 11
0.1032466803291403
 21
-0.0672738855483361
 31
0.0
  0
LINE
  5
341
330
1F
100
AcDbEntity
  8
0
100
AcDbLine
 10
0.1047586631154753
 20
-0.0672738855483361
 30
0.0
 11
0.1032466803291403
 21
-0.0672738855483361
 31
0.0
  0
LINE
  5
342
330
1F
100
AcDbEntity
  8
0
100
AcDbLine
 10
0.1046774869774341
 20
-0.0677738855483361
 30
0.0
 11
0.1049104498905787
 21
-0.0677738855483361
 31
0.0
  0
LINE
  5
343
330
1F
100
AcDbEntity
  8
0
100
AcDbLine
 10
0.1052070533165725
 20
-0.0677738855483361
 30
0.0
 11
0.1049104498905787
 21
-0.0677738855483361
 31
0.0
  0
LINE
  5
344
330
1F
100
AcDbEntity
  8
0
100
AcDbLine
 10
0.105357683512046
 20
-0.0677068982502284
 30
0.0
 11
0.1054772423212432
 21
-0.0677568484614807
 31
0.0
  0
LINE
  5
345
330
1F
100
AcDbEntity
  8
0
100
AcDbLine
 10
0.1071573924015536
 20
-0.0672738855483361
 30
0.0
 11
0.1051098222967026
 21
-0.0672738855483361
 31
0.0
  0
LINE
  5
346
330
1F
100
AcDbEntity
  8
0
100
AcDbLine
 10
0.1066828224829326
 20
-0.0677738855483361
 30
0.0
 11
0.1056055447273895
 21
-0.0677738855483361
 31
0.0
  0
LINE
  5
347
330
1F
100
AcDbEntity
  8
0
100
AcDbLine
 10
0.107098667153393
 20
-0.0677738855483361
 30
0.0
 11
0.1068403815346839
 21
-0.0677738855483361
 31
0.0
  0
LINE
  5
348
330
1F
100
AcDbEntity
  8
0
100
AcDbLine
 10
0.1080186856121915
 20
-0.0672738855483361
 30
0.0
 11
0.1104063889068513
 21
-0.0672738855483361
 31
0.0
  0
LINE
  5
349
330
1F
100
AcDbEntity
  8
0
100
AcDbLine
 10
0.1100778182904684
 20
-0.0677738855483361
 30
0.0
 11
0.1085186856121915
 21
-0.0677738855483361
 31
0.0
  0
LINE
  5
34A
330
1F
100
AcDbEntity
  8
0
100
AcDbLine
 10
0.1140110223656633
 20
-0.0672738855483361
 30
0.0
 11
0.1114737834222119
 21
-0.0672738855483361
 31
0.0
  0
LINE
  5
34B
330
1F
100
AcDbEntity
  8
0
100
AcDbLine
 10
0.1119695058528988
 20
-0.0677738855483361
 30
0.0
 11
0.1122466804632507
 21
-0.0677738855483361
 31
0.0
  0
LINE
  5
34C
330
1F
100
AcDbEntity
  8
0
100
AcDbLine
 10
0.1173323375339951
 20
-0.0672738855483361
 30
0.0
 11
0.1150784168810239
 21
-0.0672738855483361
 31
0.0
  0
LINE
  5
34D
330
1F
100
AcDbEntity
  8
0
100
AcDbLine
 10
0.1166695167496898
 20
-0.0677738855483361
 30
0.0
 11
0.1154069874974068
 21
-0.0677738855483361
 31
0.0
  0
LINE
  5
34E
330
1F
100
AcDbEntity
  8
0
100
AcDbLine
 10
0.1169661201756837
 20
-0.0677738855483361
 30
0.0
 11
0.1166695167496898
 21
-0.0677738855483361
 31
0.0
  0
LINE
  5
34F
330
1F
100
AcDbEntity
  8
0
100
AcDbLine
 10
0.1187096873493013
 20
-0.0677738855483361
 30
0.0
 11
0.11861064158876
 21
-0.0677738855483361
 31
0.0
  0
LINE
  5
350
330
1F
100
AcDbEntity
  8
0
100
AcDbLine
 10
0.1183861386344822
 20
-0.0677738855483361
 30
0.0
 11
0.11861064158876
 21
-0.0677738855483361
 31
0.0
  0
LINE
  5
351
330
1F
100
AcDbEntity
  8
0
100
AcDbLine
 10
0.1223368851495795
 20
-0.0672738855483361
 30
0.0
 11
0.1207261426723999
 21
-0.0672738855483361
 31
0.0
  0
LINE
  5
352
330
1F
100
AcDbEntity
  8
0
100
AcDbLine
 10
0.1220467837425524
 20
-0.0677738855483361
 30
0.0
 11
0.1222381254587349
 21
-0.0677738855483361
 31
0.0
  0
LINE
  5
353
330
1F
100
AcDbEntity
  8
0
100
AcDbLine
 10
0.1223368851495795
 20
-0.0672738855483361
 30
0.0
 11
0.1230110224997737
 21
-0.0672738855483361
 31
0.0
  0
LINE
  5
354
330
1F
100
AcDbEntity
  8
0
100
AcDbLine
 10
0.1222381254587349
 20
-0.0677738855483361
 30
0.0
 11
0.1225153000690868
 21
-0.0677738855483361
 31
0.0
  0
LINE
  5
355
330
1F
100
AcDbEntity
  8
0
100
AcDbLine
 10
0.1220868851495795
 20
-0.0677068982502284
 30
0.0
 11
0.1219662946721308
 21
-0.0677568484614807
 31
0.0
  0
LINE
  5
356
330
1F
100
AcDbEntity
  8
0
100
AcDbLine
 10
0.1188019833049426
 20
-0.0677738855483361
 30
0.0
 11
0.1198792610604857
 21
-0.0677738855483361
 31
0.0
  0
LINE
  5
357
330
1F
100
AcDbEntity
  8
0
100
AcDbLine
 10
0.1203749834911726
 20
-0.0672738855483361
 30
0.0
 11
0.1183274133863216
 21
-0.0672738855483361
 31
0.0
  0
LINE
  5
358
330
1F
100
AcDbEntity
  8
0
100
AcDbLine
 10
0.120358092158957
 20
-0.0674032950708874
 30
0.0
 11
0.1203085692786864
 21
-0.0675238855483361
 31
0.0
  0
LINE
  5
359
330
1F
100
AcDbEntity
  8
0
100
AcDbLine
 10
0.1180856057630647
 20
-0.0677068982502284
 30
0.0
 11
0.1179829382860832
 21
-0.0676274389389294
 31
0.0
  0
LINE
  5
35A
330
1F
100
AcDbEntity
  8
0
100
AcDbLine
 10
0.1180856057630647
 20
-0.0677068982502284
 30
0.0
 11
0.1182051645722619
 21
-0.0677568484614807
 31
0.0
  0
LINE
  5
35B
330
1F
100
AcDbEntity
  8
0
100
AcDbLine
 10
0.1154069874974068
 20
-0.0677738855483361
 30
0.0
 11
0.1152775779748556
 21
-0.0677568484614807
 31
0.0
  0
LINE
  5
35C
330
1F
100
AcDbEntity
  8
0
100
AcDbLine
 10
0.1173991328775759
 20
-0.0675238855483361
 30
0.0
 11
0.117319673566277
 21
-0.0676274389389294
 31
0.0
  0
LINE
  5
35D
330
1F
100
AcDbEntity
  8
0
100
AcDbLine
 10
0.1122466804632507
 20
-0.0677738855483361
 30
0.0
 11
0.1135152999349764
 21
-0.0677738855483361
 31
0.0
  0
LINE
  5
35E
330
1F
100
AcDbEntity
  8
0
100
AcDbLine
 10
0.1116189771605738
 20
-0.0676274389389294
 30
0.0
 11
0.1115401976346982
 21
-0.0675238855483361
 31
0.0
  0
LINE
  5
35F
330
1F
100
AcDbEntity
  8
0
100
AcDbLine
 10
0.1116189771605738
 20
-0.0676274389389294
 30
0.0
 11
0.1117216446375554
 21
-0.0677068982502284
 31
0.0
  0
LINE
  5
360
330
1F
100
AcDbEntity
  8
0
100
AcDbLine
 10
0.1100778182904684
 20
-0.0677738855483361
 30
0.0
 11
0.1102072278130196
 21
-0.0677568484614807
 31
0.0
  0
LINE
  5
361
330
1F
100
AcDbEntity
  8
0
100
AcDbLine
 10
0.1105108309923606
 20
-0.0675238855483361
 30
0.0
 11
0.1105607812036129
 21
-0.0674032950708874
 31
0.0
  0
LINE
  5
362
330
1F
100
AcDbEntity
  8
0
100
AcDbLine
 10
0.108035722699047
 20
-0.0674032950708874
 30
0.0
 11
0.1080856729102993
 21
-0.0675238855483361
 31
0.0
  0
LINE
  5
363
330
1F
100
AcDbEntity
  8
0
100
AcDbLine
 10
0.1080856729102993
 20
-0.0675238855483361
 30
0.0
 11
0.1081651322215982
 21
-0.0676274389389294
 31
0.0
  0
LINE
  5
364
330
1F
100
AcDbEntity
  8
0
100
AcDbLine
 10
0.1075806470276677
 20
-0.0675238855483361
 30
0.0
 11
0.1076301699079383
 21
-0.0674032950708874
 31
0.0
  0
LINE
  5
365
330
1F
100
AcDbEntity
  8
0
100
AcDbLine
 10
0.107501867501792
 20
-0.0676274389389294
 30
0.0
 11
0.1073992000248105
 21
-0.0677068982502284
 31
0.0
  0
LINE
  5
366
330
1F
100
AcDbEntity
  8
0
100
AcDbLine
 10
0.1032149079364035
 20
-0.0675238855483361
 30
0.0
 11
0.1032943672477024
 21
-0.0676274389389294
 31
0.0
  0
LINE
  5
367
330
1F
100
AcDbEntity
  8
0
100
AcDbLine
 10
0.1071424028939376
 20
-0.0678382052460171
 30
0.0
 11
0.1183424028939376
 21
-0.0678382052460171
 31
0.0
  0
LINE
  5
368
330
1F
100
AcDbEntity
  8
0
100
AcDbLine
 10
0.1029634521267018
 20
-0.0671428033416633
 30
0.0
 11
0.1031572824748897
 21
-0.0671748995330513
 31
0.0
  0
LINE
  5
369
330
1F
100
AcDbEntity
  8
0
100
AcDbLine
 10
0.1027272545305474
 20
-0.0671043670029361
 30
0.0
 11
0.1029328000350357
 21
-0.0671376652404013
 31
0.0
  0
LINE
  5
36A
330
1F
100
AcDbEntity
  8
0
100
AcDbLine
 10
0.1230047341489138
 20
-0.0670649657530333
 30
0.0
 11
0.123219749779777
 21
-0.0670314113585682
 31
0.0
  0
LINE
  5
36B
330
1F
100
AcDbEntity
  8
0
100
AcDbLine
 10
0.1225520057528395
 20
-0.0671376652404013
 30
0.0
 11
0.1223509802851952
 21
-0.0671709150438349
 31
0.0
  0
LINE
  5
36C
330
1F
100
AcDbEntity
  8
0
100
AcDbLine
 10
0.1152893635989334
 20
-0.067557125729111
 30
0.0
 11
0.1150966717360772
 21
-0.0675401097766642
 31
0.0
  0
LINE
  5
36D
330
1F
100
AcDbEntity
  8
0
100
AcDbLine
 10
0.10962770717603
 20
-0.0670707775669284
 30
0.0
 11
0.1099054556470066
 21
-0.067101150504433
 31
0.0
  0
LINE
  5
36E
330
1F
100
AcDbEntity
  8
0
100
AcDbLine
 10
0.1204737835563223
 20
-0.0671834787259154
 30
0.0
 11
0.1203749834911726
 21
-0.0672166627938582
 31
0.0
  0
LINE
  5
36F
330
1F
100
AcDbEntity
  8
0
100
AcDbLine
 10
0.120165047319947
 20
-0.0670283499844836
 30
0.0
 11
0.1203749834911726
 21
-0.0670321430892276
 31
0.0
  0
LINE
  5
370
330
1F
100
AcDbEntity
  8
0
100
AcDbLine
 10
0.1049789698280815
 20
-0.0671709150438349
 30
0.0
 11
0.1049008714949213
 21
-0.0671289478976156
 31
0.0
  0
LINE
  5
371
330
1F
100
AcDbEntity
  8
0
100
AcDbLine
 10
0.1131055737246518
 20
-0.0675569246278734
 30
0.0
 11
0.1130020574681423
 21
-0.0675631442214372
 31
0.0
  0
LINE
  5
372
330
1F
100
AcDbEntity
  8
0
100
AcDbLine
 10
0.1035510610436446
 20
-0.0677738855483361
 30
0.0
 11
0.1039337444760097
 21
-0.0677738855483361
 31
0.0
  0
LINE
  5
373
330
1F
100
AcDbEntity
  8
0
100
AcDbLine
 10
0.1045568964999854
 20
-0.0677738855483361
 30
0.0
 11
0.1039337444760097
 21
-0.0677738855483361
 31
0.0
  0
LINE
  5
374
330
1F
100
AcDbEntity
  8
0
100
AcDbLine
 10
0.1219337447442306
 20
-0.0677738855483361
 30
0.0
 11
0.1202777524713027
 21
-0.0677738855483361
 31
0.0
  0
LINE
  5
375
330
1F
100
AcDbEntity
  8
0
100
AcDbLine
 10
0.1022650560080982
 20
-0.0670314113585682
 30
0.0
 11
0.1024800716389614
 21
-0.0670649657530333
 31
0.0
  0
ENDSEC
  0
SECTION
  2
OBJECTS
  0
DICTIONARY
  5
C
330
0
100
AcDbDictionary
  3
ACAD_GROUP
350
D
  3
ACAD_LAYOUT
350
1A
  3
ACAD_MATERIAL
350
43
  3
ACAD_MLEADERSTYLE
350
5B
  3
ACAD_MLINESTYLE
350
17
  3
ACAD_PLOTSETTINGS
350
19
  3
ACAD_SCALELIST
350
47
  3
ACAD_VISUALSTYLE
350
2A
  3
ACDBHEADERROUNDTRIPXREC
350
376
  3
ACDBVARIABLEDICTIONARY
350
397
  3
DWGPROPS
350
39E
  0
DICTIONARY
  5
39F
330
8
100
AcDbDictionary
280
     1
  3
ACAD_XREC_ROUNDTRIP
360
3A0
  0
DICTIONARY
  5
D
102
{ACAD_REACTORS
330
C
102
}
330
C
100
AcDbDictionary
  0
DICTIONARY
  5
1A
102
{ACAD_REACTORS
330
C
102
}
330
C
100
AcDbDictionary
  0
DICTIONARY
  5
43
102
{ACAD_REACTORS
330
C
102
}
330
C
100
AcDbDictionary
  3
BYBLOCK
350
45
  3
BYLAYER
350
44
  3
GLOBAL
350
46
  0
DICTIONARY
  5
5B
102
{ACAD_REACTORS
330
C
102
}
330
C
100
AcDbDictionary
  3
STANDARD
350
5C
  0
DICTIONARY
  5
17
102
{ACAD_REACTORS
330
C
102
}
330
C
100
AcDbDictionary
  3
STANDARD
350
18
  0
DICTIONARY
  5
19
102
{ACAD_REACTORS
330
C
102
}
330
C
100
AcDbDictionary
  0
DICTIONARY
  5
47
102
{ACAD_REACTORS
330
C
102
}
330
C
100
AcDbDictionary
  3
A0
350
48
  3
A1
350
49
  3
A2
350
4A
  3
A3
350
4B
  3
A4
350
4C
  3
A5
350
4D
  3
A6
350
4E
  3
A7
350
4F
  3
A8
350
50
  3
A9
350
51
  3
B1
350
52
  3
B2
350
53
  3
B3
350
54
  3
B4
350
55
  3
B5
350
56
  3
B6
350
57
  3
B7
350
58
  0
DICTIONARY
  5
2A
102
{ACAD_REACTORS
330
C
102
}
330
C
100
AcDbDictionary
  3
2DWIREFRAME
350
2F
  3
BASIC
350
32
  3
BRIGHTEN
350
36
  3
COLORCHANGE
350
3A
  3
CONCEPTUAL
350
34
  3
DIM
350
35
  3
EDGECOLOROFF
350
3D
  3
FACEPATTERN
350
39
  3
FLAT
350
2B
  3
FLATWITHEDGES
350
2C
  3
GOURAUD
350
2D
  3
GOURAUDWITHEDGES
350
2E
  3
HIDDEN
350
31
  3
JITTEROFF
350
3B
  3
LINEPATTERN
350
38
  3
OVERHANGOFF
350
3C
  3
REALISTIC
350
33
  3
SHADED
350
42
  3
SHADED_WITH_EDGES
350
41
  3
SHADES_OF_GRAY
350
3E
  3
SKETCHY
350
3F
  3
THICKEN
350
37
  3
WIREFRAME
350
30
  3
X-RAY
350
40
  0
DICTIONARY
  5
376
102
{ACAD_REACTORS
330
C
102
}
330
C
100
AcDbDictionary
  3
CEPSNID
350
380
  3
CEPSNTYPE
350
37F
  3
DIMSTYLEDATA
350
396
  3
FINGERPRINTGUID
350
381
  3
HYPERLINKBASE
350
379
  3
INSUNITS
350
37E
  3
LAYOUTDICT
350
37B
  3
LWETCUNION
350
37D
  3
PLOTSETDICT
350
37C
  3
PSVPSCALE
350
383
  3
PUCSBASE
350
386
  3
PUCSORGBACK
350
38C
  3
PUCSORGBOTTOM
350
388
  3
PUCSORGFRONT
350
38B
  3
PUCSORGLEFT
350
389
  3
PUCSORGRIGHT
350
38A
  3
PUCSORGTOP
350
387
  3
PUCSORTHOREF
350
384
  3
PUCSORTHOVIEW
350
385
  3
STYLESHEET
350
37A
  3
TSTACKALIGN
350
377
  3
TSTACKSIZE
350
378
  3
UCSBASE
350
38F
  3
UCSORGBACK
350
395
  3
UCSORGBOTTOM
350
391
  3
UCSORGFRONT
350
394
  3
UCSORGLEFT
350
392
  3
UCSORGRIGHT
350
393
  3
UCSORGTOP
350
390
  3
UCSORTHOREF
350
38D
  3
UCSORTHOVIEW
350
38E
  3
VERSIONGUID
350
382
  0
DICTIONARY
  5
397
102
{ACAD_REACTORS
330
C
102
}
330
C
100
AcDbDictionary
  3
CANNOSCALE
350
3A1
  3
CMLEADERSTYLE
350
399
  3
CTABLESTYLE
350
398
  3
DIMASSOC
350
39C
  3
HIDETEXT
350
39D
  3
MSLTSCALE
350
3A2
  0
XRECORD
  5
39E
102
{ACAD_REACTORS
330
C
102
}
330
C
100
AcDbXrecord
  1
DWGPROPS COOKIE
  2

  3

  4

  6

  7

  8
im_marketing1
  9

300
=
301
=
302
=
303
=
304
=
305
=
306
=
307
=
308
=
309
=
 40
0.0
 41
2460518.488032373
 42
2460518.488038009
  1

 90
        0
  0
XRECORD
  5
3A0
102
{ACAD_REACTORS
330
39F
102
}
330
39F
100
AcDbXrecord
102
VTR_0.000_0.000_1.000_1.000_VISUALSTYLE
340
2F
102
VTR_0.000_0.000_1.000_1.000_GRIDDISPLAY
 70
     3
102
VTR_0.000_0.000_1.000_1.000_GRIDMAJOR
 70
     5
102
VTR_0.000_0.000_1.000_1.000_DEFAULTLIGHTING
280
     1
102
VTR_0.000_0.000_1.000_1.000_DEFAULTLIGHTINGTYPE
 70
     1
102
VTR_0.000_0.000_1.000_1.000_BRIGHTNESS
141
0.0
102
VTR_0.000_0.000_1.000_1.000_CONTRAST
142
0.0
  0
MATERIAL
  5
45
102
{ACAD_REACTORS
330
43
102
}
102
{ACAD_XDICTIONARY
360
3A5
102
}
330
43
100
AcDbMaterial
  1
BYBLOCK
  0
MATERIAL
  5
44
102
{ACAD_REACTORS
330
43
102
}
102
{ACAD_XDICTIONARY
360
3A3
102
}
330
43
100
AcDbMaterial
  1
BYLAYER
  0
MATERIAL
  5
46
102
{ACAD_REACTORS
330
43
102
}
102
{ACAD_XDICTIONARY
360
3A7
102
}
330
43
100
AcDbMaterial
  1
GLOBAL
  0
ACAD_PROXY_OBJECT
  5
5C
102
{ACAD_REACTORS
330
5B
102
}
330
5B
100
AcDbProxyObject
 90
      499
 91
      505
 93
      610
310
40901902A4063FBFFFFFE056BD1B81E855B9FC0AD7A3703D0AD73F4214DD185B99185C9900AD7A3703D0AC73F90141901A02B5E8DC0F42B1CFC02B5E8DC0F42B1CFE5764000000000000300FC0
340
14
340
0
340
11
340
0
 94
        0
1001
ACAD_MLEADERVER
1070
     2
  0
MLINESTYLE
  5
18
102
{ACAD_REACTORS
330
17
102
}
330
17
100
AcDbMlineStyle
  2
Standard
 70
     0
  3

 62
   256
 51
90.0
 52
90.0
 71
     2
 49
0.5
 62
   256
  6
BYLAYER
 49
-0.5
 62
   256
  6
BYLAYER
  0
ACAD_PROXY_OBJECT
  5
48
102
{ACAD_REACTORS
330
47
102
}
330
47
100
AcDbProxyObject
 90
      499
 91
      503
 93
       41
310
903313A31580
  0
ACAD_PROXY_OBJECT
  5
49
102
{ACAD_REACTORS
330
47
102
}
330
47
100
AcDbProxyObject
 90
      499
 91
      503
 93
      257
310
90E312F31323822203D2031272D3022000000000000200FC000000000000284000
  0
ACAD_PROXY_OBJECT
  5
4A
102
{ACAD_REACTORS
330
47
102
}
330
47
100
AcDbProxyObject
 90
      499
 91
      503
 93
      249
310
90D312F363422203D2031272D3022000000000000240FC000000000000284000
  0
ACAD_PROXY_OBJECT
  5
4B
102
{ACAD_REACTORS
330
47
102
}
330
47
100
AcDbProxyObject
 90
      499
 91
      503
 93
      249
310
90D312F333222203D2031272D3022000000000000280FC000000000000284000
  0
ACAD_PROXY_OBJECT
  5
4C
102
{ACAD_REACTORS
330
47
102
}
330
47
100
AcDbProxyObject
 90
      499
 91
      503
 93
      249
310
90D312F313622203D2031272D30220000000000002C0FC000000000000284000
  0
ACAD_PROXY_OBJECT
  5
4D
102
{ACAD_REACTORS
330
47
102
}
330
47
100
AcDbProxyObject
 90
      499
 91
      503
 93
      249
310
90D332F333222203D2031272D30220000000000002E0FC000000000000284000
  0
ACAD_PROXY_OBJECT
  5
4E
102
{ACAD_REACTORS
330
47
102
}
330
47
100
AcDbProxyObject
 90
      499
 91
      503
 93
      241
310
90C312F3822203D2031272D3022000000000000300FC000000000000284000
  0
ACAD_PROXY_OBJECT
  5
4F
102
{ACAD_REACTORS
330
47
102
}
330
47
100
AcDbProxyObject
 90
      499
 91
      503
 93
      249
310
90D332F313622203D2031272D3022000000000000320FC000000000000284000
  0
ACAD_PROXY_OBJECT
  5
50
102
{ACAD_REACTORS
330
47
102
}
330
47
100
AcDbProxyObject
 90
      499
 91
      503
 93
      241
310
90C312F3422203D2031272D3022000000000000340FC000000000000284000
  0
ACAD_PROXY_OBJECT
  5
51
102
{ACAD_REACTORS
330
47
102
}
330
47
100
AcDbProxyObject
 90
      499
 91
      503
 93
      241
310
90C332F3822203D2031272D3022000000000000360FC000000000000284000
  0
ACAD_PROXY_OBJECT
  5
52
102
{ACAD_REACTORS
330
47
102
}
330
47
100
AcDbProxyObject
 90
      499
 91
      503
 93
      241
310
90C312F3222203D2031272D3022000000000000380FC000000000000284000
  0
ACAD_PROXY_OBJECT
  5
53
102
{ACAD_REACTORS
330
47
102
}
330
47
100
AcDbProxyObject
 90
      499
 91
      503
 93
      241
310
90C332F3422203D2031272D30220000000000003A0FC000000000000284000
  0
ACAD_PROXY_OBJECT
  5
54
102
{ACAD_REACTORS
330
47
102
}
330
47
100
AcDbProxyObject
 90
      499
 91
      503
 93
      161
310
90A3122203D2031272D30224000000000000284000
  0
ACAD_PROXY_OBJECT
  5
55
102
{ACAD_REACTORS
330
47
102
}
330
47
100
AcDbProxyObject
 90
      499
 91
      503
 93
      257
310
90E312D312F3222203D2031272D30220000000000003E0FC000000000000284000
  0
ACAD_PROXY_OBJECT
  5
56
102
{ACAD_REACTORS
330
47
102
}
330
47
100
AcDbProxyObject
 90
      499
 91
      503
 93
      225
310
90A3322203D2031272D302200000000000002100000000000000284000
  0
ACAD_PROXY_OBJECT
  5
57
102
{ACAD_REACTORS
330
47
102
}
330
47
100
AcDbProxyObject
 90
      499
 91
      503
 93
      225
310
90A3622203D2031272D302200000000000006100000000000000284000
  0
ACAD_PROXY_OBJECT
  5
58
102
{ACAD_REACTORS
330
47
102
}
330
47
100
AcDbProxyObject
 90
      499
 91
      503
 93
      249
310
90D31272D3022203D2031272D30220000000000000A100000000000000284000
  0
ACAD_PROXY_OBJECT
  5
2F
102
{ACAD_REACTORS
330
2A
102
}
330
2A
100
AcDbProxyObject
 90
      499
 91
      501
 93
      436
310
42CC9915DA5C99599C985B595049028333333333333E33F0000000000000F90107901411070040501600405405064090741402480A0340
1001
ACAD
1000
AcDbSavedByObjectVersion
1070
     0
  0
ACAD_PROXY_OBJECT
  5
32
102
{ACAD_REACTORS
330
2A
102
}
330
2A
100
AcDbProxyObject
 90
      499
 91
      501
 93
      388
310
4150985CDA58D07406404333333333333E33F0000000000000F90107A41107004050150841D405064090741402480A0350
1001
ACAD
1000
AcDbSavedByObjectVersion
1070
     0
  0
ACAD_PROXY_OBJECT
  5
36
102
{ACAD_REACTORS
330
2A
102
}
330
2A
100
AcDbProxyObject
 90
      499
 91
      501
 93
      428
310
42109C9A59DA1D195B90C409028333333333333E33F0000000000000F9010790141107004050150841D405064090741402480A029950
1001
ACAD
1000
AcDbSavedByObjectVersion
1070
     0
  0
ACAD_PROXY_OBJECT
  5
3A
102
{ACAD_REACTORS
330
2A
102
}
330
2A
100
AcDbProxyObject
 90
      499
 91
      501
 93
      452
310
42D0DBDB1BDC90DA185B99D95104090240C333333333333E33F0000000000000F90108901411070040501508421405064090741402480A0350
1001
ACAD
1000
AcDbSavedByObjectVersion
1070
     0
  0
ACAD_PROXY_OBJECT
  5
34
102
{ACAD_REACTORS
330
2A
102
}
330
2A
100
AcDbProxyObject
 90
      499
 91
      501
 93
      500
310
4290DBDB98D95C1D1D585B10940D028333333333333E33F0000000000000F90107902409070040501000000000018199010841D405064090740C02480A0340
1001
ACAD
1000
AcDbSavedByObjectVersion
1070
     0
  0
ACAD_PROXY_OBJECT
  5
35
102
{ACAD_REACTORS
330
2A
102
}
330
2A
100
AcDbProxyObject
 90
      499
 91
      501
 93
      412
310
40D11A5B50B409028333333333333E33F0000000000000F9010790141107004050150841D405064090741402480A02677FFFFFD0
1001
ACAD
1000
AcDbSavedByObjectVersion
1070
     0
  0
ACAD_PROXY_OBJECT
  5
3D
102
{ACAD_REACTORS
330
2A
102
}
330
2A
100
AcDbProxyObject
 90
      499
 91
      501
 93
      452
310
43115919D950DBDB1BDC93D999916409028333333333333E33F0000000000000F9010790141107004050150841D405064090741402480A0350
1001
ACAD
1000
AcDbSavedByObjectVersion
1070
     0
  0
ACAD_PROXY_OBJECT
  5
39
102
{ACAD_REACTORS
330
2A
102
}
330
2A
100
AcDbProxyObject
 90
      499
 91
      501
 93
      444
310
42D19858D95C185D1D195C9B90F409028333333333333E33F0000000000000F9010790141107004050150841D405064090741402480A0350
1001
ACAD
1000
AcDbSavedByObjectVersion
1070
     0
  0
ACAD_PROXY_OBJECT
  5
2B
102
{ACAD_REACTORS
330
2A
102
}
330
2A
100
AcDbProxyObject
 90
      499
 91
      501
 93
      380
310
41119B185D240901404333333333333E33F0000000000000F9010740A907004050150841D405064090741402480A1B50
1001
ACAD
1000
AcDbSavedByObjectVersion
1070
     0
  0
ACAD_PROXY_OBJECT
  5
2C
102
{ACAD_REACTORS
330
2A
102
}
330
2A
100
AcDbProxyObject
 90
      499
 91
      501
 93
      468
310
43519B185D15DA5D1A115919D95CD0140901404333333333333E33F0000000000000F90107409019070040501600405405064090741402480A1B50
1001
ACAD
1000
AcDbSavedByObjectVersion
1070
     0
  0
ACAD_PROXY_OBJECT
  5
2D
102
{ACAD_REACTORS
330
2A
102
}
330
2A
100
AcDbProxyObject
 90
      499
 91
      501
 93
      404
310
41D1DBDD5C985D5910240902404333333333333E33F0000000000000F9010740A9070040501641D405064090741402480A1B50
1001
ACAD
1000
AcDbSavedByObjectVersion
1070
     0
  0
ACAD_PROXY_OBJECT
  5
2E
102
{ACAD_REACTORS
330
2A
102
}
330
2A
100
AcDbProxyObject
 90
      499
 91
      501
 93
      492
310
4411DBDD5C985D5915DA5D1A115919D95CD0340902404333333333333E33F0000000000000F90107409019070040501600405405064090741402480A1B50
1001
ACAD
1000
AcDbSavedByObjectVersion
1070
     0
  0
ACAD_PROXY_OBJECT
  5
31
102
{ACAD_REACTORS
330
2A
102
}
330
2A
100
AcDbProxyObject
 90
      499
 91
      501
 93
      476
310
41921A5919195B90640502408333333333333E33F0000000000000F901079024090700405020000000000001110200405405064090740C02480A0340
1001
ACAD
1000
AcDbSavedByObjectVersion
1070
     0
  0
ACAD_PROXY_OBJECT
  5
3B
102
{ACAD_REACTORS
330
2A
102
}
330
2A
100
AcDbProxyObject
 90
      499
 91
      501
 93
      428
310
42529A5D1D195C93D999914409028333333333333E33F0000000000000F9010790141107004050150A41D405064090741402480A0350
1001
ACAD
1000
AcDbSavedByObjectVersion
1070
     0
  0
ACAD_PROXY_OBJECT
  5
38
102
{ACAD_REACTORS
330
2A
102
}
330
2A
100
AcDbProxyObject
 90
      499
 91
      501
 93
      444
310
42D31A5B995C185D1D195C9B90E409028333333333333E33F0000000000000F9010790141107004050750841D405064090741402483A0350
1001
ACAD
1000
AcDbSavedByObjectVersion
1070
     0
  0
ACAD_PROXY_OBJECT
  5
3C
102
{ACAD_REACTORS
330
2A
102
}
330
2A
100
AcDbProxyObject
 90
      499
 91
      501
 93
      444
310
42D3DD995C9A185B99D3D999915409028333333333333E33F0000000000000F9010790141107004050150941D405064090741402480A0350
1001
ACAD
1000
AcDbSavedByObjectVersion
1070
     0
  0
ACAD_PROXY_OBJECT
  5
33
102
{ACAD_REACTORS
330
2A
102
}
330
2A
100
AcDbProxyObject
 90
      499
 91
      501
 93
      428
310
425499585B1A5CDD1A58D08409038333333333333E33F0000000000000F9010740A907004050150800405405064090740C02480A1B40
1001
ACAD
1000
AcDbSavedByObjectVersion
1070
     0
  0
ACAD_PROXY_OBJECT
  5
42
102
{ACAD_REACTORS
330
2A
102
}
330
2A
100
AcDbProxyObject
 90
      499
 91
      501
 93
      420
310
4194DA1859195911B40902404333333333333E33F0000000000000F9010740A41107004050150800405405064090840C02480A0B40
1001
ACAD
1000
AcDbSavedByObjectVersion
1070
     0
  0
ACAD_PROXY_OBJECT
  5
41
102
{ACAD_REACTORS
330
2A
102
}
330
2A
100
AcDbProxyObject
 90
      499
 91
      501
 93
      516
310
4454DA18591959081DDA5D1A08195919D95CD1A40902404333333333333E33F0000000000000F901074090142907004050250800405405064090740C02480A0B40
1001
ACAD
1000
AcDbSavedByObjectVersion
1070
     0
  0
ACAD_PROXY_OBJECT
  5
3E
102
{ACAD_REACTORS
330
2A
102
}
330
2A
100
AcDbProxyObject
 90
      499
 91
      501
 93
      532
310
4394DA1859195CC81BD98811DC985E5174090240C333333333333E33F0000000000000F901079024090741D01000000000000111010841D405064090740C02480A0340
1001
ACAD
1000
AcDbSavedByObjectVersion
1070
     0
  0
ACAD_PROXY_OBJECT
  5
3F
102
{ACAD_REACTORS
330
2A
102
}
330
2A
100
AcDbProxyObject
 90
      499
 91
      501
 93
      476
310
41D4DAD95D18DA1E51840502408333333333333E33F0000000000000F901079024090741D01000000000000111010B41D405064090741802480A0340
1001
ACAD
1000
AcDbSavedByObjectVersion
1070
     0
  0
ACAD_PROXY_OBJECT
  5
37
102
{ACAD_REACTORS
330
2A
102
}
330
2A
100
AcDbProxyObject
 90
      499
 91
      501
 93
      412
310
41D51A1A58DAD95B90D409028333333333333E33F0000000000000F9010790141107004050150C41D405064090741402480A0350
1001
ACAD
1000
AcDbSavedByObjectVersion
1070
     0
  0
ACAD_PROXY_OBJECT
  5
30
102
{ACAD_REACTORS
330
2A
102
}
330
2A
100
AcDbProxyObject
 90
      499
 91
      501
 93
      420
310
4255DA5C99599C985B595059028333333333333E33F0000000000000F90107901411070040501600405405064090740C02480A0340
1001
ACAD
1000
AcDbSavedByObjectVersion
1070
     0
  0
ACAD_PROXY_OBJECT
  5
40
102
{ACAD_REACTORS
330
2A
102
}
330
2A
100
AcDbProxyObject
 90
      499
 91
      501
 93
      404
310
41560B54985E51940902404000000000000E03F0000000000000F9010740501907004050150841D405064090740C02480A1B40
1001
ACAD
1000
AcDbSavedByObjectVersion
1070
     0
  0
XRECORD
  5
380
102
{ACAD_REACTORS
330
376
102
}
330
376
100
AcDbXrecord
340
0
  0
XRECORD
  5
37F
102
{ACAD_REACTORS
330
376
102
}
330
376
100
AcDbXrecord
 90
        0
  0
XRECORD
  5
396
102
{ACAD_REACTORS
330
376
102
}
330
376
100
AcDbXrecord
1000
DSTYLE
1002
{
1070
   171
 70
     2
1070
   143
 40
25.4
1070
   274
 70
     2
1070
    41
 40
0.18
1070
   141
 40
0.09
1070
   271
 70
     4
1070
    43
 40
0.38
1070
   278
 70
    46
1070
    44
 40
0.18
1070
    42
 40
0.0625
1070
   147
 40
0.09
1070
    77
 70
     0
1070
   272
 70
     4
1070
    73
 70
     1
1070
   172
 70
     0
1070
    74
 70
     1
1070
   283
 70
     1
1070
   340
340
11
1070
   140
 40
0.18
1070
   284
 70
     0
1070
    78
 70
     0
1002
}
  0
XRECORD
  5
381
102
{ACAD_REACTORS
330
376
102
}
330
376
100
AcDbXrecord
  1
{c50411e0-c3de-424e-9262-bff2fd5b30de}
  0
XRECORD
  5
379
102
{ACAD_REACTORS
330
376
102
}
330
376
100
AcDbXrecord
  1

  0
XRECORD
  5
37E
102
{ACAD_REACTORS
330
376
102
}
330
376
100
AcDbXrecord
 90
        6
  0
XRECORD
  5
37B
102
{ACAD_REACTORS
330
376
102
}
330
376
100
AcDbXrecord
340
1A
  0
XRECORD
  5
37D
102
{ACAD_REACTORS
330
376
102
}
330
376
100
AcDbXrecord
 90
    10781
  0
XRECORD
  5
37C
102
{ACAD_REACTORS
330
376
102
}
330
376
100
AcDbXrecord
340
19
  0
XRECORD
  5
383
102
{ACAD_REACTORS
330
376
102
}
330
376
100
AcDbXrecord
 40
0.0
  0
XRECORD
  5
386
102
{ACAD_REACTORS
330
376
102
}
330
376
100
AcDbXrecord
340
0
  0
XRECORD
  5
38C
102
{ACAD_REACTORS
330
376
102
}
330
376
100
AcDbXrecord
 10
0.0
 20
0.0
 30
0.0
  0
XRECORD
  5
388
102
{ACAD_REACTORS
330
376
102
}
330
376
100
AcDbXrecord
 10
0.0
 20
0.0
 30
0.0
  0
XRECORD
  5
38B
102
{ACAD_REACTORS
330
376
102
}
330
376
100
AcDbXrecord
 10
0.0
 20
0.0
 30
0.0
  0
XRECORD
  5
389
102
{ACAD_REACTORS
330
376
102
}
330
376
100
AcDbXrecord
 10
0.0
 20
0.0
 30
0.0
  0
XRECORD
  5
38A
102
{ACAD_REACTORS
330
376
102
}
330
376
100
AcDbXrecord
 10
0.0
 20
0.0
 30
0.0
  0
XRECORD
  5
387
102
{ACAD_REACTORS
330
376
102
}
330
376
100
AcDbXrecord
 10
0.0
 20
0.0
 30
0.0
  0
XRECORD
  5
384
102
{ACAD_REACTORS
330
376
102
}
330
376
100
AcDbXrecord
340
0
  0
XRECORD
  5
385
102
{ACAD_REACTORS
330
376
102
}
330
376
100
AcDbXrecord
 70
     0
  0
XRECORD
  5
37A
102
{ACAD_REACTORS
330
376
102
}
330
376
100
AcDbXrecord
  1

  0
XRECORD
  5
377
102
{ACAD_REACTORS
330
376
102
}
330
376
100
AcDbXrecord
 90
        1
  0
XRECORD
  5
378
102
{ACAD_REACTORS
330
376
102
}
330
376
100
AcDbXrecord
 90
       70
  0
XRECORD
  5
38F
102
{ACAD_REACTORS
330
376
102
}
330
376
100
AcDbXrecord
340
0
  0
XRECORD
  5
395
102
{ACAD_REACTORS
330
376
102
}
330
376
100
AcDbXrecord
 10
0.0
 20
0.0
 30
0.0
  0
XRECORD
  5
391
102
{ACAD_REACTORS
330
376
102
}
330
376
100
AcDbXrecord
 10
0.0
 20
0.0
 30
0.0
  0
XRECORD
  5
394
102
{ACAD_REACTORS
330
376
102
}
330
376
100
AcDbXrecord
 10
0.0
 20
0.0
 30
0.0
  0
XRECORD
  5
392
102
{ACAD_REACTORS
330
376
102
}
330
376
100
AcDbXrecord
 10
0.0
 20
0.0
 30
0.0
  0
XRECORD
  5
393
102
{ACAD_REACTORS
330
376
102
}
330
376
100
AcDbXrecord
 10
0.0
 20
0.0
 30
0.0
  0
XRECORD
  5
390
102
{ACAD_REACTORS
330
376
102
}
330
376
100
AcDbXrecord
 10
0.0
 20
0.0
 30
0.0
  0
XRECORD
  5
38D
102
{ACAD_REACTORS
330
376
102
}
330
376
100
AcDbXrecord
340
0
  0
XRECORD
  5
38E
102
{ACAD_REACTORS
330
376
102
}
330
376
100
AcDbXrecord
 70
     0
  0
XRECORD
  5
382
102
{ACAD_REACTORS
330
376
102
}
330
376
100
AcDbXrecord
  1
{FAEB1C32-E019-11D5-929B-00C0DF256EC4}
  0
DICTIONARYVAR
  5
3A1
102
{ACAD_REACTORS
330
397
102
}
330
397
100
DictionaryVariables
280
     0
  1
1:1
  0
DICTIONARYVAR
  5
399
102
{ACAD_REACTORS
330
397
102
}
330
397
100
DictionaryVariables
280
     0
  1
Standard
  0
DICTIONARYVAR
  5
398
102
{ACAD_REACTORS
330
397
102
}
330
397
100
DictionaryVariables
280
     0
  1
Standard
  0
DICTIONARYVAR
  5
39C
102
{ACAD_REACTORS
330
397
102
}
330
397
100
DictionaryVariables
280
     0
  1
2
  0
DICTIONARYVAR
  5
39D
102
{ACAD_REACTORS
330
397
102
}
330
397
100
DictionaryVariables
280
     0
  1
1
  0
DICTIONARYVAR
  5
3A2
102
{ACAD_REACTORS
330
397
102
}
330
397
100
DictionaryVariables
280
     0
  1
1
  0
DICTIONARY
  5
3A5
330
45
100
AcDbDictionary
280
     1
  3
ACAD_XREC_ROUNDTRIP
360
3A6
  0
DICTIONARY
  5
3A3
330
44
100
AcDbDictionary
280
     1
  3
ACAD_XREC_ROUNDTRIP
360
3A4
  0
DICTIONARY
  5
3A7
330
46
100
AcDbDictionary
280
     1
  3
ACAD_XREC_ROUNDTRIP
360
3A8
  0
XRECORD
  5
3A6
102
{ACAD_REACTORS
330
3A5
102
}
330
3A5
100
AcDbXrecord
102
MATERIAL
148
0.0
149
0.0
149
0.0
 93
        0
 94
      127
282
     0
 72
     1
 77
     1
171
     1
175
     1
179
     1
273
     0
  0
XRECORD
  5
3A4
102
{ACAD_REACTORS
330
3A3
102
}
330
3A3
100
AcDbXrecord
102
MATERIAL
148
0.0
149
0.0
149
0.0
 93
        0
 94
      127
282
     0
 72
     1
 77
     1
171
     1
175
     1
179
     1
273
     0
  0
XRECORD
  5
3A8
102
{ACAD_REACTORS
330
3A7
102
}
330
3A7
100
AcDbXrecord
102
MATERIAL
148
0.0
149
0.0
149
0.0
 93
        0
 94
      127
282
     0
 72
     1
 77
     1
171
     1
175
     1
179
     1
273
     0
  0
ENDSEC
  0
EOF
