  0
SECTION
  2
HEADER
  9
$ACADVER
  1
AC1032
  9
$ACADMAINTVER
 90
      228
  9
$DWGCODEPAGE
  3
ANSI_1252
  9
$REQUIREDVERSIONS
160
                 0
  9
$INSBASE
 10
0.0
 20
0.0
 30
0.0
  9
$EXTMIN
 10
1.000000000000000E+20
 20
1.000000000000000E+20
 30
1.000000000000000E+20
  9
$EXTMAX
 10
-1.000000000000000E+20
 20
-1.000000000000000E+20
 30
-1.000000000000000E+20
  9
$LIMMIN
 10
0.0
 20
0.0
  9
$LIMMAX
 10
12.0
 20
9.0
  9
$ORTHOMODE
 70
     0
  9
$REGENMODE
 70
     1
  9
$FILLMODE
 70
     1
  9
$QTEXTMODE
 70
     0
  9
$MIRRTEXT
 70
     0
  9
$LTSCALE
 40
1.0
  9
$ATTMODE
 70
     1
  9
$TEXTSIZE
 40
0.2
  9
$TRACEWID
 40
0.05
  9
$TEXTSTYLE
  7
Standard
  9
$CLAYER
  8
0
  9
$CELTYPE
  6
ByLayer
  9
$CECOLOR
 62
   256
  9
$CELTSCALE
 40
1.0
  9
$DISPSILH
 70
     0
  9
$DIMSCALE
 40
1.0
  9
$DIMASZ
 40
0.18
  9
$DIMEXO
 40
0.0625
  9
$DIMDLI
 40
0.38
  9
$DIMRND
 40
0.0
  9
$DIMDLE
 40
0.0
  9
$DIMEXE
 40
0.18
  9
$DIMTP
 40
0.0
  9
$DIMTM
 40
0.0
  9
$DIMTXT
 40
0.18
  9
$DIMCEN
 40
0.09
  9
$DIMTSZ
 40
0.0
  9
$DIMTOL
 70
     0
  9
$DIMLIM
 70
     0
  9
$DIMTIH
 70
     1
  9
$DIMTOH
 70
     1
  9
$DIMSE1
 70
     0
  9
$DIMSE2
 70
     0
  9
$DIMTAD
 70
     0
  9
$DIMZIN
 70
     0
  9
$DIMBLK
  1

  9
$DIMASO
 70
     1
  9
$DIMSHO
 70
     1
  9
$DIMPOST
  1

  9
$DIMAPOST
  1

  9
$DIMALT
 70
     0
  9
$DIMALTD
 70
     2
  9
$DIMALTF
 40
25.4
  9
$DIMLFAC
 40
1.0
  9
$DIMTOFL
 70
     0
  9
$DIMTVP
 40
0.0
  9
$DIMTIX
 70
     0
  9
$DIMSOXD
 70
     0
  9
$DIMSAH
 70
     0
  9
$DIMBLK1
  1

  9
$DIMBLK2
  1

  9
$DIMSTYLE
  2
Standard
  9
$DIMCLRD
 70
     0
  9
$DIMCLRE
 70
     0
  9
$DIMCLRT
 70
     0
  9
$DIMTFAC
 40
1.0
  9
$DIMGAP
 40
0.09
  9
$DIMJUST
 70
     0
  9
$DIMSD1
 70
     0
  9
$DIMSD2
 70
     0
  9
$DIMTOLJ
 70
     1
  9
$DIMTZIN
 70
     0
  9
$DIMALTZ
 70
     0
  9
$DIMALTTZ
 70
     0
  9
$DIMUPT
 70
     0
  9
$DIMDEC
 70
     4
  9
$DIMTDEC
 70
     4
  9
$DIMALTU
 70
     2
  9
$DIMALTTD
 70
     2
  9
$DIMTXSTY
  7
Standard
  9
$DIMAUNIT
 70
     0
  9
$DIMADEC
 70
     0
  9
$DIMALTRND
 40
0.0
  9
$DIMAZIN
 70
     0
  9
$DIMDSEP
 70
    46
  9
$DIMATFIT
 70
     3
  9
$DIMFRAC
 70
     0
  9
$DIMLDRBLK
  1

  9
$DIMLUNIT
 70
     2
  9
$DIMLWD
 70
    -2
  9
$DIMLWE
 70
    -2
  9
$DIMTMOVE
 70
     0
  9
$DIMFXL
 40
1.0
  9
$DIMFXLON
 70
     0
  9
$DIMJOGANG
 40
0.7853981633974483
  9
$DIMTFILL
 70
     0
  9
$DIMTFILLCLR
 70
     0
  9
$DIMARCSYM
 70
     0
  9
$DIMLTYPE
  6

  9
$DIMLTEX1
  6

  9
$DIMLTEX2
  6

  9
$DIMTXTDIRECTION
 70
     0
  9
$LUNITS
 70
     2
  9
$LUPREC
 70
     4
  9
$SKETCHINC
 40
0.1
  9
$FILLETRAD
 40
0.0
  9
$AUNITS
 70
     0
  9
$AUPREC
 70
     0
  9
$MENU
  1
.
  9
$ELEVATION
 40
0.0
  9
$PELEVATION
 40
0.0
  9
$THICKNESS
 40
0.0
  9
$LIMCHECK
 70
     0
  9
$CHAMFERA
 40
0.0
  9
$CHAMFERB
 40
0.0
  9
$CHAMFERC
 40
0.0
  9
$CHAMFERD
 40
0.0
  9
$SKPOLY
 70
     0
  9
$TDCREATE
 40
2460174.748634259
  9
$TDUCREATE
 40
2460174.706967593
  9
$TDUPDATE
 40
2460174.748634259
  9
$TDUUPDATE
 40
2460174.706967593
  9
$TDINDWG
 40
0.0000000000
  9
$TDUSRTIMER
 40
0.0000000000
  9
$USRTIMER
 70
     1
  9
$ANGBASE
 50
0.0
  9
$ANGDIR
 70
     0
  9
$PDMODE
 70
     0
  9
$PDSIZE
 40
0.0
  9
$PLINEWID
 40
0.0
  9
$SPLFRAME
 70
     0
  9
$SPLINETYPE
 70
     6
  9
$SPLINESEGS
 70
     8
  9
$HANDSEED
  5
E0
  9
$SURFTAB1
 70
     6
  9
$SURFTAB2
 70
     6
  9
$SURFTYPE
 70
     6
  9
$SURFU
 70
     6
  9
$SURFV
 70
     6
  9
$UCSBASE
  2

  9
$UCSNAME
  2

  9
$UCSORG
 10
0.0
 20
0.0
 30
0.0
  9
$UCSXDIR
 10
1.0
 20
0.0
 30
0.0
  9
$UCSYDIR
 10
0.0
 20
1.0
 30
0.0
  9
$UCSORTHOREF
  2

  9
$UCSORTHOVIEW
 70
     0
  9
$UCSORGTOP
 10
0.0
 20
0.0
 30
0.0
  9
$UCSORGBOTTOM
 10
0.0
 20
0.0
 30
0.0
  9
$UCSORGLEFT
 10
0.0
 20
0.0
 30
0.0
  9
$UCSORGRIGHT
 10
0.0
 20
0.0
 30
0.0
  9
$UCSORGFRONT
 10
0.0
 20
0.0
 30
0.0
  9
$UCSORGBACK
 10
0.0
 20
0.0
 30
0.0
  9
$PUCSBASE
  2

  9
$PUCSNAME
  2

  9
$PUCSORG
 10
0.0
 20
0.0
 30
0.0
  9
$PUCSXDIR
 10
1.0
 20
0.0
 30
0.0
  9
$PUCSYDIR
 10
0.0
 20
1.0
 30
0.0
  9
$PUCSORTHOREF
  2

  9
$PUCSORTHOVIEW
 70
     0
  9
$PUCSORGTOP
 10
0.0
 20
0.0
 30
0.0
  9
$PUCSORGBOTTOM
 10
0.0
 20
0.0
 30
0.0
  9
$PUCSORGLEFT
 10
0.0
 20
0.0
 30
0.0
  9
$PUCSORGRIGHT
 10
0.0
 20
0.0
 30
0.0
  9
$PUCSORGFRONT
 10
0.0
 20
0.0
 30
0.0
  9
$PUCSORGBACK
 10
0.0
 20
0.0
 30
0.0
  9
$USERI1
 70
     0
  9
$USERI2
 70
     0
  9
$USERI3
 70
     0
  9
$USERI4
 70
     0
  9
$USERI5
 70
     0
  9
$USERR1
 40
0.0
  9
$USERR2
 40
0.0
  9
$USERR3
 40
0.0
  9
$USERR4
 40
0.0
  9
$USERR5
 40
0.0
  9
$WORLDVIEW
 70
     1
  9
$SHADEDGE
 70
     3
  9
$SHADEDIF
 70
    70
  9
$TILEMODE
 70
     1
  9
$MAXACTVP
 70
    64
  9
$PINSBASE
 10
0.0
 20
0.0
 30
0.0
  9
$PLIMCHECK
 70
     0
  9
$PEXTMIN
 10
1.000000000000000E+20
 20
1.000000000000000E+20
 30
1.000000000000000E+20
  9
$PEXTMAX
 10
-1.000000000000000E+20
 20
-1.000000000000000E+20
 30
-1.000000000000000E+20
  9
$PLIMMIN
 10
0.0
 20
0.0
  9
$PLIMMAX
 10
12.0
 20
9.0
  9
$UNITMODE
 70
     0
  9
$VISRETAIN
 70
     1
  9
$PLINEGEN
 70
     0
  9
$PSLTSCALE
 70
     1
  9
$TREEDEPTH
 70
  3020
  9
$CMLSTYLE
  2
Standard
  9
$CMLJUST
 70
     0
  9
$CMLSCALE
 40
1.0
  9
$PROXYGRAPHICS
 70
     1
  9
$MEASUREMENT
 70
     0
  9
$CELWEIGHT
370
    -1
  9
$ENDCAPS
280
     0
  9
$JOINSTYLE
280
     0
  9
$LWDISPLAY
290
     1
  9
$INSUNITS
 70
     4
  9
$HYPERLINKBASE
  1

  9
$STYLESHEET
  1

  9
$XEDIT
290
     1
  9
$CEPSNTYPE
380
     0
  9
$PSTYLEMODE
290
     1
  9
$FINGERPRINTGUID
  2
{D18E51B9-C78E-244D-8CAD-C5A645105CD1}
  9
$VERSIONGUID
  2
{97D583FF-F928-8749-9E7B-312C8F890706}
  9
$EXTNAMES
290
     1
  9
$PSVPSCALE
 40
0.0
  9
$OLESTARTUP
290
     0
  9
$SORTENTS
280
   127
  9
$INDEXCTL
280
     0
  9
$HIDETEXT
280
     1
  9
$XCLIPFRAME
280
     2
  9
$HALOGAP
280
     0
  9
$OBSCOLOR
 70
   257
  9
$OBSLTYPE
280
     0
  9
$INTERSECTIONDISPLAY
280
     0
  9
$INTERSECTIONCOLOR
 70
   257
  9
$DIMASSOC
280
     2
  9
$PROJECTNAME
  1

  9
$CAMERADISPLAY
290
     0
  9
$LENSLENGTH
 40
50.0
  9
$CAMERAHEIGHT
 40
0.0
  9
$STEPSPERSEC
 40
2.0
  9
$STEPSIZE
 40
6.0
  9
$3DDWFPREC
 40
2.0
  9
$PSOLWIDTH
 40
0.25
  9
$PSOLHEIGHT
 40
4.0
  9
$LOFTANG1
 40
1.570796326794896
  9
$LOFTANG2
 40
1.570796326794896
  9
$LOFTMAG1
 40
0.0
  9
$LOFTMAG2
 40
0.0
  9
$LOFTPARAM
 70
     7
  9
$LOFTNORMALS
280
     1
  9
$LATITUDE
 40
37.795
  9
$LONGITUDE
 40
-122.394
  9
$NORTHDIRECTION
 40
0.0
  9
$TIMEZONE
 70
 -8000
  9
$LIGHTGLYPHDISPLAY
280
     1
  9
$TILEMODELIGHTSYNCH
280
     1
  9
$CMATERIAL
347
11
  9
$SOLIDHIST
280
     0
  9
$SHOWHIST
280
     1
  9
$DWFFRAME
280
     2
  9
$DGNFRAME
280
     0
  9
$REALWORLDSCALE
290
     1
  9
$INTERFERECOLOR
 62
     1
  9
$INTERFEREOBJVS
345
33
  9
$INTERFEREVPVS
346
30
  9
$CSHADOW
280
     0
  9
$SHADOWPLANELOCATION
 40
0.0
  0
ENDSEC
  0
SECTION
  2
CLASSES
  0
CLASS
  1
ACDBDICTIONARYWDFLT
  2
AcDbDictionaryWithDefault
  3
ObjectDBX Classes
 90
        0
 91
        1
280
     0
281
     0
  0
CLASS
  1
MATERIAL
  2
AcDbMaterial
  3
ObjectDBX Classes
 90
     1153
 91
        3
280
     0
281
     0
  0
CLASS
  1
VISUALSTYLE
  2
AcDbVisualStyle
  3
ObjectDBX Classes
 90
     4095
 91
       24
280
     0
281
     0
  0
CLASS
  1
SCALE
  2
AcDbScale
  3
ObjectDBX Classes
 90
     1153
 91
       17
280
     0
281
     0
  0
CLASS
  1
TABLESTYLE
  2
AcDbTableStyle
  3
ObjectDBX Classes
 90
     4095
 91
        1
280
     0
281
     0
  0
CLASS
  1
MLEADERSTYLE
  2
AcDbMLeaderStyle
  3
ACDB_MLEADERSTYLE_CLASS
 90
     4095
 91
        1
280
     0
281
     0
  0
CLASS
  1
ACDBSECTIONVIEWSTYLE
  2
AcDbSectionViewStyle
  3
ObjectDBX Classes
 90
     1025
 91
        1
280
     0
281
     0
  0
CLASS
  1
ACDBDETAILVIEWSTYLE
  2
AcDbDetailViewStyle
  3
ObjectDBX Classes
 90
     1025
 91
        1
280
     0
281
     0
  0
CLASS
  1
DICTIONARYVAR
  2
AcDbDictionaryVar
  3
ObjectDBX Classes
 90
        0
 91
        5
280
     0
281
     0
  0
CLASS
  1
CELLSTYLEMAP
  2
AcDbCellStyleMap
  3
ObjectDBX Classes
 90
     1152
 91
        1
280
     0
281
     0
  0
ENDSEC
  0
SECTION
  2
TABLES
  0
TABLE
  2
VPORT
  5
8
330
0
100
AcDbSymbolTable
 70
     1
  0
VPORT
  5
57
330
8
100
AcDbSymbolTableRecord
100
AcDbViewportTableRecord
  2
*Active
 70
     0
 10
0.0
 20
0.0
 11
1.0
 21
1.0
 12
0.0
 22
0.0
 13
0.0
 23
0.0
 14
1.0
 24
1.0
 15
0.0
 25
0.0
 16
0.0
 26
0.0
 36
1.0
 17
49.99999998749986
 27
-49.99999998749986
 37
0.0
 40
101.9999999744997
 41
1.0
 42
50.0
 43
0.0
 44
0.0
 50
0.0
 51
0.0
 71
     0
 72
   100
 73
     1
 74
     1
 75
     0
 76
     0
 77
     0
 78
     0
281
     0
 65
     1
110
0.0
120
0.0
130
0.0
111
1.0
121
0.0
131
0.0
112
0.0
122
1.0
132
0.0
 79
     0
146
0.0
 60
     3
 61
     5
292
     1
282
     1
141
0.0
142
0.0
 63
   250
421
  3355443
  0
ENDTAB
  0
TABLE
  2
LTYPE
  5
5
330
0
100
AcDbSymbolTable
 70
     1
  0
LTYPE
  5
5B
330
5
100
AcDbSymbolTableRecord
100
AcDbLinetypeTableRecord
  2
ByBlock
 70
     0
  3

 72
    65
 73
     0
 40
0.0
  0
LTYPE
  5
5C
330
5
100
AcDbSymbolTableRecord
100
AcDbLinetypeTableRecord
  2
ByLayer
 70
     0
  3

 72
    65
 73
     0
 40
0.0
  0
LTYPE
  5
5D
330
5
100
AcDbSymbolTableRecord
100
AcDbLinetypeTableRecord
  2
Continuous
 70
     0
  3
Solid line
 72
    65
 73
     0
 40
0.0
  0
ENDTAB
  0
TABLE
  2
LAYER
  5
2
330
0
100
AcDbSymbolTable
 70
     2
  0
LAYER
  5
54
330
2
100
AcDbSymbolTableRecord
100
AcDbLayerTableRecord
  2
0
 70
     0
 62
     7
  6
Continuous
370
    -3
390
F
347
21
348
0
  0
LAYER
  5
78
330
2
100
AcDbSymbolTableRecord
100
AcDbLayerTableRecord
  2
Camada 1
 70
     0
 62
     7
  6
Continuous
370
     0
390
F
347
21
348
0
  0
ENDTAB
  0
TABLE
  2
STYLE
  5
3
330
0
100
AcDbSymbolTable
 70
     2
  0
STYLE
  5
55
330
3
100
AcDbSymbolTableRecord
100
AcDbTextStyleTableRecord
  2
Standard
 70
     0
 40
0.0
 41
1.0
 50
0.0
 71
     0
 42
0.2
  3
txt
  4

  0
STYLE
  5
5A
330
3
100
AcDbSymbolTableRecord
100
AcDbTextStyleTableRecord
  2
Annotative
 70
     0
 40
0.0
 41
1.0
 50
0.0
 71
     0
 42
0.2
  3
txt
  4

1001
AcadAnnotative
1000
AnnotativeData
1002
{
1070
     1
1070
     1
1002
}
  0
ENDTAB
  0
TABLE
  2
VIEW
  5
6
330
0
100
AcDbSymbolTable
 70
     0
  0
ENDTAB
  0
TABLE
  2
UCS
  5
7
330
0
100
AcDbSymbolTable
 70
     0
  0
ENDTAB
  0
TABLE
  2
APPID
  5
9
330
0
100
AcDbSymbolTable
 70
     2
  0
APPID
  5
56
330
9
100
AcDbSymbolTableRecord
100
AcDbRegAppTableRecord
  2
ACAD
 70
     0
  0
APPID
  5
5E
330
9
100
AcDbSymbolTableRecord
100
AcDbRegAppTableRecord
  2
AcadAnnotative
 70
     0
  0
ENDTAB
  0
TABLE
  2
DIMSTYLE
  5
A
330
0
100
AcDbSymbolTable
 70
     2
100
AcDbDimStyleTable
 71
     0
  0
DIMSTYLE
105
58
330
A
100
AcDbSymbolTableRecord
100
AcDbDimStyleTableRecord
  2
Standard
 70
     0
340
55
  0
DIMSTYLE
105
59
330
A
100
AcDbSymbolTableRecord
100
AcDbDimStyleTableRecord
  2
Annotative
 70
     0
340
55
1001
AcadAnnotative
1000
AnnotativeData
1002
{
1070
     1
1070
     1
1002
}
  0
ENDTAB
  0
TABLE
  2
BLOCK_RECORD
  5
1
330
0
100
AcDbSymbolTable
 70
     2
  0
BLOCK_RECORD
  5
70
330
1
100
AcDbSymbolTableRecord
100
AcDbBlockTableRecord
  2
*Model_Space
340
73
 70
     0
280
     1
281
     0
  0
BLOCK_RECORD
  5
6C
330
1
100
AcDbSymbolTableRecord
100
AcDbBlockTableRecord
  2
*Paper_Space
340
6F
 70
     0
280
     1
281
     0
  0
BLOCK_RECORD
  5
74
330
1
100
AcDbSymbolTableRecord
100
AcDbBlockTableRecord
  2
*Paper_Space0
340
77
 70
     0
280
     1
281
     0
  0
BLOCK_RECORD
  5
79
330
1
100
AcDbSymbolTableRecord
100
AcDbBlockTableRecord
  2
Block_0
340
0
102
{BLKREFS
331
7A
102
}
 70
     0
280
     1
281
     0
  0
ENDTAB
  0
ENDSEC
  0
SECTION
  2
BLOCKS
  0
BLOCK
  5
71
330
70
100
AcDbEntity
  8
0
100
AcDbBlockBegin
  2
*Model_Space
 70
     0
 10
0.0
 20
0.0
 30
0.0
  3
*Model_Space
  1

  0
ENDBLK
  5
72
330
70
100
AcDbEntity
  8
0
100
AcDbBlockEnd
  0
BLOCK
  5
6D
330
6C
100
AcDbEntity
 67
     1
  8
0
100
AcDbBlockBegin
  2
*Paper_Space
 70
     0
 10
0.0
 20
0.0
 30
0.0
  3
*Paper_Space
  1

  0
ENDBLK
  5
6E
330
6C
100
AcDbEntity
 67
     1
  8
0
100
AcDbBlockEnd
  0
BLOCK
  5
75
330
74
100
AcDbEntity
 67
     1
  8
0
100
AcDbBlockBegin
  2
*Paper_Space0
 70
     0
 10
0.0
 20
0.0
 30
0.0
  3
*Paper_Space0
  1

  0
ENDBLK
  5
76
330
74
100
AcDbEntity
 67
     1
  8
0
100
AcDbBlockEnd
  0
BLOCK
  5
7B
330
79
100
AcDbEntity
  8
0
100
AcDbBlockBegin
  2
Block_0
 70
     0
 10
0.0
 20
0.0
 30
0.0
  3
Block_0
  1

  0
SPLINE
  5
7D
330
79
100
AcDbEntity
  8
Camada 1
100
AcDbSpline
210
0.0
220
0.0
230
1.0
 70
     9
 71
     3
 72
    26
 73
    22
 74
     0
 42
0.0000000001
 43
0.0000000001
 40
0.0
 40
0.0
 40
0.0
 40
0.0
 40
1.0
 40
1.0
 40
1.0
 40
2.0
 40
2.0
 40
2.0
 40
3.0
 40
3.0
 40
3.0
 40
4.0
 40
4.0
 40
4.0
 40
5.0
 40
5.0
 40
5.0
 40
6.0
 40
6.0
 40
6.0
 40
7.0
 40
7.0
 40
7.0
 40
7.0
 10
63.26898566709575
 20
-44.9716426766438
 30
0.0
 10
63.22723267093056
 20
-44.9716426766438
 30
0.0
 10
63.18662723856398
 20
-44.94590757669812
 30
0.0
 10
63.17061370570511
 20
-44.90473054411239
 30
0.0
 10
63.17061370570511
 20
-44.90473054411239
 30
0.0
 10
62.25269356741677
 20
-42.5713188217503
 30
0.0
 10
62.25269356741677
 20
-42.5713188217503
 30
0.0
 10
62.23095966900501
 20
-42.51698625740201
 30
0.0
 10
62.25726636917046
 20
-42.45522070852357
 30
0.0
 10
62.31159893351875
 20
-42.43406059201174
 30
0.0
 10
62.36650309808648
 20
-42.41289829381943
 30
0.0
 10
62.42827082864476
 20
-42.43863557544559
 30
0.0
 10
62.44942876347675
 20
-42.49353755833285
 30
0.0
 10
62.44942876347675
 20
-42.49353755833285
 30
0.0
 10
63.36792486534487
 20
-44.82637768047582
 30
0.0
 10
63.36792486534487
 20
-44.82637768047582
 30
0.0
 10
63.38908716353717
 20
-44.88128184504324
 30
0.0
 10
63.3622044997926
 20
-44.94304739392166
 30
0.0
 10
63.30787193544431
 20
-44.96420969211398
 30
0.0
 10
63.2952923672612
 20
-44.96935627576696
 30
0.0
 10
63.28156523527886
 20
-44.9716426766438
 30
0.0
 10
63.26898566709575
 20
-44.9716426766438
 30
0.0
  0
HATCH
  5
7E
330
79
100
AcDbEntity
  8
Camada 1
 62
    28
420
  1184269
440
 33554687
100
AcDbHatch
 10
0.0
 20
0.0
 30
0.0
210
0.0
220
0.0
230
1.0
  2
SOLID
 70
     1
 71
     1
 91
        1
 92
        1
 93
        2
 72
     4
 94
        3
 73
     0
 74
     0
 95
       26
 96
       22
 40
0.0
 40
0.0
 40
0.0
 40
0.0
 40
1.0
 40
1.0
 40
1.0
 40
2.0
 40
2.0
 40
2.0
 40
3.0
 40
3.0
 40
3.0
 40
4.0
 40
4.0
 40
4.0
 40
5.0
 40
5.0
 40
5.0
 40
6.0
 40
6.0
 40
6.0
 40
7.0
 40
7.0
 40
7.0
 40
7.0
 10
63.26898566709575
 20
-44.9716426766438
 10
63.22723267093056
 20
-44.9716426766438
 10
63.18662723856398
 20
-44.94590757669812
 10
63.17061370570511
 20
-44.90473054411239
 10
63.17061370570511
 20
-44.90473054411239
 10
62.25269356741677
 20
-42.5713188217503
 10
62.25269356741677
 20
-42.5713188217503
 10
62.23095966900501
 20
-42.51698625740201
 10
62.25726636917046
 20
-42.45522070852357
 10
62.31159893351875
 20
-42.43406059201174
 10
62.36650309808648
 20
-42.41289829381943
 10
62.42827082864476
 20
-42.43863557544559
 10
62.44942876347675
 20
-42.49353755833285
 10
62.44942876347675
 20
-42.49353755833285
 10
63.36792486534487
 20
-44.82637768047582
 10
63.36792486534487
 20
-44.82637768047582
 10
63.38908716353717
 20
-44.88128184504324
 10
63.3622044997926
 20
-44.94304739392166
 10
63.30787193544431
 20
-44.96420969211398
 10
63.2952923672612
 20
-44.96935627576696
 10
63.28156523527886
 20
-44.9716426766438
 10
63.26898566709575
 20
-44.9716426766438
 97
        0
 72
     1
 10
63.26898566709574
 20
-44.97164267664381
 11
63.26898566709575
 21
-44.9716426766438
 97
        0
 75
     2
 76
     1
 98
        1
 10
0.0
 20
0.0
450
        0
451
        0
460
0.0
461
0.0
452
        0
462
0.0
453
        0
470

  0
SPLINE
  5
7F
330
79
100
AcDbEntity
  8
Camada 1
100
AcDbSpline
210
0.0
220
0.0
230
1.0
 70
     9
 71
     3
 72
    26
 73
    22
 74
     0
 42
0.0000000001
 43
0.0000000001
 40
0.0
 40
0.0
 40
0.0
 40
0.0
 40
1.0
 40
1.0
 40
1.0
 40
2.0
 40
2.0
 40
2.0
 40
3.0
 40
3.0
 40
3.0
 40
4.0
 40
4.0
 40
4.0
 40
5.0
 40
5.0
 40
5.0
 40
6.0
 40
6.0
 40
6.0
 40
7.0
 40
7.0
 40
7.0
 40
7.0
 10
66.21760503302812
 20
-43.81580376466863
 30
0.0
 10
66.17585203686295
 20
-43.81580376466863
 30
0.0
 10
66.13524660449636
 20
-43.79064026494208
 30
0.0
 10
66.11923307163749
 20
-43.74832003191778
 30
0.0
 10
66.11923307163749
 20
-43.74832003191778
 30
0.0
 10
65.20131293334916
 20
-41.40404354203027
 30
0.0
 10
65.20131293334916
 20
-41.40404354203027
 30
0.0
 10
65.17957903493739
 20
-41.34971097768199
 30
0.0
 10
65.20645733532164
 20
-41.28851484734252
 30
0.0
 10
65.26078989966993
 20
-41.26735691251085
 30
0.0
 10
65.31455086379941
 20
-41.24619461431854
 30
0.0
 10
65.37689019457713
 20
-41.27250131448366
 30
0.0
 10
65.39804812940913
 20
-41.3274054790514
 30
0.0
 10
65.39804812940913
 20
-41.3274054790514
 30
0.0
 10
66.31654423127725
 20
-43.67168196893891
 30
0.0
 10
66.31654423127725
 20
-43.67168196893891
 30
0.0
 10
66.33770652946956
 20
-43.7260145332872
 30
0.0
 10
66.31082386572498
 20
-43.78778008216563
 30
0.0
 10
66.25591970115724
 20
-43.80894238035795
 30
0.0
 10
66.24391173319357
 20
-43.81351736379179
 30
0.0
 10
66.23018460121123
 20
-43.81580376466863
 30
0.0
 10
66.21760503302812
 20
-43.81580376466863
 30
0.0
  0
HATCH
  5
80
330
79
100
AcDbEntity
  8
Camada 1
 62
    28
420
  1184269
440
 33554687
100
AcDbHatch
 10
0.0
 20
0.0
 30
0.0
210
0.0
220
0.0
230
1.0
  2
SOLID
 70
     1
 71
     1
 91
        1
 92
        1
 93
        2
 72
     4
 94
        3
 73
     0
 74
     0
 95
       26
 96
       22
 40
0.0
 40
0.0
 40
0.0
 40
0.0
 40
1.0
 40
1.0
 40
1.0
 40
2.0
 40
2.0
 40
2.0
 40
3.0
 40
3.0
 40
3.0
 40
4.0
 40
4.0
 40
4.0
 40
5.0
 40
5.0
 40
5.0
 40
6.0
 40
6.0
 40
6.0
 40
7.0
 40
7.0
 40
7.0
 40
7.0
 10
66.21760503302812
 20
-43.81580376466863
 10
66.17585203686295
 20
-43.81580376466863
 10
66.13524660449636
 20
-43.79064026494208
 10
66.11923307163749
 20
-43.74832003191778
 10
66.11923307163749
 20
-43.74832003191778
 10
65.20131293334916
 20
-41.40404354203027
 10
65.20131293334916
 20
-41.40404354203027
 10
65.17957903493739
 20
-41.34971097768199
 10
65.20645733532164
 20
-41.28851484734252
 10
65.26078989966993
 20
-41.26735691251085
 10
65.31455086379941
 20
-41.24619461431854
 10
65.37689019457713
 20
-41.27250131448366
 10
65.39804812940913
 20
-41.3274054790514
 10
65.39804812940913
 20
-41.3274054790514
 10
66.31654423127725
 20
-43.67168196893891
 10
66.31654423127725
 20
-43.67168196893891
 10
66.33770652946956
 20
-43.7260145332872
 10
66.31082386572498
 20
-43.78778008216563
 10
66.25591970115724
 20
-43.80894238035795
 10
66.24391173319357
 20
-43.81351736379179
 10
66.23018460121123
 20
-43.81580376466863
 10
66.21760503302812
 20
-43.81580376466863
 97
        0
 72
     1
 10
66.21760503302812
 20
-43.81580376466863
 11
66.21760503302812
 21
-43.81580376466863
 97
        0
 75
     2
 76
     1
 98
        1
 10
0.0
 20
0.0
450
        0
451
        0
460
0.0
461
0.0
452
        0
462
0.0
453
        0
470

  0
SPLINE
  5
81
330
79
100
AcDbEntity
  8
Camada 1
100
AcDbSpline
210
0.0
220
0.0
230
1.0
 70
     9
 71
     3
 72
    26
 73
    22
 74
     0
 42
0.0000000001
 43
0.0000000001
 40
0.0
 40
0.0
 40
0.0
 40
0.0
 40
1.0
 40
1.0
 40
1.0
 40
2.0
 40
2.0
 40
2.0
 40
3.0
 40
3.0
 40
3.0
 40
4.0
 40
4.0
 40
4.0
 40
5.0
 40
5.0
 40
5.0
 40
6.0
 40
6.0
 40
6.0
 40
7.0
 40
7.0
 40
7.0
 40
7.0
 10
62.35077754701688
 20
-42.63828985964789
 30
0.0
 10
62.3090245508517
 20
-42.63828985964789
 30
0.0
 10
62.26841911848574
 20
-42.61312635992135
 30
0.0
 10
62.25240558562688
 20
-42.5713777271165
 30
0.0
 10
62.25240558562688
 20
-42.5713777271165
 30
0.0
 10
61.35621498238871
 20
-40.292298569103
 30
0.0
 10
61.35621498238871
 20
-40.292298569103
 30
0.0
 10
61.3344854473379
 20
-40.23739440453526
 30
0.0
 10
61.36136374772217
 20
-40.17620263755644
 30
0.0
 10
61.41512471185164
 20
-40.154468739145
 30
0.0
 10
61.47002887641875
 20
-40.13330644095268
 30
0.0
 10
61.53179224361733
 20
-40.15961314111782
 30
0.0
 10
61.55238294159019
 20
-40.2139457054661
 30
0.0
 10
61.55238294159019
 20
-40.2139457054661
 30
0.0
 10
62.44971674526663
 20
-42.49359646369905
 30
0.0
 10
62.44971674526663
 20
-42.49359646369905
 30
0.0
 10
62.47087904345895
 20
-42.54792902804734
 30
0.0
 10
62.44399637971373
 20
-42.60912297670663
 30
0.0
 10
62.38966381536544
 20
-42.63085687511808
 30
0.0
 10
62.37708424718232
 20
-42.63600345877105
 30
0.0
 10
62.36335711520063
 20
-42.63828985964789
 30
0.0
 10
62.35077754701688
 20
-42.63828985964789
 30
0.0
  0
HATCH
  5
82
330
79
100
AcDbEntity
  8
Camada 1
 62
    28
420
  1184269
440
 33554687
100
AcDbHatch
 10
0.0
 20
0.0
 30
0.0
210
0.0
220
0.0
230
1.0
  2
SOLID
 70
     1
 71
     1
 91
        1
 92
        1
 93
        2
 72
     4
 94
        3
 73
     0
 74
     0
 95
       26
 96
       22
 40
0.0
 40
0.0
 40
0.0
 40
0.0
 40
1.0
 40
1.0
 40
1.0
 40
2.0
 40
2.0
 40
2.0
 40
3.0
 40
3.0
 40
3.0
 40
4.0
 40
4.0
 40
4.0
 40
5.0
 40
5.0
 40
5.0
 40
6.0
 40
6.0
 40
6.0
 40
7.0
 40
7.0
 40
7.0
 40
7.0
 10
62.35077754701688
 20
-42.63828985964789
 10
62.3090245508517
 20
-42.63828985964789
 10
62.26841911848574
 20
-42.61312635992135
 10
62.25240558562688
 20
-42.5713777271165
 10
62.25240558562688
 20
-42.5713777271165
 10
61.35621498238871
 20
-40.292298569103
 10
61.35621498238871
 20
-40.292298569103
 10
61.3344854473379
 20
-40.23739440453526
 10
61.36136374772217
 20
-40.17620263755644
 10
61.41512471185164
 20
-40.154468739145
 10
61.47002887641875
 20
-40.13330644095268
 10
61.53179224361733
 20
-40.15961314111782
 10
61.55238294159019
 20
-40.2139457054661
 10
61.55238294159019
 20
-40.2139457054661
 10
62.44971674526663
 20
-42.49359646369905
 10
62.44971674526663
 20
-42.49359646369905
 10
62.47087904345895
 20
-42.54792902804734
 10
62.44399637971373
 20
-42.60912297670663
 10
62.38966381536544
 20
-42.63085687511808
 10
62.37708424718232
 20
-42.63600345877105
 10
62.36335711520063
 20
-42.63828985964789
 10
62.35077754701688
 20
-42.63828985964789
 97
        0
 72
     1
 10
62.35077754701687
 20
-42.6382898596479
 11
62.35077754701688
 21
-42.63828985964789
 97
        0
 75
     2
 76
     1
 98
        1
 10
0.0
 20
0.0
450
        0
451
        0
460
0.0
461
0.0
452
        0
462
0.0
453
        0
470

  0
SPLINE
  5
83
330
79
100
AcDbEntity
  8
Camada 1
100
AcDbSpline
210
0.0
220
0.0
230
1.0
 70
     9
 71
     3
 72
    26
 73
    22
 74
     0
 42
0.0000000001
 43
0.0000000001
 40
0.0
 40
0.0
 40
0.0
 40
0.0
 40
1.0
 40
1.0
 40
1.0
 40
2.0
 40
2.0
 40
2.0
 40
3.0
 40
3.0
 40
3.0
 40
4.0
 40
4.0
 40
4.0
 40
5.0
 40
5.0
 40
5.0
 40
6.0
 40
6.0
 40
6.0
 40
7.0
 40
7.0
 40
7.0
 40
7.0
 10
65.29974161842517
 20
-41.47186761689641
 30
0.0
 10
65.25741702204055
 20
-41.47186761689641
 30
0.0
 10
65.21738318989341
 20
-41.44670411716955
 30
0.0
 10
65.20136965703454
 20
-41.40495548436501
 30
0.0
 10
65.20136965703454
 20
-41.40495548436501
 30
0.0
 10
64.30460745357756
 20
-39.13616949365748
 30
0.0
 10
64.30460745357756
 20
-39.13616949365748
 30
0.0
 10
64.2834495187462
 20
-39.08241289288895
 30
0.0
 10
64.30975621891102
 20
-39.02064516233005
 30
0.0
 10
64.36408878325931
 20
-38.9989112639186
 30
0.0
 10
64.41899294782705
 20
-38.97774896572661
 30
0.0
 10
64.48018471480619
 20
-39.00463162947119
 30
0.0
 10
64.50134701299849
 20
-39.0589641938198
 30
0.0
 10
64.50134701299849
 20
-39.0589641938198
 30
0.0
 10
65.3981092164555
 20
-41.32660262072811
 30
0.0
 10
65.3981092164555
 20
-41.32660262072811
 30
0.0
 10
65.4192715146478
 20
-41.38093518507672
 30
0.0
 10
65.39353205134148
 20
-41.44327451585445
 30
0.0
 10
65.33862788677375
 20
-41.46443681404675
 30
0.0
 10
65.32604831859062
 20
-41.46958121601957
 30
0.0
 10
65.31232118660828
 20
-41.47186761689641
 30
0.0
 10
65.29974161842517
 20
-41.47186761689641
 30
0.0
  0
HATCH
  5
84
330
79
100
AcDbEntity
  8
Camada 1
 62
    28
420
  1184269
440
 33554687
100
AcDbHatch
 10
0.0
 20
0.0
 30
0.0
210
0.0
220
0.0
230
1.0
  2
SOLID
 70
     1
 71
     1
 91
        1
 92
        1
 93
        2
 72
     4
 94
        3
 73
     0
 74
     0
 95
       26
 96
       22
 40
0.0
 40
0.0
 40
0.0
 40
0.0
 40
1.0
 40
1.0
 40
1.0
 40
2.0
 40
2.0
 40
2.0
 40
3.0
 40
3.0
 40
3.0
 40
4.0
 40
4.0
 40
4.0
 40
5.0
 40
5.0
 40
5.0
 40
6.0
 40
6.0
 40
6.0
 40
7.0
 40
7.0
 40
7.0
 40
7.0
 10
65.29974161842517
 20
-41.47186761689641
 10
65.25741702204055
 20
-41.47186761689641
 10
65.21738318989341
 20
-41.44670411716955
 10
65.20136965703454
 20
-41.40495548436501
 10
65.20136965703454
 20
-41.40495548436501
 10
64.30460745357756
 20
-39.13616949365748
 10
64.30460745357756
 20
-39.13616949365748
 10
64.2834495187462
 20
-39.08241289288895
 10
64.30975621891102
 20
-39.02064516233005
 10
64.36408878325931
 20
-38.9989112639186
 10
64.41899294782705
 20
-38.97774896572661
 10
64.48018471480619
 20
-39.00463162947119
 10
64.50134701299849
 20
-39.0589641938198
 10
64.50134701299849
 20
-39.0589641938198
 10
65.3981092164555
 20
-41.32660262072811
 10
65.3981092164555
 20
-41.32660262072811
 10
65.4192715146478
 20
-41.38093518507672
 10
65.39353205134148
 20
-41.44327451585445
 10
65.33862788677375
 20
-41.46443681404675
 10
65.32604831859062
 20
-41.46958121601957
 10
65.31232118660828
 20
-41.47186761689641
 10
65.29974161842517
 20
-41.47186761689641
 97
        0
 72
     1
 10
65.29974161842517
 20
-41.47186761689641
 11
65.29974161842517
 21
-41.47186761689641
 97
        0
 75
     2
 76
     1
 98
        1
 10
0.0
 20
0.0
450
        0
451
        0
460
0.0
461
0.0
452
        0
462
0.0
453
        0
470

  0
SPLINE
  5
85
330
79
100
AcDbEntity
  8
Camada 1
100
AcDbSpline
210
0.0
220
0.0
230
1.0
 70
     9
 71
     3
 72
    68
 73
    64
 74
     0
 42
0.0000000001
 43
0.0000000001
 40
0.0
 40
0.0
 40
0.0
 40
0.0
 40
1.0
 40
1.0
 40
1.0
 40
2.0
 40
2.0
 40
2.0
 40
3.0
 40
3.0
 40
3.0
 40
4.0
 40
4.0
 40
4.0
 40
5.0
 40
5.0
 40
5.0
 40
6.0
 40
6.0
 40
6.0
 40
7.0
 40
7.0
 40
7.0
 40
8.0
 40
8.0
 40
8.0
 40
9.0
 40
9.0
 40
9.0
 40
10.0
 40
10.0
 40
10.0
 40
11.0
 40
11.0
 40
11.0
 40
12.0
 40
12.0
 40
12.0
 40
13.0
 40
13.0
 40
13.0
 40
14.0
 40
14.0
 40
14.0
 40
15.0
 40
15.0
 40
15.0
 40
16.0
 40
16.0
 40
16.0
 40
17.0
 40
17.0
 40
17.0
 40
18.0
 40
18.0
 40
18.0
 40
19.0
 40
19.0
 40
19.0
 40
20.0
 40
20.0
 40
20.0
 40
21.0
 40
21.0
 40
21.0
 40
21.0
 10
39.65629951297856
 20
-44.4964378165366
 30
0.0
 10
39.65629951297856
 20
-44.4964378165366
 30
0.0
 10
39.6528677299833
 20
-44.4964378165366
 30
0.0
 10
39.6528677299833
 20
-44.4964378165366
 30
0.0
 10
39.59453178241966
 20
-44.49415141565976
 30
0.0
 10
39.54877867556048
 20
-44.44553921686406
 30
0.0
 10
39.54992296683899
 20
-44.38720326930105
 30
0.0
 10
39.54992296683899
 20
-44.38720326930105
 30
0.0
 10
39.57222737462932
 20
-43.7174907086442
 30
0.0
 10
39.57222737462932
 20
-43.7174907086442
 30
0.0
 10
39.57222737462932
 20
-43.7174907086442
 30
0.0
 10
39.62598724791856
 20
-43.0323383970281
 30
0.0
 10
39.62598724791856
 20
-43.0323383970281
 30
0.0
 10
40.21048446978759
 20
-38.30661176788241
 30
0.0
 10
43.55675432715291
 20
-34.50680986177433
 30
0.0
 10
48.15265789277068
 20
-33.34582436614619
 30
0.0
 10
48.15265789277068
 20
-33.34582436614619
 30
0.0
 10
48.81436368699778
 20
-33.19369580398671
 30
0.0
 10
48.81436368699778
 20
-33.19369580398671
 30
0.0
 10
48.81436368699778
 20
-33.19369580398671
 30
0.0
 10
49.49036603174555
 20
-33.08388747485156
 30
0.0
 10
49.49036603174555
 20
-33.08388747485156
 30
0.0
 10
54.20580167526577
 20
-32.50053672594119
 30
0.0
 10
58.71019902716327
 20
-34.80935218543524
 30
0.0
 10
60.97497945297593
 20
-38.97117338152533
 30
0.0
 10
60.97497945297593
 20
-38.97117338152533
 30
0.0
 10
61.27923657729423
 20
-39.59112836126742
 30
0.0
 10
61.27923657729423
 20
-39.59112836126742
 30
0.0
 10
61.27923657729423
 20
-39.59112836126742
 30
0.0
 10
61.55089503567601
 20
-40.21051174079036
 30
0.0
 10
61.55089503567601
 20
-40.21051174079036
 30
0.0
 10
61.57491533496429
 20
-40.26427270491953
 30
0.0
 10
61.55032343545656
 20
-40.32718363591669
 30
0.0
 10
61.49713407154653
 20
-40.35006073476671
 30
0.0
 10
61.44222990697943
 20
-40.37408103405501
 30
0.0
 10
61.38103814000029
 20
-40.34948913454726
 30
0.0
 10
61.357017840712
 20
-40.29629977063724
 30
0.0
 10
61.357017840712
 20
-40.29629977063724
 30
0.0
 10
61.08707418298794
 20
-39.68035035579003
 30
0.0
 10
61.08707418298794
 20
-39.68035035579003
 30
0.0
 10
61.08707418298794
 20
-39.68035035579003
 30
0.0
 10
60.78681826020388
 20
-39.06840214247738
 30
0.0
 10
60.78681826020388
 20
-39.06840214247738
 30
0.0
 10
58.56664664997253
 20
-34.98893501155873
 30
0.0
 10
54.14517714514513
 20
-32.71729101975522
 30
0.0
 10
49.52067829680619
 20
-33.29378256603506
 30
0.0
 10
49.52067829680619
 20
-33.29378256603506
 30
0.0
 10
48.85439751914493
 20
-33.40130013093274
 30
0.0
 10
48.85439751914493
 20
-33.40130013093274
 30
0.0
 10
48.85439751914493
 20
-33.40130013093274
 30
0.0
 10
48.201843873466
 20
-33.55171389243449
 30
0.0
 10
48.201843873466
 20
-33.55171389243449
 30
0.0
 10
43.69515793901085
 20
-34.69039388943239
 30
0.0
 10
40.40951043008504
 20
-38.42042129855213
 30
0.0
 10
39.83645175764071
 20
-43.05349851354026
 30
0.0
 10
39.83645175764071
 20
-43.05349851354026
 30
0.0
 10
39.78326348457093
 20
-43.72892925806922
 30
0.0
 10
39.78326348457093
 20
-43.72892925806922
 30
0.0
 10
39.78326348457093
 20
-43.72892925806922
 30
0.0
 10
39.7626749682779
 20
-44.3940668352919
 30
0.0
 10
39.7626749682779
 20
-44.3940668352919
 30
0.0
 10
39.75981587634168
 20
-44.45125740073648
 30
0.0
 10
39.71349007842283
 20
-44.4964378165366
 30
0.0
 10
39.65629951297856
 20
-44.4964378165366
 30
0.0
  0
HATCH
  5
86
330
79
100
AcDbEntity
  8
Camada 1
 62
    28
420
  1184269
440
 33554687
100
AcDbHatch
 10
0.0
 20
0.0
 30
0.0
210
0.0
220
0.0
230
1.0
  2
SOLID
 70
     1
 71
     1
 91
        1
 92
        1
 93
        2
 72
     4
 94
        3
 73
     0
 74
     0
 95
       68
 96
       64
 40
0.0
 40
0.0
 40
0.0
 40
0.0
 40
1.0
 40
1.0
 40
1.0
 40
2.0
 40
2.0
 40
2.0
 40
3.0
 40
3.0
 40
3.0
 40
4.0
 40
4.0
 40
4.0
 40
5.0
 40
5.0
 40
5.0
 40
6.0
 40
6.0
 40
6.0
 40
7.0
 40
7.0
 40
7.0
 40
8.0
 40
8.0
 40
8.0
 40
9.0
 40
9.0
 40
9.0
 40
10.0
 40
10.0
 40
10.0
 40
11.0
 40
11.0
 40
11.0
 40
12.0
 40
12.0
 40
12.0
 40
13.0
 40
13.0
 40
13.0
 40
14.0
 40
14.0
 40
14.0
 40
15.0
 40
15.0
 40
15.0
 40
16.0
 40
16.0
 40
16.0
 40
17.0
 40
17.0
 40
17.0
 40
18.0
 40
18.0
 40
18.0
 40
19.0
 40
19.0
 40
19.0
 40
20.0
 40
20.0
 40
20.0
 40
21.0
 40
21.0
 40
21.0
 40
21.0
 10
39.65629951297856
 20
-44.4964378165366
 10
39.65629951297856
 20
-44.4964378165366
 10
39.6528677299833
 20
-44.4964378165366
 10
39.6528677299833
 20
-44.4964378165366
 10
39.59453178241966
 20
-44.49415141565976
 10
39.54877867556048
 20
-44.44553921686406
 10
39.54992296683899
 20
-44.38720326930105
 10
39.54992296683899
 20
-44.38720326930105
 10
39.57222737462932
 20
-43.7174907086442
 10
39.57222737462932
 20
-43.7174907086442
 10
39.57222737462932
 20
-43.7174907086442
 10
39.62598724791856
 20
-43.0323383970281
 10
39.62598724791856
 20
-43.0323383970281
 10
40.21048446978759
 20
-38.30661176788241
 10
43.55675432715291
 20
-34.50680986177433
 10
48.15265789277068
 20
-33.34582436614619
 10
48.15265789277068
 20
-33.34582436614619
 10
48.81436368699778
 20
-33.19369580398671
 10
48.81436368699778
 20
-33.19369580398671
 10
48.81436368699778
 20
-33.19369580398671
 10
49.49036603174555
 20
-33.08388747485156
 10
49.49036603174555
 20
-33.08388747485156
 10
54.20580167526577
 20
-32.50053672594119
 10
58.71019902716327
 20
-34.80935218543524
 10
60.97497945297593
 20
-38.97117338152533
 10
60.97497945297593
 20
-38.97117338152533
 10
61.27923657729423
 20
-39.59112836126742
 10
61.27923657729423
 20
-39.59112836126742
 10
61.27923657729423
 20
-39.59112836126742
 10
61.55089503567601
 20
-40.21051174079036
 10
61.55089503567601
 20
-40.21051174079036
 10
61.57491533496429
 20
-40.26427270491953
 10
61.55032343545656
 20
-40.32718363591669
 10
61.49713407154653
 20
-40.35006073476671
 10
61.44222990697943
 20
-40.37408103405501
 10
61.38103814000029
 20
-40.34948913454726
 10
61.357017840712
 20
-40.29629977063724
 10
61.357017840712
 20
-40.29629977063724
 10
61.08707418298794
 20
-39.68035035579003
 10
61.08707418298794
 20
-39.68035035579003
 10
61.08707418298794
 20
-39.68035035579003
 10
60.78681826020388
 20
-39.06840214247738
 10
60.78681826020388
 20
-39.06840214247738
 10
58.56664664997253
 20
-34.98893501155873
 10
54.14517714514513
 20
-32.71729101975522
 10
49.52067829680619
 20
-33.29378256603506
 10
49.52067829680619
 20
-33.29378256603506
 10
48.85439751914493
 20
-33.40130013093274
 10
48.85439751914493
 20
-33.40130013093274
 10
48.85439751914493
 20
-33.40130013093274
 10
48.201843873466
 20
-33.55171389243449
 10
48.201843873466
 20
-33.55171389243449
 10
43.69515793901085
 20
-34.69039388943239
 10
40.40951043008504
 20
-38.42042129855213
 10
39.83645175764071
 20
-43.05349851354026
 10
39.83645175764071
 20
-43.05349851354026
 10
39.78326348457093
 20
-43.72892925806922
 10
39.78326348457093
 20
-43.72892925806922
 10
39.78326348457093
 20
-43.72892925806922
 10
39.7626749682779
 20
-44.3940668352919
 10
39.7626749682779
 20
-44.3940668352919
 10
39.75981587634168
 20
-44.45125740073648
 10
39.71349007842283
 20
-44.4964378165366
 10
39.65629951297856
 20
-44.4964378165366
 97
        0
 72
     1
 10
39.65629951297856
 20
-44.4964378165366
 11
39.65629951297856
 21
-44.4964378165366
 97
        0
 75
     2
 76
     1
 98
        1
 10
0.0
 20
0.0
450
        0
451
        0
460
0.0
461
0.0
452
        0
462
0.0
453
        0
470

  0
SPLINE
  5
87
330
79
100
AcDbEntity
  8
Camada 1
100
AcDbSpline
210
0.0
220
0.0
230
1.0
 70
     9
 71
     3
 72
    68
 73
    64
 74
     0
 42
0.0000000001
 43
0.0000000001
 40
0.0
 40
0.0
 40
0.0
 40
0.0
 40
1.0
 40
1.0
 40
1.0
 40
2.0
 40
2.0
 40
2.0
 40
3.0
 40
3.0
 40
3.0
 40
4.0
 40
4.0
 40
4.0
 40
5.0
 40
5.0
 40
5.0
 40
6.0
 40
6.0
 40
6.0
 40
7.0
 40
7.0
 40
7.0
 40
8.0
 40
8.0
 40
8.0
 40
9.0
 40
9.0
 40
9.0
 40
10.0
 40
10.0
 40
10.0
 40
11.0
 40
11.0
 40
11.0
 40
12.0
 40
12.0
 40
12.0
 40
13.0
 40
13.0
 40
13.0
 40
14.0
 40
14.0
 40
14.0
 40
15.0
 40
15.0
 40
15.0
 40
16.0
 40
16.0
 40
16.0
 40
17.0
 40
17.0
 40
17.0
 40
18.0
 40
18.0
 40
18.0
 40
19.0
 40
19.0
 40
19.0
 40
20.0
 40
20.0
 40
20.0
 40
21.0
 40
21.0
 40
21.0
 40
21.0
 10
36.48057378055968
 20
-44.4964378165366
 30
0.0
 10
36.48057378055968
 20
-44.4964378165366
 30
0.0
 10
36.47771359778323
 20
-44.4964378165366
 30
0.0
 10
36.47771359778323
 20
-44.4964378165366
 30
0.0
 10
36.41880605000141
 20
-44.49472301587889
 30
0.0
 10
36.3730529431416
 20
-44.44611081708319
 30
0.0
 10
36.37419723442011
 20
-44.38777486952019
 30
0.0
 10
36.37419723442011
 20
-44.38777486952019
 30
0.0
 10
36.39650164221044
 20
-43.60997096206604
 30
0.0
 10
36.39650164221044
 20
-43.60997096206604
 30
0.0
 10
36.39650164221044
 20
-43.60997096206604
 30
0.0
 10
36.46112846470556
 20
-42.81558192153392
 30
0.0
 10
36.46112846470556
 20
-42.81558192153392
 30
0.0
 10
37.14685346738071
 20
-36.57599829196528
 30
0.0
 10
41.72045262520749
 20
-31.49053659203361
 30
0.0
 10
47.84336763217085
 20
-30.15854663693053
 30
0.0
 10
47.84336763217085
 20
-30.15854663693053
 30
0.0
 10
48.61316477319524
 20
-30.01671124207766
 30
0.0
 10
48.61316477319524
 20
-30.01671124207766
 30
0.0
 10
48.61316477319524
 20
-30.01671124207766
 30
0.0
 10
49.39611526430203
 20
-29.90804611338075
 30
0.0
 10
49.39611526430203
 20
-29.90804611338075
 30
0.0
 10
55.36976080104182
 20
-29.29266829875299
 30
0.0
 10
61.04086183244053
 20
-32.31580513448456
 30
0.0
 10
63.8483919381576
 20
-37.62145509290568
 30
0.0
 10
63.8483919381576
 20
-37.62145509290568
 30
0.0
 10
64.19554089571902
 20
-38.3266265022755
 30
0.0
 10
64.19554089571902
 20
-38.3266265022755
 30
0.0
 10
64.19554089571902
 20
-38.3266265022755
 30
0.0
 10
64.50037398361772
 20
-39.05638981115307
 30
0.0
 10
64.50037398361772
 20
-39.05638981115307
 30
0.0
 10
64.52382268268656
 20
-39.11072237550136
 30
0.0
 10
64.49808321938023
 20
-39.17249010605995
 30
0.0
 10
64.44432661861171
 20
-39.19536720490997
 30
0.0
 10
64.38942245404398
 20
-39.21938750419826
 30
0.0
 10
64.32765472348506
 20
-39.19250484045336
 30
0.0
 10
64.30534922485449
 20
-39.13874387632421
 30
0.0
 10
64.30534922485449
 20
-39.13874387632421
 30
0.0
 10
64.00337850141273
 20
-38.41412933278009
 30
0.0
 10
64.00337850141273
 20
-38.41412933278009
 30
0.0
 10
64.00337850141273
 20
-38.41412933278009
 30
0.0
 10
63.65965914516609
 20
-37.71811225363859
 30
0.0
 10
63.65965914516609
 20
-37.71811225363859
 30
0.0
 10
60.89445363583428
 20
-32.49195835929263
 30
0.0
 10
55.30684987004528
 20
-29.50542139103247
 30
0.0
 10
49.42070716380977
 20
-30.11851280478339
 30
0.0
 10
49.42070716380977
 20
-30.11851280478339
 30
0.0
 10
48.6469088212505
 20
-30.22603036968139
 30
0.0
 10
48.6469088212505
 20
-30.22603036968139
 30
0.0
 10
48.6469088212505
 20
-30.22603036968139
 30
0.0
 10
47.8839730645368
 20
-30.36615096387687
 30
0.0
 10
47.8839730645368
 20
-30.36615096387687
 30
0.0
 10
41.85428125363126
 20
-31.67869342144535
 30
0.0
 10
37.34759531917613
 20
-36.689807822635
 30
0.0
 10
36.67159297442771
 20
-42.83559883760749
 30
0.0
 10
36.67159297442771
 20
-42.83559883760749
 30
0.0
 10
36.60811044321174
 20
-43.62083791127193
 30
0.0
 10
36.60811044321174
 20
-43.62083791127193
 30
0.0
 10
36.60811044321174
 20
-43.62083791127193
 30
0.0
 10
36.58694923585966
 20
-44.39349523507277
 30
0.0
 10
36.58694923585966
 20
-44.39349523507277
 30
0.0
 10
36.58466174414226
 20
-44.45068580051703
 30
0.0
 10
36.53776434600459
 20
-44.4964378165366
 30
0.0
 10
36.48057378055968
 20
-44.4964378165366
 30
0.0
  0
HATCH
  5
88
330
79
100
AcDbEntity
  8
Camada 1
 62
    28
420
  1184269
440
 33554687
100
AcDbHatch
 10
0.0
 20
0.0
 30
0.0
210
0.0
220
0.0
230
1.0
  2
SOLID
 70
     1
 71
     1
 91
        1
 92
        1
 93
        2
 72
     4
 94
        3
 73
     0
 74
     0
 95
       68
 96
       64
 40
0.0
 40
0.0
 40
0.0
 40
0.0
 40
1.0
 40
1.0
 40
1.0
 40
2.0
 40
2.0
 40
2.0
 40
3.0
 40
3.0
 40
3.0
 40
4.0
 40
4.0
 40
4.0
 40
5.0
 40
5.0
 40
5.0
 40
6.0
 40
6.0
 40
6.0
 40
7.0
 40
7.0
 40
7.0
 40
8.0
 40
8.0
 40
8.0
 40
9.0
 40
9.0
 40
9.0
 40
10.0
 40
10.0
 40
10.0
 40
11.0
 40
11.0
 40
11.0
 40
12.0
 40
12.0
 40
12.0
 40
13.0
 40
13.0
 40
13.0
 40
14.0
 40
14.0
 40
14.0
 40
15.0
 40
15.0
 40
15.0
 40
16.0
 40
16.0
 40
16.0
 40
17.0
 40
17.0
 40
17.0
 40
18.0
 40
18.0
 40
18.0
 40
19.0
 40
19.0
 40
19.0
 40
20.0
 40
20.0
 40
20.0
 40
21.0
 40
21.0
 40
21.0
 40
21.0
 10
36.48057378055968
 20
-44.4964378165366
 10
36.48057378055968
 20
-44.4964378165366
 10
36.47771359778323
 20
-44.4964378165366
 10
36.47771359778323
 20
-44.4964378165366
 10
36.41880605000141
 20
-44.49472301587889
 10
36.3730529431416
 20
-44.44611081708319
 10
36.37419723442011
 20
-44.38777486952019
 10
36.37419723442011
 20
-44.38777486952019
 10
36.39650164221044
 20
-43.60997096206604
 10
36.39650164221044
 20
-43.60997096206604
 10
36.39650164221044
 20
-43.60997096206604
 10
36.46112846470556
 20
-42.81558192153392
 10
36.46112846470556
 20
-42.81558192153392
 10
37.14685346738071
 20
-36.57599829196528
 10
41.72045262520749
 20
-31.49053659203361
 10
47.84336763217085
 20
-30.15854663693053
 10
47.84336763217085
 20
-30.15854663693053
 10
48.61316477319524
 20
-30.01671124207766
 10
48.61316477319524
 20
-30.01671124207766
 10
48.61316477319524
 20
-30.01671124207766
 10
49.39611526430203
 20
-29.90804611338075
 10
49.39611526430203
 20
-29.90804611338075
 10
55.36976080104182
 20
-29.29266829875299
 10
61.04086183244053
 20
-32.31580513448456
 10
63.8483919381576
 20
-37.62145509290568
 10
63.8483919381576
 20
-37.62145509290568
 10
64.19554089571902
 20
-38.3266265022755
 10
64.19554089571902
 20
-38.3266265022755
 10
64.19554089571902
 20
-38.3266265022755
 10
64.50037398361772
 20
-39.05638981115307
 10
64.50037398361772
 20
-39.05638981115307
 10
64.52382268268656
 20
-39.11072237550136
 10
64.49808321938023
 20
-39.17249010605995
 10
64.44432661861171
 20
-39.19536720490997
 10
64.38942245404398
 20
-39.21938750419826
 10
64.32765472348506
 20
-39.19250484045336
 10
64.30534922485449
 20
-39.13874387632421
 10
64.30534922485449
 20
-39.13874387632421
 10
64.00337850141273
 20
-38.41412933278009
 10
64.00337850141273
 20
-38.41412933278009
 10
64.00337850141273
 20
-38.41412933278009
 10
63.65965914516609
 20
-37.71811225363859
 10
63.65965914516609
 20
-37.71811225363859
 10
60.89445363583428
 20
-32.49195835929263
 10
55.30684987004528
 20
-29.50542139103247
 10
49.42070716380977
 20
-30.11851280478339
 10
49.42070716380977
 20
-30.11851280478339
 10
48.6469088212505
 20
-30.22603036968139
 10
48.6469088212505
 20
-30.22603036968139
 10
48.6469088212505
 20
-30.22603036968139
 10
47.8839730645368
 20
-30.36615096387687
 10
47.8839730645368
 20
-30.36615096387687
 10
41.85428125363126
 20
-31.67869342144535
 10
37.34759531917613
 20
-36.689807822635
 10
36.67159297442771
 20
-42.83559883760749
 10
36.67159297442771
 20
-42.83559883760749
 10
36.60811044321174
 20
-43.62083791127193
 10
36.60811044321174
 20
-43.62083791127193
 10
36.60811044321174
 20
-43.62083791127193
 10
36.58694923585966
 20
-44.39349523507277
 10
36.58694923585966
 20
-44.39349523507277
 10
36.58466174414226
 20
-44.45068580051703
 10
36.53776434600459
 20
-44.4964378165366
 10
36.48057378055968
 20
-44.4964378165366
 97
        0
 72
     1
 10
36.48057378055967
 20
-44.4964378165366
 11
36.48057378055968
 21
-44.4964378165366
 97
        0
 75
     2
 76
     1
 98
        1
 10
0.0
 20
0.0
450
        0
451
        0
460
0.0
461
0.0
452
        0
462
0.0
453
        0
470

  0
SPLINE
  5
89
330
79
100
AcDbEntity
  8
Camada 1
100
AcDbSpline
210
0.0
220
0.0
230
1.0
 70
     9
 71
     3
 72
    23
 73
    19
 74
     0
 42
0.0000000001
 43
0.0000000001
 40
0.0
 40
0.0
 40
0.0
 40
0.0
 40
1.0
 40
1.0
 40
1.0
 40
2.0
 40
2.0
 40
2.0
 40
3.0
 40
3.0
 40
3.0
 40
4.0
 40
4.0
 40
4.0
 40
5.0
 40
5.0
 40
5.0
 40
6.0
 40
6.0
 40
6.0
 40
6.0
 10
39.65629951297856
 20
-66.47773876561654
 30
0.0
 10
39.59739196519611
 20
-66.47773876561654
 30
0.0
 10
39.54992296683899
 20
-66.43027085809966
 30
0.0
 10
39.54992296683899
 20
-66.37136331031657
 30
0.0
 10
39.54992296683899
 20
-66.37136331031657
 30
0.0
 10
39.54992296683899
 20
-44.39040597587264
 30
0.0
 10
39.54992296683899
 20
-44.39040597587264
 30
0.0
 10
39.54992296683899
 20
-44.33207002830963
 30
0.0
 10
39.59739196519611
 20
-44.28460102995219
 30
0.0
 10
39.65629951297856
 20
-44.28460102995219
 30
0.0
 10
39.71463436970133
 20
-44.28460102995219
 30
0.0
 10
39.7626749682779
 20
-44.33207002830963
 30
0.0
 10
39.7626749682779
 20
-44.39040597587264
 30
0.0
 10
39.7626749682779
 20
-44.39040597587264
 30
0.0
 10
39.7626749682779
 20
-66.37136331031657
 30
0.0
 10
39.7626749682779
 20
-66.37136331031657
 30
0.0
 10
39.7626749682779
 20
-66.43027085809966
 30
0.0
 10
39.71463436970133
 20
-66.47773876561654
 30
0.0
 10
39.65629951297856
 20
-66.47773876561654
 30
0.0
  0
HATCH
  5
8A
330
79
100
AcDbEntity
  8
Camada 1
 62
    28
420
  1184269
440
 33554687
100
AcDbHatch
 10
0.0
 20
0.0
 30
0.0
210
0.0
220
0.0
230
1.0
  2
SOLID
 70
     1
 71
     1
 91
        1
 92
        1
 93
        2
 72
     4
 94
        3
 73
     0
 74
     0
 95
       23
 96
       19
 40
0.0
 40
0.0
 40
0.0
 40
0.0
 40
1.0
 40
1.0
 40
1.0
 40
2.0
 40
2.0
 40
2.0
 40
3.0
 40
3.0
 40
3.0
 40
4.0
 40
4.0
 40
4.0
 40
5.0
 40
5.0
 40
5.0
 40
6.0
 40
6.0
 40
6.0
 40
6.0
 10
39.65629951297856
 20
-66.47773876561654
 10
39.59739196519611
 20
-66.47773876561654
 10
39.54992296683899
 20
-66.43027085809966
 10
39.54992296683899
 20
-66.37136331031657
 10
39.54992296683899
 20
-66.37136331031657
 10
39.54992296683899
 20
-44.39040597587264
 10
39.54992296683899
 20
-44.39040597587264
 10
39.54992296683899
 20
-44.33207002830963
 10
39.59739196519611
 20
-44.28460102995219
 10
39.65629951297856
 20
-44.28460102995219
 10
39.71463436970133
 20
-44.28460102995219
 10
39.7626749682779
 20
-44.33207002830963
 10
39.7626749682779
 20
-44.39040597587264
 10
39.7626749682779
 20
-44.39040597587264
 10
39.7626749682779
 20
-66.37136331031657
 10
39.7626749682779
 20
-66.37136331031657
 10
39.7626749682779
 20
-66.43027085809966
 10
39.71463436970133
 20
-66.47773876561654
 10
39.65629951297856
 20
-66.47773876561654
 97
        0
 72
     1
 10
39.65629951297856
 20
-66.47773876561652
 11
39.65629951297856
 21
-66.47773876561654
 97
        0
 75
     2
 76
     1
 98
        1
 10
0.0
 20
0.0
450
        0
451
        0
460
0.0
461
0.0
452
        0
462
0.0
453
        0
470

  0
SPLINE
  5
8B
330
79
100
AcDbEntity
  8
Camada 1
100
AcDbSpline
210
0.0
220
0.0
230
1.0
 70
     9
 71
     3
 72
    38
 73
    34
 74
     0
 42
0.0000000001
 43
0.0000000001
 40
0.0
 40
0.0
 40
0.0
 40
0.0
 40
1.0
 40
1.0
 40
1.0
 40
2.0
 40
2.0
 40
2.0
 40
3.0
 40
3.0
 40
3.0
 40
4.0
 40
4.0
 40
4.0
 40
5.0
 40
5.0
 40
5.0
 40
6.0
 40
6.0
 40
6.0
 40
7.0
 40
7.0
 40
7.0
 40
8.0
 40
8.0
 40
8.0
 40
9.0
 40
9.0
 40
9.0
 40
10.0
 40
10.0
 40
10.0
 40
11.0
 40
11.0
 40
11.0
 40
11.0
 10
62.36616275597088
 20
-42.62850938719488
 30
0.0
 10
62.32383815958626
 20
-42.62850938719488
 30
0.0
 10
62.2820895267814
 20
-42.60849247112131
 30
0.0
 10
62.26493279348428
 20
-42.57017562131203
 30
0.0
 10
62.24148409441545
 20
-42.51813163952074
 30
0.0
 10
62.25292046216029
 20
-42.46265587473387
 30
0.0
 10
62.30382342519316
 20
-42.43749019332685
 30
0.0
 10
62.30382342519316
 20
-42.43749019332685
 30
0.0
 10
62.32555296024397
 20
-42.42662542580144
 30
0.0
 10
62.32555296024397
 20
-42.42662542580144
 30
0.0
 10
62.32555296024397
 20
-42.42662542580144
 30
0.0
 10
63.05588786934066
 20
-42.13952285309979
 30
0.0
 10
63.05588786934066
 20
-42.13952285309979
 30
0.0
 10
63.7839363775602
 20
-41.85414162609696
 30
0.0
 10
64.51427128665689
 20
-41.56818443551403
 30
0.0
 10
65.23888583020132
 20
-41.27822168003625
 30
0.0
 10
65.28978879323419
 20
-41.25820258228252
 30
0.0
 10
65.36242129131851
 20
-41.27593527915941
 30
0.0
 10
65.38586999038733
 20
-41.32797707927053
 30
0.0
 10
65.40874708923737
 20
-41.37945164252285
 30
0.0
 10
65.39787795835164
 20
-41.43549900752886
 30
0.0
 10
65.34697935867845
 20
-41.46066250725572
 30
0.0
 10
65.34469295780194
 20
-41.46180570769399
 30
0.0
 10
65.32066829515333
 20
-41.4738180390186
 30
0.0
 10
65.31723869383791
 20
-41.47496123945687
 30
0.0
 10
64.59205255007467
 20
-41.76491963157402
 30
0.0
 10
63.86228924119741
 20
-42.05087682215694
 30
0.0
 10
63.13309753253898
 20
-42.33683401273985
 30
0.0
 10
63.13309753253898
 20
-42.33683401273985
 30
0.0
 10
62.41134099009116
 20
-42.61993102054631
 30
0.0
 10
62.41134099009116
 20
-42.61993102054631
 30
0.0
 10
62.39761385810883
 20
-42.62622298631803
 30
0.0
 10
62.38160032524997
 20
-42.62850938719488
 30
0.0
 10
62.36616275597088
 20
-42.62850938719488
 30
0.0
  0
HATCH
  5
8C
330
79
100
AcDbEntity
  8
Camada 1
 62
    28
420
  1184269
440
 33554687
100
AcDbHatch
 10
0.0
 20
0.0
 30
0.0
210
0.0
220
0.0
230
1.0
  2
SOLID
 70
     1
 71
     1
 91
        1
 92
        1
 93
        2
 72
     4
 94
        3
 73
     0
 74
     0
 95
       38
 96
       34
 40
0.0
 40
0.0
 40
0.0
 40
0.0
 40
1.0
 40
1.0
 40
1.0
 40
2.0
 40
2.0
 40
2.0
 40
3.0
 40
3.0
 40
3.0
 40
4.0
 40
4.0
 40
4.0
 40
5.0
 40
5.0
 40
5.0
 40
6.0
 40
6.0
 40
6.0
 40
7.0
 40
7.0
 40
7.0
 40
8.0
 40
8.0
 40
8.0
 40
9.0
 40
9.0
 40
9.0
 40
10.0
 40
10.0
 40
10.0
 40
11.0
 40
11.0
 40
11.0
 40
11.0
 10
62.36616275597088
 20
-42.62850938719488
 10
62.32383815958626
 20
-42.62850938719488
 10
62.2820895267814
 20
-42.60849247112131
 10
62.26493279348428
 20
-42.57017562131203
 10
62.24148409441545
 20
-42.51813163952074
 10
62.25292046216029
 20
-42.46265587473387
 10
62.30382342519316
 20
-42.43749019332685
 10
62.30382342519316
 20
-42.43749019332685
 10
62.32555296024397
 20
-42.42662542580144
 10
62.32555296024397
 20
-42.42662542580144
 10
62.32555296024397
 20
-42.42662542580144
 10
63.05588786934066
 20
-42.13952285309979
 10
63.05588786934066
 20
-42.13952285309979
 10
63.7839363775602
 20
-41.85414162609696
 10
64.51427128665689
 20
-41.56818443551403
 10
65.23888583020132
 20
-41.27822168003625
 10
65.28978879323419
 20
-41.25820258228252
 10
65.36242129131851
 20
-41.27593527915941
 10
65.38586999038733
 20
-41.32797707927053
 10
65.40874708923737
 20
-41.37945164252285
 10
65.39787795835164
 20
-41.43549900752886
 10
65.34697935867845
 20
-41.46066250725572
 10
65.34469295780194
 20
-41.46180570769399
 10
65.32066829515333
 20
-41.4738180390186
 10
65.31723869383791
 20
-41.47496123945687
 10
64.59205255007467
 20
-41.76491963157402
 10
63.86228924119741
 20
-42.05087682215694
 10
63.13309753253898
 20
-42.33683401273985
 10
63.13309753253898
 20
-42.33683401273985
 10
62.41134099009116
 20
-42.61993102054631
 10
62.41134099009116
 20
-42.61993102054631
 10
62.39761385810883
 20
-42.62622298631803
 10
62.38160032524997
 20
-42.62850938719488
 10
62.36616275597088
 20
-42.62850938719488
 97
        0
 72
     1
 10
62.36616275597088
 20
-42.62850938719489
 11
62.36616275597088
 21
-42.62850938719488
 97
        0
 75
     2
 76
     1
 98
        1
 10
0.0
 20
0.0
450
        0
451
        0
460
0.0
461
0.0
452
        0
462
0.0
453
        0
470

  0
SPLINE
  5
8D
330
79
100
AcDbEntity
  8
Camada 1
100
AcDbSpline
210
0.0
220
0.0
230
1.0
 70
     9
 71
     3
 72
    41
 73
    37
 74
     0
 42
0.0000000001
 43
0.0000000001
 40
0.0
 40
0.0
 40
0.0
 40
0.0
 40
1.0
 40
1.0
 40
1.0
 40
2.0
 40
2.0
 40
2.0
 40
3.0
 40
3.0
 40
3.0
 40
4.0
 40
4.0
 40
4.0
 40
5.0
 40
5.0
 40
5.0
 40
6.0
 40
6.0
 40
6.0
 40
7.0
 40
7.0
 40
7.0
 40
8.0
 40
8.0
 40
8.0
 40
9.0
 40
9.0
 40
9.0
 40
10.0
 40
10.0
 40
10.0
 40
11.0
 40
11.0
 40
11.0
 40
12.0
 40
12.0
 40
12.0
 40
12.0
 10
63.81996900817311
 20
-42.05493692905769
 30
0.0
 10
63.77650121135022
 20
-42.05493692905769
 30
0.0
 10
63.73703897942252
 20
-42.0292018291117
 30
0.0
 10
63.72045384634422
 20
-41.9863078141881
 30
0.0
 10
63.70043474859016
 20
-41.93140364962068
 30
0.0
 10
63.7278890125542
 20
-41.87021188264154
 30
0.0
 10
63.78279317712194
 20
-41.84962118466867
 30
0.0
 10
63.78279317712194
 20
-41.84962118466867
 30
0.0
 10
64.04186770396028
 20
-41.75239678707694
 30
0.0
 10
64.04186770396028
 20
-41.75239678707694
 30
0.0
 10
64.21802092876802
 20
-41.6791926887735
 30
0.0
 10
64.40389135730261
 20
-41.60770339112778
 30
0.0
 10
64.58919018561838
 20
-41.5367856937015
 30
0.0
 10
64.80880684388869
 20
-41.45328406473146
 30
0.0
 10
65.02785190193957
 20
-41.36978679912175
 30
0.0
 10
65.23602782910535
 20
-41.27942160416056
 30
0.0
 10
65.28978879323419
 20
-41.2559729050914
 30
0.0
 10
65.36070212730047
 20
-41.27427720218774
 30
0.0
 10
65.38472678994908
 20
-41.32631900229887
 30
0.0
 10
65.40931868945681
 20
-41.37836516577031
 30
0.0
 10
65.39844955857046
 20
-41.43498413099544
 30
0.0
 10
65.34697935867845
 20
-41.46071923094145
 30
0.0
 10
65.34526455802138
 20
-41.46186243138003
 30
0.0
 10
65.32181585895191
 20
-41.47330316248519
 30
0.0
 10
65.32066829515333
 20
-41.47387476270433
 30
0.0
 10
65.10849116645331
 20
-41.56537879474347
 30
0.0
 10
64.88715970752527
 20
-41.65002362415176
 30
0.0
 10
64.66525664837778
 20
-41.73466845356037
 30
0.0
 10
64.48167262072037
 20
-41.80501455076752
 30
0.0
 10
64.29751699284287
 20
-41.87535628461435
 30
0.0
 10
64.12022056759686
 20
-41.94970576503654
 30
0.0
 10
64.12022056759686
 20
-41.94970576503654
 30
0.0
 10
63.85714047586397
 20
-42.04807554474668
 30
0.0
 10
63.85714047586397
 20
-42.04807554474668
 30
0.0
 10
63.84513250789965
 20
-42.05322212839998
 30
0.0
 10
63.83197697613677
 20
-42.05493692905769
 30
0.0
 10
63.81996900817311
 20
-42.05493692905769
 30
0.0
  0
HATCH
  5
8E
330
79
100
AcDbEntity
  8
Camada 1
 62
    28
420
  1184269
440
 33554687
100
AcDbHatch
 10
0.0
 20
0.0
 30
0.0
210
0.0
220
0.0
230
1.0
  2
SOLID
 70
     1
 71
     1
 91
        1
 92
        1
 93
        2
 72
     4
 94
        3
 73
     0
 74
     0
 95
       41
 96
       37
 40
0.0
 40
0.0
 40
0.0
 40
0.0
 40
1.0
 40
1.0
 40
1.0
 40
2.0
 40
2.0
 40
2.0
 40
3.0
 40
3.0
 40
3.0
 40
4.0
 40
4.0
 40
4.0
 40
5.0
 40
5.0
 40
5.0
 40
6.0
 40
6.0
 40
6.0
 40
7.0
 40
7.0
 40
7.0
 40
8.0
 40
8.0
 40
8.0
 40
9.0
 40
9.0
 40
9.0
 40
10.0
 40
10.0
 40
10.0
 40
11.0
 40
11.0
 40
11.0
 40
12.0
 40
12.0
 40
12.0
 40
12.0
 10
63.81996900817311
 20
-42.05493692905769
 10
63.77650121135022
 20
-42.05493692905769
 10
63.73703897942252
 20
-42.0292018291117
 10
63.72045384634422
 20
-41.9863078141881
 10
63.70043474859016
 20
-41.93140364962068
 10
63.7278890125542
 20
-41.87021188264154
 10
63.78279317712194
 20
-41.84962118466867
 10
63.78279317712194
 20
-41.84962118466867
 10
64.04186770396028
 20
-41.75239678707694
 10
64.04186770396028
 20
-41.75239678707694
 10
64.21802092876802
 20
-41.6791926887735
 10
64.40389135730261
 20
-41.60770339112778
 10
64.58919018561838
 20
-41.5367856937015
 10
64.80880684388869
 20
-41.45328406473146
 10
65.02785190193957
 20
-41.36978679912175
 10
65.23602782910535
 20
-41.27942160416056
 10
65.28978879323419
 20
-41.2559729050914
 10
65.36070212730047
 20
-41.27427720218774
 10
65.38472678994908
 20
-41.32631900229887
 10
65.40931868945681
 20
-41.37836516577031
 10
65.39844955857046
 20
-41.43498413099544
 10
65.34697935867845
 20
-41.46071923094145
 10
65.34526455802138
 20
-41.46186243138003
 10
65.32181585895191
 20
-41.47330316248519
 10
65.32066829515333
 20
-41.47387476270433
 10
65.10849116645331
 20
-41.56537879474347
 10
64.88715970752527
 20
-41.65002362415176
 10
64.66525664837778
 20
-41.73466845356037
 10
64.48167262072037
 20
-41.80501455076752
 10
64.29751699284287
 20
-41.87535628461435
 10
64.12022056759686
 20
-41.94970576503654
 10
64.12022056759686
 20
-41.94970576503654
 10
63.85714047586397
 20
-42.04807554474668
 10
63.85714047586397
 20
-42.04807554474668
 10
63.84513250789965
 20
-42.05322212839998
 10
63.83197697613677
 20
-42.05493692905769
 10
63.81996900817311
 20
-42.05493692905769
 97
        0
 72
     1
 10
63.81996900817312
 20
-42.05493692905769
 11
63.81996900817311
 21
-42.05493692905769
 97
        0
 75
     2
 76
     1
 98
        1
 10
0.0
 20
0.0
450
        0
451
        0
460
0.0
461
0.0
452
        0
462
0.0
453
        0
470

  0
SPLINE
  5
8F
330
79
100
AcDbEntity
  8
Camada 1
100
AcDbSpline
210
0.0
220
0.0
230
1.0
 70
     9
 71
     3
 72
    41
 73
    37
 74
     0
 42
0.0000000001
 43
0.0000000001
 40
0.0
 40
0.0
 40
0.0
 40
0.0
 40
1.0
 40
1.0
 40
1.0
 40
2.0
 40
2.0
 40
2.0
 40
3.0
 40
3.0
 40
3.0
 40
4.0
 40
4.0
 40
4.0
 40
5.0
 40
5.0
 40
5.0
 40
6.0
 40
6.0
 40
6.0
 40
7.0
 40
7.0
 40
7.0
 40
8.0
 40
8.0
 40
8.0
 40
9.0
 40
9.0
 40
9.0
 40
10.0
 40
10.0
 40
10.0
 40
11.0
 40
11.0
 40
11.0
 40
12.0
 40
12.0
 40
12.0
 40
12.0
 10
62.36616275597088
 20
-42.62850938719488
 30
0.0
 10
62.3244097598057
 20
-42.62850938719488
 30
0.0
 10
62.2820895267814
 20
-42.60849247112131
 30
0.0
 10
62.26493279348428
 20
-42.57017562131203
 30
0.0
 10
62.24148409441545
 20
-42.51813163952074
 30
0.0
 10
62.25292046216029
 20
-42.46265587473387
 30
0.0
 10
62.30382342519316
 20
-42.43749019332685
 30
0.0
 10
62.30382342519316
 20
-42.43749019332685
 30
0.0
 10
62.32555296024397
 20
-42.42662542580144
 30
0.0
 10
62.32555296024397
 20
-42.42662542580144
 30
0.0
 10
62.46510195422001
 20
-42.37114966101457
 30
0.0
 10
62.59778738220551
 20
-42.31967727944241
 30
0.0
 10
62.73046844683006
 20
-42.26877649808939
 30
0.0
 10
62.99812570367695
 20
-42.1658317349454
 30
0.0
 10
63.26578296052384
 20
-42.06288697180109
 30
0.0
 10
63.53000625269564
 20
-41.9490752594512
 30
0.0
 10
63.53000625269564
 20
-41.9490752594512
 30
0.0
 10
63.78164997668367
 20
-41.85070766142121
 30
0.0
 10
63.78164997668367
 20
-41.85070766142121
 30
0.0
 10
63.83483497723339
 20
-41.82897376300977
 30
0.0
 10
63.89774590822991
 20
-41.8564280269738
 30
0.0
 10
63.91833660620342
 20
-41.91018899110296
 30
0.0
 10
63.94007050461453
 20
-41.96451719209093
 30
0.0
 10
63.91318784086997
 20
-42.02685652286866
 30
0.0
 10
63.85828367630222
 20
-42.0480166393808
 30
0.0
 10
63.85828367630222
 20
-42.0480166393808
 30
0.0
 10
63.61007391698993
 20
-42.14467161843324
 30
0.0
 10
63.61007391698993
 20
-42.14467161843324
 30
0.0
 10
63.34699382525704
 20
-42.25905274932209
 30
0.0
 10
63.07705016753298
 20
-42.36257129436601
 30
0.0
 10
62.80596330937066
 20
-42.46723085816772
 30
0.0
 10
62.67499268204286
 20
-42.51698625740201
 30
0.0
 10
62.54231161741831
 20
-42.56845863897416
 30
0.0
 10
62.41134099009116
 20
-42.61993102054631
 30
0.0
 10
62.39761385810883
 20
-42.62622298631803
 30
0.0
 10
62.38160032524997
 20
-42.62850938719488
 30
0.0
 10
62.36616275597088
 20
-42.62850938719488
 30
0.0
  0
HATCH
  5
90
330
79
100
AcDbEntity
  8
Camada 1
 62
    28
420
  1184269
440
 33554687
100
AcDbHatch
 10
0.0
 20
0.0
 30
0.0
210
0.0
220
0.0
230
1.0
  2
SOLID
 70
     1
 71
     1
 91
        1
 92
        1
 93
        2
 72
     4
 94
        3
 73
     0
 74
     0
 95
       41
 96
       37
 40
0.0
 40
0.0
 40
0.0
 40
0.0
 40
1.0
 40
1.0
 40
1.0
 40
2.0
 40
2.0
 40
2.0
 40
3.0
 40
3.0
 40
3.0
 40
4.0
 40
4.0
 40
4.0
 40
5.0
 40
5.0
 40
5.0
 40
6.0
 40
6.0
 40
6.0
 40
7.0
 40
7.0
 40
7.0
 40
8.0
 40
8.0
 40
8.0
 40
9.0
 40
9.0
 40
9.0
 40
10.0
 40
10.0
 40
10.0
 40
11.0
 40
11.0
 40
11.0
 40
12.0
 40
12.0
 40
12.0
 40
12.0
 10
62.36616275597088
 20
-42.62850938719488
 10
62.3244097598057
 20
-42.62850938719488
 10
62.2820895267814
 20
-42.60849247112131
 10
62.26493279348428
 20
-42.57017562131203
 10
62.24148409441545
 20
-42.51813163952074
 10
62.25292046216029
 20
-42.46265587473387
 10
62.30382342519316
 20
-42.43749019332685
 10
62.30382342519316
 20
-42.43749019332685
 10
62.32555296024397
 20
-42.42662542580144
 10
62.32555296024397
 20
-42.42662542580144
 10
62.46510195422001
 20
-42.37114966101457
 10
62.59778738220551
 20
-42.31967727944241
 10
62.73046844683006
 20
-42.26877649808939
 10
62.99812570367695
 20
-42.1658317349454
 10
63.26578296052384
 20
-42.06288697180109
 10
63.53000625269564
 20
-41.9490752594512
 10
63.53000625269564
 20
-41.9490752594512
 10
63.78164997668367
 20
-41.85070766142121
 10
63.78164997668367
 20
-41.85070766142121
 10
63.83483497723339
 20
-41.82897376300977
 10
63.89774590822991
 20
-41.8564280269738
 10
63.91833660620342
 20
-41.91018899110296
 10
63.94007050461453
 20
-41.96451719209093
 10
63.91318784086997
 20
-42.02685652286866
 10
63.85828367630222
 20
-42.0480166393808
 10
63.85828367630222
 20
-42.0480166393808
 10
63.61007391698993
 20
-42.14467161843324
 10
63.61007391698993
 20
-42.14467161843324
 10
63.34699382525704
 20
-42.25905274932209
 10
63.07705016753298
 20
-42.36257129436601
 10
62.80596330937066
 20
-42.46723085816772
 10
62.67499268204286
 20
-42.51698625740201
 10
62.54231161741831
 20
-42.56845863897416
 10
62.41134099009116
 20
-42.61993102054631
 10
62.39761385810883
 20
-42.62622298631803
 10
62.38160032524997
 20
-42.62850938719488
 10
62.36616275597088
 20
-42.62850938719488
 97
        0
 72
     1
 10
62.36616275597088
 20
-42.62850938719489
 11
62.36616275597088
 21
-42.62850938719488
 97
        0
 75
     2
 76
     1
 98
        1
 10
0.0
 20
0.0
450
        0
451
        0
460
0.0
461
0.0
452
        0
462
0.0
453
        0
470

  0
SPLINE
  5
91
330
79
100
AcDbEntity
  8
Camada 1
100
AcDbSpline
210
0.0
220
0.0
230
1.0
 70
     9
 71
     3
 72
    26
 73
    22
 74
     0
 42
0.0000000001
 43
0.0000000001
 40
0.0
 40
0.0
 40
0.0
 40
0.0
 40
1.0
 40
1.0
 40
1.0
 40
2.0
 40
2.0
 40
2.0
 40
3.0
 40
3.0
 40
3.0
 40
4.0
 40
4.0
 40
4.0
 40
5.0
 40
5.0
 40
5.0
 40
6.0
 40
6.0
 40
6.0
 40
7.0
 40
7.0
 40
7.0
 40
7.0
 10
63.26898566709575
 20
-44.9716426766438
 30
0.0
 10
63.22723267093056
 20
-44.9716426766438
 30
0.0
 10
63.18662723856398
 20
-44.94590757669812
 30
0.0
 10
63.17061370570511
 20
-44.90415894389326
 30
0.0
 10
63.14887980729399
 20
-44.84982637954465
 30
0.0
 10
63.17519087081976
 20
-44.78805864898606
 30
0.0
 10
63.23066663560631
 20
-44.76747013269336
 30
0.0
 10
63.23066663560631
 20
-44.76747013269336
 30
0.0
 10
66.17888457237737
 20
-43.61163122071819
 30
0.0
 10
66.17888457237737
 20
-43.61163122071819
 30
0.0
 10
66.23207393628739
 20
-43.58989950398691
 30
0.0
 10
66.29555646750337
 20
-43.61677780437117
 30
0.0
 10
66.31671440233536
 20
-43.67168196893891
 30
0.0
 10
66.33787670052768
 20
-43.7260145332872
 30
0.0
 10
66.31099403678246
 20
-43.78778008216563
 30
0.0
 10
66.25609423557567
 20
-43.80894238035795
 30
0.0
 10
66.25609423557567
 20
-43.80894238035795
 30
0.0
 10
63.30730033522486
 20
-44.96420969211398
 30
0.0
 10
63.30730033522486
 20
-44.96420969211398
 30
0.0
 10
63.2952923672612
 20
-44.96935627576696
 30
0.0
 10
63.28156523527886
 20
-44.9716426766438
 30
0.0
 10
63.26898566709575
 20
-44.9716426766438
 30
0.0
  0
HATCH
  5
92
330
79
100
AcDbEntity
  8
Camada 1
 62
    28
420
  1184269
440
 33554687
100
AcDbHatch
 10
0.0
 20
0.0
 30
0.0
210
0.0
220
0.0
230
1.0
  2
SOLID
 70
     1
 71
     1
 91
        1
 92
        1
 93
        2
 72
     4
 94
        3
 73
     0
 74
     0
 95
       26
 96
       22
 40
0.0
 40
0.0
 40
0.0
 40
0.0
 40
1.0
 40
1.0
 40
1.0
 40
2.0
 40
2.0
 40
2.0
 40
3.0
 40
3.0
 40
3.0
 40
4.0
 40
4.0
 40
4.0
 40
5.0
 40
5.0
 40
5.0
 40
6.0
 40
6.0
 40
6.0
 40
7.0
 40
7.0
 40
7.0
 40
7.0
 10
63.26898566709575
 20
-44.9716426766438
 10
63.22723267093056
 20
-44.9716426766438
 10
63.18662723856398
 20
-44.94590757669812
 10
63.17061370570511
 20
-44.90415894389326
 10
63.14887980729399
 20
-44.84982637954465
 10
63.17519087081976
 20
-44.78805864898606
 10
63.23066663560631
 20
-44.76747013269336
 10
63.23066663560631
 20
-44.76747013269336
 10
66.17888457237737
 20
-43.61163122071819
 10
66.17888457237737
 20
-43.61163122071819
 10
66.23207393628739
 20
-43.58989950398691
 10
66.29555646750337
 20
-43.61677780437117
 10
66.31671440233536
 20
-43.67168196893891
 10
66.33787670052768
 20
-43.7260145332872
 10
66.31099403678246
 20
-43.78778008216563
 10
66.25609423557567
 20
-43.80894238035795
 10
66.25609423557567
 20
-43.80894238035795
 10
63.30730033522486
 20
-44.96420969211398
 10
63.30730033522486
 20
-44.96420969211398
 10
63.2952923672612
 20
-44.96935627576696
 10
63.28156523527886
 20
-44.9716426766438
 10
63.26898566709575
 20
-44.9716426766438
 97
        0
 72
     1
 10
63.26898566709575
 20
-44.97164267664381
 11
63.26898566709575
 21
-44.9716426766438
 97
        0
 75
     2
 76
     1
 98
        1
 10
0.0
 20
0.0
450
        0
451
        0
460
0.0
461
0.0
452
        0
462
0.0
453
        0
470

  0
SPLINE
  5
93
330
79
100
AcDbEntity
  8
Camada 1
100
AcDbSpline
210
0.0
220
0.0
230
1.0
 70
     9
 71
     3
 72
    23
 73
    19
 74
     0
 42
0.0000000001
 43
0.0000000001
 40
0.0
 40
0.0
 40
0.0
 40
0.0
 40
1.0
 40
1.0
 40
1.0
 40
2.0
 40
2.0
 40
2.0
 40
3.0
 40
3.0
 40
3.0
 40
4.0
 40
4.0
 40
4.0
 40
5.0
 40
5.0
 40
5.0
 40
6.0
 40
6.0
 40
6.0
 40
6.0
 10
36.48057378055968
 20
-66.39132241186449
 30
0.0
 10
36.42223783299668
 20
-66.39132241186449
 30
0.0
 10
36.37419723442011
 20
-66.34385450434762
 30
0.0
 10
36.37419723442011
 20
-66.28494695656451
 30
0.0
 10
36.37419723442011
 20
-66.28494695656451
 30
0.0
 10
36.37419723442011
 20
-44.27196255640287
 30
0.0
 10
36.37419723442011
 20
-44.27196255640287
 30
0.0
 10
36.37419723442011
 20
-44.21362660883986
 30
0.0
 10
36.42223783299668
 20
-44.1655860102633
 30
0.0
 10
36.48057378055968
 20
-44.1655860102633
 30
0.0
 10
36.53890863728309
 20
-44.1655860102633
 30
0.0
 10
36.58694923585966
 20
-44.21362660883986
 30
0.0
 10
36.58694923585966
 20
-44.27196255640287
 30
0.0
 10
36.58694923585966
 20
-44.27196255640287
 30
0.0
 10
36.58694923585966
 20
-66.28494695656451
 30
0.0
 10
36.58694923585966
 20
-66.28494695656451
 30
0.0
 10
36.58694923585966
 20
-66.34385450434762
 30
0.0
 10
36.53890863728309
 20
-66.39132241186449
 30
0.0
 10
36.48057378055968
 20
-66.39132241186449
 30
0.0
  0
HATCH
  5
94
330
79
100
AcDbEntity
  8
Camada 1
 62
    28
420
  1184269
440
 33554687
100
AcDbHatch
 10
0.0
 20
0.0
 30
0.0
210
0.0
220
0.0
230
1.0
  2
SOLID
 70
     1
 71
     1
 91
        1
 92
        1
 93
        2
 72
     4
 94
        3
 73
     0
 74
     0
 95
       23
 96
       19
 40
0.0
 40
0.0
 40
0.0
 40
0.0
 40
1.0
 40
1.0
 40
1.0
 40
2.0
 40
2.0
 40
2.0
 40
3.0
 40
3.0
 40
3.0
 40
4.0
 40
4.0
 40
4.0
 40
5.0
 40
5.0
 40
5.0
 40
6.0
 40
6.0
 40
6.0
 40
6.0
 10
36.48057378055968
 20
-66.39132241186449
 10
36.42223783299668
 20
-66.39132241186449
 10
36.37419723442011
 20
-66.34385450434762
 10
36.37419723442011
 20
-66.28494695656451
 10
36.37419723442011
 20
-66.28494695656451
 10
36.37419723442011
 20
-44.27196255640287
 10
36.37419723442011
 20
-44.27196255640287
 10
36.37419723442011
 20
-44.21362660883986
 10
36.42223783299668
 20
-44.1655860102633
 10
36.48057378055968
 20
-44.1655860102633
 10
36.53890863728309
 20
-44.1655860102633
 10
36.58694923585966
 20
-44.21362660883986
 10
36.58694923585966
 20
-44.27196255640287
 10
36.58694923585966
 20
-44.27196255640287
 10
36.58694923585966
 20
-66.28494695656451
 10
36.58694923585966
 20
-66.28494695656451
 10
36.58694923585966
 20
-66.34385450434762
 10
36.53890863728309
 20
-66.39132241186449
 10
36.48057378055968
 20
-66.39132241186449
 97
        0
 72
     1
 10
36.48057378055968
 20
-66.39132241186448
 11
36.48057378055968
 21
-66.39132241186449
 97
        0
 75
     2
 76
     1
 98
        1
 10
0.0
 20
0.0
450
        0
451
        0
460
0.0
461
0.0
452
        0
462
0.0
453
        0
470

  0
SPLINE
  5
95
330
79
100
AcDbEntity
  8
Camada 1
100
AcDbSpline
210
0.0
220
0.0
230
1.0
 70
     9
 71
     3
 72
    23
 73
    19
 74
     0
 42
0.0000000001
 43
0.0000000001
 40
0.0
 40
0.0
 40
0.0
 40
0.0
 40
1.0
 40
1.0
 40
1.0
 40
2.0
 40
2.0
 40
2.0
 40
3.0
 40
3.0
 40
3.0
 40
4.0
 40
4.0
 40
4.0
 40
5.0
 40
5.0
 40
5.0
 40
6.0
 40
6.0
 40
6.0
 40
6.0
 10
39.65629951297856
 20
-66.39132241186449
 30
0.0
 10
39.59739196519611
 20
-66.39132241186449
 30
0.0
 10
39.54992296683899
 20
-66.34385450434762
 30
0.0
 10
39.54992296683899
 20
-66.28494695656451
 30
0.0
 10
39.54992296683899
 20
-66.28494695656451
 30
0.0
 10
39.54992296683899
 20
-56.69336983155756
 30
0.0
 10
39.54992296683899
 20
-56.69336983155756
 30
0.0
 10
39.54992296683899
 20
-56.63560766589385
 30
0.0
 10
39.59739196519611
 20
-56.58756706731727
 30
0.0
 10
39.65629951297856
 20
-56.58756706731727
 30
0.0
 10
39.71463436970133
 20
-56.58756706731727
 30
0.0
 10
39.7626749682779
 20
-56.63560766589385
 30
0.0
 10
39.7626749682779
 20
-56.69336983155756
 30
0.0
 10
39.7626749682779
 20
-56.69336983155756
 30
0.0
 10
39.7626749682779
 20
-66.28494695656451
 30
0.0
 10
39.7626749682779
 20
-66.28494695656451
 30
0.0
 10
39.7626749682779
 20
-66.34385450434762
 30
0.0
 10
39.71463436970133
 20
-66.39132241186449
 30
0.0
 10
39.65629951297856
 20
-66.39132241186449
 30
0.0
  0
HATCH
  5
96
330
79
100
AcDbEntity
  8
Camada 1
 62
    28
420
  1184269
440
 33554687
100
AcDbHatch
 10
0.0
 20
0.0
 30
0.0
210
0.0
220
0.0
230
1.0
  2
SOLID
 70
     1
 71
     1
 91
        1
 92
        1
 93
        2
 72
     4
 94
        3
 73
     0
 74
     0
 95
       23
 96
       19
 40
0.0
 40
0.0
 40
0.0
 40
0.0
 40
1.0
 40
1.0
 40
1.0
 40
2.0
 40
2.0
 40
2.0
 40
3.0
 40
3.0
 40
3.0
 40
4.0
 40
4.0
 40
4.0
 40
5.0
 40
5.0
 40
5.0
 40
6.0
 40
6.0
 40
6.0
 40
6.0
 10
39.65629951297856
 20
-66.39132241186449
 10
39.59739196519611
 20
-66.39132241186449
 10
39.54992296683899
 20
-66.34385450434762
 10
39.54992296683899
 20
-66.28494695656451
 10
39.54992296683899
 20
-66.28494695656451
 10
39.54992296683899
 20
-56.69336983155756
 10
39.54992296683899
 20
-56.69336983155756
 10
39.54992296683899
 20
-56.63560766589385
 10
39.59739196519611
 20
-56.58756706731727
 10
39.65629951297856
 20
-56.58756706731727
 10
39.71463436970133
 20
-56.58756706731727
 10
39.7626749682779
 20
-56.63560766589385
 10
39.7626749682779
 20
-56.69336983155756
 10
39.7626749682779
 20
-56.69336983155756
 10
39.7626749682779
 20
-66.28494695656451
 10
39.7626749682779
 20
-66.28494695656451
 10
39.7626749682779
 20
-66.34385450434762
 10
39.71463436970133
 20
-66.39132241186449
 10
39.65629951297856
 20
-66.39132241186449
 97
        0
 72
     1
 10
39.65629951297856
 20
-66.39132241186448
 11
39.65629951297856
 21
-66.39132241186449
 97
        0
 75
     2
 76
     1
 98
        1
 10
0.0
 20
0.0
450
        0
451
        0
460
0.0
461
0.0
452
        0
462
0.0
453
        0
470

  0
SPLINE
  5
97
330
79
100
AcDbEntity
  8
Camada 1
100
AcDbSpline
210
0.0
220
0.0
230
1.0
 70
     9
 71
     3
 72
    32
 73
    28
 74
     0
 42
0.0000000001
 43
0.0000000001
 40
0.0
 40
0.0
 40
0.0
 40
0.0
 40
1.0
 40
1.0
 40
1.0
 40
2.0
 40
2.0
 40
2.0
 40
3.0
 40
3.0
 40
3.0
 40
4.0
 40
4.0
 40
4.0
 40
5.0
 40
5.0
 40
5.0
 40
6.0
 40
6.0
 40
6.0
 40
7.0
 40
7.0
 40
7.0
 40
8.0
 40
8.0
 40
8.0
 40
9.0
 40
9.0
 40
9.0
 40
9.0
 10
34.79531307318095
 20
-77.76567051012896
 30
0.0
 10
34.77929844948186
 20
-77.76567051012896
 30
0.0
 10
34.76271331640355
 20
-77.76223906802155
 30
0.0
 10
34.74841567504264
 20
-77.75480417452147
 30
0.0
 10
34.6957990021923
 20
-77.72849611080651
 30
0.0
 10
34.67463888567983
 20
-77.66444170666054
 30
0.0
 10
34.70037507646607
 20
-77.61296939326602
 30
0.0
 10
34.70037507646607
 20
-77.61296939326602
 30
0.0
 10
34.72267948425641
 20
-77.56950391447761
 30
0.0
 10
34.72267948425641
 20
-77.56950391447761
 30
0.0
 10
34.73411803368174
 20
-77.54605541994199
 30
0.0
 10
34.75356225869562
 20
-77.52832606376249
 30
0.0
 10
34.77758364882414
 20
-77.51803160108308
 30
0.0
 10
34.77758364882414
 20
-77.51803160108308
 30
0.0
 10
34.83134352211339
 20
-77.49687080279618
 30
0.0
 10
34.83134352211339
 20
-77.49687080279618
 30
0.0
 10
34.88453070434293
 20
-77.47513799522529
 30
0.0
 10
34.9474416353401
 20
-77.50144605894025
 30
0.0
 10
34.96974604313044
 20
-77.55634988262013
 30
0.0
 10
34.99090725048251
 20
-77.61010982408667
 30
0.0
 10
34.96459945947747
 20
-77.67130465905331
 30
0.0
 10
34.91026689512917
 20
-77.69360933955482
 30
0.0
 10
34.91026689512917
 20
-77.69360933955482
 30
0.0
 10
34.8902499790556
 20
-77.70676337141231
 30
0.0
 10
34.8902499790556
 20
-77.70676337141231
 30
0.0
 10
34.87137735426053
 20
-77.74393777073602
 30
0.0
 10
34.8342026140496
 20
-77.76567051012896
 30
0.0
 10
34.79531307318095
 20
-77.76567051012896
 30
0.0
  0
HATCH
  5
98
330
79
100
AcDbEntity
  8
Camada 1
 62
    28
420
  1184269
440
 33554687
100
AcDbHatch
 10
0.0
 20
0.0
 30
0.0
210
0.0
220
0.0
230
1.0
  2
SOLID
 70
     1
 71
     1
 91
        1
 92
        1
 93
        2
 72
     4
 94
        3
 73
     0
 74
     0
 95
       32
 96
       28
 40
0.0
 40
0.0
 40
0.0
 40
0.0
 40
1.0
 40
1.0
 40
1.0
 40
2.0
 40
2.0
 40
2.0
 40
3.0
 40
3.0
 40
3.0
 40
4.0
 40
4.0
 40
4.0
 40
5.0
 40
5.0
 40
5.0
 40
6.0
 40
6.0
 40
6.0
 40
7.0
 40
7.0
 40
7.0
 40
8.0
 40
8.0
 40
8.0
 40
9.0
 40
9.0
 40
9.0
 40
9.0
 10
34.79531307318095
 20
-77.76567051012896
 10
34.77929844948186
 20
-77.76567051012896
 10
34.76271331640355
 20
-77.76223906802155
 10
34.74841567504264
 20
-77.75480417452147
 10
34.6957990021923
 20
-77.72849611080651
 10
34.67463888567983
 20
-77.66444170666054
 10
34.70037507646607
 20
-77.61296939326602
 10
34.70037507646607
 20
-77.61296939326602
 10
34.72267948425641
 20
-77.56950391447761
 10
34.72267948425641
 20
-77.56950391447761
 10
34.73411803368174
 20
-77.54605541994199
 10
34.75356225869562
 20
-77.52832606376249
 10
34.77758364882414
 20
-77.51803160108308
 10
34.77758364882414
 20
-77.51803160108308
 10
34.83134352211339
 20
-77.49687080279618
 10
34.83134352211339
 20
-77.49687080279618
 10
34.88453070434293
 20
-77.47513799522529
 10
34.9474416353401
 20
-77.50144605894025
 10
34.96974604313044
 20
-77.55634988262013
 10
34.99090725048251
 20
-77.61010982408667
 10
34.96459945947747
 20
-77.67130465905331
 10
34.91026689512917
 20
-77.69360933955482
 10
34.91026689512917
 20
-77.69360933955482
 10
34.8902499790556
 20
-77.70676337141231
 10
34.8902499790556
 20
-77.70676337141231
 10
34.87137735426053
 20
-77.74393777073602
 10
34.8342026140496
 20
-77.76567051012896
 10
34.79531307318095
 20
-77.76567051012896
 97
        0
 72
     1
 10
34.79531307318095
 20
-77.76567051012896
 11
34.79531307318095
 21
-77.76567051012896
 97
        0
 75
     2
 76
     1
 98
        1
 10
0.0
 20
0.0
450
        0
451
        0
460
0.0
461
0.0
452
        0
462
0.0
453
        0
470

  0
SPLINE
  5
99
330
79
100
AcDbEntity
  8
Camada 1
100
AcDbSpline
210
0.0
220
0.0
230
1.0
 70
     9
 71
     3
 72
    23
 73
    19
 74
     0
 42
0.0000000001
 43
0.0000000001
 40
0.0
 40
0.0
 40
0.0
 40
0.0
 40
1.0
 40
1.0
 40
1.0
 40
2.0
 40
2.0
 40
2.0
 40
3.0
 40
3.0
 40
3.0
 40
4.0
 40
4.0
 40
4.0
 40
5.0
 40
5.0
 40
5.0
 40
6.0
 40
6.0
 40
6.0
 40
6.0
 10
41.27624725943167
 20
-77.70144450319932
 30
0.0
 10
41.27624725943167
 20
-77.70144450319932
 30
0.0
 10
38.06837883224316
 20
-77.70144450319932
 30
0.0
 10
38.06837883224316
 20
-77.70144450319932
 30
0.0
 10
38.0100439755204
 20
-77.70144450319932
 30
0.0
 10
37.96257497716263
 20
-77.65340370009017
 30
0.0
 10
37.96257497716263
 20
-77.59564037540889
 30
0.0
 10
37.96257497716263
 20
-77.53673316851301
 30
0.0
 10
38.0100439755204
 20
-77.48926430651116
 30
0.0
 10
38.06837883224316
 20
-77.48926430651116
 30
0.0
 10
38.06837883224316
 20
-77.48926430651116
 30
0.0
 10
41.27624725943167
 20
-77.48926430651116
 30
0.0
 10
41.27624725943167
 20
-77.48926430651116
 30
0.0
 10
41.33458211615444
 20
-77.48926430651116
 30
0.0
 10
41.38262271473101
 20
-77.53673316851301
 30
0.0
 10
41.38262271473101
 20
-77.59564037540889
 30
0.0
 10
41.38262271473101
 20
-77.65340370009017
 30
0.0
 10
41.33458211615444
 20
-77.70144450319932
 30
0.0
 10
41.27624725943167
 20
-77.70144450319932
 30
0.0
  0
HATCH
  5
9A
330
79
100
AcDbEntity
  8
Camada 1
 62
    28
420
  1184269
440
 33554687
100
AcDbHatch
 10
0.0
 20
0.0
 30
0.0
210
0.0
220
0.0
230
1.0
  2
SOLID
 70
     1
 71
     1
 91
        1
 92
        1
 93
        2
 72
     4
 94
        3
 73
     0
 74
     0
 95
       23
 96
       19
 40
0.0
 40
0.0
 40
0.0
 40
0.0
 40
1.0
 40
1.0
 40
1.0
 40
2.0
 40
2.0
 40
2.0
 40
3.0
 40
3.0
 40
3.0
 40
4.0
 40
4.0
 40
4.0
 40
5.0
 40
5.0
 40
5.0
 40
6.0
 40
6.0
 40
6.0
 40
6.0
 10
41.27624725943167
 20
-77.70144450319932
 10
41.27624725943167
 20
-77.70144450319932
 10
38.06837883224316
 20
-77.70144450319932
 10
38.06837883224316
 20
-77.70144450319932
 10
38.0100439755204
 20
-77.70144450319932
 10
37.96257497716263
 20
-77.65340370009017
 10
37.96257497716263
 20
-77.59564037540889
 10
37.96257497716263
 20
-77.53673316851301
 10
38.0100439755204
 20
-77.48926430651116
 10
38.06837883224316
 20
-77.48926430651116
 10
38.06837883224316
 20
-77.48926430651116
 10
41.27624725943167
 20
-77.48926430651116
 10
41.27624725943167
 20
-77.48926430651116
 10
41.33458211615444
 20
-77.48926430651116
 10
41.38262271473101
 20
-77.53673316851301
 10
41.38262271473101
 20
-77.59564037540889
 10
41.38262271473101
 20
-77.65340370009017
 10
41.33458211615444
 20
-77.70144450319932
 10
41.27624725943167
 20
-77.70144450319932
 97
        0
 72
     1
 10
41.27624725943167
 20
-77.70144450319932
 11
41.27624725943167
 21
-77.70144450319932
 97
        0
 75
     2
 76
     1
 98
        1
 10
0.0
 20
0.0
450
        0
451
        0
460
0.0
461
0.0
452
        0
462
0.0
453
        0
470

  0
SPLINE
  5
9B
330
79
100
AcDbEntity
  8
Camada 1
100
AcDbSpline
210
0.0
220
0.0
230
1.0
 70
     9
 71
     3
 72
    23
 73
    19
 74
     0
 42
0.0000000001
 43
0.0000000001
 40
0.0
 40
0.0
 40
0.0
 40
0.0
 40
1.0
 40
1.0
 40
1.0
 40
2.0
 40
2.0
 40
2.0
 40
3.0
 40
3.0
 40
3.0
 40
4.0
 40
4.0
 40
4.0
 40
5.0
 40
5.0
 40
5.0
 40
6.0
 40
6.0
 40
6.0
 40
6.0
 10
38.06843664676944
 20
-77.70144450319932
 30
0.0
 10
38.06843664676944
 20
-77.70144450319932
 30
0.0
 10
34.87086247772712
 20
-77.70144450319932
 30
0.0
 10
34.87086247772712
 20
-77.70144450319932
 30
0.0
 10
34.81195602078491
 20
-77.70144450319932
 30
0.0
 10
34.76505862264659
 20
-77.65340370009017
 30
0.0
 10
34.76505862264659
 20
-77.59564037540889
 30
0.0
 10
34.76505862264659
 20
-77.53673316851301
 30
0.0
 10
34.81195602078491
 20
-77.48926430651116
 30
0.0
 10
34.87086247772712
 20
-77.48926430651116
 30
0.0
 10
34.87086247772712
 20
-77.48926430651116
 30
0.0
 10
38.06843664676944
 20
-77.48926430651116
 30
0.0
 10
38.06843664676944
 20
-77.48926430651116
 30
0.0
 10
38.12734310371166
 20
-77.48926430651116
 30
0.0
 10
38.17424050184932
 20
-77.53673316851301
 30
0.0
 10
38.17424050184932
 20
-77.59564037540889
 30
0.0
 10
38.17424050184932
 20
-77.65340370009017
 30
0.0
 10
38.12734310371166
 20
-77.70144450319932
 30
0.0
 10
38.06843664676944
 20
-77.70144450319932
 30
0.0
  0
HATCH
  5
9C
330
79
100
AcDbEntity
  8
Camada 1
 62
    28
420
  1184269
440
 33554687
100
AcDbHatch
 10
0.0
 20
0.0
 30
0.0
210
0.0
220
0.0
230
1.0
  2
SOLID
 70
     1
 71
     1
 91
        1
 92
        1
 93
        2
 72
     4
 94
        3
 73
     0
 74
     0
 95
       23
 96
       19
 40
0.0
 40
0.0
 40
0.0
 40
0.0
 40
1.0
 40
1.0
 40
1.0
 40
2.0
 40
2.0
 40
2.0
 40
3.0
 40
3.0
 40
3.0
 40
4.0
 40
4.0
 40
4.0
 40
5.0
 40
5.0
 40
5.0
 40
6.0
 40
6.0
 40
6.0
 40
6.0
 10
38.06843664676944
 20
-77.70144450319932
 10
38.06843664676944
 20
-77.70144450319932
 10
34.87086247772712
 20
-77.70144450319932
 10
34.87086247772712
 20
-77.70144450319932
 10
34.81195602078491
 20
-77.70144450319932
 10
34.76505862264659
 20
-77.65340370009017
 10
34.76505862264659
 20
-77.59564037540889
 10
34.76505862264659
 20
-77.53673316851301
 10
34.81195602078491
 20
-77.48926430651116
 10
34.87086247772712
 20
-77.48926430651116
 10
34.87086247772712
 20
-77.48926430651116
 10
38.06843664676944
 20
-77.48926430651116
 10
38.06843664676944
 20
-77.48926430651116
 10
38.12734310371166
 20
-77.48926430651116
 10
38.17424050184932
 20
-77.53673316851301
 10
38.17424050184932
 20
-77.59564037540889
 10
38.17424050184932
 20
-77.65340370009017
 10
38.12734310371166
 20
-77.70144450319932
 10
38.06843664676944
 20
-77.70144450319932
 97
        0
 72
     1
 10
38.06843664676944
 20
-77.70144450319932
 11
38.06843664676944
 21
-77.70144450319932
 97
        0
 75
     2
 76
     1
 98
        1
 10
0.0
 20
0.0
450
        0
451
        0
460
0.0
461
0.0
452
        0
462
0.0
453
        0
470

  0
SPLINE
  5
9D
330
79
100
AcDbEntity
  8
Camada 1
100
AcDbSpline
210
0.0
220
0.0
230
1.0
 70
     9
 71
     3
 72
    32
 73
    28
 74
     0
 42
0.0000000001
 43
0.0000000001
 40
0.0
 40
0.0
 40
0.0
 40
0.0
 40
1.0
 40
1.0
 40
1.0
 40
2.0
 40
2.0
 40
2.0
 40
3.0
 40
3.0
 40
3.0
 40
4.0
 40
4.0
 40
4.0
 40
5.0
 40
5.0
 40
5.0
 40
6.0
 40
6.0
 40
6.0
 40
7.0
 40
7.0
 40
7.0
 40
8.0
 40
8.0
 40
8.0
 40
9.0
 40
9.0
 40
9.0
 40
9.0
 10
41.34133114393392
 20
-77.76567051012896
 30
0.0
 10
41.30244051222504
 20
-77.76567051012896
 30
0.0
 10
41.26526577201412
 20
-77.74393777073602
 30
0.0
 10
41.24639314721904
 20
-77.70676337141231
 30
0.0
 10
41.24639314721904
 20
-77.70676337141231
 30
0.0
 10
41.22923532308169
 20
-77.68960595634012
 30
0.0
 10
41.22923532308169
 20
-77.68960595634012
 30
0.0
 10
41.17719134129039
 20
-77.66444170666054
 30
0.0
 10
41.15545853371886
 20
-77.60038730251458
 30
0.0
 10
41.18176632472392
 20
-77.54777117508467
 30
0.0
 10
41.20750251551016
 20
-77.49629886169015
 30
0.0
 10
41.27041344650733
 20
-77.47456612229594
 30
0.0
 10
41.32360171957712
 20
-77.50030224490487
 30
0.0
 10
41.32360171957712
 20
-77.50030224490487
 30
0.0
 10
41.36706624387993
 20
-77.52203498429778
 30
0.0
 10
41.36706624387993
 20
-77.52203498429778
 30
0.0
 10
41.38765585101255
 20
-77.53175757404786
 30
0.0
 10
41.40424098409086
 20
-77.54891498912005
 30
0.0
 10
41.41453524223705
 20
-77.56950391447761
 30
0.0
 10
41.41453524223705
 20
-77.56950391447761
 30
0.0
 10
41.43626804980857
 20
-77.61296939326602
 30
0.0
 10
41.43626804980857
 20
-77.61296939326602
 30
0.0
 10
41.46200424059417
 20
-77.66444170666054
 30
0.0
 10
41.44084412408234
 20
-77.72849611080651
 30
0.0
 10
41.3887990514508
 20
-77.75480417452147
 30
0.0
 10
41.37392980987045
 20
-77.76223906802155
 30
0.0
 10
41.35734467679278
 20
-77.76567051012896
 30
0.0
 10
41.34133114393392
 20
-77.76567051012896
 30
0.0
  0
HATCH
  5
9E
330
79
100
AcDbEntity
  8
Camada 1
 62
    28
420
  1184269
440
 33554687
100
AcDbHatch
 10
0.0
 20
0.0
 30
0.0
210
0.0
220
0.0
230
1.0
  2
SOLID
 70
     1
 71
     1
 91
        1
 92
        1
 93
        2
 72
     4
 94
        3
 73
     0
 74
     0
 95
       32
 96
       28
 40
0.0
 40
0.0
 40
0.0
 40
0.0
 40
1.0
 40
1.0
 40
1.0
 40
2.0
 40
2.0
 40
2.0
 40
3.0
 40
3.0
 40
3.0
 40
4.0
 40
4.0
 40
4.0
 40
5.0
 40
5.0
 40
5.0
 40
6.0
 40
6.0
 40
6.0
 40
7.0
 40
7.0
 40
7.0
 40
8.0
 40
8.0
 40
8.0
 40
9.0
 40
9.0
 40
9.0
 40
9.0
 10
41.34133114393392
 20
-77.76567051012896
 10
41.30244051222504
 20
-77.76567051012896
 10
41.26526577201412
 20
-77.74393777073602
 10
41.24639314721904
 20
-77.70676337141231
 10
41.24639314721904
 20
-77.70676337141231
 10
41.22923532308169
 20
-77.68960595634012
 10
41.22923532308169
 20
-77.68960595634012
 10
41.17719134129039
 20
-77.66444170666054
 10
41.15545853371886
 20
-77.60038730251458
 10
41.18176632472392
 20
-77.54777117508467
 10
41.20750251551016
 20
-77.49629886169015
 10
41.27041344650733
 20
-77.47456612229594
 10
41.32360171957712
 20
-77.50030224490487
 10
41.32360171957712
 20
-77.50030224490487
 10
41.36706624387993
 20
-77.52203498429778
 10
41.36706624387993
 20
-77.52203498429778
 10
41.38765585101255
 20
-77.53175757404786
 10
41.40424098409086
 20
-77.54891498912005
 10
41.41453524223705
 20
-77.56950391447761
 10
41.41453524223705
 20
-77.56950391447761
 10
41.43626804980857
 20
-77.61296939326602
 10
41.43626804980857
 20
-77.61296939326602
 10
41.46200424059417
 20
-77.66444170666054
 10
41.44084412408234
 20
-77.72849611080651
 10
41.3887990514508
 20
-77.75480417452147
 10
41.37392980987045
 20
-77.76223906802155
 10
41.35734467679278
 20
-77.76567051012896
 10
41.34133114393392
 20
-77.76567051012896
 97
        0
 72
     1
 10
41.34133114393392
 20
-77.76567051012896
 11
41.34133114393392
 21
-77.76567051012896
 97
        0
 75
     2
 76
     1
 98
        1
 10
0.0
 20
0.0
450
        0
451
        0
460
0.0
461
0.0
452
        0
462
0.0
453
        0
470

  0
SPLINE
  5
9F
330
79
100
AcDbEntity
  8
Camada 1
100
AcDbSpline
210
0.0
220
0.0
230
1.0
 70
     9
 71
     3
 72
    23
 73
    19
 74
     0
 42
0.0000000001
 43
0.0000000001
 40
0.0
 40
0.0
 40
0.0
 40
0.0
 40
1.0
 40
1.0
 40
1.0
 40
2.0
 40
2.0
 40
2.0
 40
3.0
 40
3.0
 40
3.0
 40
4.0
 40
4.0
 40
4.0
 40
5.0
 40
5.0
 40
5.0
 40
6.0
 40
6.0
 40
6.0
 40
6.0
 10
35.37248966705168
 20
-77.65746428423276
 30
0.0
 10
35.31415371948868
 20
-77.65746428423276
 30
0.0
 10
35.26668472113092
 20
-77.60999542223091
 30
0.0
 10
35.26668472113092
 20
-77.55166015644234
 30
0.0
 10
35.26668472113092
 20
-77.55166015644234
 30
0.0
 10
35.26668472113092
 20
-66.39532688591881
 30
0.0
 10
35.26668472113092
 20
-66.39532688591881
 30
0.0
 10
35.26668472113092
 20
-66.33699093835581
 30
0.0
 10
35.31415371948868
 20
-66.28952193999804
 30
0.0
 10
35.37248966705168
 20
-66.28952193999804
 30
0.0
 10
35.43082452377445
 20
-66.28952193999804
 30
0.0
 10
35.47886512235102
 20
-66.33699093835581
 30
0.0
 10
35.47886512235102
 20
-66.39532688591881
 30
0.0
 10
35.47886512235102
 20
-66.39532688591881
 30
0.0
 10
35.47886512235102
 20
-77.55166015644234
 30
0.0
 10
35.47886512235102
 20
-77.55166015644234
 30
0.0
 10
35.47886512235102
 20
-77.60999542223091
 30
0.0
 10
35.43082452377445
 20
-77.65746428423276
 30
0.0
 10
35.37248966705168
 20
-77.65746428423276
 30
0.0
  0
HATCH
  5
A0
330
79
100
AcDbEntity
  8
Camada 1
 62
    28
420
  1184269
440
 33554687
100
AcDbHatch
 10
0.0
 20
0.0
 30
0.0
210
0.0
220
0.0
230
1.0
  2
SOLID
 70
     1
 71
     1
 91
        1
 92
        1
 93
        2
 72
     4
 94
        3
 73
     0
 74
     0
 95
       23
 96
       19
 40
0.0
 40
0.0
 40
0.0
 40
0.0
 40
1.0
 40
1.0
 40
1.0
 40
2.0
 40
2.0
 40
2.0
 40
3.0
 40
3.0
 40
3.0
 40
4.0
 40
4.0
 40
4.0
 40
5.0
 40
5.0
 40
5.0
 40
6.0
 40
6.0
 40
6.0
 40
6.0
 10
35.37248966705168
 20
-77.65746428423276
 10
35.31415371948868
 20
-77.65746428423276
 10
35.26668472113092
 20
-77.60999542223091
 10
35.26668472113092
 20
-77.55166015644234
 10
35.26668472113092
 20
-77.55166015644234
 10
35.26668472113092
 20
-66.39532688591881
 10
35.26668472113092
 20
-66.39532688591881
 10
35.26668472113092
 20
-66.33699093835581
 10
35.31415371948868
 20
-66.28952193999804
 10
35.37248966705168
 20
-66.28952193999804
 10
35.43082452377445
 20
-66.28952193999804
 10
35.47886512235102
 20
-66.33699093835581
 10
35.47886512235102
 20
-66.39532688591881
 10
35.47886512235102
 20
-66.39532688591881
 10
35.47886512235102
 20
-77.55166015644234
 10
35.47886512235102
 20
-77.55166015644234
 10
35.47886512235102
 20
-77.60999542223091
 10
35.43082452377445
 20
-77.65746428423276
 10
35.37248966705168
 20
-77.65746428423276
 97
        0
 72
     1
 10
35.37248966705168
 20
-77.65746428423274
 11
35.37248966705168
 21
-77.65746428423276
 97
        0
 75
     2
 76
     1
 98
        1
 10
0.0
 20
0.0
450
        0
451
        0
460
0.0
461
0.0
452
        0
462
0.0
453
        0
470

  0
SPLINE
  5
A1
330
79
100
AcDbEntity
  8
Camada 1
100
AcDbSpline
210
0.0
220
0.0
230
1.0
 70
     9
 71
     3
 72
    23
 73
    19
 74
     0
 42
0.0000000001
 43
0.0000000001
 40
0.0
 40
0.0
 40
0.0
 40
0.0
 40
1.0
 40
1.0
 40
1.0
 40
2.0
 40
2.0
 40
2.0
 40
3.0
 40
3.0
 40
3.0
 40
4.0
 40
4.0
 40
4.0
 40
5.0
 40
5.0
 40
5.0
 40
6.0
 40
6.0
 40
6.0
 40
6.0
 10
40.89117742702144
 20
-66.50147326479542
 30
0.0
 10
40.89117742702144
 20
-66.50147326479542
 30
0.0
 10
35.37277546716109
 20
-66.50147326479542
 30
0.0
 10
35.37277546716109
 20
-66.50147326479542
 30
0.0
 10
35.31443951959808
 20
-66.50147326479542
 30
0.0
 10
35.26697161208056
 20
-66.45400535727725
 30
0.0
 10
35.26697161208056
 20
-66.39566940971426
 30
0.0
 10
35.26697161208056
 20
-66.33676295277203
 30
0.0
 10
35.31443951959808
 20
-66.28929395441556
 30
0.0
 10
35.37277546716109
 20
-66.28929395441556
 30
0.0
 10
35.37277546716109
 20
-66.28929395441556
 30
0.0
 10
40.89117742702144
 20
-66.28929395441556
 30
0.0
 10
40.89117742702144
 20
-66.28929395441556
 30
0.0
 10
40.95008388396365
 20
-66.28929395441556
 30
0.0
 10
40.99755288232142
 20
-66.33676295277203
 30
0.0
 10
40.99755288232142
 20
-66.39566940971426
 30
0.0
 10
40.99755288232142
 20
-66.45400535727725
 30
0.0
 10
40.95008388396365
 20
-66.50147326479542
 30
0.0
 10
40.89117742702144
 20
-66.50147326479542
 30
0.0
  0
HATCH
  5
A2
330
79
100
AcDbEntity
  8
Camada 1
 62
    28
420
  1184269
440
 33554687
100
AcDbHatch
 10
0.0
 20
0.0
 30
0.0
210
0.0
220
0.0
230
1.0
  2
SOLID
 70
     1
 71
     1
 91
        1
 92
        1
 93
        2
 72
     4
 94
        3
 73
     0
 74
     0
 95
       23
 96
       19
 40
0.0
 40
0.0
 40
0.0
 40
0.0
 40
1.0
 40
1.0
 40
1.0
 40
2.0
 40
2.0
 40
2.0
 40
3.0
 40
3.0
 40
3.0
 40
4.0
 40
4.0
 40
4.0
 40
5.0
 40
5.0
 40
5.0
 40
6.0
 40
6.0
 40
6.0
 40
6.0
 10
40.89117742702144
 20
-66.50147326479542
 10
40.89117742702144
 20
-66.50147326479542
 10
35.37277546716109
 20
-66.50147326479542
 10
35.37277546716109
 20
-66.50147326479542
 10
35.31443951959808
 20
-66.50147326479542
 10
35.26697161208056
 20
-66.45400535727725
 10
35.26697161208056
 20
-66.39566940971426
 10
35.26697161208056
 20
-66.33676295277203
 10
35.31443951959808
 20
-66.28929395441556
 10
35.37277546716109
 20
-66.28929395441556
 10
35.37277546716109
 20
-66.28929395441556
 10
40.89117742702144
 20
-66.28929395441556
 10
40.89117742702144
 20
-66.28929395441556
 10
40.95008388396365
 20
-66.28929395441556
 10
40.99755288232142
 20
-66.33676295277203
 10
40.99755288232142
 20
-66.39566940971426
 10
40.99755288232142
 20
-66.45400535727725
 10
40.95008388396365
 20
-66.50147326479542
 10
40.89117742702144
 20
-66.50147326479542
 97
        0
 72
     1
 10
40.89117742702144
 20
-66.50147326479542
 11
40.89117742702144
 21
-66.50147326479542
 97
        0
 75
     2
 76
     1
 98
        1
 10
0.0
 20
0.0
450
        0
451
        0
460
0.0
461
0.0
452
        0
462
0.0
453
        0
470

  0
SPLINE
  5
A3
330
79
100
AcDbEntity
  8
Camada 1
100
AcDbSpline
210
0.0
220
0.0
230
1.0
 70
     9
 71
     3
 72
    23
 73
    19
 74
     0
 42
0.0000000001
 43
0.0000000001
 40
0.0
 40
0.0
 40
0.0
 40
0.0
 40
1.0
 40
1.0
 40
1.0
 40
2.0
 40
2.0
 40
2.0
 40
3.0
 40
3.0
 40
3.0
 40
4.0
 40
4.0
 40
4.0
 40
5.0
 40
5.0
 40
5.0
 40
6.0
 40
6.0
 40
6.0
 40
6.0
 10
44.72477574151019
 20
-69.80885467213171
 30
0.0
 10
44.72477574151019
 20
-69.80885467213171
 30
0.0
 10
43.56493126464047
 20
-69.80885467213171
 30
0.0
 10
43.56493126464047
 20
-69.80885467213171
 30
0.0
 10
43.5065974987573
 20
-69.80885467213171
 30
0.0
 10
43.45912850040018
 20
-69.76081407355514
 30
0.0
 10
43.45912850040018
 20
-69.70305081705181
 30
0.0
 10
43.45912850040018
 20
-69.64414381468981
 30
0.0
 10
43.5065974987573
 20
-69.59667481633204
 30
0.0
 10
43.56493126464047
 20
-69.59667481633204
 30
0.0
 10
43.56493126464047
 20
-69.59667481633204
 30
0.0
 10
44.72477574151019
 20
-69.59667481633204
 30
0.0
 10
44.72477574151019
 20
-69.59667481633204
 30
0.0
 10
44.78310950739335
 20
-69.59667481633204
 30
0.0
 10
44.83115010596993
 20
-69.64414381468981
 30
0.0
 10
44.83115010596993
 20
-69.70305081705181
 30
0.0
 10
44.83115010596993
 20
-69.76081407355514
 30
0.0
 10
44.78310950739335
 20
-69.80885467213171
 30
0.0
 10
44.72477574151019
 20
-69.80885467213171
 30
0.0
  0
HATCH
  5
A4
330
79
100
AcDbEntity
  8
Camada 1
 62
    28
420
  1184269
440
 33554687
100
AcDbHatch
 10
0.0
 20
0.0
 30
0.0
210
0.0
220
0.0
230
1.0
  2
SOLID
 70
     1
 71
     1
 91
        1
 92
        1
 93
        2
 72
     4
 94
        3
 73
     0
 74
     0
 95
       23
 96
       19
 40
0.0
 40
0.0
 40
0.0
 40
0.0
 40
1.0
 40
1.0
 40
1.0
 40
2.0
 40
2.0
 40
2.0
 40
3.0
 40
3.0
 40
3.0
 40
4.0
 40
4.0
 40
4.0
 40
5.0
 40
5.0
 40
5.0
 40
6.0
 40
6.0
 40
6.0
 40
6.0
 10
44.72477574151019
 20
-69.80885467213171
 10
44.72477574151019
 20
-69.80885467213171
 10
43.56493126464047
 20
-69.80885467213171
 10
43.56493126464047
 20
-69.80885467213171
 10
43.5065974987573
 20
-69.80885467213171
 10
43.45912850040018
 20
-69.76081407355514
 10
43.45912850040018
 20
-69.70305081705181
 10
43.45912850040018
 20
-69.64414381468981
 10
43.5065974987573
 20
-69.59667481633204
 10
43.56493126464047
 20
-69.59667481633204
 10
43.56493126464047
 20
-69.59667481633204
 10
44.72477574151019
 20
-69.59667481633204
 10
44.72477574151019
 20
-69.59667481633204
 10
44.78310950739335
 20
-69.59667481633204
 10
44.83115010596993
 20
-69.64414381468981
 10
44.83115010596993
 20
-69.70305081705181
 10
44.83115010596993
 20
-69.76081407355514
 10
44.78310950739335
 20
-69.80885467213171
 10
44.72477574151019
 20
-69.80885467213171
 97
        0
 72
     1
 10
44.72477574151019
 20
-69.80885467213171
 11
44.72477574151019
 21
-69.80885467213171
 97
        0
 75
     2
 76
     1
 98
        1
 10
0.0
 20
0.0
450
        0
451
        0
460
0.0
461
0.0
452
        0
462
0.0
453
        0
470

  0
SPLINE
  5
A5
330
79
100
AcDbEntity
  8
Camada 1
100
AcDbSpline
210
0.0
220
0.0
230
1.0
 70
     9
 71
     3
 72
    23
 73
    19
 74
     0
 42
0.0000000001
 43
0.0000000001
 40
0.0
 40
0.0
 40
0.0
 40
0.0
 40
1.0
 40
1.0
 40
1.0
 40
2.0
 40
2.0
 40
2.0
 40
3.0
 40
3.0
 40
3.0
 40
4.0
 40
4.0
 40
4.0
 40
5.0
 40
5.0
 40
5.0
 40
6.0
 40
6.0
 40
6.0
 40
6.0
 10
46.97977787654967
 20
-69.80885467213171
 30
0.0
 10
46.97977787654967
 20
-69.80885467213171
 30
0.0
 10
46.16365493760642
 20
-69.80885467213171
 30
0.0
 10
46.16365493760642
 20
-69.80885467213171
 30
0.0
 10
46.10531899004342
 20
-69.80885467213171
 30
0.0
 10
46.05784999168565
 20
-69.76081407355514
 30
0.0
 10
46.05784999168565
 20
-69.70305081705181
 30
0.0
 10
46.05784999168565
 20
-69.64414381468981
 30
0.0
 10
46.10531899004342
 20
-69.59667481633204
 30
0.0
 10
46.16365493760642
 20
-69.59667481633204
 30
0.0
 10
46.16365493760642
 20
-69.59667481633204
 30
0.0
 10
46.97977787654967
 20
-69.59667481633204
 30
0.0
 10
46.97977787654967
 20
-69.59667481633204
 30
0.0
 10
47.03811164243283
 20
-69.59667481633204
 30
0.0
 10
47.08615224100941
 20
-69.64414381468981
 30
0.0
 10
47.08615224100941
 20
-69.70305081705181
 30
0.0
 10
47.08615224100941
 20
-69.76081407355514
 30
0.0
 10
47.03811164243283
 20
-69.80885467213171
 30
0.0
 10
46.97977787654967
 20
-69.80885467213171
 30
0.0
  0
HATCH
  5
A6
330
79
100
AcDbEntity
  8
Camada 1
 62
    28
420
  1184269
440
 33554687
100
AcDbHatch
 10
0.0
 20
0.0
 30
0.0
210
0.0
220
0.0
230
1.0
  2
SOLID
 70
     1
 71
     1
 91
        1
 92
        1
 93
        2
 72
     4
 94
        3
 73
     0
 74
     0
 95
       23
 96
       19
 40
0.0
 40
0.0
 40
0.0
 40
0.0
 40
1.0
 40
1.0
 40
1.0
 40
2.0
 40
2.0
 40
2.0
 40
3.0
 40
3.0
 40
3.0
 40
4.0
 40
4.0
 40
4.0
 40
5.0
 40
5.0
 40
5.0
 40
6.0
 40
6.0
 40
6.0
 40
6.0
 10
46.97977787654967
 20
-69.80885467213171
 10
46.97977787654967
 20
-69.80885467213171
 10
46.16365493760642
 20
-69.80885467213171
 10
46.16365493760642
 20
-69.80885467213171
 10
46.10531899004342
 20
-69.80885467213171
 10
46.05784999168565
 20
-69.76081407355514
 10
46.05784999168565
 20
-69.70305081705181
 10
46.05784999168565
 20
-69.64414381468981
 10
46.10531899004342
 20
-69.59667481633204
 10
46.16365493760642
 20
-69.59667481633204
 10
46.16365493760642
 20
-69.59667481633204
 10
46.97977787654967
 20
-69.59667481633204
 10
46.97977787654967
 20
-69.59667481633204
 10
47.03811164243283
 20
-69.59667481633204
 10
47.08615224100941
 20
-69.64414381468981
 10
47.08615224100941
 20
-69.70305081705181
 10
47.08615224100941
 20
-69.76081407355514
 10
47.03811164243283
 20
-69.80885467213171
 10
46.97977787654967
 20
-69.80885467213171
 97
        0
 72
     1
 10
46.97977787654967
 20
-69.80885467213171
 11
46.97977787654967
 21
-69.80885467213171
 97
        0
 75
     2
 76
     1
 98
        1
 10
0.0
 20
0.0
450
        0
451
        0
460
0.0
461
0.0
452
        0
462
0.0
453
        0
470

  0
SPLINE
  5
A7
330
79
100
AcDbEntity
  8
Camada 1
100
AcDbSpline
210
0.0
220
0.0
230
1.0
 70
     9
 71
     3
 72
    23
 73
    19
 74
     0
 42
0.0000000001
 43
0.0000000001
 40
0.0
 40
0.0
 40
0.0
 40
0.0
 40
1.0
 40
1.0
 40
1.0
 40
2.0
 40
2.0
 40
2.0
 40
3.0
 40
3.0
 40
3.0
 40
4.0
 40
4.0
 40
4.0
 40
5.0
 40
5.0
 40
5.0
 40
6.0
 40
6.0
 40
6.0
 40
6.0
 10
46.97977787654967
 20
-75.32759942849804
 30
0.0
 10
46.97977787654967
 20
-75.32759942849804
 30
0.0
 10
44.74587913433662
 20
-75.32759942849804
 30
0.0
 10
44.74587913433662
 20
-75.32759942849804
 30
0.0
 10
44.68754318677361
 20
-75.32759942849804
 30
0.0
 10
44.64007418841585
 20
-75.28013070285083
 30
0.0
 10
44.64007418841585
 20
-75.22122342777826
 30
0.0
 10
44.64007418841585
 20
-75.16288829834561
 30
0.0
 10
44.68754318677361
 20
-75.11541929998784
 30
0.0
 10
44.74587913433662
 20
-75.11541929998784
 30
0.0
 10
44.74587913433662
 20
-75.11541929998784
 30
0.0
 10
46.97977787654967
 20
-75.11541929998784
 30
0.0
 10
46.97977787654967
 20
-75.11541929998784
 30
0.0
 10
47.03811164243283
 20
-75.11541929998784
 30
0.0
 10
47.08615224100941
 20
-75.16288829834561
 30
0.0
 10
47.08615224100941
 20
-75.22122342777826
 30
0.0
 10
47.08615224100941
 20
-75.28013070285083
 30
0.0
 10
47.03811164243283
 20
-75.32759942849804
 30
0.0
 10
46.97977787654967
 20
-75.32759942849804
 30
0.0
  0
HATCH
  5
A8
330
79
100
AcDbEntity
  8
Camada 1
 62
    28
420
  1184269
440
 33554687
100
AcDbHatch
 10
0.0
 20
0.0
 30
0.0
210
0.0
220
0.0
230
1.0
  2
SOLID
 70
     1
 71
     1
 91
        1
 92
        1
 93
        2
 72
     4
 94
        3
 73
     0
 74
     0
 95
       23
 96
       19
 40
0.0
 40
0.0
 40
0.0
 40
0.0
 40
1.0
 40
1.0
 40
1.0
 40
2.0
 40
2.0
 40
2.0
 40
3.0
 40
3.0
 40
3.0
 40
4.0
 40
4.0
 40
4.0
 40
5.0
 40
5.0
 40
5.0
 40
6.0
 40
6.0
 40
6.0
 40
6.0
 10
46.97977787654967
 20
-75.32759942849804
 10
46.97977787654967
 20
-75.32759942849804
 10
44.74587913433662
 20
-75.32759942849804
 10
44.74587913433662
 20
-75.32759942849804
 10
44.68754318677361
 20
-75.32759942849804
 10
44.64007418841585
 20
-75.28013070285083
 10
44.64007418841585
 20
-75.22122342777826
 10
44.64007418841585
 20
-75.16288829834561
 10
44.68754318677361
 20
-75.11541929998784
 10
44.74587913433662
 20
-75.11541929998784
 10
44.74587913433662
 20
-75.11541929998784
 10
46.97977787654967
 20
-75.11541929998784
 10
46.97977787654967
 20
-75.11541929998784
 10
47.03811164243283
 20
-75.11541929998784
 10
47.08615224100941
 20
-75.16288829834561
 10
47.08615224100941
 20
-75.22122342777826
 10
47.08615224100941
 20
-75.28013070285083
 10
47.03811164243283
 20
-75.32759942849804
 10
46.97977787654967
 20
-75.32759942849804
 97
        0
 72
     1
 10
46.97977787654967
 20
-75.32759942849804
 11
46.97977787654967
 21
-75.32759942849804
 97
        0
 75
     2
 76
     1
 98
        1
 10
0.0
 20
0.0
450
        0
451
        0
460
0.0
461
0.0
452
        0
462
0.0
453
        0
470

  0
SPLINE
  5
A9
330
79
100
AcDbEntity
  8
Camada 1
100
AcDbSpline
210
0.0
220
0.0
230
1.0
 70
     9
 71
     3
 72
    77
 73
    73
 74
     0
 42
0.0000000001
 43
0.0000000001
 40
0.0
 40
0.0
 40
0.0
 40
0.0
 40
1.0
 40
1.0
 40
1.0
 40
2.0
 40
2.0
 40
2.0
 40
3.0
 40
3.0
 40
3.0
 40
4.0
 40
4.0
 40
4.0
 40
5.0
 40
5.0
 40
5.0
 40
6.0
 40
6.0
 40
6.0
 40
7.0
 40
7.0
 40
7.0
 40
8.0
 40
8.0
 40
8.0
 40
9.0
 40
9.0
 40
9.0
 40
10.0
 40
10.0
 40
10.0
 40
11.0
 40
11.0
 40
11.0
 40
12.0
 40
12.0
 40
12.0
 40
13.0
 40
13.0
 40
13.0
 40
14.0
 40
14.0
 40
14.0
 40
15.0
 40
15.0
 40
15.0
 40
16.0
 40
16.0
 40
16.0
 40
17.0
 40
17.0
 40
17.0
 40
18.0
 40
18.0
 40
18.0
 40
19.0
 40
19.0
 40
19.0
 40
20.0
 40
20.0
 40
20.0
 40
21.0
 40
21.0
 40
21.0
 40
22.0
 40
22.0
 40
22.0
 40
23.0
 40
23.0
 40
23.0
 40
24.0
 40
24.0
 40
24.0
 40
24.0
 10
45.88450458932863
 20
-69.87290880356714
 30
0.0
 10
45.88450458932863
 20
-69.87290880356714
 30
0.0
 10
45.84103897418622
 20
-69.87290880356714
 30
0.0
 10
45.84103897418622
 20
-69.87290880356714
 30
0.0
 10
45.78270302662257
 20
-69.87290880356714
 30
0.0
 10
45.73523402826546
 20
-69.82544035063046
 30
0.0
 10
45.73523402826546
 20
-69.76710494848726
 30
0.0
 10
45.73523402826546
 20
-69.70819794612523
 30
0.0
 10
45.78270302662257
 20
-69.66072894776748
 30
0.0
 10
45.84103897418622
 20
-69.66072894776748
 30
0.0
 10
45.84103897418622
 20
-69.66072894776748
 30
0.0
 10
45.88335920720989
 20
-69.65558181869406
 30
0.0
 10
45.88335920720989
 20
-69.65558181869406
 30
0.0
 10
45.89422615641577
 20
-69.65215003569944
 30
0.0
 10
45.9045215054022
 20
-69.65043414420084
 30
0.0
 10
45.91653165504634
 20
-69.65043414420084
 30
0.0
 10
45.91653165504634
 20
-69.65043414420084
 30
0.0
 10
45.91938965614231
 20
-69.65043414420084
 30
0.0
 10
45.91938965614231
 20
-69.65043414420084
 30
0.0
 10
45.93311678812465
 20
-69.64357166904992
 30
0.0
 10
45.94684173842651
 20
-69.6395677404154
 30
0.0
 10
45.95942348828947
 20
-69.6395677404154
 30
0.0
 10
45.9748654209295
 20
-69.63384901112317
 30
0.0
 10
45.9920243359071
 20
-69.62870188204977
 30
0.0
 10
46.00231750321306
 20
-69.62870188204977
 30
0.0
 10
46.00231750321306
 20
-69.62870188204977
 30
0.0
 10
46.00231750321306
 20
-69.62927348226857
 30
0.0
 10
46.00231750321306
 20
-69.62927348226857
 30
0.0
 10
46.01775943585247
 20
-69.62355420755655
 30
0.0
 10
46.03606155126897
 20
-69.61783547826432
 30
0.0
 10
46.04521151813666
 20
-69.61783547826432
 30
0.0
 10
46.04521151813666
 20
-69.61783547826432
 30
0.0
 10
46.05893646843852
 20
-69.61783547826432
 30
0.0
 10
46.05893646843852
 20
-69.61783547826432
 30
0.0
 10
46.07266360042021
 20
-69.6115440579124
 30
0.0
 10
46.08696015094151
 20
-69.60754067469768
 30
0.0
 10
46.09897248226549
 20
-69.60754067469768
 30
0.0
 10
46.09897248226549
 20
-69.60754067469768
 30
0.0
 10
46.10125888314266
 20
-69.60754067469768
 30
0.0
 10
46.10125888314266
 20
-69.60754067469768
 30
0.0
 10
46.18247192955569
 20
-69.56865058840924
 30
0.0
 10
46.2539612272011
 20
-69.63213311962586
 30
0.0
 10
46.2539612272011
 20
-69.70305027163202
 30
0.0
 10
46.2539612272011
 20
-69.75223516148709
 30
0.0
 10
46.22307736192229
 20
-69.79398488513155
 30
0.0
 10
46.17846854634097
 20
-69.80599503477569
 30
0.0
 10
46.16245283180163
 20
-69.81343020098631
 30
0.0
 10
46.14586769872397
 20
-69.81972107591843
 30
0.0
 10
46.13157114820267
 20
-69.81972107591843
 30
0.0
 10
46.13157114820267
 20
-69.81972107591843
 30
0.0
 10
46.12928256564566
 20
-69.81972107591843
 30
0.0
 10
46.12928256564566
 20
-69.81972107591843
 30
0.0
 10
46.11441223322507
 20
-69.82658409648916
 30
0.0
 10
46.10068728292321
 20
-69.83001533406398
 30
0.0
 10
46.08810553306025
 20
-69.83001533406398
 30
0.0
 10
46.08810553306025
 20
-69.83001533406398
 30
0.0
 10
46.06522843421023
 20
-69.83001533406398
 30
0.0
 10
46.06522843421023
 20
-69.83001533406398
 30
0.0
 10
46.05035810178963
 20
-69.83573460877728
 30
0.0
 10
46.03320136849252
 20
-69.84088173784943
 30
0.0
 10
46.02405140162482
 20
-69.84088173784943
 30
0.0
 10
46.01318445241894
 20
-69.84431352084533
 30
0.0
 10
46.00174590299361
 20
-69.84774475842144
 30
0.0
 10
45.9920243359071
 20
-69.85003225013755
 30
0.0
 10
45.97715400348651
 20
-69.85689527070828
 30
0.0
 10
45.96171207084647
 20
-69.86204294520149
 30
0.0
 10
45.94913032098351
 20
-69.86204294520149
 30
0.0
 10
45.94913032098351
 20
-69.86204294520149
 30
0.0
 10
45.91824645570405
 20
-69.86719007427492
 30
0.0
 10
45.91824645570405
 20
-69.86719007427492
 30
0.0
 10
45.90680790627937
 20
-69.87119345748962
 30
0.0
 10
45.89594095707348
 20
-69.87290880356714
 30
0.0
 10
45.88450458932863
 20
-69.87290880356714
 30
0.0
  0
HATCH
  5
AA
330
79
100
AcDbEntity
  8
Camada 1
 62
    28
420
  1184269
440
 33554687
100
AcDbHatch
 10
0.0
 20
0.0
 30
0.0
210
0.0
220
0.0
230
1.0
  2
SOLID
 70
     1
 71
     1
 91
        1
 92
        1
 93
        2
 72
     4
 94
        3
 73
     0
 74
     0
 95
       77
 96
       73
 40
0.0
 40
0.0
 40
0.0
 40
0.0
 40
1.0
 40
1.0
 40
1.0
 40
2.0
 40
2.0
 40
2.0
 40
3.0
 40
3.0
 40
3.0
 40
4.0
 40
4.0
 40
4.0
 40
5.0
 40
5.0
 40
5.0
 40
6.0
 40
6.0
 40
6.0
 40
7.0
 40
7.0
 40
7.0
 40
8.0
 40
8.0
 40
8.0
 40
9.0
 40
9.0
 40
9.0
 40
10.0
 40
10.0
 40
10.0
 40
11.0
 40
11.0
 40
11.0
 40
12.0
 40
12.0
 40
12.0
 40
13.0
 40
13.0
 40
13.0
 40
14.0
 40
14.0
 40
14.0
 40
15.0
 40
15.0
 40
15.0
 40
16.0
 40
16.0
 40
16.0
 40
17.0
 40
17.0
 40
17.0
 40
18.0
 40
18.0
 40
18.0
 40
19.0
 40
19.0
 40
19.0
 40
20.0
 40
20.0
 40
20.0
 40
21.0
 40
21.0
 40
21.0
 40
22.0
 40
22.0
 40
22.0
 40
23.0
 40
23.0
 40
23.0
 40
24.0
 40
24.0
 40
24.0
 40
24.0
 10
45.88450458932863
 20
-69.87290880356714
 10
45.88450458932863
 20
-69.87290880356714
 10
45.84103897418622
 20
-69.87290880356714
 10
45.84103897418622
 20
-69.87290880356714
 10
45.78270302662257
 20
-69.87290880356714
 10
45.73523402826546
 20
-69.82544035063046
 10
45.73523402826546
 20
-69.76710494848726
 10
45.73523402826546
 20
-69.70819794612523
 10
45.78270302662257
 20
-69.66072894776748
 10
45.84103897418622
 20
-69.66072894776748
 10
45.84103897418622
 20
-69.66072894776748
 10
45.88335920720989
 20
-69.65558181869406
 10
45.88335920720989
 20
-69.65558181869406
 10
45.89422615641577
 20
-69.65215003569944
 10
45.9045215054022
 20
-69.65043414420084
 10
45.91653165504634
 20
-69.65043414420084
 10
45.91653165504634
 20
-69.65043414420084
 10
45.91938965614231
 20
-69.65043414420084
 10
45.91938965614231
 20
-69.65043414420084
 10
45.93311678812465
 20
-69.64357166904992
 10
45.94684173842651
 20
-69.6395677404154
 10
45.95942348828947
 20
-69.6395677404154
 10
45.9748654209295
 20
-69.63384901112317
 10
45.9920243359071
 20
-69.62870188204977
 10
46.00231750321306
 20
-69.62870188204977
 10
46.00231750321306
 20
-69.62870188204977
 10
46.00231750321306
 20
-69.62927348226857
 10
46.00231750321306
 20
-69.62927348226857
 10
46.01775943585247
 20
-69.62355420755655
 10
46.03606155126897
 20
-69.61783547826432
 10
46.04521151813666
 20
-69.61783547826432
 10
46.04521151813666
 20
-69.61783547826432
 10
46.05893646843852
 20
-69.61783547826432
 10
46.05893646843852
 20
-69.61783547826432
 10
46.07266360042021
 20
-69.6115440579124
 10
46.08696015094151
 20
-69.60754067469768
 10
46.09897248226549
 20
-69.60754067469768
 10
46.09897248226549
 20
-69.60754067469768
 10
46.10125888314266
 20
-69.60754067469768
 10
46.10125888314266
 20
-69.60754067469768
 10
46.18247192955569
 20
-69.56865058840924
 10
46.2539612272011
 20
-69.63213311962586
 10
46.2539612272011
 20
-69.70305027163202
 10
46.2539612272011
 20
-69.75223516148709
 10
46.22307736192229
 20
-69.79398488513155
 10
46.17846854634097
 20
-69.80599503477569
 10
46.16245283180163
 20
-69.81343020098631
 10
46.14586769872397
 20
-69.81972107591843
 10
46.13157114820267
 20
-69.81972107591843
 10
46.13157114820267
 20
-69.81972107591843
 10
46.12928256564566
 20
-69.81972107591843
 10
46.12928256564566
 20
-69.81972107591843
 10
46.11441223322507
 20
-69.82658409648916
 10
46.10068728292321
 20
-69.83001533406398
 10
46.08810553306025
 20
-69.83001533406398
 10
46.08810553306025
 20
-69.83001533406398
 10
46.06522843421023
 20
-69.83001533406398
 10
46.06522843421023
 20
-69.83001533406398
 10
46.05035810178963
 20
-69.83573460877728
 10
46.03320136849252
 20
-69.84088173784943
 10
46.02405140162482
 20
-69.84088173784943
 10
46.01318445241894
 20
-69.84431352084533
 10
46.00174590299361
 20
-69.84774475842144
 10
45.9920243359071
 20
-69.85003225013755
 10
45.97715400348651
 20
-69.85689527070828
 10
45.96171207084647
 20
-69.86204294520149
 10
45.94913032098351
 20
-69.86204294520149
 10
45.94913032098351
 20
-69.86204294520149
 10
45.91824645570405
 20
-69.86719007427492
 10
45.91824645570405
 20
-69.86719007427492
 10
45.90680790627937
 20
-69.87119345748962
 10
45.89594095707348
 20
-69.87290880356714
 10
45.88450458932863
 20
-69.87290880356714
 97
        0
 72
     1
 10
45.88450458932862
 20
-69.87290880356714
 11
45.88450458932863
 21
-69.87290880356714
 97
        0
 75
     2
 76
     1
 98
        1
 10
0.0
 20
0.0
450
        0
451
        0
460
0.0
461
0.0
452
        0
462
0.0
453
        0
470

  0
SPLINE
  5
AB
330
79
100
AcDbEntity
  8
Camada 1
100
AcDbSpline
210
0.0
220
0.0
230
1.0
 70
     9
 71
     3
 72
    62
 73
    58
 74
     0
 42
0.0000000001
 43
0.0000000001
 40
0.0
 40
0.0
 40
0.0
 40
0.0
 40
1.0
 40
1.0
 40
1.0
 40
2.0
 40
2.0
 40
2.0
 40
3.0
 40
3.0
 40
3.0
 40
4.0
 40
4.0
 40
4.0
 40
5.0
 40
5.0
 40
5.0
 40
6.0
 40
6.0
 40
6.0
 40
7.0
 40
7.0
 40
7.0
 40
8.0
 40
8.0
 40
8.0
 40
9.0
 40
9.0
 40
9.0
 40
10.0
 40
10.0
 40
10.0
 40
11.0
 40
11.0
 40
11.0
 40
12.0
 40
12.0
 40
12.0
 40
13.0
 40
13.0
 40
13.0
 40
14.0
 40
14.0
 40
14.0
 40
15.0
 40
15.0
 40
15.0
 40
16.0
 40
16.0
 40
16.0
 40
17.0
 40
17.0
 40
17.0
 40
18.0
 40
18.0
 40
18.0
 40
19.0
 40
19.0
 40
19.0
 40
19.0
 10
45.01490866804578
 20
-69.87290880356714
 30
0.0
 10
45.00289633672116
 20
-69.87290880356714
 30
0.0
 10
44.99203156919576
 20
-69.87119345748962
 30
0.0
 10
44.98116461998987
 20
-69.86719007427492
 30
0.0
 10
44.98116461998987
 20
-69.86719007427492
 30
0.0
 10
44.94970915449161
 20
-69.86204294520149
 30
0.0
 10
44.94970915449161
 20
-69.86204294520149
 30
0.0
 10
44.93369562163276
 20
-69.86204294520149
 30
0.0
 10
44.9176820887739
 20
-69.85861116220687
 30
0.0
 10
44.90338335657275
 20
-69.85117654141605
 30
0.0
 10
44.90338335657275
 20
-69.85117654141605
 30
0.0
 10
44.89595037204261
 20
-69.85117654141605
 30
0.0
 10
44.89595037204261
 20
-69.85117654141605
 30
0.0
 10
44.87993683918375
 20
-69.85117654141605
 30
0.0
 10
44.86392112464442
 20
-69.84774475842144
 30
0.0
 10
44.84962457412374
 20
-69.84031013763061
 30
0.0
 10
44.8336110412649
 20
-69.84031013763061
 30
0.0
 10
44.82274409205901
 20
-69.8374505002746
 30
0.0
 10
44.80844754153834
 20
-69.83058747970388
 30
0.0
 10
44.78785684356484
 20
-69.83001533406398
 30
0.0
 10
44.76841152771072
 20
-69.82658409648916
 30
0.0
 10
44.7501115939747
 20
-69.81743358420103
 30
0.0
 10
44.72494591256832
 20
-69.81400180120512
 30
0.0
 10
44.6974960119646
 20
-69.80427914327839
 30
0.0
 10
44.68148247910574
 20
-69.78883775605814
 30
0.0
 10
44.65403039682155
 20
-69.76882083998457
 30
0.0
 10
44.63515668118688
 20
-69.73793752012555
 30
0.0
 10
44.63515668118688
 20
-69.70305027163202
 30
0.0
 10
44.63515668118688
 20
-69.62755759077126
 30
0.0
 10
44.71179256248527
 20
-69.57494146334008
 30
0.0
 10
44.79014542612248
 20
-69.60868442055638
 30
0.0
 10
44.80272717598544
 20
-69.6104003120537
 30
0.0
 10
44.81473732562959
 20
-69.6132599494097
 30
0.0
 10
44.82731907549317
 20
-69.61840707848313
 30
0.0
 10
44.84447799047077
 20
-69.61897922412302
 30
0.0
 10
44.86449490654435
 20
-69.62241046169784
 30
0.0
 10
44.87821985684621
 20
-69.62870188204977
 30
0.0
 10
44.89480498992387
 20
-69.62870188204977
 30
0.0
 10
44.90796052168675
 20
-69.63270526526447
 30
0.0
 10
44.92225707220806
 20
-69.6395677404154
 30
0.0
 10
44.92225707220806
 20
-69.6395677404154
 30
0.0
 10
44.93941380550518
 20
-69.6395677404154
 30
0.0
 10
44.93941380550518
 20
-69.6395677404154
 30
0.0
 10
44.95542952004451
 20
-69.6395677404154
 30
0.0
 10
44.97144305290337
 20
-69.6429995234113
 30
0.0
 10
44.98573960342404
 20
-69.65043414420084
 30
0.0
 10
44.99603495241047
 20
-69.65100628984074
 30
0.0
 10
45.00632811971707
 20
-69.65215003569944
 30
0.0
 10
45.01605186848404
 20
-69.65558181869406
 30
0.0
 10
45.01605186848404
 20
-69.65558181869406
 30
0.0
 10
45.04807893420176
 20
-69.6664482224795
 30
0.0
 10
45.04807893420176
 20
-69.6664482224795
 30
0.0
 10
45.10355469898895
 20
-69.68532139269566
 30
0.0
 10
45.13386478236848
 20
-69.74479999527648
 30
0.0
 10
45.11499324841365
 20
-69.80084790570228
 30
0.0
 10
45.10012291599305
 20
-69.84488512106413
 30
0.0
 10
45.05894588340765
 20
-69.87290880356714
 30
0.0
 10
45.01490866804578
 20
-69.87290880356714
 30
0.0
  0
HATCH
  5
AC
330
79
100
AcDbEntity
  8
Camada 1
 62
    28
420
  1184269
440
 33554687
100
AcDbHatch
 10
0.0
 20
0.0
 30
0.0
210
0.0
220
0.0
230
1.0
  2
SOLID
 70
     1
 71
     1
 91
        1
 92
        1
 93
        2
 72
     4
 94
        3
 73
     0
 74
     0
 95
       62
 96
       58
 40
0.0
 40
0.0
 40
0.0
 40
0.0
 40
1.0
 40
1.0
 40
1.0
 40
2.0
 40
2.0
 40
2.0
 40
3.0
 40
3.0
 40
3.0
 40
4.0
 40
4.0
 40
4.0
 40
5.0
 40
5.0
 40
5.0
 40
6.0
 40
6.0
 40
6.0
 40
7.0
 40
7.0
 40
7.0
 40
8.0
 40
8.0
 40
8.0
 40
9.0
 40
9.0
 40
9.0
 40
10.0
 40
10.0
 40
10.0
 40
11.0
 40
11.0
 40
11.0
 40
12.0
 40
12.0
 40
12.0
 40
13.0
 40
13.0
 40
13.0
 40
14.0
 40
14.0
 40
14.0
 40
15.0
 40
15.0
 40
15.0
 40
16.0
 40
16.0
 40
16.0
 40
17.0
 40
17.0
 40
17.0
 40
18.0
 40
18.0
 40
18.0
 40
19.0
 40
19.0
 40
19.0
 40
19.0
 10
45.01490866804578
 20
-69.87290880356714
 10
45.00289633672116
 20
-69.87290880356714
 10
44.99203156919576
 20
-69.87119345748962
 10
44.98116461998987
 20
-69.86719007427492
 10
44.98116461998987
 20
-69.86719007427492
 10
44.94970915449161
 20
-69.86204294520149
 10
44.94970915449161
 20
-69.86204294520149
 10
44.93369562163276
 20
-69.86204294520149
 10
44.9176820887739
 20
-69.85861116220687
 10
44.90338335657275
 20
-69.85117654141605
 10
44.90338335657275
 20
-69.85117654141605
 10
44.89595037204261
 20
-69.85117654141605
 10
44.89595037204261
 20
-69.85117654141605
 10
44.87993683918375
 20
-69.85117654141605
 10
44.86392112464442
 20
-69.84774475842144
 10
44.84962457412374
 20
-69.84031013763061
 10
44.8336110412649
 20
-69.84031013763061
 10
44.82274409205901
 20
-69.8374505002746
 10
44.80844754153834
 20
-69.83058747970388
 10
44.78785684356484
 20
-69.83001533406398
 10
44.76841152771072
 20
-69.82658409648916
 10
44.7501115939747
 20
-69.81743358420103
 10
44.72494591256832
 20
-69.81400180120512
 10
44.6974960119646
 20
-69.80427914327839
 10
44.68148247910574
 20
-69.78883775605814
 10
44.65403039682155
 20
-69.76882083998457
 10
44.63515668118688
 20
-69.73793752012555
 10
44.63515668118688
 20
-69.70305027163202
 10
44.63515668118688
 20
-69.62755759077126
 10
44.71179256248527
 20
-69.57494146334008
 10
44.79014542612248
 20
-69.60868442055638
 10
44.80272717598544
 20
-69.6104003120537
 10
44.81473732562959
 20
-69.6132599494097
 10
44.82731907549317
 20
-69.61840707848313
 10
44.84447799047077
 20
-69.61897922412302
 10
44.86449490654435
 20
-69.62241046169784
 10
44.87821985684621
 20
-69.62870188204977
 10
44.89480498992387
 20
-69.62870188204977
 10
44.90796052168675
 20
-69.63270526526447
 10
44.92225707220806
 20
-69.6395677404154
 10
44.92225707220806
 20
-69.6395677404154
 10
44.93941380550518
 20
-69.6395677404154
 10
44.93941380550518
 20
-69.6395677404154
 10
44.95542952004451
 20
-69.6395677404154
 10
44.97144305290337
 20
-69.6429995234113
 10
44.98573960342404
 20
-69.65043414420084
 10
44.99603495241047
 20
-69.65100628984074
 10
45.00632811971707
 20
-69.65215003569944
 10
45.01605186848404
 20
-69.65558181869406
 10
45.01605186848404
 20
-69.65558181869406
 10
45.04807893420176
 20
-69.6664482224795
 10
45.04807893420176
 20
-69.6664482224795
 10
45.10355469898895
 20
-69.68532139269566
 10
45.13386478236848
 20
-69.74479999527648
 10
45.11499324841365
 20
-69.80084790570228
 10
45.10012291599305
 20
-69.84488512106413
 10
45.05894588340765
 20
-69.87290880356714
 10
45.01490866804578
 20
-69.87290880356714
 97
        0
 72
     1
 10
45.01490866804578
 20
-69.87290880356716
 11
45.01490866804578
 21
-69.87290880356714
 97
        0
 75
     2
 76
     1
 98
        1
 10
0.0
 20
0.0
450
        0
451
        0
460
0.0
461
0.0
452
        0
462
0.0
453
        0
470

  0
SPLINE
  5
AD
330
79
100
AcDbEntity
  8
Camada 1
100
AcDbSpline
210
0.0
220
0.0
230
1.0
 70
     9
 71
     3
 72
    20
 73
    16
 74
     0
 42
0.0000000001
 43
0.0000000001
 40
0.0
 40
0.0
 40
0.0
 40
0.0
 40
1.0
 40
1.0
 40
1.0
 40
2.0
 40
2.0
 40
2.0
 40
3.0
 40
3.0
 40
3.0
 40
4.0
 40
4.0
 40
4.0
 40
5.0
 40
5.0
 40
5.0
 40
5.0
 10
44.74599476338855
 20
-69.80885467213171
 30
0.0
 10
44.74599476338855
 20
-69.80885467213171
 30
0.0
 10
44.72483246519622
 20
-69.80885467213171
 30
0.0
 10
44.72483246519622
 20
-69.80885467213171
 30
0.0
 10
44.66649651763322
 20
-69.80885467213171
 30
0.0
 10
44.61845591905666
 20
-69.76081407355514
 30
0.0
 10
44.61845591905666
 20
-69.70305081705181
 30
0.0
 10
44.61845591905666
 20
-69.64414381468981
 30
0.0
 10
44.66649651763322
 20
-69.59667481633204
 30
0.0
 10
44.72483246519622
 20
-69.59667481633204
 30
0.0
 10
44.78316841275923
 20
-69.59667481633204
 30
0.0
 10
44.84150436032224
 20
-69.64414381468981
 30
0.0
 10
44.84150436032224
 20
-69.70305081705181
 30
0.0
 10
44.84150436032224
 20
-69.76081407355514
 30
0.0
 10
44.80432852927171
 20
-69.80885467213171
 30
0.0
 10
44.74599476338855
 20
-69.80885467213171
 30
0.0
  0
HATCH
  5
AE
330
79
100
AcDbEntity
  8
Camada 1
 62
    28
420
  1184269
440
 33554687
100
AcDbHatch
 10
0.0
 20
0.0
 30
0.0
210
0.0
220
0.0
230
1.0
  2
SOLID
 70
     1
 71
     1
 91
        1
 92
        1
 93
        2
 72
     4
 94
        3
 73
     0
 74
     0
 95
       20
 96
       16
 40
0.0
 40
0.0
 40
0.0
 40
0.0
 40
1.0
 40
1.0
 40
1.0
 40
2.0
 40
2.0
 40
2.0
 40
3.0
 40
3.0
 40
3.0
 40
4.0
 40
4.0
 40
4.0
 40
5.0
 40
5.0
 40
5.0
 40
5.0
 10
44.74599476338855
 20
-69.80885467213171
 10
44.74599476338855
 20
-69.80885467213171
 10
44.72483246519622
 20
-69.80885467213171
 10
44.72483246519622
 20
-69.80885467213171
 10
44.66649651763322
 20
-69.80885467213171
 10
44.61845591905666
 20
-69.76081407355514
 10
44.61845591905666
 20
-69.70305081705181
 10
44.61845591905666
 20
-69.64414381468981
 10
44.66649651763322
 20
-69.59667481633204
 10
44.72483246519622
 20
-69.59667481633204
 10
44.78316841275923
 20
-69.59667481633204
 10
44.84150436032224
 20
-69.64414381468981
 10
44.84150436032224
 20
-69.70305081705181
 10
44.84150436032224
 20
-69.76081407355514
 10
44.80432852927171
 20
-69.80885467213171
 10
44.74599476338855
 20
-69.80885467213171
 97
        0
 72
     1
 10
44.74599476338855
 20
-69.80885467213171
 11
44.74599476338855
 21
-69.80885467213171
 97
        0
 75
     2
 76
     1
 98
        1
 10
0.0
 20
0.0
450
        0
451
        0
460
0.0
461
0.0
452
        0
462
0.0
453
        0
470

  0
SPLINE
  5
AF
330
79
100
AcDbEntity
  8
Camada 1
100
AcDbSpline
210
0.0
220
0.0
230
1.0
 70
     9
 71
     3
 72
    35
 73
    31
 74
     0
 42
0.0000000001
 43
0.0000000001
 40
0.0
 40
0.0
 40
0.0
 40
0.0
 40
1.0
 40
1.0
 40
1.0
 40
2.0
 40
2.0
 40
2.0
 40
3.0
 40
3.0
 40
3.0
 40
4.0
 40
4.0
 40
4.0
 40
5.0
 40
5.0
 40
5.0
 40
6.0
 40
6.0
 40
6.0
 40
7.0
 40
7.0
 40
7.0
 40
8.0
 40
8.0
 40
8.0
 40
9.0
 40
9.0
 40
9.0
 40
10.0
 40
10.0
 40
10.0
 40
10.0
 10
43.9081968313994
 20
-75.06989499684149
 30
0.0
 10
43.85272106661285
 20
-75.06989499684149
 30
0.0
 10
43.80582366847455
 20
-75.02642965440898
 30
0.0
 10
43.80239188547927
 20
-74.96923827083502
 30
0.0
 10
43.80010330292228
 20
-74.91147474162118
 30
0.0
 10
43.84414051828414
 20
-74.86114637861795
 30
0.0
 10
43.9030480660666
 20
-74.85828674126064
 30
0.0
 10
43.9030480660666
 20
-74.85828674126064
 30
0.0
 10
44.09635584249163
 20
-74.84684846454586
 30
0.0
 10
44.09635584249163
 20
-74.84684846454586
 30
0.0
 10
44.09635584249163
 20
-74.84684846454586
 30
0.0
 10
44.44236378129462
 20
-74.73589720768329
 30
0.0
 10
44.44236378129462
 20
-74.73589720768329
 30
0.0
 10
44.49726794586235
 20
-74.71530814596983
 30
0.0
 10
44.55789029430253
 20
-74.74504771997013
 30
0.0
 10
44.57733561015665
 20
-74.79995161182798
 30
0.0
 10
44.59678092601141
 20
-74.85542710390463
 30
0.0
 10
44.56818564328896
 20
-74.91490625190654
 30
0.0
 10
44.5127098785024
 20
-74.93492344069065
 30
0.0
 10
44.5127098785024
 20
-74.93492344069065
 30
0.0
 10
44.33026905128261
 20
-74.99954971776469
 30
0.0
 10
44.33026905128261
 20
-74.99954971776469
 30
0.0
 10
44.33026905128261
 20
-74.99954971776469
 30
0.0
 10
44.13009770886705
 20
-75.05559735548124
 30
0.0
 10
44.13009770886705
 20
-75.05559735548124
 30
0.0
 10
44.13009770886705
 20
-75.05559735548124
 30
0.0
 10
43.91448661549128
 20
-75.06989499684149
 30
0.0
 10
43.91448661549128
 20
-75.06989499684149
 30
0.0
 10
43.91448661549128
 20
-75.06989499684149
 30
0.0
 10
43.9081968313994
 20
-75.06989499684149
 30
0.0
 10
43.9081968313994
 20
-75.06989499684149
 30
0.0
  0
HATCH
  5
B0
330
79
100
AcDbEntity
  8
Camada 1
 62
    28
420
  1184269
440
 33554687
100
AcDbHatch
 10
0.0
 20
0.0
 30
0.0
210
0.0
220
0.0
230
1.0
  2
SOLID
 70
     1
 71
     1
 91
        1
 92
        1
 93
        1
 72
     4
 94
        3
 73
     0
 74
     0
 95
       35
 96
       31
 40
0.0
 40
0.0
 40
0.0
 40
0.0
 40
1.0
 40
1.0
 40
1.0
 40
2.0
 40
2.0
 40
2.0
 40
3.0
 40
3.0
 40
3.0
 40
4.0
 40
4.0
 40
4.0
 40
5.0
 40
5.0
 40
5.0
 40
6.0
 40
6.0
 40
6.0
 40
7.0
 40
7.0
 40
7.0
 40
8.0
 40
8.0
 40
8.0
 40
9.0
 40
9.0
 40
9.0
 40
10.0
 40
10.0
 40
10.0
 40
10.0
 10
43.9081968313994
 20
-75.06989499684149
 10
43.85272106661285
 20
-75.06989499684149
 10
43.80582366847455
 20
-75.02642965440898
 10
43.80239188547927
 20
-74.96923827083502
 10
43.80010330292228
 20
-74.91147474162118
 10
43.84414051828414
 20
-74.86114637861795
 10
43.9030480660666
 20
-74.85828674126064
 10
43.9030480660666
 20
-74.85828674126064
 10
44.09635584249163
 20
-74.84684846454586
 10
44.09635584249163
 20
-74.84684846454586
 10
44.09635584249163
 20
-74.84684846454586
 10
44.44236378129462
 20
-74.73589720768329
 10
44.44236378129462
 20
-74.73589720768329
 10
44.49726794586235
 20
-74.71530814596983
 10
44.55789029430253
 20
-74.74504771997013
 10
44.57733561015665
 20
-74.79995161182798
 10
44.59678092601141
 20
-74.85542710390463
 10
44.56818564328896
 20
-74.91490625190654
 10
44.5127098785024
 20
-74.93492344069065
 10
44.5127098785024
 20
-74.93492344069065
 10
44.33026905128261
 20
-74.99954971776469
 10
44.33026905128261
 20
-74.99954971776469
 10
44.33026905128261
 20
-74.99954971776469
 10
44.13009770886705
 20
-75.05559735548124
 10
44.13009770886705
 20
-75.05559735548124
 10
44.13009770886705
 20
-75.05559735548124
 10
43.91448661549128
 20
-75.06989499684149
 10
43.91448661549128
 20
-75.06989499684149
 10
43.91448661549128
 20
-75.06989499684149
 10
43.9081968313994
 20
-75.06989499684149
 10
43.9081968313994
 20
-75.06989499684149
 97
        0
 97
        1
330
AF
 75
     2
 76
     1
 98
        1
 10
0.0
 20
0.0
450
        0
451
        0
460
0.0
461
0.0
452
        0
462
0.0
453
        0
470

  0
SPLINE
  5
B1
330
79
100
AcDbEntity
  8
Camada 1
100
AcDbSpline
210
0.0
220
0.0
230
1.0
 70
     9
 71
     3
 72
    23
 73
    19
 74
     0
 42
0.0000000001
 43
0.0000000001
 40
0.0
 40
0.0
 40
0.0
 40
0.0
 40
1.0
 40
1.0
 40
1.0
 40
2.0
 40
2.0
 40
2.0
 40
3.0
 40
3.0
 40
3.0
 40
4.0
 40
4.0
 40
4.0
 40
5.0
 40
5.0
 40
5.0
 40
6.0
 40
6.0
 40
6.0
 40
6.0
 10
43.56499235168683
 20
-69.94845875353374
 30
0.0
 10
43.56499235168683
 20
-69.94845875353374
 30
0.0
 10
43.42544335771015
 20
-69.94845875353374
 30
0.0
 10
43.42544335771015
 20
-69.94845875353374
 30
0.0
 10
43.36710959182762
 20
-69.94845875353374
 30
0.0
 10
43.31964059346987
 20
-69.90041815495716
 30
0.0
 10
43.31964059346987
 20
-69.84265489845386
 30
0.0
 10
43.31964059346987
 20
-69.78374789609183
 30
0.0
 10
43.36710959182762
 20
-69.73627889773408
 30
0.0
 10
43.42544335771015
 20
-69.73627889773408
 30
0.0
 10
43.42544335771015
 20
-69.73627889773408
 30
0.0
 10
43.56499235168683
 20
-69.73627889773408
 30
0.0
 10
43.56499235168683
 20
-69.73627889773408
 30
0.0
 10
43.62332611756936
 20
-69.73627889773408
 30
0.0
 10
43.67136671614592
 20
-69.78374789609183
 30
0.0
 10
43.67136671614592
 20
-69.84265489845386
 30
0.0
 10
43.67136671614592
 20
-69.90041815495716
 30
0.0
 10
43.62332611756936
 20
-69.94845875353374
 30
0.0
 10
43.56499235168683
 20
-69.94845875353374
 30
0.0
  0
HATCH
  5
B2
330
79
100
AcDbEntity
  8
Camada 1
 62
    28
420
  1184269
440
 33554687
100
AcDbHatch
 10
0.0
 20
0.0
 30
0.0
210
0.0
220
0.0
230
1.0
  2
SOLID
 70
     1
 71
     1
 91
        1
 92
        1
 93
        2
 72
     4
 94
        3
 73
     0
 74
     0
 95
       23
 96
       19
 40
0.0
 40
0.0
 40
0.0
 40
0.0
 40
1.0
 40
1.0
 40
1.0
 40
2.0
 40
2.0
 40
2.0
 40
3.0
 40
3.0
 40
3.0
 40
4.0
 40
4.0
 40
4.0
 40
5.0
 40
5.0
 40
5.0
 40
6.0
 40
6.0
 40
6.0
 40
6.0
 10
43.56499235168683
 20
-69.94845875353374
 10
43.56499235168683
 20
-69.94845875353374
 10
43.42544335771015
 20
-69.94845875353374
 10
43.42544335771015
 20
-69.94845875353374
 10
43.36710959182762
 20
-69.94845875353374
 10
43.31964059346987
 20
-69.90041815495716
 10
43.31964059346987
 20
-69.84265489845386
 10
43.31964059346987
 20
-69.78374789609183
 10
43.36710959182762
 20
-69.73627889773408
 10
43.42544335771015
 20
-69.73627889773408
 10
43.42544335771015
 20
-69.73627889773408
 10
43.56499235168683
 20
-69.73627889773408
 10
43.56499235168683
 20
-69.73627889773408
 10
43.62332611756936
 20
-69.73627889773408
 10
43.67136671614592
 20
-69.78374789609183
 10
43.67136671614592
 20
-69.84265489845386
 10
43.67136671614592
 20
-69.90041815495716
 10
43.62332611756936
 20
-69.94845875353374
 10
43.56499235168683
 20
-69.94845875353374
 97
        0
 72
     1
 10
43.56499235168683
 20
-69.94845875353374
 11
43.56499235168683
 21
-69.94845875353374
 97
        0
 75
     2
 76
     1
 98
        1
 10
0.0
 20
0.0
450
        0
451
        0
460
0.0
461
0.0
452
        0
462
0.0
453
        0
470

  0
SPLINE
  5
B3
330
79
100
AcDbEntity
  8
Camada 1
100
AcDbSpline
210
0.0
220
0.0
230
1.0
 70
     9
 71
     3
 72
    23
 73
    19
 74
     0
 42
0.0000000001
 43
0.0000000001
 40
0.0
 40
0.0
 40
0.0
 40
0.0
 40
1.0
 40
1.0
 40
1.0
 40
2.0
 40
2.0
 40
2.0
 40
3.0
 40
3.0
 40
3.0
 40
4.0
 40
4.0
 40
4.0
 40
5.0
 40
5.0
 40
5.0
 40
6.0
 40
6.0
 40
6.0
 40
6.0
 10
43.9081968313994
 20
-75.06989499684149
 30
0.0
 10
43.9081968313994
 20
-75.06989499684149
 30
0.0
 10
43.42550008139619
 20
-75.06989499684149
 30
0.0
 10
43.42550008139619
 20
-75.06989499684149
 30
0.0
 10
43.36716413383319
 20
-75.06989499684149
 30
0.0
 10
43.31969513547607
 20
-75.02185439826492
 30
0.0
 10
43.31969513547607
 20
-74.96351899612299
 30
0.0
 10
43.31969513547607
 20
-74.90518386668906
 30
0.0
 10
43.36716413383319
 20
-74.85828674126064
 30
0.0
 10
43.42550008139619
 20
-74.85828674126064
 30
0.0
 10
43.42550008139619
 20
-74.85828674126064
 30
0.0
 10
43.9081968313994
 20
-74.85828674126064
 30
0.0
 10
43.9081968313994
 20
-74.85828674126064
 30
0.0
 10
43.96710219750203
 20
-74.85828674126064
 30
0.0
 10
44.01457119585915
 20
-74.90518386668906
 30
0.0
 10
44.01457119585915
 20
-74.96351899612299
 30
0.0
 10
44.01457119585915
 20
-75.02185439826492
 30
0.0
 10
43.96710219750203
 20
-75.06989499684149
 30
0.0
 10
43.9081968313994
 20
-75.06989499684149
 30
0.0
  0
HATCH
  5
B4
330
79
100
AcDbEntity
  8
Camada 1
 62
    28
420
  1184269
440
 33554687
100
AcDbHatch
 10
0.0
 20
0.0
 30
0.0
210
0.0
220
0.0
230
1.0
  2
SOLID
 70
     1
 71
     1
 91
        1
 92
        1
 93
        2
 72
     4
 94
        3
 73
     0
 74
     0
 95
       23
 96
       19
 40
0.0
 40
0.0
 40
0.0
 40
0.0
 40
1.0
 40
1.0
 40
1.0
 40
2.0
 40
2.0
 40
2.0
 40
3.0
 40
3.0
 40
3.0
 40
4.0
 40
4.0
 40
4.0
 40
5.0
 40
5.0
 40
5.0
 40
6.0
 40
6.0
 40
6.0
 40
6.0
 10
43.9081968313994
 20
-75.06989499684149
 10
43.9081968313994
 20
-75.06989499684149
 10
43.42550008139619
 20
-75.06989499684149
 10
43.42550008139619
 20
-75.06989499684149
 10
43.36716413383319
 20
-75.06989499684149
 10
43.31969513547607
 20
-75.02185439826492
 10
43.31969513547607
 20
-74.96351899612299
 10
43.31969513547607
 20
-74.90518386668906
 10
43.36716413383319
 20
-74.85828674126064
 10
43.42550008139619
 20
-74.85828674126064
 10
43.42550008139619
 20
-74.85828674126064
 10
43.9081968313994
 20
-74.85828674126064
 10
43.9081968313994
 20
-74.85828674126064
 10
43.96710219750203
 20
-74.85828674126064
 10
44.01457119585915
 20
-74.90518386668906
 10
44.01457119585915
 20
-74.96351899612299
 10
44.01457119585915
 20
-75.02185439826492
 10
43.96710219750203
 20
-75.06989499684149
 10
43.9081968313994
 20
-75.06989499684149
 97
        0
 72
     1
 10
43.9081968313994
 20
-75.06989499684149
 11
43.9081968313994
 21
-75.06989499684149
 97
        0
 75
     2
 76
     1
 98
        1
 10
0.0
 20
0.0
450
        0
451
        0
460
0.0
461
0.0
452
        0
462
0.0
453
        0
470

  0
SPLINE
  5
B5
330
79
100
AcDbEntity
  8
Camada 1
100
AcDbSpline
210
0.0
220
0.0
230
1.0
 70
     9
 71
     3
 72
    26
 73
    22
 74
     0
 42
0.0000000001
 43
0.0000000001
 40
0.0
 40
0.0
 40
0.0
 40
0.0
 40
1.0
 40
1.0
 40
1.0
 40
2.0
 40
2.0
 40
2.0
 40
3.0
 40
3.0
 40
3.0
 40
4.0
 40
4.0
 40
4.0
 40
5.0
 40
5.0
 40
5.0
 40
6.0
 40
6.0
 40
6.0
 40
7.0
 40
7.0
 40
7.0
 40
7.0
 10
44.47765245895076
 20
-74.94098551190866
 30
0.0
 10
44.4410482281184
 20
-74.94098551190866
 30
0.0
 10
44.40558937940542
 20
-74.92211234169251
 30
0.0
 10
44.38557246333185
 20
-74.88779751154813
 30
0.0
 10
44.35697718060938
 20
-74.83689727561554
 30
0.0
 10
44.37413391390715
 20
-74.77227099854022
 30
0.0
 10
44.42503469525954
 20
-74.74310329746926
 30
0.0
 10
44.42503469525954
 20
-74.74310329746926
 30
0.0
 10
44.5005273761203
 20
-74.70020955525557
 30
0.0
 10
44.5005273761203
 20
-74.70020955525557
 30
0.0
 10
44.55085655725388
 20
-74.6698981083259
 30
0.0
 10
44.61605388912757
 20
-74.68819940561143
 30
0.0
 10
44.64522295374931
 20
-74.73909991425455
 30
0.0
 10
44.67381823647176
 20
-74.79057202311648
 30
0.0
 10
44.65608772127471
 20
-74.85519857290106
 30
0.0
 10
44.60576072182162
 20
-74.88379412833342
 30
0.0
 10
44.60576072182162
 20
-74.88379412833342
 30
0.0
 10
44.53026804096086
 20
-74.92725974347647
 30
0.0
 10
44.53026804096086
 20
-74.92725974347647
 30
0.0
 10
44.51368290788319
 20
-74.9364102557646
 30
0.0
 10
44.49538079246733
 20
-74.94098551190866
 30
0.0
 10
44.47765245895076
 20
-74.94098551190866
 30
0.0
  0
HATCH
  5
B6
330
79
100
AcDbEntity
  8
Camada 1
 62
    28
420
  1184269
440
 33554687
100
AcDbHatch
 10
0.0
 20
0.0
 30
0.0
210
0.0
220
0.0
230
1.0
  2
SOLID
 70
     1
 71
     1
 91
        1
 92
        1
 93
        2
 72
     4
 94
        3
 73
     0
 74
     0
 95
       26
 96
       22
 40
0.0
 40
0.0
 40
0.0
 40
0.0
 40
1.0
 40
1.0
 40
1.0
 40
2.0
 40
2.0
 40
2.0
 40
3.0
 40
3.0
 40
3.0
 40
4.0
 40
4.0
 40
4.0
 40
5.0
 40
5.0
 40
5.0
 40
6.0
 40
6.0
 40
6.0
 40
7.0
 40
7.0
 40
7.0
 40
7.0
 10
44.47765245895076
 20
-74.94098551190866
 10
44.4410482281184
 20
-74.94098551190866
 10
44.40558937940542
 20
-74.92211234169251
 10
44.38557246333185
 20
-74.88779751154813
 10
44.35697718060938
 20
-74.83689727561554
 10
44.37413391390715
 20
-74.77227099854022
 10
44.42503469525954
 20
-74.74310329746926
 10
44.42503469525954
 20
-74.74310329746926
 10
44.5005273761203
 20
-74.70020955525557
 10
44.5005273761203
 20
-74.70020955525557
 10
44.55085655725388
 20
-74.6698981083259
 10
44.61605388912757
 20
-74.68819940561143
 10
44.64522295374931
 20
-74.73909991425455
 10
44.67381823647176
 20
-74.79057202311648
 10
44.65608772127471
 20
-74.85519857290106
 10
44.60576072182162
 20
-74.88379412833342
 10
44.60576072182162
 20
-74.88379412833342
 10
44.53026804096086
 20
-74.92725974347647
 10
44.53026804096086
 20
-74.92725974347647
 10
44.51368290788319
 20
-74.9364102557646
 10
44.49538079246733
 20
-74.94098551190866
 10
44.47765245895076
 20
-74.94098551190866
 97
        0
 72
     1
 10
44.47765245895075
 20
-74.94098551190866
 11
44.47765245895076
 21
-74.94098551190866
 97
        0
 75
     2
 76
     1
 98
        1
 10
0.0
 20
0.0
450
        0
451
        0
460
0.0
461
0.0
452
        0
462
0.0
453
        0
470

  0
SPLINE
  5
B7
330
79
100
AcDbEntity
  8
Camada 1
100
AcDbSpline
210
0.0
220
0.0
230
1.0
 70
     9
 71
     3
 72
    23
 73
    19
 74
     0
 42
0.0000000001
 43
0.0000000001
 40
0.0
 40
0.0
 40
0.0
 40
0.0
 40
1.0
 40
1.0
 40
1.0
 40
2.0
 40
2.0
 40
2.0
 40
3.0
 40
3.0
 40
3.0
 40
4.0
 40
4.0
 40
4.0
 40
5.0
 40
5.0
 40
5.0
 40
6.0
 40
6.0
 40
6.0
 40
6.0
 10
43.42567243413415
 20
-69.85129053420793
 30
0.0
 10
43.42567243413415
 20
-69.85129053420793
 30
0.0
 10
40.88065300161164
 20
-69.85129053420793
 30
0.0
 10
40.88065300161164
 20
-69.85129053420793
 30
0.0
 10
40.82231814488824
 20
-69.85129053420793
 30
0.0
 10
40.77484914653111
 20
-69.80382208127126
 30
0.0
 10
40.77484914653111
 20
-69.74491453348815
 30
0.0
 10
40.77484914653111
 20
-69.68715127698485
 30
0.0
 10
40.82231814488824
 20
-69.63911067840827
 30
0.0
 10
40.88065300161164
 20
-69.63911067840827
 30
0.0
 10
40.88065300161164
 20
-69.63911067840827
 30
0.0
 10
43.42567243413415
 20
-69.63911067840827
 30
0.0
 10
43.42567243413415
 20
-69.63911067840827
 30
0.0
 10
43.48400620001732
 20
-69.63911067840827
 30
0.0
 10
43.53147519837444
 20
-69.68715127698485
 30
0.0
 10
43.53147519837444
 20
-69.74491453348815
 30
0.0
 10
43.53147519837444
 20
-69.80382208127126
 30
0.0
 10
43.48400620001732
 20
-69.85129053420793
 30
0.0
 10
43.42567243413415
 20
-69.85129053420793
 30
0.0
  0
HATCH
  5
B8
330
79
100
AcDbEntity
  8
Camada 1
 62
    28
420
  1184269
440
 33554687
100
AcDbHatch
 10
0.0
 20
0.0
 30
0.0
210
0.0
220
0.0
230
1.0
  2
SOLID
 70
     1
 71
     1
 91
        1
 92
        1
 93
        2
 72
     4
 94
        3
 73
     0
 74
     0
 95
       23
 96
       19
 40
0.0
 40
0.0
 40
0.0
 40
0.0
 40
1.0
 40
1.0
 40
1.0
 40
2.0
 40
2.0
 40
2.0
 40
3.0
 40
3.0
 40
3.0
 40
4.0
 40
4.0
 40
4.0
 40
5.0
 40
5.0
 40
5.0
 40
6.0
 40
6.0
 40
6.0
 40
6.0
 10
43.42567243413415
 20
-69.85129053420793
 10
43.42567243413415
 20
-69.85129053420793
 10
40.88065300161164
 20
-69.85129053420793
 10
40.88065300161164
 20
-69.85129053420793
 10
40.82231814488824
 20
-69.85129053420793
 10
40.77484914653111
 20
-69.80382208127126
 10
40.77484914653111
 20
-69.74491453348815
 10
40.77484914653111
 20
-69.68715127698485
 10
40.82231814488824
 20
-69.63911067840827
 10
40.88065300161164
 20
-69.63911067840827
 10
40.88065300161164
 20
-69.63911067840827
 10
43.42567243413415
 20
-69.63911067840827
 10
43.42567243413415
 20
-69.63911067840827
 10
43.48400620001732
 20
-69.63911067840827
 10
43.53147519837444
 20
-69.68715127698485
 10
43.53147519837444
 20
-69.74491453348815
 10
43.53147519837444
 20
-69.80382208127126
 10
43.48400620001732
 20
-69.85129053420793
 10
43.42567243413415
 20
-69.85129053420793
 97
        0
 72
     1
 10
43.42567243413415
 20
-69.85129053420793
 11
43.42567243413415
 21
-69.85129053420793
 97
        0
 75
     2
 76
     1
 98
        1
 10
0.0
 20
0.0
450
        0
451
        0
460
0.0
461
0.0
452
        0
462
0.0
453
        0
470

  0
SPLINE
  5
B9
330
79
100
AcDbEntity
  8
Camada 1
100
AcDbSpline
210
0.0
220
0.0
230
1.0
 70
     9
 71
     3
 72
    23
 73
    19
 74
     0
 42
0.0000000001
 43
0.0000000001
 40
0.0
 40
0.0
 40
0.0
 40
0.0
 40
1.0
 40
1.0
 40
1.0
 40
2.0
 40
2.0
 40
2.0
 40
3.0
 40
3.0
 40
3.0
 40
4.0
 40
4.0
 40
4.0
 40
5.0
 40
5.0
 40
5.0
 40
6.0
 40
6.0
 40
6.0
 40
6.0
 10
43.42567243413415
 20
-75.28487749360187
 30
0.0
 10
43.42567243413415
 20
-75.28487749360187
 30
0.0
 10
40.88065300161164
 20
-75.28487749360187
 30
0.0
 10
40.88065300161164
 20
-75.28487749360187
 30
0.0
 10
40.82231814488824
 20
-75.28487749360187
 30
0.0
 10
40.77484914653111
 20
-75.2368368950253
 30
0.0
 10
40.77484914653111
 20
-75.17907336581145
 30
0.0
 10
40.77484914653111
 20
-75.12016636344942
 30
0.0
 10
40.82231814488824
 20
-75.07269736509295
 30
0.0
 10
40.88065300161164
 20
-75.07269736509295
 30
0.0
 10
40.88065300161164
 20
-75.07269736509295
 30
0.0
 10
43.42567243413415
 20
-75.07269736509295
 30
0.0
 10
43.42567243413415
 20
-75.07269736509295
 30
0.0
 10
43.48400620001732
 20
-75.07269736509295
 30
0.0
 10
43.53147519837444
 20
-75.12016636344942
 30
0.0
 10
43.53147519837444
 20
-75.17907336581145
 30
0.0
 10
43.53147519837444
 20
-75.2368368950253
 30
0.0
 10
43.48400620001732
 20
-75.28487749360187
 30
0.0
 10
43.42567243413415
 20
-75.28487749360187
 30
0.0
  0
HATCH
  5
BA
330
79
100
AcDbEntity
  8
Camada 1
 62
    28
420
  1184269
440
 33554687
100
AcDbHatch
 10
0.0
 20
0.0
 30
0.0
210
0.0
220
0.0
230
1.0
  2
SOLID
 70
     1
 71
     1
 91
        1
 92
        1
 93
        2
 72
     4
 94
        3
 73
     0
 74
     0
 95
       23
 96
       19
 40
0.0
 40
0.0
 40
0.0
 40
0.0
 40
1.0
 40
1.0
 40
1.0
 40
2.0
 40
2.0
 40
2.0
 40
3.0
 40
3.0
 40
3.0
 40
4.0
 40
4.0
 40
4.0
 40
5.0
 40
5.0
 40
5.0
 40
6.0
 40
6.0
 40
6.0
 40
6.0
 10
43.42567243413415
 20
-75.28487749360187
 10
43.42567243413415
 20
-75.28487749360187
 10
40.88065300161164
 20
-75.28487749360187
 10
40.88065300161164
 20
-75.28487749360187
 10
40.82231814488824
 20
-75.28487749360187
 10
40.77484914653111
 20
-75.2368368950253
 10
40.77484914653111
 20
-75.17907336581145
 10
40.77484914653111
 20
-75.12016636344942
 10
40.82231814488824
 20
-75.07269736509295
 10
40.88065300161164
 20
-75.07269736509295
 10
40.88065300161164
 20
-75.07269736509295
 10
43.42567243413415
 20
-75.07269736509295
 10
43.42567243413415
 20
-75.07269736509295
 10
43.48400620001732
 20
-75.07269736509295
 10
43.53147519837444
 20
-75.12016636344942
 10
43.53147519837444
 20
-75.17907336581145
 10
43.53147519837444
 20
-75.2368368950253
 10
43.48400620001732
 20
-75.28487749360187
 10
43.42567243413415
 20
-75.28487749360187
 97
        0
 72
     1
 10
43.42567243413415
 20
-75.28487749360187
 11
43.42567243413415
 21
-75.28487749360187
 97
        0
 75
     2
 76
     1
 98
        1
 10
0.0
 20
0.0
450
        0
451
        0
460
0.0
461
0.0
452
        0
462
0.0
453
        0
470

  0
SPLINE
  5
BB
330
79
100
AcDbEntity
  8
Camada 1
100
AcDbSpline
210
0.0
220
0.0
230
1.0
 70
     9
 71
     3
 72
    23
 73
    19
 74
     0
 42
0.0000000001
 43
0.0000000001
 40
0.0
 40
0.0
 40
0.0
 40
0.0
 40
1.0
 40
1.0
 40
1.0
 40
2.0
 40
2.0
 40
2.0
 40
3.0
 40
3.0
 40
3.0
 40
4.0
 40
4.0
 40
4.0
 40
5.0
 40
5.0
 40
5.0
 40
6.0
 40
6.0
 40
6.0
 40
6.0
 10
40.89117742702144
 20
-69.85129053420793
 30
0.0
 10
40.83341307967788
 20
-69.85129053420793
 30
0.0
 10
40.78537248110131
 20
-69.80382208127126
 30
0.0
 10
40.78537248110131
 20
-69.74491453348815
 30
0.0
 10
40.78537248110131
 20
-69.74491453348815
 30
0.0
 10
40.78537248110131
 20
-66.39578394792593
 30
0.0
 10
40.78537248110131
 20
-66.39578394792593
 30
0.0
 10
40.78537248110131
 20
-66.33687749098372
 30
0.0
 10
40.83341307967788
 20
-66.28940849262725
 30
0.0
 10
40.89117742702144
 20
-66.28940849262725
 30
0.0
 10
40.95008388396365
 20
-66.28940849262725
 30
0.0
 10
40.99755288232142
 20
-66.33687749098372
 30
0.0
 10
40.99755288232142
 20
-66.39578394792593
 30
0.0
 10
40.99755288232142
 20
-66.39578394792593
 30
0.0
 10
40.99755288232142
 20
-69.74491453348815
 30
0.0
 10
40.99755288232142
 20
-69.74491453348815
 30
0.0
 10
40.99755288232142
 20
-69.80382208127126
 30
0.0
 10
40.95008388396365
 20
-69.85129053420793
 30
0.0
 10
40.89117742702144
 20
-69.85129053420793
 30
0.0
  0
HATCH
  5
BC
330
79
100
AcDbEntity
  8
Camada 1
 62
    28
420
  1184269
440
 33554687
100
AcDbHatch
 10
0.0
 20
0.0
 30
0.0
210
0.0
220
0.0
230
1.0
  2
SOLID
 70
     1
 71
     1
 91
        1
 92
        1
 93
        2
 72
     4
 94
        3
 73
     0
 74
     0
 95
       23
 96
       19
 40
0.0
 40
0.0
 40
0.0
 40
0.0
 40
1.0
 40
1.0
 40
1.0
 40
2.0
 40
2.0
 40
2.0
 40
3.0
 40
3.0
 40
3.0
 40
4.0
 40
4.0
 40
4.0
 40
5.0
 40
5.0
 40
5.0
 40
6.0
 40
6.0
 40
6.0
 40
6.0
 10
40.89117742702144
 20
-69.85129053420793
 10
40.83341307967788
 20
-69.85129053420793
 10
40.78537248110131
 20
-69.80382208127126
 10
40.78537248110131
 20
-69.74491453348815
 10
40.78537248110131
 20
-69.74491453348815
 10
40.78537248110131
 20
-66.39578394792593
 10
40.78537248110131
 20
-66.39578394792593
 10
40.78537248110131
 20
-66.33687749098372
 10
40.83341307967788
 20
-66.28940849262725
 10
40.89117742702144
 20
-66.28940849262725
 10
40.95008388396365
 20
-66.28940849262725
 10
40.99755288232142
 20
-66.33687749098372
 10
40.99755288232142
 20
-66.39578394792593
 10
40.99755288232142
 20
-66.39578394792593
 10
40.99755288232142
 20
-69.74491453348815
 10
40.99755288232142
 20
-69.74491453348815
 10
40.99755288232142
 20
-69.80382208127126
 10
40.95008388396365
 20
-69.85129053420793
 10
40.89117742702144
 20
-69.85129053420793
 97
        0
 72
     1
 10
40.89117742702144
 20
-69.85129053420793
 11
40.89117742702144
 21
-69.85129053420793
 97
        0
 75
     2
 76
     1
 98
        1
 10
0.0
 20
0.0
450
        0
451
        0
460
0.0
461
0.0
452
        0
462
0.0
453
        0
470

  0
SPLINE
  5
BD
330
79
100
AcDbEntity
  8
Camada 1
100
AcDbSpline
210
0.0
220
0.0
230
1.0
 70
     9
 71
     3
 72
    23
 73
    19
 74
     0
 42
0.0000000001
 43
0.0000000001
 40
0.0
 40
0.0
 40
0.0
 40
0.0
 40
1.0
 40
1.0
 40
1.0
 40
2.0
 40
2.0
 40
2.0
 40
3.0
 40
3.0
 40
3.0
 40
4.0
 40
4.0
 40
4.0
 40
5.0
 40
5.0
 40
5.0
 40
6.0
 40
6.0
 40
6.0
 40
6.0
 10
40.89117742702144
 20
-77.65746428423276
 30
0.0
 10
40.83341307967788
 20
-77.65746428423276
 30
0.0
 10
40.78537248110131
 20
-77.60999542223091
 30
0.0
 10
40.78537248110131
 20
-77.55166015644234
 30
0.0
 10
40.78537248110131
 20
-77.55166015644234
 30
0.0
 10
40.78537248110131
 20
-75.17935916592214
 30
0.0
 10
40.78537248110131
 20
-75.17935916592214
 30
0.0
 10
40.78537248110131
 20
-75.12045216355883
 30
0.0
 10
40.83341307967788
 20
-75.07298316520236
 30
0.0
 10
40.89117742702144
 20
-75.07298316520236
 30
0.0
 10
40.95008388396365
 20
-75.07298316520236
 30
0.0
 10
40.99755288232142
 20
-75.12045216355883
 30
0.0
 10
40.99755288232142
 20
-75.17935916592214
 30
0.0
 10
40.99755288232142
 20
-75.17935916592214
 30
0.0
 10
40.99755288232142
 20
-77.55166015644234
 30
0.0
 10
40.99755288232142
 20
-77.55166015644234
 30
0.0
 10
40.99755288232142
 20
-77.60999542223091
 30
0.0
 10
40.95008388396365
 20
-77.65746428423276
 30
0.0
 10
40.89117742702144
 20
-77.65746428423276
 30
0.0
  0
HATCH
  5
BE
330
79
100
AcDbEntity
  8
Camada 1
 62
    28
420
  1184269
440
 33554687
100
AcDbHatch
 10
0.0
 20
0.0
 30
0.0
210
0.0
220
0.0
230
1.0
  2
SOLID
 70
     1
 71
     1
 91
        1
 92
        1
 93
        2
 72
     4
 94
        3
 73
     0
 74
     0
 95
       23
 96
       19
 40
0.0
 40
0.0
 40
0.0
 40
0.0
 40
1.0
 40
1.0
 40
1.0
 40
2.0
 40
2.0
 40
2.0
 40
3.0
 40
3.0
 40
3.0
 40
4.0
 40
4.0
 40
4.0
 40
5.0
 40
5.0
 40
5.0
 40
6.0
 40
6.0
 40
6.0
 40
6.0
 10
40.89117742702144
 20
-77.65746428423276
 10
40.83341307967788
 20
-77.65746428423276
 10
40.78537248110131
 20
-77.60999542223091
 10
40.78537248110131
 20
-77.55166015644234
 10
40.78537248110131
 20
-77.55166015644234
 10
40.78537248110131
 20
-75.17935916592214
 10
40.78537248110131
 20
-75.17935916592214
 10
40.78537248110131
 20
-75.12045216355883
 10
40.83341307967788
 20
-75.07298316520236
 10
40.89117742702144
 20
-75.07298316520236
 10
40.95008388396365
 20
-75.07298316520236
 10
40.99755288232142
 20
-75.12045216355883
 10
40.99755288232142
 20
-75.17935916592214
 10
40.99755288232142
 20
-75.17935916592214
 10
40.99755288232142
 20
-77.55166015644234
 10
40.99755288232142
 20
-77.55166015644234
 10
40.99755288232142
 20
-77.60999542223091
 10
40.95008388396365
 20
-77.65746428423276
 10
40.89117742702144
 20
-77.65746428423276
 97
        0
 72
     1
 10
40.89117742702144
 20
-77.65746428423274
 11
40.89117742702144
 21
-77.65746428423276
 97
        0
 75
     2
 76
     1
 98
        1
 10
0.0
 20
0.0
450
        0
451
        0
460
0.0
461
0.0
452
        0
462
0.0
453
        0
470

  0
SPLINE
  5
BF
330
79
100
AcDbEntity
  8
Camada 1
100
AcDbSpline
210
0.0
220
0.0
230
1.0
 70
     9
 71
     3
 72
    26
 73
    22
 74
     0
 42
0.0000000001
 43
0.0000000001
 40
0.0
 40
0.0
 40
0.0
 40
0.0
 40
1.0
 40
1.0
 40
1.0
 40
2.0
 40
2.0
 40
2.0
 40
3.0
 40
3.0
 40
3.0
 40
4.0
 40
4.0
 40
4.0
 40
5.0
 40
5.0
 40
5.0
 40
6.0
 40
6.0
 40
6.0
 40
7.0
 40
7.0
 40
7.0
 40
7.0
 10
44.81468060194354
 20
-69.79375580870819
 30
0.0
 10
44.81468060194354
 20
-69.79375580870819
 30
0.0
 10
44.81468060194354
 20
-69.79375580870819
 30
0.0
 10
44.81468060194354
 20
-69.79375580870819
 30
0.0
 10
44.75577305416172
 20
-69.79318420848938
 30
0.0
 10
44.70830405580396
 20
-69.7451436099128
 30
0.0
 10
44.70887565602342
 20
-69.68737980798841
 30
0.0
 10
44.70887565602342
 20
-69.68737980798841
 30
0.0
 10
44.73689933852642
 20
-62.60136097441588
 30
0.0
 10
44.73689933852642
 20
-62.60136097441588
 30
0.0
 10
44.73689933852642
 20
-62.54302502685288
 30
0.0
 10
44.78436833688354
 20
-62.4961287195548
 30
0.0
 10
44.84270428444654
 20
-62.4961287195548
 30
0.0
 10
44.90160965054916
 20
-62.4961287195548
 30
0.0
 10
44.94907864890627
 20
-62.54359771791256
 30
0.0
 10
44.94850704868682
 20
-62.60250417485478
 30
0.0
 10
44.94850704868682
 20
-62.60250417485478
 30
0.0
 10
44.92048336618383
 20
-69.68795195362702
 30
0.0
 10
44.92048336618383
 20
-69.68795195362702
 30
0.0
 10
44.92048336618383
 20
-69.74628735577022
 30
0.0
 10
44.8730143678267
 20
-69.79375580870819
 30
0.0
 10
44.81468060194354
 20
-69.79375580870819
 30
0.0
  0
HATCH
  5
C0
330
79
100
AcDbEntity
  8
Camada 1
 62
    28
420
  1184269
440
 33554687
100
AcDbHatch
 10
0.0
 20
0.0
 30
0.0
210
0.0
220
0.0
230
1.0
  2
SOLID
 70
     1
 71
     1
 91
        1
 92
        1
 93
        2
 72
     4
 94
        3
 73
     0
 74
     0
 95
       26
 96
       22
 40
0.0
 40
0.0
 40
0.0
 40
0.0
 40
1.0
 40
1.0
 40
1.0
 40
2.0
 40
2.0
 40
2.0
 40
3.0
 40
3.0
 40
3.0
 40
4.0
 40
4.0
 40
4.0
 40
5.0
 40
5.0
 40
5.0
 40
6.0
 40
6.0
 40
6.0
 40
7.0
 40
7.0
 40
7.0
 40
7.0
 10
44.81468060194354
 20
-69.79375580870819
 10
44.81468060194354
 20
-69.79375580870819
 10
44.81468060194354
 20
-69.79375580870819
 10
44.81468060194354
 20
-69.79375580870819
 10
44.75577305416172
 20
-69.79318420848938
 10
44.70830405580396
 20
-69.7451436099128
 10
44.70887565602342
 20
-69.68737980798841
 10
44.70887565602342
 20
-69.68737980798841
 10
44.73689933852642
 20
-62.60136097441588
 10
44.73689933852642
 20
-62.60136097441588
 10
44.73689933852642
 20
-62.54302502685288
 10
44.78436833688354
 20
-62.4961287195548
 10
44.84270428444654
 20
-62.4961287195548
 10
44.90160965054916
 20
-62.4961287195548
 10
44.94907864890627
 20
-62.54359771791256
 10
44.94850704868682
 20
-62.60250417485478
 10
44.94850704868682
 20
-62.60250417485478
 10
44.92048336618383
 20
-69.68795195362702
 10
44.92048336618383
 20
-69.68795195362702
 10
44.92048336618383
 20
-69.74628735577022
 10
44.8730143678267
 20
-69.79375580870819
 10
44.81468060194354
 20
-69.79375580870819
 97
        0
 72
     1
 10
44.81468060194354
 20
-69.79375580870819
 11
44.81468060194354
 21
-69.79375580870819
 97
        0
 75
     2
 76
     1
 98
        1
 10
0.0
 20
0.0
450
        0
451
        0
460
0.0
461
0.0
452
        0
462
0.0
453
        0
470

  0
SPLINE
  5
C1
330
79
100
AcDbEntity
  8
Camada 1
100
AcDbSpline
210
0.0
220
0.0
230
1.0
 70
     9
 71
     3
 72
    26
 73
    22
 74
     0
 42
0.0000000001
 43
0.0000000001
 40
0.0
 40
0.0
 40
0.0
 40
0.0
 40
1.0
 40
1.0
 40
1.0
 40
2.0
 40
2.0
 40
2.0
 40
3.0
 40
3.0
 40
3.0
 40
4.0
 40
4.0
 40
4.0
 40
5.0
 40
5.0
 40
5.0
 40
6.0
 40
6.0
 40
6.0
 40
7.0
 40
7.0
 40
7.0
 40
7.0
 10
46.01741691205702
 20
-69.79375580870819
 30
0.0
 10
46.01741691205702
 20
-69.79375580870819
 30
0.0
 10
46.01741691205702
 20
-69.79375580870819
 30
0.0
 10
46.01741691205702
 20
-69.79375580870819
 30
0.0
 10
45.9585093642752
 20
-69.79318420848938
 30
0.0
 10
45.91104036591744
 20
-69.7451436099128
 30
0.0
 10
45.91161196613689
 20
-69.68737980798841
 30
0.0
 10
45.91161196613689
 20
-69.68737980798841
 30
0.0
 10
45.93906404842044
 20
-62.60136097441588
 30
0.0
 10
45.93906404842044
 20
-62.60136097441588
 30
0.0
 10
45.93963564863989
 20
-62.54302502685288
 30
0.0
 10
45.98710464699702
 20
-62.4961287195548
 30
0.0
 10
46.04544059456002
 20
-62.4961287195548
 30
0.0
 10
46.10377436044319
 20
-62.4961287195548
 30
0.0
 10
46.15124335880031
 20
-62.54359771791256
 30
0.0
 10
46.1506717585815
 20
-62.60250417485478
 30
0.0
 10
46.1506717585815
 20
-62.60250417485478
 30
0.0
 10
46.12379127651676
 20
-69.68795195362702
 30
0.0
 10
46.12379127651676
 20
-69.68795195362702
 30
0.0
 10
46.12321967629731
 20
-69.74628735577022
 30
0.0
 10
46.07632227815964
 20
-69.79375580870819
 30
0.0
 10
46.01741691205702
 20
-69.79375580870819
 30
0.0
  0
HATCH
  5
C2
330
79
100
AcDbEntity
  8
Camada 1
 62
    28
420
  1184269
440
 33554687
100
AcDbHatch
 10
0.0
 20
0.0
 30
0.0
210
0.0
220
0.0
230
1.0
  2
SOLID
 70
     1
 71
     1
 91
        1
 92
        1
 93
        2
 72
     4
 94
        3
 73
     0
 74
     0
 95
       26
 96
       22
 40
0.0
 40
0.0
 40
0.0
 40
0.0
 40
1.0
 40
1.0
 40
1.0
 40
2.0
 40
2.0
 40
2.0
 40
3.0
 40
3.0
 40
3.0
 40
4.0
 40
4.0
 40
4.0
 40
5.0
 40
5.0
 40
5.0
 40
6.0
 40
6.0
 40
6.0
 40
7.0
 40
7.0
 40
7.0
 40
7.0
 10
46.01741691205702
 20
-69.79375580870819
 10
46.01741691205702
 20
-69.79375580870819
 10
46.01741691205702
 20
-69.79375580870819
 10
46.01741691205702
 20
-69.79375580870819
 10
45.9585093642752
 20
-69.79318420848938
 10
45.91104036591744
 20
-69.7451436099128
 10
45.91161196613689
 20
-69.68737980798841
 10
45.91161196613689
 20
-69.68737980798841
 10
45.93906404842044
 20
-62.60136097441588
 10
45.93906404842044
 20
-62.60136097441588
 10
45.93963564863989
 20
-62.54302502685288
 10
45.98710464699702
 20
-62.4961287195548
 10
46.04544059456002
 20
-62.4961287195548
 10
46.10377436044319
 20
-62.4961287195548
 10
46.15124335880031
 20
-62.54359771791256
 10
46.1506717585815
 20
-62.60250417485478
 10
46.1506717585815
 20
-62.60250417485478
 10
46.12379127651676
 20
-69.68795195362702
 10
46.12379127651676
 20
-69.68795195362702
 10
46.12321967629731
 20
-69.74628735577022
 10
46.07632227815964
 20
-69.79375580870819
 10
46.01741691205702
 20
-69.79375580870819
 97
        0
 72
     1
 10
46.01741691205702
 20
-69.79375580870819
 11
46.01741691205702
 21
-69.79375580870819
 97
        0
 75
     2
 76
     1
 98
        1
 10
0.0
 20
0.0
450
        0
451
        0
460
0.0
461
0.0
452
        0
462
0.0
453
        0
470

  0
SPLINE
  5
C3
330
79
100
AcDbEntity
  8
Camada 1
100
AcDbSpline
210
0.0
220
0.0
230
1.0
 70
     9
 71
     3
 72
    47
 73
    43
 74
     0
 42
0.0000000001
 43
0.0000000001
 40
0.0
 40
0.0
 40
0.0
 40
0.0
 40
1.0
 40
1.0
 40
1.0
 40
2.0
 40
2.0
 40
2.0
 40
3.0
 40
3.0
 40
3.0
 40
4.0
 40
4.0
 40
4.0
 40
5.0
 40
5.0
 40
5.0
 40
6.0
 40
6.0
 40
6.0
 40
7.0
 40
7.0
 40
7.0
 40
8.0
 40
8.0
 40
8.0
 40
9.0
 40
9.0
 40
9.0
 40
10.0
 40
10.0
 40
10.0
 40
11.0
 40
11.0
 40
11.0
 40
12.0
 40
12.0
 40
12.0
 40
13.0
 40
13.0
 40
13.0
 40
14.0
 40
14.0
 40
14.0
 40
14.0
 10
44.73284141330614
 20
-75.31953539296278
 30
0.0
 10
44.69852576503142
 20
-75.31953539296278
 30
0.0
 10
44.66707029953251
 20
-75.30294998717457
 30
0.0
 10
44.64991356623539
 20
-75.26806328410085
 30
0.0
 10
44.44573884060448
 20
-74.83855562529775
 30
0.0
 10
44.29418187866478
 20
-74.4525133089259
 30
0.0
 10
44.14777150037742
 20
-74.07848114219946
 30
0.0
 10
43.99507133799882
 20
-73.68843571532472
 30
0.0
 10
43.83665081006795
 20
-73.28523612023658
 30
0.0
 10
43.63076128377932
 20
-72.86316335493357
 30
0.0
 10
43.63076128377932
 20
-72.86316335493357
 30
0.0
 10
43.4689089728532
 20
-72.51829916198864
 30
0.0
 10
43.4689089728532
 20
-72.51829916198864
 30
0.0
 10
43.46261918876132
 20
-72.50400097520729
 30
0.0
 10
43.45918740576606
 20
-72.48855958798706
 30
0.0
 10
43.45918740576606
 20
-72.473117655347
 30
0.0
 10
43.45918740576606
 20
-72.473117655347
 30
0.0
 10
43.45918740576606
 20
-69.70276447152262
 30
0.0
 10
43.45918740576606
 20
-69.70276447152262
 30
0.0
 10
43.45918740576606
 20
-69.64442906937941
 30
0.0
 10
43.50665640412318
 20
-69.59696061644145
 30
0.0
 10
43.56499017000635
 20
-69.59696061644145
 30
0.0
 10
43.62332611756936
 20
-69.59696061644145
 30
0.0
 10
43.67136671614592
 20
-69.64442906937941
 30
0.0
 10
43.67136671614592
 20
-69.70276447152262
 30
0.0
 10
43.67136671614592
 20
-69.70276447152262
 30
0.0
 10
43.67136671614592
 20
-72.44909735605872
 30
0.0
 10
43.67136671614592
 20
-72.44909735605872
 30
0.0
 10
43.67136671614592
 20
-72.44909735605872
 30
0.0
 10
43.82178047764736
 20
-72.77108499557406
 30
0.0
 10
43.82178047764736
 20
-72.77108499557406
 30
0.0
 10
44.03053018671244
 20
-73.20002078144908
 30
0.0
 10
44.19009391508157
 20
-73.60722375975193
 30
0.0
 10
44.34508266001716
 20
-74.00070096962259
 30
0.0
 10
44.48977605596634
 20
-74.3713013533531
 30
0.0
 10
44.63961821724896
 20
-74.75448403236767
 30
0.0
 10
44.8312090113358
 20
-75.15482426281034
 30
0.0
 10
44.85637469274283
 20
-75.20744039024023
 30
0.0
 10
44.83978737798469
 20
-75.28178905253304
 30
0.0
 10
44.78660019575514
 20
-75.30638149745993
 30
0.0
 10
44.76887186223857
 20
-75.31496013681871
 30
0.0
 10
44.75056974682271
 20
-75.31953539296278
 30
0.0
 10
44.73284141330614
 20
-75.31953539296278
 30
0.0
  0
HATCH
  5
C4
330
79
100
AcDbEntity
  8
Camada 1
 62
    28
420
  1184269
440
 33554687
100
AcDbHatch
 10
0.0
 20
0.0
 30
0.0
210
0.0
220
0.0
230
1.0
  2
SOLID
 70
     1
 71
     1
 91
        1
 92
        1
 93
        2
 72
     4
 94
        3
 73
     0
 74
     0
 95
       47
 96
       43
 40
0.0
 40
0.0
 40
0.0
 40
0.0
 40
1.0
 40
1.0
 40
1.0
 40
2.0
 40
2.0
 40
2.0
 40
3.0
 40
3.0
 40
3.0
 40
4.0
 40
4.0
 40
4.0
 40
5.0
 40
5.0
 40
5.0
 40
6.0
 40
6.0
 40
6.0
 40
7.0
 40
7.0
 40
7.0
 40
8.0
 40
8.0
 40
8.0
 40
9.0
 40
9.0
 40
9.0
 40
10.0
 40
10.0
 40
10.0
 40
11.0
 40
11.0
 40
11.0
 40
12.0
 40
12.0
 40
12.0
 40
13.0
 40
13.0
 40
13.0
 40
14.0
 40
14.0
 40
14.0
 40
14.0
 10
44.73284141330614
 20
-75.31953539296278
 10
44.69852576503142
 20
-75.31953539296278
 10
44.66707029953251
 20
-75.30294998717457
 10
44.64991356623539
 20
-75.26806328410085
 10
44.44573884060448
 20
-74.83855562529775
 10
44.29418187866478
 20
-74.4525133089259
 10
44.14777150037742
 20
-74.07848114219946
 10
43.99507133799882
 20
-73.68843571532472
 10
43.83665081006795
 20
-73.28523612023658
 10
43.63076128377932
 20
-72.86316335493357
 10
43.63076128377932
 20
-72.86316335493357
 10
43.4689089728532
 20
-72.51829916198864
 10
43.4689089728532
 20
-72.51829916198864
 10
43.46261918876132
 20
-72.50400097520729
 10
43.45918740576606
 20
-72.48855958798706
 10
43.45918740576606
 20
-72.473117655347
 10
43.45918740576606
 20
-72.473117655347
 10
43.45918740576606
 20
-69.70276447152262
 10
43.45918740576606
 20
-69.70276447152262
 10
43.45918740576606
 20
-69.64442906937941
 10
43.50665640412318
 20
-69.59696061644145
 10
43.56499017000635
 20
-69.59696061644145
 10
43.62332611756936
 20
-69.59696061644145
 10
43.67136671614592
 20
-69.64442906937941
 10
43.67136671614592
 20
-69.70276447152262
 10
43.67136671614592
 20
-69.70276447152262
 10
43.67136671614592
 20
-72.44909735605872
 10
43.67136671614592
 20
-72.44909735605872
 10
43.67136671614592
 20
-72.44909735605872
 10
43.82178047764736
 20
-72.77108499557406
 10
43.82178047764736
 20
-72.77108499557406
 10
44.03053018671244
 20
-73.20002078144908
 10
44.19009391508157
 20
-73.60722375975193
 10
44.34508266001716
 20
-74.00070096962259
 10
44.48977605596634
 20
-74.3713013533531
 10
44.63961821724896
 20
-74.75448403236767
 10
44.8312090113358
 20
-75.15482426281034
 10
44.85637469274283
 20
-75.20744039024023
 10
44.83978737798469
 20
-75.28178905253304
 10
44.78660019575514
 20
-75.30638149745993
 10
44.76887186223857
 20
-75.31496013681871
 10
44.75056974682271
 20
-75.31953539296278
 10
44.73284141330614
 20
-75.31953539296278
 97
        0
 72
     1
 10
44.73284141330613
 20
-75.31953539296278
 11
44.73284141330614
 21
-75.31953539296278
 97
        0
 75
     2
 76
     1
 98
        1
 10
0.0
 20
0.0
450
        0
451
        0
460
0.0
461
0.0
452
        0
462
0.0
453
        0
470

  0
SPLINE
  5
C5
330
79
100
AcDbEntity
  8
Camada 1
100
AcDbSpline
210
0.0
220
0.0
230
1.0
 70
     9
 71
     3
 72
    38
 73
    34
 74
     0
 42
0.0000000001
 43
0.0000000001
 40
0.0
 40
0.0
 40
0.0
 40
0.0
 40
1.0
 40
1.0
 40
1.0
 40
2.0
 40
2.0
 40
2.0
 40
3.0
 40
3.0
 40
3.0
 40
4.0
 40
4.0
 40
4.0
 40
5.0
 40
5.0
 40
5.0
 40
6.0
 40
6.0
 40
6.0
 40
7.0
 40
7.0
 40
7.0
 40
8.0
 40
8.0
 40
8.0
 40
9.0
 40
9.0
 40
9.0
 40
10.0
 40
10.0
 40
10.0
 40
11.0
 40
11.0
 40
11.0
 40
11.0
 10
45.41788027755015
 20
-69.90613688424939
 30
0.0
 10
45.30864354863412
 20
-69.90613688424939
 30
0.0
 10
45.19597721840266
 20
-69.89984600931856
 30
0.0
 10
45.0655803729748
 20
-69.882688730601
 30
0.0
 10
45.0655803729748
 20
-69.882688730601
 30
0.0
 10
45.00438424263534
 20
-69.87067858095686
 30
0.0
 10
45.00438424263534
 20
-69.87067858095686
 30
0.0
 10
44.94719367719109
 20
-69.85924003153153
 30
0.0
 10
44.91002002782039
 20
-69.80319266652552
 30
0.0
 10
44.92145857724509
 20
-69.74600101024101
 30
0.0
 10
44.93232334477048
 20
-69.68880989937632
 30
0.0
 10
44.98436732656177
 20
-69.65106355894658
 30
0.0
 10
45.04613505712068
 20
-69.66307370859071
 30
0.0
 10
45.04613505712068
 20
-69.66307370859071
 30
0.0
 10
45.09989383956969
 20
-69.67394011237615
 30
0.0
 10
45.09989383956969
 20
-69.67394011237615
 30
0.0
 10
45.36411931342132
 20
-69.70768306959119
 30
0.0
 10
45.54827494129818
 20
-69.69510077430844
 30
0.0
 10
45.82451056479395
 20
-69.67222422087885
 30
0.0
 10
45.86911938037462
 20
-69.66478905466823
 30
0.0
 10
45.92573834560008
 20
-69.68194687880559
 30
0.0
 10
45.94690064379238
 20
-69.72484034830874
 30
0.0
 10
45.97320734395784
 20
-69.77745647573993
 30
0.0
 10
45.96234257643179
 20
-69.83579187788314
 30
0.0
 10
45.90972481274122
 20
-69.86209966888754
 30
0.0
 10
45.90972481274122
 20
-69.86209966888754
 30
0.0
 10
45.88799309600993
 20
-69.87239447245418
 30
0.0
 10
45.88799309600993
 20
-69.87239447245418
 30
0.0
 10
45.87655454658524
 20
-69.8786853473863
 30
0.0
 10
45.86340119650284
 20
-69.88211658496111
 30
0.0
 10
45.84910246430105
 20
-69.88326033081981
 30
0.0
 10
45.69068193637018
 20
-69.89584262610384
 30
0.0
 10
45.55685330794641
 20
-69.90613688424939
 30
0.0
 10
45.41788027755015
 20
-69.90613688424939
 30
0.0
  0
HATCH
  5
C6
330
79
100
AcDbEntity
  8
Camada 1
 62
    28
420
  1184269
440
 33554687
100
AcDbHatch
 10
0.0
 20
0.0
 30
0.0
210
0.0
220
0.0
230
1.0
  2
SOLID
 70
     1
 71
     1
 91
        1
 92
        1
 93
        2
 72
     4
 94
        3
 73
     0
 74
     0
 95
       38
 96
       34
 40
0.0
 40
0.0
 40
0.0
 40
0.0
 40
1.0
 40
1.0
 40
1.0
 40
2.0
 40
2.0
 40
2.0
 40
3.0
 40
3.0
 40
3.0
 40
4.0
 40
4.0
 40
4.0
 40
5.0
 40
5.0
 40
5.0
 40
6.0
 40
6.0
 40
6.0
 40
7.0
 40
7.0
 40
7.0
 40
8.0
 40
8.0
 40
8.0
 40
9.0
 40
9.0
 40
9.0
 40
10.0
 40
10.0
 40
10.0
 40
11.0
 40
11.0
 40
11.0
 40
11.0
 10
45.41788027755015
 20
-69.90613688424939
 10
45.30864354863412
 20
-69.90613688424939
 10
45.19597721840266
 20
-69.89984600931856
 10
45.0655803729748
 20
-69.882688730601
 10
45.0655803729748
 20
-69.882688730601
 10
45.00438424263534
 20
-69.87067858095686
 10
45.00438424263534
 20
-69.87067858095686
 10
44.94719367719109
 20
-69.85924003153153
 10
44.91002002782039
 20
-69.80319266652552
 10
44.92145857724509
 20
-69.74600101024101
 10
44.93232334477048
 20
-69.68880989937632
 10
44.98436732656177
 20
-69.65106355894658
 10
45.04613505712068
 20
-69.66307370859071
 10
45.04613505712068
 20
-69.66307370859071
 10
45.09989383956969
 20
-69.67394011237615
 10
45.09989383956969
 20
-69.67394011237615
 10
45.36411931342132
 20
-69.70768306959119
 10
45.54827494129818
 20
-69.69510077430844
 10
45.82451056479395
 20
-69.67222422087885
 10
45.86911938037462
 20
-69.66478905466823
 10
45.92573834560008
 20
-69.68194687880559
 10
45.94690064379238
 20
-69.72484034830874
 10
45.97320734395784
 20
-69.77745647573993
 10
45.96234257643179
 20
-69.83579187788314
 10
45.90972481274122
 20
-69.86209966888754
 10
45.90972481274122
 20
-69.86209966888754
 10
45.88799309600993
 20
-69.87239447245418
 10
45.88799309600993
 20
-69.87239447245418
 10
45.87655454658524
 20
-69.8786853473863
 10
45.86340119650284
 20
-69.88211658496111
 10
45.84910246430105
 20
-69.88326033081981
 10
45.69068193637018
 20
-69.89584262610384
 10
45.55685330794641
 20
-69.90613688424939
 10
45.41788027755015
 20
-69.90613688424939
 97
        0
 72
     1
 10
45.41788027755014
 20
-69.90613688424939
 11
45.41788027755015
 21
-69.90613688424939
 97
        0
 75
     2
 76
     1
 98
        1
 10
0.0
 20
0.0
450
        0
451
        0
460
0.0
461
0.0
452
        0
462
0.0
453
        0
470

  0
SPLINE
  5
C7
330
79
100
AcDbEntity
  8
Camada 1
100
AcDbSpline
210
0.0
220
0.0
230
1.0
 70
     9
 71
     3
 72
    23
 73
    19
 74
     0
 42
0.0000000001
 43
0.0000000001
 40
0.0
 40
0.0
 40
0.0
 40
0.0
 40
1.0
 40
1.0
 40
1.0
 40
2.0
 40
2.0
 40
2.0
 40
3.0
 40
3.0
 40
3.0
 40
4.0
 40
4.0
 40
4.0
 40
5.0
 40
5.0
 40
5.0
 40
6.0
 40
6.0
 40
6.0
 40
6.0
 10
46.97977787654967
 20
-75.32759942849804
 30
0.0
 10
46.92087032876721
 20
-75.32759942849804
 30
0.0
 10
46.87397293062955
 20
-75.28013070285083
 30
0.0
 10
46.87397293062955
 20
-75.22122342777826
 30
0.0
 10
46.87397293062955
 20
-75.22122342777826
 30
0.0
 10
46.87397293062955
 20
-69.70282174062846
 30
0.0
 10
46.87397293062955
 20
-69.70282174062846
 30
0.0
 10
46.87397293062955
 20
-69.64391473826516
 30
0.0
 10
46.92087032876721
 20
-69.5970173401275
 30
0.0
 10
46.97977787654967
 20
-69.5970173401275
 30
0.0
 10
47.03811164243283
 20
-69.5970173401275
 30
0.0
 10
47.08615224100941
 20
-69.64391473826516
 30
0.0
 10
47.08615224100941
 20
-69.70282174062846
 30
0.0
 10
47.08615224100941
 20
-69.70282174062846
 30
0.0
 10
47.08615224100941
 20
-75.22122342777826
 30
0.0
 10
47.08615224100941
 20
-75.22122342777826
 30
0.0
 10
47.08615224100941
 20
-75.28013070285083
 30
0.0
 10
47.03811164243283
 20
-75.32759942849804
 30
0.0
 10
46.97977787654967
 20
-75.32759942849804
 30
0.0
  0
HATCH
  5
C8
330
79
100
AcDbEntity
  8
Camada 1
 62
    28
420
  1184269
440
 33554687
100
AcDbHatch
 10
0.0
 20
0.0
 30
0.0
210
0.0
220
0.0
230
1.0
  2
SOLID
 70
     1
 71
     1
 91
        1
 92
        1
 93
        2
 72
     4
 94
        3
 73
     0
 74
     0
 95
       23
 96
       19
 40
0.0
 40
0.0
 40
0.0
 40
0.0
 40
1.0
 40
1.0
 40
1.0
 40
2.0
 40
2.0
 40
2.0
 40
3.0
 40
3.0
 40
3.0
 40
4.0
 40
4.0
 40
4.0
 40
5.0
 40
5.0
 40
5.0
 40
6.0
 40
6.0
 40
6.0
 40
6.0
 10
46.97977787654967
 20
-75.32759942849804
 10
46.92087032876721
 20
-75.32759942849804
 10
46.87397293062955
 20
-75.28013070285083
 10
46.87397293062955
 20
-75.22122342777826
 10
46.87397293062955
 20
-75.22122342777826
 10
46.87397293062955
 20
-69.70282174062846
 10
46.87397293062955
 20
-69.70282174062846
 10
46.87397293062955
 20
-69.64391473826516
 10
46.92087032876721
 20
-69.5970173401275
 10
46.97977787654967
 20
-69.5970173401275
 10
47.03811164243283
 20
-69.5970173401275
 10
47.08615224100941
 20
-69.64391473826516
 10
47.08615224100941
 20
-69.70282174062846
 10
47.08615224100941
 20
-69.70282174062846
 10
47.08615224100941
 20
-75.22122342777826
 10
47.08615224100941
 20
-75.22122342777826
 10
47.08615224100941
 20
-75.28013070285083
 10
47.03811164243283
 20
-75.32759942849804
 10
46.97977787654967
 20
-75.32759942849804
 97
        0
 72
     1
 10
46.97977787654967
 20
-75.32759942849804
 11
46.97977787654967
 21
-75.32759942849804
 97
        0
 75
     2
 76
     1
 98
        1
 10
0.0
 20
0.0
450
        0
451
        0
460
0.0
461
0.0
452
        0
462
0.0
453
        0
470

  0
SPLINE
  5
C9
330
79
100
AcDbEntity
  8
Camada 1
100
AcDbSpline
210
0.0
220
0.0
230
1.0
 70
     9
 71
     3
 72
    23
 73
    19
 74
     0
 42
0.0000000001
 43
0.0000000001
 40
0.0
 40
0.0
 40
0.0
 40
0.0
 40
1.0
 40
1.0
 40
1.0
 40
2.0
 40
2.0
 40
2.0
 40
3.0
 40
3.0
 40
3.0
 40
4.0
 40
4.0
 40
4.0
 40
5.0
 40
5.0
 40
5.0
 40
6.0
 40
6.0
 40
6.0
 40
6.0
 10
43.42567243413415
 20
-75.28487749360187
 30
0.0
 10
43.3667648863517
 20
-75.28487749360187
 30
0.0
 10
43.31986748821338
 20
-75.2368368950253
 30
0.0
 10
43.31986748821338
 20
-75.17907336581145
 30
0.0
 10
43.31986748821338
 20
-75.17907336581145
 30
0.0
 10
43.31986748821338
 20
-69.74531487181053
 30
0.0
 10
43.31986748821338
 20
-69.74531487181053
 30
0.0
 10
43.31986748821338
 20
-69.68697946966732
 30
0.0
 10
43.3667648863517
 20
-69.63951047130956
 30
0.0
 10
43.42567243413415
 20
-69.63951047130956
 30
0.0
 10
43.48400620001732
 20
-69.63951047130956
 30
0.0
 10
43.53147519837444
 20
-69.68697946966732
 30
0.0
 10
43.53147519837444
 20
-69.74531487181053
 30
0.0
 10
43.53147519837444
 20
-69.74531487181053
 30
0.0
 10
43.53147519837444
 20
-75.17907336581145
 30
0.0
 10
43.53147519837444
 20
-75.17907336581145
 30
0.0
 10
43.53147519837444
 20
-75.2368368950253
 30
0.0
 10
43.48400620001732
 20
-75.28487749360187
 30
0.0
 10
43.42567243413415
 20
-75.28487749360187
 30
0.0
  0
HATCH
  5
CA
330
79
100
AcDbEntity
  8
Camada 1
 62
    28
420
  1184269
440
 33554687
100
AcDbHatch
 10
0.0
 20
0.0
 30
0.0
210
0.0
220
0.0
230
1.0
  2
SOLID
 70
     1
 71
     1
 91
        1
 92
        1
 93
        2
 72
     4
 94
        3
 73
     0
 74
     0
 95
       23
 96
       19
 40
0.0
 40
0.0
 40
0.0
 40
0.0
 40
1.0
 40
1.0
 40
1.0
 40
2.0
 40
2.0
 40
2.0
 40
3.0
 40
3.0
 40
3.0
 40
4.0
 40
4.0
 40
4.0
 40
5.0
 40
5.0
 40
5.0
 40
6.0
 40
6.0
 40
6.0
 40
6.0
 10
43.42567243413415
 20
-75.28487749360187
 10
43.3667648863517
 20
-75.28487749360187
 10
43.31986748821338
 20
-75.2368368950253
 10
43.31986748821338
 20
-75.17907336581145
 10
43.31986748821338
 20
-75.17907336581145
 10
43.31986748821338
 20
-69.74531487181053
 10
43.31986748821338
 20
-69.74531487181053
 10
43.31986748821338
 20
-69.68697946966732
 10
43.3667648863517
 20
-69.63951047130956
 10
43.42567243413415
 20
-69.63951047130956
 10
43.48400620001732
 20
-69.63951047130956
 10
43.53147519837444
 20
-69.68697946966732
 10
43.53147519837444
 20
-69.74531487181053
 10
43.53147519837444
 20
-69.74531487181053
 10
43.53147519837444
 20
-75.17907336581145
 10
43.53147519837444
 20
-75.17907336581145
 10
43.53147519837444
 20
-75.2368368950253
 10
43.48400620001732
 20
-75.28487749360187
 10
43.42567243413415
 20
-75.28487749360187
 97
        0
 72
     1
 10
43.42567243413415
 20
-75.28487749360187
 11
43.42567243413415
 21
-75.28487749360187
 97
        0
 75
     2
 76
     1
 98
        1
 10
0.0
 20
0.0
450
        0
451
        0
460
0.0
461
0.0
452
        0
462
0.0
453
        0
470

  0
SPLINE
  5
CB
330
79
100
AcDbEntity
  8
Camada 1
100
AcDbSpline
210
0.0
220
0.0
230
1.0
 70
     9
 71
     3
 72
    26
 73
    22
 74
     0
 42
0.0000000001
 43
0.0000000001
 40
0.0
 40
0.0
 40
0.0
 40
0.0
 40
1.0
 40
1.0
 40
1.0
 40
2.0
 40
2.0
 40
2.0
 40
3.0
 40
3.0
 40
3.0
 40
4.0
 40
4.0
 40
4.0
 40
5.0
 40
5.0
 40
5.0
 40
6.0
 40
6.0
 40
6.0
 40
7.0
 40
7.0
 40
7.0
 40
7.0
 10
44.84344823740396
 20
-62.67473742545696
 30
0.0
 10
44.79483385692809
 20
-62.67473742545696
 30
0.0
 10
44.75480002478095
 20
-62.63470359330981
 30
0.0
 10
44.75480002478095
 20
-62.58609139451444
 30
0.0
 10
44.75480002478095
 20
-62.53690650465935
 30
0.0
 10
44.79369065648919
 20
-62.49687267251221
 30
0.0
 10
44.84287445550466
 20
-62.49687267251221
 30
0.0
 10
44.84287445550466
 20
-62.49687267251221
 30
0.0
 10
46.05247433160867
 20
-62.491724998019
 30
0.0
 10
46.05247433160867
 20
-62.491724998019
 30
0.0
 10
46.05247433160867
 20
-62.491724998019
 30
0.0
 10
46.05304593182812
 20
-62.491724998019
 30
0.0
 10
46.05304593182812
 20
-62.491724998019
 30
0.0
 10
46.10165813062415
 20
-62.491724998019
 30
0.0
 10
46.14226574467058
 20
-62.53175883016614
 30
0.0
 10
46.14226574467058
 20
-62.58037211980113
 30
0.0
 10
46.14226574467058
 20
-62.62955700965619
 30
0.0
 10
46.10280351274289
 20
-62.66959084180334
 30
0.0
 10
46.05361753204757
 20
-62.66959084180334
 30
0.0
 10
46.05361753204757
 20
-62.66959084180334
 30
0.0
 10
44.84344823740396
 20
-62.67473742545696
 30
0.0
 10
44.84344823740396
 20
-62.67473742545696
 30
0.0
  0
HATCH
  5
CC
330
79
100
AcDbEntity
  8
Camada 1
 62
    28
420
  1184269
440
 33554687
100
AcDbHatch
 10
0.0
 20
0.0
 30
0.0
210
0.0
220
0.0
230
1.0
  2
SOLID
 70
     1
 71
     1
 91
        1
 92
        1
 93
        1
 72
     4
 94
        3
 73
     0
 74
     0
 95
       26
 96
       22
 40
0.0
 40
0.0
 40
0.0
 40
0.0
 40
1.0
 40
1.0
 40
1.0
 40
2.0
 40
2.0
 40
2.0
 40
3.0
 40
3.0
 40
3.0
 40
4.0
 40
4.0
 40
4.0
 40
5.0
 40
5.0
 40
5.0
 40
6.0
 40
6.0
 40
6.0
 40
7.0
 40
7.0
 40
7.0
 40
7.0
 10
44.84344823740396
 20
-62.67473742545696
 10
44.79483385692809
 20
-62.67473742545696
 10
44.75480002478095
 20
-62.63470359330981
 10
44.75480002478095
 20
-62.58609139451444
 10
44.75480002478095
 20
-62.53690650465935
 10
44.79369065648919
 20
-62.49687267251221
 10
44.84287445550466
 20
-62.49687267251221
 10
44.84287445550466
 20
-62.49687267251221
 10
46.05247433160867
 20
-62.491724998019
 10
46.05247433160867
 20
-62.491724998019
 10
46.05247433160867
 20
-62.491724998019
 10
46.05304593182812
 20
-62.491724998019
 10
46.05304593182812
 20
-62.491724998019
 10
46.10165813062415
 20
-62.491724998019
 10
46.14226574467058
 20
-62.53175883016614
 10
46.14226574467058
 20
-62.58037211980113
 10
46.14226574467058
 20
-62.62955700965619
 10
46.10280351274289
 20
-62.66959084180334
 10
46.05361753204757
 20
-62.66959084180334
 10
46.05361753204757
 20
-62.66959084180334
 10
44.84344823740396
 20
-62.67473742545696
 10
44.84344823740396
 20
-62.67473742545696
 97
        0
 97
        1
330
CB
 75
     2
 76
     1
 98
        1
 10
0.0
 20
0.0
450
        0
451
        0
460
0.0
461
0.0
452
        0
462
0.0
453
        0
470

  0
SPLINE
  5
CD
330
79
100
AcDbEntity
  8
Camada 1
100
AcDbSpline
210
0.0
220
0.0
230
1.0
 70
     9
 71
     3
 72
    74
 73
    70
 74
     0
 42
0.0000000001
 43
0.0000000001
 40
0.0
 40
0.0
 40
0.0
 40
0.0
 40
1.0
 40
1.0
 40
1.0
 40
2.0
 40
2.0
 40
2.0
 40
3.0
 40
3.0
 40
3.0
 40
4.0
 40
4.0
 40
4.0
 40
5.0
 40
5.0
 40
5.0
 40
6.0
 40
6.0
 40
6.0
 40
7.0
 40
7.0
 40
7.0
 40
8.0
 40
8.0
 40
8.0
 40
9.0
 40
9.0
 40
9.0
 40
10.0
 40
10.0
 40
10.0
 40
11.0
 40
11.0
 40
11.0
 40
12.0
 40
12.0
 40
12.0
 40
13.0
 40
13.0
 40
13.0
 40
14.0
 40
14.0
 40
14.0
 40
15.0
 40
15.0
 40
15.0
 40
16.0
 40
16.0
 40
16.0
 40
17.0
 40
17.0
 40
17.0
 40
18.0
 40
18.0
 40
18.0
 40
19.0
 40
19.0
 40
19.0
 40
20.0
 40
20.0
 40
20.0
 40
21.0
 40
21.0
 40
21.0
 40
22.0
 40
22.0
 40
22.0
 40
23.0
 40
23.0
 40
23.0
 40
23.0
 10
45.02554654082766
 20
-69.87290880356714
 30
0.0
 10
45.02554654082766
 20
-69.87290880356714
 30
0.0
 10
44.99294569321065
 20
-69.87290880356714
 30
0.0
 10
44.99294569321065
 20
-69.87290880356714
 30
0.0
 10
44.98150714378597
 20
-69.87290880356714
 30
0.0
 10
44.97007077604111
 20
-69.87119345748962
 30
0.0
 10
44.95977542705468
 20
-69.86719007427492
 30
0.0
 10
44.95977542705468
 20
-69.86719007427492
 30
0.0
 10
44.92889156177522
 20
-69.86204294520149
 30
0.0
 10
44.92889156177522
 20
-69.86204294520149
 30
0.0
 10
44.91688141213108
 20
-69.86204294520149
 30
0.0
 10
44.90544286270575
 20
-69.86032705370418
 30
0.0
 10
44.89457809518035
 20
-69.85689527070828
 30
0.0
 10
44.89457809518035
 20
-69.85689527070828
 30
0.0
 10
44.86254884778279
 20
-69.84602886692283
 30
0.0
 10
44.86254884778279
 20
-69.84602886692283
 30
0.0
 10
44.86026244690562
 20
-69.84545726670403
 30
0.0
 10
44.85511586325265
 20
-69.84259762934802
 30
0.0
 10
44.84825229726149
 20
-69.83916639177191
 30
0.0
 10
44.8373853480556
 20
-69.8385942461333
 30
0.0
 10
44.82651839885035
 20
-69.8374505002746
 30
0.0
 10
44.82137181519674
 20
-69.83573460877728
 30
0.0
 10
44.82137181519674
 20
-69.83573460877728
 30
0.0
 10
44.79906631656617
 20
-69.82887158820529
 30
0.0
 10
44.79906631656617
 20
-69.82887158820529
 30
0.0
 10
44.78705616692202
 20
-69.82715569670798
 30
0.0
 10
44.77333121662017
 20
-69.82372445913314
 30
0.0
 10
44.76132106697603
 20
-69.81972107591843
 30
0.0
 10
44.76132106697603
 20
-69.81972107591843
 30
0.0
 10
44.74587913433662
 20
-69.81972107591843
 30
0.0
 10
44.74587913433662
 20
-69.81972107591843
 30
0.0
 10
44.71785545183362
 20
-69.81972107591843
 30
0.0
 10
44.69097496976888
 20
-69.8082825264931
 30
0.0
 10
44.6709580536953
 20
-69.78883775605814
 30
0.0
 10
44.64350597141176
 20
-69.76882083998457
 30
0.0
 10
44.624060655557
 20
-69.73793752012555
 30
0.0
 10
44.624060655557
 20
-69.70305027163202
 30
0.0
 10
44.62463443745693
 20
-69.62870188204977
 30
0.0
 10
44.69841013597886
 20
-69.57608575461986
 30
0.0
 10
44.77790620005434
 20
-69.60754067469768
 30
0.0
 10
44.77790620005434
 20
-69.60754067469768
 30
0.0
 10
44.78934474947902
 20
-69.60754067469768
 30
0.0
 10
44.78934474947902
 20
-69.60754067469768
 30
0.0
 10
44.80764686489489
 20
-69.60754067469768
 30
0.0
 10
44.82537519841146
 20
-69.61211620355229
 30
0.0
 10
44.8408171310515
 20
-69.62069457020053
 30
0.0
 10
44.84653531492393
 20
-69.62126671583914
 30
0.0
 10
44.85053869813865
 20
-69.62241046169784
 30
0.0
 10
44.85339888091446
 20
-69.62298260733773
 30
0.0
 10
44.85339888091446
 20
-69.62298260733773
 30
0.0
 10
44.87341579698803
 20
-69.62984562790847
 30
0.0
 10
44.87341579698803
 20
-69.62984562790847
 30
0.0
 10
44.89171791240454
 20
-69.63156097398597
 30
0.0
 10
44.91287802891636
 20
-69.63442061134198
 30
0.0
 10
44.92202799578405
 20
-69.6395677404154
 30
0.0
 10
44.92202799578405
 20
-69.6395677404154
 30
0.0
 10
44.96091862749294
 20
-69.65043414420084
 30
0.0
 10
44.96091862749294
 20
-69.65043414420084
 30
0.0
 10
44.97235717691763
 20
-69.65043414420084
 30
0.0
 10
44.98379572634297
 20
-69.65215003569944
 30
0.0
 10
44.99409107532939
 20
-69.65558181869406
 30
0.0
 10
44.99409107532939
 20
-69.65558181869406
 30
0.0
 10
45.02554654082766
 20
-69.66072894776748
 30
0.0
 10
45.02554654082766
 20
-69.66072894776748
 30
0.0
 10
45.08388030671083
 20
-69.66072894776748
 30
0.0
 10
45.13134930506795
 20
-69.70819794612523
 30
0.0
 10
45.13134930506795
 20
-69.76710494848726
 30
0.0
 10
45.13134930506795
 20
-69.82544035063046
 30
0.0
 10
45.08388030671083
 20
-69.87290880356714
 30
0.0
 10
45.02554654082766
 20
-69.87290880356714
 30
0.0
  0
HATCH
  5
CE
330
79
100
AcDbEntity
  8
Camada 1
 62
    28
420
  1184269
440
 33554687
100
AcDbHatch
 10
0.0
 20
0.0
 30
0.0
210
0.0
220
0.0
230
1.0
  2
SOLID
 70
     1
 71
     1
 91
        1
 92
        1
 93
        2
 72
     4
 94
        3
 73
     0
 74
     0
 95
       74
 96
       70
 40
0.0
 40
0.0
 40
0.0
 40
0.0
 40
1.0
 40
1.0
 40
1.0
 40
2.0
 40
2.0
 40
2.0
 40
3.0
 40
3.0
 40
3.0
 40
4.0
 40
4.0
 40
4.0
 40
5.0
 40
5.0
 40
5.0
 40
6.0
 40
6.0
 40
6.0
 40
7.0
 40
7.0
 40
7.0
 40
8.0
 40
8.0
 40
8.0
 40
9.0
 40
9.0
 40
9.0
 40
10.0
 40
10.0
 40
10.0
 40
11.0
 40
11.0
 40
11.0
 40
12.0
 40
12.0
 40
12.0
 40
13.0
 40
13.0
 40
13.0
 40
14.0
 40
14.0
 40
14.0
 40
15.0
 40
15.0
 40
15.0
 40
16.0
 40
16.0
 40
16.0
 40
17.0
 40
17.0
 40
17.0
 40
18.0
 40
18.0
 40
18.0
 40
19.0
 40
19.0
 40
19.0
 40
20.0
 40
20.0
 40
20.0
 40
21.0
 40
21.0
 40
21.0
 40
22.0
 40
22.0
 40
22.0
 40
23.0
 40
23.0
 40
23.0
 40
23.0
 10
45.02554654082766
 20
-69.87290880356714
 10
45.02554654082766
 20
-69.87290880356714
 10
44.99294569321065
 20
-69.87290880356714
 10
44.99294569321065
 20
-69.87290880356714
 10
44.98150714378597
 20
-69.87290880356714
 10
44.97007077604111
 20
-69.87119345748962
 10
44.95977542705468
 20
-69.86719007427492
 10
44.95977542705468
 20
-69.86719007427492
 10
44.92889156177522
 20
-69.86204294520149
 10
44.92889156177522
 20
-69.86204294520149
 10
44.91688141213108
 20
-69.86204294520149
 10
44.90544286270575
 20
-69.86032705370418
 10
44.89457809518035
 20
-69.85689527070828
 10
44.89457809518035
 20
-69.85689527070828
 10
44.86254884778279
 20
-69.84602886692283
 10
44.86254884778279
 20
-69.84602886692283
 10
44.86026244690562
 20
-69.84545726670403
 10
44.85511586325265
 20
-69.84259762934802
 10
44.84825229726149
 20
-69.83916639177191
 10
44.8373853480556
 20
-69.8385942461333
 10
44.82651839885035
 20
-69.8374505002746
 10
44.82137181519674
 20
-69.83573460877728
 10
44.82137181519674
 20
-69.83573460877728
 10
44.79906631656617
 20
-69.82887158820529
 10
44.79906631656617
 20
-69.82887158820529
 10
44.78705616692202
 20
-69.82715569670798
 10
44.77333121662017
 20
-69.82372445913314
 10
44.76132106697603
 20
-69.81972107591843
 10
44.76132106697603
 20
-69.81972107591843
 10
44.74587913433662
 20
-69.81972107591843
 10
44.74587913433662
 20
-69.81972107591843
 10
44.71785545183362
 20
-69.81972107591843
 10
44.69097496976888
 20
-69.8082825264931
 10
44.6709580536953
 20
-69.78883775605814
 10
44.64350597141176
 20
-69.76882083998457
 10
44.624060655557
 20
-69.73793752012555
 10
44.624060655557
 20
-69.70305027163202
 10
44.62463443745693
 20
-69.62870188204977
 10
44.69841013597886
 20
-69.57608575461986
 10
44.77790620005434
 20
-69.60754067469768
 10
44.77790620005434
 20
-69.60754067469768
 10
44.78934474947902
 20
-69.60754067469768
 10
44.78934474947902
 20
-69.60754067469768
 10
44.80764686489489
 20
-69.60754067469768
 10
44.82537519841146
 20
-69.61211620355229
 10
44.8408171310515
 20
-69.62069457020053
 10
44.84653531492393
 20
-69.62126671583914
 10
44.85053869813865
 20
-69.62241046169784
 10
44.85339888091446
 20
-69.62298260733773
 10
44.85339888091446
 20
-69.62298260733773
 10
44.87341579698803
 20
-69.62984562790847
 10
44.87341579698803
 20
-69.62984562790847
 10
44.89171791240454
 20
-69.63156097398597
 10
44.91287802891636
 20
-69.63442061134198
 10
44.92202799578405
 20
-69.6395677404154
 10
44.92202799578405
 20
-69.6395677404154
 10
44.96091862749294
 20
-69.65043414420084
 10
44.96091862749294
 20
-69.65043414420084
 10
44.97235717691763
 20
-69.65043414420084
 10
44.98379572634297
 20
-69.65215003569944
 10
44.99409107532939
 20
-69.65558181869406
 10
44.99409107532939
 20
-69.65558181869406
 10
45.02554654082766
 20
-69.66072894776748
 10
45.02554654082766
 20
-69.66072894776748
 10
45.08388030671083
 20
-69.66072894776748
 10
45.13134930506795
 20
-69.70819794612523
 10
45.13134930506795
 20
-69.76710494848726
 10
45.13134930506795
 20
-69.82544035063046
 10
45.08388030671083
 20
-69.87290880356714
 10
45.02554654082766
 20
-69.87290880356714
 97
        0
 72
     1
 10
45.02554654082766
 20
-69.87290880356714
 11
45.02554654082766
 21
-69.87290880356714
 97
        0
 75
     2
 76
     1
 98
        1
 10
0.0
 20
0.0
450
        0
451
        0
460
0.0
461
0.0
452
        0
462
0.0
453
        0
470

  0
SPLINE
  5
CF
330
79
100
AcDbEntity
  8
Camada 1
100
AcDbSpline
210
0.0
220
0.0
230
1.0
 70
     9
 71
     3
 72
    71
 73
    67
 74
     0
 42
0.0000000001
 43
0.0000000001
 40
0.0
 40
0.0
 40
0.0
 40
0.0
 40
1.0
 40
1.0
 40
1.0
 40
2.0
 40
2.0
 40
2.0
 40
3.0
 40
3.0
 40
3.0
 40
4.0
 40
4.0
 40
4.0
 40
5.0
 40
5.0
 40
5.0
 40
6.0
 40
6.0
 40
6.0
 40
7.0
 40
7.0
 40
7.0
 40
8.0
 40
8.0
 40
8.0
 40
9.0
 40
9.0
 40
9.0
 40
10.0
 40
10.0
 40
10.0
 40
11.0
 40
11.0
 40
11.0
 40
12.0
 40
12.0
 40
12.0
 40
13.0
 40
13.0
 40
13.0
 40
14.0
 40
14.0
 40
14.0
 40
15.0
 40
15.0
 40
15.0
 40
16.0
 40
16.0
 40
16.0
 40
17.0
 40
17.0
 40
17.0
 40
18.0
 40
18.0
 40
18.0
 40
19.0
 40
19.0
 40
19.0
 40
20.0
 40
20.0
 40
20.0
 40
21.0
 40
21.0
 40
21.0
 40
22.0
 40
22.0
 40
22.0
 40
22.0
 10
45.86271396723146
 20
-69.87290880356714
 30
0.0
 10
45.81181318587844
 20
-69.87290880356714
 30
0.0
 10
45.76663058839783
 20
-69.83573460877728
 30
0.0
 10
45.75805222174896
 20
-69.78426222720482
 30
0.0
 10
45.74833065466246
 20
-69.72649897070022
 30
0.0
 10
45.78721910469086
 20
-69.67216695177301
 30
0.0
 10
45.84555505225387
 20
-69.66244483926479
 30
0.0
 10
45.84555505225387
 20
-69.66244483926479
 30
0.0
 10
45.95764978226587
 20
-69.64471541490862
 30
0.0
 10
45.95764978226587
 20
-69.64471541490862
 30
0.0
 10
45.97252011468646
 20
-69.63728024869801
 30
0.0
 10
45.9959688137553
 20
-69.62870188204977
 30
0.0
 10
46.01312554705242
 20
-69.62870188204977
 30
0.0
 10
46.01312554705242
 20
-69.62870188204977
 30
0.0
 10
46.02685267903476
 20
-69.62870188204977
 30
0.0
 10
46.02685267903476
 20
-69.62870188204977
 30
0.0
 10
46.04114922955607
 20
-69.62241046169784
 30
0.0
 10
46.05487636153775
 20
-69.61783547826432
 30
0.0
 10
46.06631491096245
 20
-69.61783547826432
 30
0.0
 10
46.06631491096245
 20
-69.61783547826432
 30
0.0
 10
46.06917291205906
 20
-69.61783547826432
 30
0.0
 10
46.06917291205906
 20
-69.61783547826432
 30
0.0
 10
46.08347164426021
 20
-69.6115440579124
 30
0.0
 10
46.0971987762419
 20
-69.60754067469768
 30
0.0
 10
46.1097805261055
 20
-69.60754067469768
 30
0.0
 10
46.1097805261055
 20
-69.60754067469768
 30
0.0
 10
46.11263852720147
 20
-69.60754067469768
 30
0.0
 10
46.11263852720147
 20
-69.60754067469768
 30
0.0
 10
46.1915629910575
 20
-69.56865058840924
 30
0.0
 10
46.26362388892236
 20
-69.63213311962586
 30
0.0
 10
46.26419767082165
 20
-69.70305027163202
 30
0.0
 10
46.26419767082165
 20
-69.75223516148709
 30
0.0
 10
46.23388540576164
 20
-69.79398488513155
 30
0.0
 10
46.18927659018033
 20
-69.80599503477569
 30
0.0
 10
46.17326305732148
 20
-69.81343020098631
 30
0.0
 10
46.15667792424381
 20
-69.81972107591843
 30
0.0
 10
46.14237919204202
 20
-69.81972107591843
 30
0.0
 10
46.14237919204202
 20
-69.81972107591843
 30
0.0
 10
46.13951900926621
 20
-69.81972107591843
 30
0.0
 10
46.13951900926621
 20
-69.81972107591843
 30
0.0
 10
46.12579405896435
 20
-69.82658409648916
 30
0.0
 10
46.11206692698202
 20
-69.83001533406398
 30
0.0
 10
46.09891357689962
 20
-69.83001533406398
 30
0.0
 10
46.09891357689962
 20
-69.83001533406398
 30
0.0
 10
46.09605339412317
 20
-69.83001533406398
 30
0.0
 10
46.09605339412317
 20
-69.83001533406398
 30
0.0
 10
46.0817568436025
 20
-69.8363067544159
 30
0.0
 10
46.06802971162016
 20
-69.84088173784943
 30
0.0
 10
46.05601956197602
 20
-69.84088173784943
 30
0.0
 10
46.05601956197602
 20
-69.84088173784943
 30
0.0
 10
46.03714584634135
 20
-69.84088173784943
 30
0.0
 10
46.03714584634135
 20
-69.84088173784943
 30
0.0
 10
46.03142766246892
 20
-69.84316977498662
 30
0.0
 10
46.02685267903476
 20
-69.84545726670403
 30
0.0
 10
46.02570947859649
 20
-69.84602886692283
 30
0.0
 10
46.02570947859649
 20
-69.84602886692283
 30
0.0
 10
45.9936802311983
 20
-69.85689527070828
 30
0.0
 10
45.9936802311983
 20
-69.85689527070828
 30
0.0
 10
45.9828154636729
 20
-69.86032705370418
 30
0.0
 10
45.97137691424821
 20
-69.86204294520149
 30
0.0
 10
45.95936676460406
 20
-69.86204294520149
 30
0.0
 10
45.95936676460406
 20
-69.86204294520149
 30
0.0
 10
45.87987070052858
 20
-69.87176505770972
 30
0.0
 10
45.87987070052858
 20
-69.87176505770972
 30
0.0
 10
45.87415033497632
 20
-69.87233720334834
 30
0.0
 10
45.86843215110389
 20
-69.87290880356714
 30
0.0
 10
45.86271396723146
 20
-69.87290880356714
 30
0.0
  0
HATCH
  5
D0
330
79
100
AcDbEntity
  8
Camada 1
 62
    28
420
  1184269
440
 33554687
100
AcDbHatch
 10
0.0
 20
0.0
 30
0.0
210
0.0
220
0.0
230
1.0
  2
SOLID
 70
     1
 71
     1
 91
        1
 92
        1
 93
        2
 72
     4
 94
        3
 73
     0
 74
     0
 95
       71
 96
       67
 40
0.0
 40
0.0
 40
0.0
 40
0.0
 40
1.0
 40
1.0
 40
1.0
 40
2.0
 40
2.0
 40
2.0
 40
3.0
 40
3.0
 40
3.0
 40
4.0
 40
4.0
 40
4.0
 40
5.0
 40
5.0
 40
5.0
 40
6.0
 40
6.0
 40
6.0
 40
7.0
 40
7.0
 40
7.0
 40
8.0
 40
8.0
 40
8.0
 40
9.0
 40
9.0
 40
9.0
 40
10.0
 40
10.0
 40
10.0
 40
11.0
 40
11.0
 40
11.0
 40
12.0
 40
12.0
 40
12.0
 40
13.0
 40
13.0
 40
13.0
 40
14.0
 40
14.0
 40
14.0
 40
15.0
 40
15.0
 40
15.0
 40
16.0
 40
16.0
 40
16.0
 40
17.0
 40
17.0
 40
17.0
 40
18.0
 40
18.0
 40
18.0
 40
19.0
 40
19.0
 40
19.0
 40
20.0
 40
20.0
 40
20.0
 40
21.0
 40
21.0
 40
21.0
 40
22.0
 40
22.0
 40
22.0
 40
22.0
 10
45.86271396723146
 20
-69.87290880356714
 10
45.81181318587844
 20
-69.87290880356714
 10
45.76663058839783
 20
-69.83573460877728
 10
45.75805222174896
 20
-69.78426222720482
 10
45.74833065466246
 20
-69.72649897070022
 10
45.78721910469086
 20
-69.67216695177301
 10
45.84555505225387
 20
-69.66244483926479
 10
45.84555505225387
 20
-69.66244483926479
 10
45.95764978226587
 20
-69.64471541490862
 10
45.95764978226587
 20
-69.64471541490862
 10
45.97252011468646
 20
-69.63728024869801
 10
45.9959688137553
 20
-69.62870188204977
 10
46.01312554705242
 20
-69.62870188204977
 10
46.01312554705242
 20
-69.62870188204977
 10
46.02685267903476
 20
-69.62870188204977
 10
46.02685267903476
 20
-69.62870188204977
 10
46.04114922955607
 20
-69.62241046169784
 10
46.05487636153775
 20
-69.61783547826432
 10
46.06631491096245
 20
-69.61783547826432
 10
46.06631491096245
 20
-69.61783547826432
 10
46.06917291205906
 20
-69.61783547826432
 10
46.06917291205906
 20
-69.61783547826432
 10
46.08347164426021
 20
-69.6115440579124
 10
46.0971987762419
 20
-69.60754067469768
 10
46.1097805261055
 20
-69.60754067469768
 10
46.1097805261055
 20
-69.60754067469768
 10
46.11263852720147
 20
-69.60754067469768
 10
46.11263852720147
 20
-69.60754067469768
 10
46.1915629910575
 20
-69.56865058840924
 10
46.26362388892236
 20
-69.63213311962586
 10
46.26419767082165
 20
-69.70305027163202
 10
46.26419767082165
 20
-69.75223516148709
 10
46.23388540576164
 20
-69.79398488513155
 10
46.18927659018033
 20
-69.80599503477569
 10
46.17326305732148
 20
-69.81343020098631
 10
46.15667792424381
 20
-69.81972107591843
 10
46.14237919204202
 20
-69.81972107591843
 10
46.14237919204202
 20
-69.81972107591843
 10
46.13951900926621
 20
-69.81972107591843
 10
46.13951900926621
 20
-69.81972107591843
 10
46.12579405896435
 20
-69.82658409648916
 10
46.11206692698202
 20
-69.83001533406398
 10
46.09891357689962
 20
-69.83001533406398
 10
46.09891357689962
 20
-69.83001533406398
 10
46.09605339412317
 20
-69.83001533406398
 10
46.09605339412317
 20
-69.83001533406398
 10
46.0817568436025
 20
-69.8363067544159
 10
46.06802971162016
 20
-69.84088173784943
 10
46.05601956197602
 20
-69.84088173784943
 10
46.05601956197602
 20
-69.84088173784943
 10
46.03714584634135
 20
-69.84088173784943
 10
46.03714584634135
 20
-69.84088173784943
 10
46.03142766246892
 20
-69.84316977498662
 10
46.02685267903476
 20
-69.84545726670403
 10
46.02570947859649
 20
-69.84602886692283
 10
46.02570947859649
 20
-69.84602886692283
 10
45.9936802311983
 20
-69.85689527070828
 10
45.9936802311983
 20
-69.85689527070828
 10
45.9828154636729
 20
-69.86032705370418
 10
45.97137691424821
 20
-69.86204294520149
 10
45.95936676460406
 20
-69.86204294520149
 10
45.95936676460406
 20
-69.86204294520149
 10
45.87987070052858
 20
-69.87176505770972
 10
45.87987070052858
 20
-69.87176505770972
 10
45.87415033497632
 20
-69.87233720334834
 10
45.86843215110389
 20
-69.87290880356714
 10
45.86271396723146
 20
-69.87290880356714
 97
        0
 72
     1
 10
45.86271396723147
 20
-69.87290880356713
 11
45.86271396723146
 21
-69.87290880356714
 97
        0
 75
     2
 76
     1
 98
        1
 10
0.0
 20
0.0
450
        0
451
        0
460
0.0
461
0.0
452
        0
462
0.0
453
        0
470

  0
SPLINE
  5
D1
330
79
100
AcDbEntity
  8
Camada 1
100
AcDbSpline
210
0.0
220
0.0
230
1.0
 70
     9
 71
     3
 72
    35
 73
    31
 74
     0
 42
0.0000000001
 43
0.0000000001
 40
0.0
 40
0.0
 40
0.0
 40
0.0
 40
1.0
 40
1.0
 40
1.0
 40
2.0
 40
2.0
 40
2.0
 40
3.0
 40
3.0
 40
3.0
 40
4.0
 40
4.0
 40
4.0
 40
5.0
 40
5.0
 40
5.0
 40
6.0
 40
6.0
 40
6.0
 40
7.0
 40
7.0
 40
7.0
 40
8.0
 40
8.0
 40
8.0
 40
9.0
 40
9.0
 40
9.0
 40
10.0
 40
10.0
 40
10.0
 40
10.0
 10
40.88053955423956
 20
-75.28487749360187
 30
0.0
 10
40.85137158045806
 20
-75.28487749360187
 30
0.0
 10
40.82277520689537
 20
-75.27286734395772
 30
0.0
 10
40.80218669060299
 20
-75.24999079052815
 30
0.0
 10
40.80218669060299
 20
-75.24999079052815
 30
0.0
 10
38.33266102978084
 20
-72.53282587977228
 30
0.0
 10
38.33266102978084
 20
-72.53282587977228
 30
0.0
 10
38.29605788978872
 20
-72.49336364784522
 30
0.0
 10
38.29605788978872
 20
-72.4310248624873
 30
0.0
 10
38.33266102978084
 20
-72.39041888470026
 30
0.0
 10
38.33266102978084
 20
-72.39041888470026
 30
0.0
 10
40.80218669060299
 20
-69.67439717438328
 30
0.0
 10
40.80218669060299
 20
-69.67439717438328
 30
0.0
 10
40.84164892253068
 20
-69.63093210466133
 30
0.0
 10
40.90856323674256
 20
-69.62807246730402
 30
0.0
 10
40.95202885188497
 20
-69.66696255359375
 30
0.0
 10
40.99549337618777
 20
-69.70642478552081
 30
0.0
 10
40.99892515918305
 20
-69.77391069995213
 30
0.0
 10
40.9588913270359
 20
-69.81623202381669
 30
0.0
 10
40.9588913270359
 20
-69.81623202381669
 30
0.0
 10
38.55456299808808
 20
-72.4619081823463
 30
0.0
 10
38.55456299808808
 20
-72.4619081823463
 30
0.0
 10
38.55456299808808
 20
-72.4619081823463
 30
0.0
 10
40.9588913270359
 20
-75.10758406816667
 30
0.0
 10
40.9588913270359
 20
-75.10758406816667
 30
0.0
 10
40.99892515918305
 20
-75.15047781038038
 30
0.0
 10
40.99549337618777
 20
-75.21739185188107
 30
0.0
 10
40.95202885188497
 20
-75.25685381109887
 30
0.0
 10
40.93143924475234
 20
-75.27572698131503
 30
0.0
 10
40.90627465418555
 20
-75.28487749360187
 30
0.0
 10
40.88053955423956
 20
-75.28487749360187
 30
0.0
  0
HATCH
  5
D2
330
79
100
AcDbEntity
  8
Camada 1
 62
    28
420
  1184269
440
 33554687
100
AcDbHatch
 10
0.0
 20
0.0
 30
0.0
210
0.0
220
0.0
230
1.0
  2
SOLID
 70
     1
 71
     1
 91
        1
 92
        1
 93
        2
 72
     4
 94
        3
 73
     0
 74
     0
 95
       35
 96
       31
 40
0.0
 40
0.0
 40
0.0
 40
0.0
 40
1.0
 40
1.0
 40
1.0
 40
2.0
 40
2.0
 40
2.0
 40
3.0
 40
3.0
 40
3.0
 40
4.0
 40
4.0
 40
4.0
 40
5.0
 40
5.0
 40
5.0
 40
6.0
 40
6.0
 40
6.0
 40
7.0
 40
7.0
 40
7.0
 40
8.0
 40
8.0
 40
8.0
 40
9.0
 40
9.0
 40
9.0
 40
10.0
 40
10.0
 40
10.0
 40
10.0
 10
40.88053955423956
 20
-75.28487749360187
 10
40.85137158045806
 20
-75.28487749360187
 10
40.82277520689537
 20
-75.27286734395772
 10
40.80218669060299
 20
-75.24999079052815
 10
40.80218669060299
 20
-75.24999079052815
 10
38.33266102978084
 20
-72.53282587977228
 10
38.33266102978084
 20
-72.53282587977228
 10
38.29605788978872
 20
-72.49336364784522
 10
38.29605788978872
 20
-72.4310248624873
 10
38.33266102978084
 20
-72.39041888470026
 10
38.33266102978084
 20
-72.39041888470026
 10
40.80218669060299
 20
-69.67439717438328
 10
40.80218669060299
 20
-69.67439717438328
 10
40.84164892253068
 20
-69.63093210466133
 10
40.90856323674256
 20
-69.62807246730402
 10
40.95202885188497
 20
-69.66696255359375
 10
40.99549337618777
 20
-69.70642478552081
 10
40.99892515918305
 20
-69.77391069995213
 10
40.9588913270359
 20
-69.81623202381669
 10
40.9588913270359
 20
-69.81623202381669
 10
38.55456299808808
 20
-72.4619081823463
 10
38.55456299808808
 20
-72.4619081823463
 10
38.55456299808808
 20
-72.4619081823463
 10
40.9588913270359
 20
-75.10758406816667
 10
40.9588913270359
 20
-75.10758406816667
 10
40.99892515918305
 20
-75.15047781038038
 10
40.99549337618777
 20
-75.21739185188107
 10
40.95202885188497
 20
-75.25685381109887
 10
40.93143924475234
 20
-75.27572698131503
 10
40.90627465418555
 20
-75.28487749360187
 10
40.88053955423956
 20
-75.28487749360187
 97
        0
 72
     1
 10
40.88053955423956
 20
-75.28487749360187
 11
40.88053955423956
 21
-75.28487749360187
 97
        0
 75
     2
 76
     1
 98
        1
 10
0.0
 20
0.0
450
        0
451
        0
460
0.0
461
0.0
452
        0
462
0.0
453
        0
470

  0
LWPOLYLINE
  5
D3
330
79
100
AcDbEntity
  8
Camada 1
100
AcDbPolyline
 90
        4
 70
     1
 43
0.0
 10
23.86608671456437
 20
-77.8316846427815
 10
76.13391326043537
 20
-77.8316846427815
 10
76.13391326043537
 20
-21.46247397672998
 10
23.86608671456437
 20
-21.46247397672998
  0
ENDBLK
  5
7C
330
79
100
AcDbEntity
  8
0
100
AcDbBlockEnd
  0
ENDSEC
  0
SECTION
  2
ENTITIES
  0
INSERT
  5
7A
330
70
100
AcDbEntity
  8
Camada 1
100
AcDbBlockReference
  2
Block_0
 10
0.0
 20
0.0
 30
0.0
  0
LWPOLYLINE
  5
D4
330
70
100
AcDbEntity
  8
Camada 1
100
AcDbPolyline
 90
        4
 70
     1
 43
0.0
 10
23.86608671456437
 20
-77.8316846427815
 10
76.13391326043537
 20
-77.8316846427815
 10
76.13391326043537
 20
-21.46247397672998
 10
23.86608671456437
 20
-21.46247397672998
  0
LWPOLYLINE
  5
D5
330
70
100
AcDbEntity
  8
Camada 1
100
AcDbPolyline
 90
        4
 70
     1
 43
0.0
 10
23.86608671456437
 20
-77.8316846427815
 10
76.13391326043537
 20
-77.8316846427815
 10
76.13391326043537
 20
-21.46247397672998
 10
23.86608671456437
 20
-21.46247397672998
  0
LWPOLYLINE
  5
D6
330
70
100
AcDbEntity
  8
Camada 1
100
AcDbPolyline
 90
        4
 70
     1
 43
0.0
 10
23.86608671456437
 20
-78.53724019816066
 10
76.13391326043537
 20
-78.53724019816066
 10
76.13391326043537
 20
-21.46247397672998
 10
23.86608671456437
 20
-21.46247397672998
  0
ENDSEC
  0
SECTION
  2
OBJECTS
  0
DICTIONARY
  5
C
330
0
100
AcDbDictionary
281
     1
  3
ACAD_COLOR
350
63
  3
ACAD_DETAILVIEWSTYLE
350
6A
  3
ACAD_GROUP
350
D
  3
ACAD_LAYOUT
350
62
  3
ACAD_MATERIAL
350
10
  3
ACAD_MLEADERSTYLE
350
66
  3
ACAD_MLINESTYLE
350
5F
  3
ACAD_PLOTSETTINGS
350
61
  3
ACAD_PLOTSTYLENAME
350
E
  3
ACAD_SCALELIST
350
42
  3
ACAD_SECTIONVIEWSTYLE
350
68
  3
ACAD_TABLESTYLE
350
64
  3
ACAD_VISUALSTYLE
350
29
  3
ACDB_RECOMPOSE_DATA
350
DF
  3
AcDbVariableDictionary
350
D7
  0
DICTIONARY
  5
63
102
{ACAD_REACTORS
330
C
102
}
330
C
100
AcDbDictionary
281
     1
  0
DICTIONARY
  5
6A
102
{ACAD_REACTORS
330
C
102
}
330
C
100
AcDbDictionary
281
     1
  3
Imperial24
350
6B
  0
DICTIONARY
  5
D
102
{ACAD_REACTORS
330
C
102
}
330
C
100
AcDbDictionary
281
     1
  0
DICTIONARY
  5
62
102
{ACAD_REACTORS
330
C
102
}
330
C
100
AcDbDictionary
281
     1
  3
Layout1
350
6F
  3
Layout2
350
77
  3
Model
350
73
  0
DICTIONARY
  5
10
102
{ACAD_REACTORS
330
C
102
}
330
C
100
AcDbDictionary
281
     1
  3
ByBlock
350
19
  3
ByLayer
350
11
  3
Global
350
21
  0
DICTIONARY
  5
66
102
{ACAD_REACTORS
330
C
102
}
330
C
100
AcDbDictionary
281
     1
  3
Standard
350
67
  0
DICTIONARY
  5
5F
102
{ACAD_REACTORS
330
C
102
}
330
C
100
AcDbDictionary
281
     1
  3
Standard
350
60
  0
DICTIONARY
  5
61
102
{ACAD_REACTORS
330
C
102
}
330
C
100
AcDbDictionary
281
     1
  0
ACDBDICTIONARYWDFLT
  5
E
102
{ACAD_REACTORS
330
C
102
}
330
C
100
AcDbDictionary
281
     1
  3
Normal
350
F
100
AcDbDictionaryWithDefault
340
F
  0
DICTIONARY
  5
42
102
{ACAD_REACTORS
330
C
102
}
330
C
100
AcDbDictionary
281
     1
  3
A0
350
43
  3
A1
350
44
  3
A2
350
45
  3
A3
350
46
  3
A4
350
47
  3
A5
350
48
  3
A6
350
49
  3
A7
350
4A
  3
A8
350
4B
  3
A9
350
4C
  3
B0
350
4D
  3
B1
350
4E
  3
B2
350
4F
  3
B3
350
50
  3
B4
350
51
  3
B5
350
52
  3
B6
350
53
  0
DICTIONARY
  5
68
102
{ACAD_REACTORS
330
C
102
}
330
C
100
AcDbDictionary
281
     1
  3
Imperial24
350
69
  0
DICTIONARY
  5
64
102
{ACAD_REACTORS
330
C
102
}
330
C
100
AcDbDictionary
281
     1
  3
Standard
350
65
  0
DICTIONARY
  5
29
102
{ACAD_REACTORS
330
C
102
}
330
C
100
AcDbDictionary
281
     1
  3
2dWireframe
350
2F
  3
Basic
350
2E
  3
Brighten
350
35
  3
ColorChange
350
39
  3
Conceptual
350
32
  3
Dim
350
34
  3
EdgeColorOff
350
41
  3
Facepattern
350
38
  3
Flat
350
2A
  3
FlatWithEdges
350
2B
  3
Gouraud
350
2C
  3
GouraudWithEdges
350
2D
  3
Hidden
350
31
  3
JitterOff
350
3F
  3
Linepattern
350
37
  3
OverhangOff
350
40
  3
Realistic
350
33
  3
Shaded
350
3E
  3
Shaded with edges
350
3D
  3
Shades of Gray
350
3A
  3
Sketchy
350
3B
  3
Thicken
350
36
  3
Wireframe
350
30
  3
X-Ray
350
3C
  0
XRECORD
  5
DF
102
{ACAD_REACTORS
330
C
102
}
330
C
100
AcDbXrecord
280
     1
 90
        1
330
65
  0
DICTIONARY
  5
D7
102
{ACAD_REACTORS
330
C
102
}
330
C
100
AcDbDictionary
281
     1
  3
CANNOSCALE
350
DC
  3
CMLEADERSTYLE
350
D9
  3
CTABLESTYLE
350
D8
  3
CVIEWDETAILSTYLE
350
DA
  3
CVIEWSECTIONSTYLE
350
DB
  0
ACDBDETAILVIEWSTYLE
  5
6B
102
{ACAD_REACTORS
330
6A
102
}
330
6A
100
AcDbModelDocViewStyle
 70
     0
  3
Imperial24
290
     1
300
Imperial24
 90
        0
100
AcDbDetailViewStyle
 70
     0
 71
     0
 90
        3
 71
     1
340
55
 62
   256
 40
0.24
340
0
 62
   256
 40
0.24
300

 40
0.36
280
     3
 71
     2
340
5D
 90
       25
 62
   256
 71
     3
340
55
 62
   256
 40
0.24
 90
        1
 40
0.75
 90
        1
300
%<\AcVar ViewType \f "%tc1">% %<\AcVar ViewDetailId>%\PSCALE %<\AcVar ViewScale \f "%sn">%
 71
     4
340
5D
 90
       25
 62
   256
340
5D
 90
       25
 62
   256
280
     0
  0
LAYOUT
  5
6F
102
{ACAD_REACTORS
330
62
102
}
330
62
100
AcDbPlotSettings
  1

  2

  4

  6

 40
0.0
 41
0.0
 42
0.0
 43
0.0
 44
0.0
 45
0.0
 46
0.0
 47
0.0
 48
0.0
 49
0.0
140
0.0
141
0.0
142
1.0
143
1.0
 70
   688
 72
     0
 73
     0
 74
     5
  7

 75
    16
147
1.0
 76
     0
 77
     2
 78
   300
148
0.0
149
0.0
100
AcDbLayout
  1
Layout1
 70
     1
 71
     1
 10
0.0
 20
0.0
 11
12.0
 21
9.0
 12
0.0
 22
0.0
 32
0.0
 14
0.0
 24
0.0
 34
0.0
 15
0.0
 25
0.0
 35
0.0
146
0.0
 13
0.0
 23
0.0
 33
0.0
 16
1.0
 26
0.0
 36
0.0
 17
0.0
 27
1.0
 37
0.0
 76
     0
330
6C
  0
LAYOUT
  5
77
102
{ACAD_REACTORS
330
62
102
}
330
62
100
AcDbPlotSettings
  1

  2

  4

  6

 40
0.0
 41
0.0
 42
0.0
 43
0.0
 44
0.0
 45
0.0
 46
0.0
 47
0.0
 48
0.0
 49
0.0
140
0.0
141
0.0
142
1.0
143
1.0
 70
   688
 72
     0
 73
     0
 74
     5
  7

 75
    16
147
1.0
 76
     0
 77
     2
 78
   300
148
0.0
149
0.0
100
AcDbLayout
  1
Layout2
 70
     1
 71
     2
 10
0.0
 20
0.0
 11
12.0
 21
9.0
 12
0.0
 22
0.0
 32
0.0
 14
0.0
 24
0.0
 34
0.0
 15
0.0
 25
0.0
 35
0.0
146
0.0
 13
0.0
 23
0.0
 33
0.0
 16
1.0
 26
0.0
 36
0.0
 17
0.0
 27
1.0
 37
0.0
 76
     0
330
74
  0
LAYOUT
  5
73
102
{ACAD_REACTORS
330
62
102
}
330
62
100
AcDbPlotSettings
  1

  2

  4

  6

 40
0.0
 41
0.0
 42
0.0
 43
0.0
 44
0.0
 45
0.0
 46
0.0
 47
0.0
 48
0.0
 49
0.0
140
0.0
141
0.0
142
1.0
143
1.0
 70
  1712
 72
     0
 73
     0
 74
     0
  7

 75
     0
147
1.0
 76
     0
 77
     2
 78
   300
148
0.0
149
0.0
100
AcDbLayout
  1
Model
 70
     1
 71
     0
 10
0.0
 20
0.0
 11
12.0
 21
9.0
 12
0.0
 22
0.0
 32
0.0
 14
0.0
 24
0.0
 34
0.0
 15
0.0
 25
0.0
 35
0.0
146
0.0
 13
0.0
 23
0.0
 33
0.0
 16
1.0
 26
0.0
 36
0.0
 17
0.0
 27
1.0
 37
0.0
 76
     0
330
70
  0
MATERIAL
  5
19
102
{ACAD_XDICTIONARY
360
1A
102
}
102
{ACAD_REACTORS
330
10
102
}
330
10
100
AcDbMaterial
  1
ByBlock
 72
     0
 43
0.0208333333333333
 43
0.0
 43
0.0
 43
0.0
 43
0.0
 43
0.0208333333333333
 43
0.0
 43
0.0
 43
0.0
 43
0.0
 43
1.0
 43
0.0
 43
0.0
 43
0.0
 43
0.0
 43
1.0
 77
     0
 47
0.0208333333333333
 47
0.0
 47
0.0
 47
0.0
 47
0.0
 47
0.0208333333333333
 47
0.0
 47
0.0
 47
0.0
 47
0.0
 47
1.0
 47
0.0
 47
0.0
 47
0.0
 47
0.0
 47
1.0
171
     0
 49
0.0208333333333333
 49
0.0
 49
0.0
 49
0.0
 49
0.0
 49
0.0208333333333333
 49
0.0
 49
0.0
 49
0.0
 49
0.0
 49
1.0
 49
0.0
 49
0.0
 49
0.0
 49
0.0
 49
1.0
175
     0
142
0.0208333333333333
142
0.0
142
0.0
142
0.0
142
0.0
142
0.0208333333333333
142
0.0
142
0.0
142
0.0
142
0.0
142
1.0
142
0.0
142
0.0
142
0.0
142
0.0
142
1.0
179
     0
144
0.0208333333333333
144
0.0
144
0.0
144
0.0
144
0.0
144
0.0208333333333333
144
0.0
144
0.0
144
0.0
144
0.0
144
1.0
144
0.0
144
0.0
144
0.0
144
0.0
144
1.0
147
0.0208333333333333
147
0.0
147
0.0
147
0.0
147
0.0
147
0.0208333333333333
147
0.0
147
0.0
147
0.0
147
0.0
147
1.0
147
0.0
147
0.0
147
0.0
147
0.0
147
1.0
  0
MATERIAL
  5
11
102
{ACAD_XDICTIONARY
360
12
102
}
102
{ACAD_REACTORS
330
10
102
}
330
10
100
AcDbMaterial
  1
ByLayer
 72
     0
 43
0.0208333333333333
 43
0.0
 43
0.0
 43
0.0
 43
0.0
 43
0.0208333333333333
 43
0.0
 43
0.0
 43
0.0
 43
0.0
 43
1.0
 43
0.0
 43
0.0
 43
0.0
 43
0.0
 43
1.0
 77
     0
 47
0.0208333333333333
 47
0.0
 47
0.0
 47
0.0
 47
0.0
 47
0.0208333333333333
 47
0.0
 47
0.0
 47
0.0
 47
0.0
 47
1.0
 47
0.0
 47
0.0
 47
0.0
 47
0.0
 47
1.0
171
     0
 49
0.0208333333333333
 49
0.0
 49
0.0
 49
0.0
 49
0.0
 49
0.0208333333333333
 49
0.0
 49
0.0
 49
0.0
 49
0.0
 49
1.0
 49
0.0
 49
0.0
 49
0.0
 49
0.0
 49
1.0
175
     0
142
0.0208333333333333
142
0.0
142
0.0
142
0.0
142
0.0
142
0.0208333333333333
142
0.0
142
0.0
142
0.0
142
0.0
142
1.0
142
0.0
142
0.0
142
0.0
142
0.0
142
1.0
179
     0
144
0.0208333333333333
144
0.0
144
0.0
144
0.0
144
0.0
144
0.0208333333333333
144
0.0
144
0.0
144
0.0
144
0.0
144
1.0
144
0.0
144
0.0
144
0.0
144
0.0
144
1.0
147
0.0208333333333333
147
0.0
147
0.0
147
0.0
147
0.0
147
0.0208333333333333
147
0.0
147
0.0
147
0.0
147
0.0
147
1.0
147
0.0
147
0.0
147
0.0
147
0.0
147
1.0
  0
MATERIAL
  5
21
102
{ACAD_XDICTIONARY
360
22
102
}
102
{ACAD_REACTORS
330
10
102
}
330
10
100
AcDbMaterial
  1
Global
 72
     0
 43
0.0208333333333333
 43
0.0
 43
0.0
 43
0.0
 43
0.0
 43
0.0208333333333333
 43
0.0
 43
0.0
 43
0.0
 43
0.0
 43
1.0
 43
0.0
 43
0.0
 43
0.0
 43
0.0
 43
1.0
 77
     0
 47
0.0208333333333333
 47
0.0
 47
0.0
 47
0.0
 47
0.0
 47
0.0208333333333333
 47
0.0
 47
0.0
 47
0.0
 47
0.0
 47
1.0
 47
0.0
 47
0.0
 47
0.0
 47
0.0
 47
1.0
171
     0
 49
0.0208333333333333
 49
0.0
 49
0.0
 49
0.0
 49
0.0
 49
0.0208333333333333
 49
0.0
 49
0.0
 49
0.0
 49
0.0
 49
1.0
 49
0.0
 49
0.0
 49
0.0
 49
0.0
 49
1.0
175
     0
142
0.0208333333333333
142
0.0
142
0.0
142
0.0
142
0.0
142
0.0208333333333333
142
0.0
142
0.0
142
0.0
142
0.0
142
1.0
142
0.0
142
0.0
142
0.0
142
0.0
142
1.0
179
     0
144
0.0208333333333333
144
0.0
144
0.0
144
0.0
144
0.0
144
0.0208333333333333
144
0.0
144
0.0
144
0.0
144
0.0
144
1.0
144
0.0
144
0.0
144
0.0
144
0.0
144
1.0
147
0.0208333333333333
147
0.0
147
0.0
147
0.0
147
0.0
147
0.0208333333333333
147
0.0
147
0.0
147
0.0
147
0.0
147
1.0
147
0.0
147
0.0
147
0.0
147
0.0
147
1.0
  0
MLEADERSTYLE
  5
67
102
{ACAD_REACTORS
330
66
102
}
330
66
100
AcDbMLeaderStyle
179
     2
170
     2
171
     1
172
     0
 90
        2
 40
0.0
 41
0.0
173
     1
 91
-1056964608
340
5B
 92
       -2
290
     1
 42
0.09
291
     1
 43
0.36
  3
Standard
 44
0.18
300

342
55
174
     1
178
     6
175
     1
176
     0
 93
-1056964608
 45
0.18
292
     0
297
     0
 46
0.18
 94
-1056964608
 47
1.0
 49
1.0
140
1.0
293
     1
141
0.0
294
     1
177
     0
142
1.0
295
     1
296
     0
143
0.125
271
     0
272
     9
273
     9
298
     1
  0
MLINESTYLE
  5
60
102
{ACAD_REACTORS
330
5F
102
}
330
5F
100
AcDbMlineStyle
  2
STANDARD
 70
     0
  3

 62
   256
 51
90.0
 52
90.0
 71
     2
 49
0.5
 62
   256
  6
BYLAYER
 49
-0.5
 62
   256
  6
BYLAYER
  0
ACDBPLACEHOLDER
  5
F
102
{ACAD_REACTORS
330
E
102
}
330
E
  0
SCALE
  5
43
102
{ACAD_REACTORS
330
42
102
}
330
42
100
AcDbScale
 70
     0
300
1:1
140
1.0
141
1.0
290
     1
  0
SCALE
  5
44
102
{ACAD_REACTORS
330
42
102
}
330
42
100
AcDbScale
 70
     0
300
1/128" = 1'-0"
140
0.0078125
141
12.0
290
     0
  0
SCALE
  5
45
102
{ACAD_REACTORS
330
42
102
}
330
42
100
AcDbScale
 70
     0
300
1/64" = 1'-0"
140
0.015625
141
12.0
290
     0
  0
SCALE
  5
46
102
{ACAD_REACTORS
330
42
102
}
330
42
100
AcDbScale
 70
     0
300
1/32" = 1'-0"
140
0.03125
141
12.0
290
     0
  0
SCALE
  5
47
102
{ACAD_REACTORS
330
42
102
}
330
42
100
AcDbScale
 70
     0
300
1/16" = 1'-0"
140
0.0625
141
12.0
290
     0
  0
SCALE
  5
48
102
{ACAD_REACTORS
330
42
102
}
330
42
100
AcDbScale
 70
     0
300
3/32" = 1'-0"
140
0.09375
141
12.0
290
     0
  0
SCALE
  5
49
102
{ACAD_REACTORS
330
42
102
}
330
42
100
AcDbScale
 70
     0
300
1/8" = 1'-0"
140
0.125
141
12.0
290
     0
  0
SCALE
  5
4A
102
{ACAD_REACTORS
330
42
102
}
330
42
100
AcDbScale
 70
     0
300
3/16" = 1'-0"
140
0.1875
141
12.0
290
     0
  0
SCALE
  5
4B
102
{ACAD_REACTORS
330
42
102
}
330
42
100
AcDbScale
 70
     0
300
1/4" = 1'-0"
140
0.25
141
12.0
290
     0
  0
SCALE
  5
4C
102
{ACAD_REACTORS
330
42
102
}
330
42
100
AcDbScale
 70
     0
300
3/8" = 1'-0"
140
0.375
141
12.0
290
     0
  0
SCALE
  5
4D
102
{ACAD_REACTORS
330
42
102
}
330
42
100
AcDbScale
 70
     0
300
1/2" = 1'-0"
140
0.5
141
12.0
290
     0
  0
SCALE
  5
4E
102
{ACAD_REACTORS
330
42
102
}
330
42
100
AcDbScale
 70
     0
300
3/4" = 1'-0"
140
0.75
141
12.0
290
     0
  0
SCALE
  5
4F
102
{ACAD_REACTORS
330
42
102
}
330
42
100
AcDbScale
 70
     0
300
1" = 1'-0"
140
1.0
141
12.0
290
     0
  0
SCALE
  5
50
102
{ACAD_REACTORS
330
42
102
}
330
42
100
AcDbScale
 70
     0
300
1-1/2" = 1'-0"
140
1.5
141
12.0
290
     0
  0
SCALE
  5
51
102
{ACAD_REACTORS
330
42
102
}
330
42
100
AcDbScale
 70
     0
300
3" = 1'-0"
140
3.0
141
12.0
290
     0
  0
SCALE
  5
52
102
{ACAD_REACTORS
330
42
102
}
330
42
100
AcDbScale
 70
     0
300
6" = 1'-0"
140
6.0
141
12.0
290
     0
  0
SCALE
  5
53
102
{ACAD_REACTORS
330
42
102
}
330
42
100
AcDbScale
 70
     0
300
1'-0" = 1'-0"
140
12.0
141
12.0
290
     0
  0
ACDBSECTIONVIEWSTYLE
  5
69
102
{ACAD_REACTORS
330
68
102
}
330
68
100
AcDbModelDocViewStyle
 70
     0
  3
Imperial24
290
     1
300
Imperial24
 90
        0
100
AcDbSectionViewStyle
 70
     0
 71
     0
 90
       78
 71
     1
340
55
 62
   256
 40
0.24
340
0
340
0
 62
   256
 40
0.24
300
I, O, Q, S, X, Z
 40
0.48
 90
        3
 40
0.18
 90
        1
 71
     2
340
5D
 90
       25
 62
   256
340
5D
 90
       50
 62
   256
 40
0.24
 40
0.0
 40
0.24
 71
     3
340
55
 62
   256
 40
0.24
 90
        1
 40
0.75
 90
        1
300
%<\AcVar ViewType \f "%tc1">% %<\AcVar ViewSectionStartId>%-%<\AcVar ViewSectionEndId>%\PSCALE %<\AcVar ViewScale \f "%sn">%
 71
     4
 62
   256
 62
   257
300
ANSI31
 40
1.0
 90
        0
290
     0
290
     0
 90
        6
 40
0.0
 40
1.570796326794896
 40
0.2617993877991494
 40
1.308996938995747
 40
-0.2617993877991494
 40
1.832595714594046
  0
TABLESTYLE
  5
65
102
{ACAD_XDICTIONARY
360
DD
102
}
102
{ACAD_REACTORS
330
64
102
}
330
64
100
AcDbTableStyle
280
     0
  3
Standard
 70
     0
 71
     0
 40
0.06
 41
0.06
280
     0
281
     0
  7
Standard
140
0.18
170
     2
 62
     0
 63
     7
283
     0
 90
      512
 91
        0
  1

274
    -2
284
     1
 64
     0
275
    -2
285
     1
 65
     0
276
    -2
286
     1
 66
     0
277
    -2
287
     1
 67
     0
278
    -2
288
     1
 68
     0
279
    -2
289
     1
 69
     0
  7
Standard
140
0.25
170
     5
 62
     0
 63
     7
283
     0
 90
      512
 91
        0
  1

274
    -2
284
     1
 64
     0
275
    -2
285
     1
 65
     0
276
    -2
286
     1
 66
     0
277
    -2
287
     1
 67
     0
278
    -2
288
     1
 68
     0
279
    -2
289
     1
 69
     0
  7
Standard
140
0.18
170
     5
 62
     0
 63
     7
283
     0
 90
      512
 91
        0
  1

274
    -2
284
     1
 64
     0
275
    -2
285
     1
 65
     0
276
    -2
286
     1
 66
     0
277
    -2
287
     1
 67
     0
278
    -2
288
     1
 68
     0
279
    -2
289
     1
 69
     0
  0
VISUALSTYLE
  5
2F
102
{ACAD_REACTORS
330
29
102
}
330
29
100
AcDbVisualStyle
  2
2dWireframe
 70
     4
177
     3
291
     0
 70
    58
 90
        0
176
     1
 90
        2
176
     1
 90
        0
176
     1
 90
        0
176
     1
 40
0.6
176
     1
 40
30.0
176
     1
 62
     7
420
 16777215
176
     1
 90
        1
176
     1
 90
        4
176
     1
 62
     7
176
     1
 62
   257
176
     1
 90
        1
176
     1
 90
        1
176
     1
 40
1.0
176
     1
 90
        0
176
     1
 62
   257
176
     1
 40
1.0
176
     1
 90
        1
176
     1
 90
        6
176
     1
 90
        2
176
     1
 62
     7
176
     1
 90
        5
176
     1
 90
        0
176
     1
 90
        0
176
     1
290
     0
176
     1
 90
        1
176
     1
 40
0.0
176
     1
 90
        0
176
     1
290
     1
176
     1
290
     1
176
     1
290
     0
176
     1
290
     0
176
     1
290
     0
176
     1
290
     0
176
     1
290
     0
176
     1
290
     0
176
     1
290
     0
176
     1
 90
       50
176
     1
 40
0.0
176
     1
 40
1.0
176
     1
 90
        0
176
     1
 62
    18
420
        0
176
     1
 90
       50
176
     1
 90
        3
176
     1
 62
     5
420
      255
176
     1
290
     0
176
     1
 90
       50
176
     1
 90
       50
176
     1
 90
       50
176
     1
290
     0
176
     1
 90
       50
176
     1
 62
   256
176
     0
 40
1.0
176
     0
 90
        2
176
     1
  1
strokes_ogs.tif
176
     1
290
     0
176
     1
 40
1.0
176
     1
 40
1.0
176
     1
  0
VISUALSTYLE
  5
2E
102
{ACAD_REACTORS
330
29
102
}
330
29
100
AcDbVisualStyle
  2
Basic
 70
     7
177
     3
291
     1
 70
    58
 90
        1
176
     1
 90
        0
176
     1
 90
        1
176
     1
 90
        0
176
     1
 40
0.6
176
     1
 40
30.0
176
     1
 62
     7
420
 16777215
176
     1
 90
        0
176
     1
 90
        4
176
     1
 62
     7
176
     1
 62
   257
176
     1
 90
        1
176
     1
 90
        1
176
     1
 40
1.0
176
     1
 90
        8
176
     1
 62
     7
176
     1
 40
1.0
176
     1
 90
        1
176
     1
 90
        6
176
     1
 90
        2
176
     1
 62
     7
176
     1
 90
        5
176
     1
 90
        0
176
     1
 90
        0
176
     1
290
     0
176
     1
 90
        1
176
     1
 40
0.0
176
     1
 90
        0
176
     1
290
     0
176
     1
290
     1
176
     1
290
     1
176
     1
290
     0
176
     1
290
     0
176
     1
290
     0
176
     1
290
     0
176
     1
290
     0
176
     1
290
     0
176
     1
 90
       50
176
     1
 40
0.0
176
     1
 40
1.0
176
     1
 90
        0
176
     1
 62
    18
420
        0
176
     1
 90
       50
176
     1
 90
        3
176
     1
 62
     5
420
      255
176
     1
290
     0
176
     1
 90
       50
176
     1
 90
       50
176
     1
 90
       50
176
     1
290
     0
176
     1
 90
       50
176
     1
 62
   256
176
     0
 40
1.0
176
     0
 90
        2
176
     1
  1
strokes_ogs.tif
176
     1
290
     0
176
     1
 40
1.0
176
     1
 40
1.0
176
     1
  0
VISUALSTYLE
  5
35
102
{ACAD_REACTORS
330
29
102
}
330
29
100
AcDbVisualStyle
  2
Brighten
 70
    12
177
     3
291
     1
 70
    58
 90
        2
176
     1
 90
        2
176
     1
 90
        0
176
     1
 90
        0
176
     1
 40
0.6
176
     1
 40
30.0
176
     1
 62
     7
420
 16777215
176
     1
 90
        1
176
     1
 90
        4
176
     1
 62
     7
176
     1
 62
   257
176
     1
 90
        1
176
     1
 90
        1
176
     1
 40
1.0
176
     1
 90
        8
176
     1
 62
     7
176
     1
 40
1.0
176
     1
 90
        1
176
     1
 90
        6
176
     1
 90
        2
176
     1
 62
     7
176
     1
 90
        5
176
     1
 90
        0
176
     1
 90
        0
176
     1
290
     0
176
     1
 90
        1
176
     1
 40
50.0
176
     1
 90
        0
176
     1
290
     0
176
     1
290
     1
176
     1
290
     1
176
     1
290
     0
176
     1
290
     0
176
     1
290
     0
176
     1
290
     0
176
     1
290
     0
176
     1
290
     0
176
     1
 90
       50
176
     1
 40
0.0
176
     1
 40
1.0
176
     1
 90
        0
176
     1
 62
    18
420
        0
176
     1
 90
       50
176
     1
 90
        3
176
     1
 62
     5
420
      255
176
     1
290
     0
176
     1
 90
       50
176
     1
 90
       50
176
     1
 90
       50
176
     1
290
     0
176
     1
 90
       50
176
     1
 62
   256
176
     0
 40
1.0
176
     0
 90
        2
176
     1
  1
strokes_ogs.tif
176
     1
290
     0
176
     1
 40
1.0
176
     1
 40
1.0
176
     1
  0
VISUALSTYLE
  5
39
102
{ACAD_REACTORS
330
29
102
}
330
29
100
AcDbVisualStyle
  2
ColorChange
 70
    16
177
     3
291
     1
 70
    58
 90
        2
176
     1
 90
        2
176
     1
 90
        3
176
     1
 90
        0
176
     1
 40
0.6
176
     1
 40
30.0
176
     1
 62
     8
420
  8421504
176
     1
 90
        1
176
     1
 90
        4
176
     1
 62
     7
176
     1
 62
   257
176
     1
 90
        1
176
     1
 90
        1
176
     1
 40
1.0
176
     1
 90
        8
176
     1
 62
     8
420
  8421504
176
     1
 40
1.0
176
     1
 90
        1
176
     1
 90
        6
176
     1
 90
        2
176
     1
 62
     7
176
     1
 90
        5
176
     1
 90
        0
176
     1
 90
        0
176
     1
290
     0
176
     1
 90
        1
176
     1
 40
0.0
176
     1
 90
        0
176
     1
290
     0
176
     1
290
     1
176
     1
290
     1
176
     1
290
     0
176
     1
290
     0
176
     1
290
     0
176
     1
290
     0
176
     1
290
     0
176
     1
290
     0
176
     1
 90
       50
176
     1
 40
0.0
176
     1
 40
1.0
176
     1
 90
        0
176
     1
 62
    18
420
        0
176
     1
 90
       50
176
     1
 90
        3
176
     1
 62
     5
420
      255
176
     1
290
     0
176
     1
 90
       50
176
     1
 90
       50
176
     1
 90
       50
176
     1
290
     0
176
     1
 90
       50
176
     1
 62
   256
176
     0
 40
1.0
176
     0
 90
        2
176
     1
  1
strokes_ogs.tif
176
     1
290
     0
176
     1
 40
1.0
176
     1
 40
1.0
176
     1
  0
VISUALSTYLE
  5
32
102
{ACAD_REACTORS
330
29
102
}
330
29
100
AcDbVisualStyle
  2
Conceptual
 70
     9
177
     3
291
     0
 70
    58
 90
        3
176
     1
 90
        2
176
     1
 90
        0
176
     1
 90
        0
176
     1
 40
0.6
176
     1
 40
30.0
176
     1
 62
     7
420
 16777215
176
     1
 90
        2
176
     1
 90
        2
176
     1
 62
     7
176
     1
 62
   257
176
     1
 90
        1
176
     1
 90
        1
176
     1
 40
179.0
176
     1
 90
        8
176
     1
 62
     7
176
     1
 40
1.0
176
     1
 90
        1
176
     1
 90
        6
176
     1
 90
        2
176
     1
 62
     7
176
     1
 90
        3
176
     1
 90
        0
176
     1
 90
        0
176
     1
290
     0
176
     1
 90
        1
176
     1
 40
0.0
176
     1
 90
        0
176
     1
290
     0
176
     1
290
     1
176
     1
290
     1
176
     1
290
     0
176
     1
290
     0
176
     1
290
     0
176
     1
290
     0
176
     1
290
     0
176
     1
290
     0
176
     1
 90
       50
176
     1
 40
0.0
176
     1
 40
1.0
176
     1
 90
        0
176
     1
 62
    18
420
        0
176
     1
 90
       50
176
     1
 90
        3
176
     1
 62
     5
420
      255
176
     1
290
     0
176
     1
 90
       50
176
     1
 90
       50
176
     1
 90
       50
176
     1
290
     0
176
     1
 90
       50
176
     1
 62
   256
176
     0
 40
1.0
176
     0
 90
        2
176
     1
  1
strokes_ogs.tif
176
     1
290
     0
176
     1
 40
1.0
176
     1
 40
1.0
176
     1
  0
VISUALSTYLE
  5
34
102
{ACAD_REACTORS
330
29
102
}
330
29
100
AcDbVisualStyle
  2
Dim
 70
    11
177
     3
291
     1
 70
    58
 90
        2
176
     1
 90
        2
176
     1
 90
        0
176
     1
 90
        0
176
     1
 40
0.6
176
     1
 40
30.0
176
     1
 62
     7
420
 16777215
176
     1
 90
        1
176
     1
 90
        4
176
     1
 62
     7
176
     1
 62
   257
176
     1
 90
        1
176
     1
 90
        1
176
     1
 40
1.0
176
     1
 90
        8
176
     1
 62
     7
176
     1
 40
1.0
176
     1
 90
        1
176
     1
 90
        6
176
     1
 90
        2
176
     1
 62
     7
176
     1
 90
        5
176
     1
 90
        0
176
     1
 90
        0
176
     1
290
     0
176
     1
 90
        1
176
     1
 40
-50.0
176
     1
 90
        0
176
     1
290
     0
176
     1
290
     1
176
     1
290
     1
176
     1
290
     0
176
     1
290
     0
176
     1
290
     0
176
     1
290
     0
176
     1
290
     0
176
     1
290
     0
176
     1
 90
       50
176
     1
 40
0.0
176
     1
 40
1.0
176
     1
 90
        0
176
     1
 62
    18
420
        0
176
     1
 90
       50
176
     1
 90
        3
176
     1
 62
     5
420
      255
176
     1
290
     0
176
     1
 90
       50
176
     1
 90
       50
176
     1
 90
       50
176
     1
290
     0
176
     1
 90
       50
176
     1
 62
   256
176
     0
 40
1.0
176
     0
 90
        2
176
     1
  1
strokes_ogs.tif
176
     1
290
     0
176
     1
 40
1.0
176
     1
 40
1.0
176
     1
  0
VISUALSTYLE
  5
41
102
{ACAD_REACTORS
330
29
102
}
330
29
100
AcDbVisualStyle
  2
EdgeColorOff
 70
    22
177
     3
291
     1
 70
    58
 90
        2
176
     0
 90
        2
176
     0
 90
        0
176
     0
 90
        0
176
     0
 40
0.6
176
     0
 40
30.0
176
     0
 62
     7
420
 16777215
176
     0
 90
        1
176
     0
 90
        4
176
     0
 62
     7
176
     0
 62
   257
176
     0
 90
        1
176
     0
 90
        1
176
     0
 40
1.0
176
     0
 90
        8
176
     2
 62
     7
176
     0
 40
1.0
176
     0
 90
        1
176
     0
 90
        6
176
     0
 90
        2
176
     0
 62
     7
176
     0
 90
        5
176
     0
 90
        0
176
     0
 90
        0
176
     0
290
     0
176
     0
 90
        1
176
     0
 40
0.0
176
     0
 90
        0
176
     0
290
     0
176
     0
290
     1
176
     0
290
     1
176
     0
290
     0
176
     0
290
     0
176
     0
290
     0
176
     0
290
     0
176
     0
290
     0
176
     0
290
     0
176
     0
 90
       50
176
     0
 40
0.0
176
     0
 40
1.0
176
     0
 90
        0
176
     0
 62
    18
420
        0
176
     0
 90
       50
176
     0
 90
        3
176
     0
 62
     5
420
      255
176
     0
290
     0
176
     0
 90
       50
176
     0
 90
       50
176
     0
 90
       50
176
     0
290
     0
176
     0
 90
       50
176
     0
 62
   256
176
     0
 40
1.0
176
     0
 90
        2
176
     0
  1
strokes_ogs.tif
176
     0
290
     0
176
     0
 40
1.0
176
     0
 40
1.0
176
     0
  0
VISUALSTYLE
  5
38
102
{ACAD_REACTORS
330
29
102
}
330
29
100
AcDbVisualStyle
  2
Facepattern
 70
    15
177
     3
291
     1
 70
    58
 90
        2
176
     1
 90
        2
176
     1
 90
        0
176
     1
 90
        0
176
     1
 40
0.6
176
     1
 40
30.0
176
     1
 62
     7
420
 16777215
176
     1
 90
        1
176
     1
 90
        4
176
     1
 62
     7
176
     1
 62
   257
176
     1
 90
        1
176
     1
 90
        1
176
     1
 40
1.0
176
     1
 90
        8
176
     1
 62
     7
176
     1
 40
1.0
176
     1
 90
        1
176
     1
 90
        6
176
     1
 90
        2
176
     1
 62
     7
176
     1
 90
        5
176
     1
 90
        0
176
     1
 90
        0
176
     1
290
     0
176
     1
 90
        1
176
     1
 40
0.0
176
     1
 90
        0
176
     1
290
     0
176
     1
290
     1
176
     1
290
     1
176
     1
290
     0
176
     1
290
     0
176
     1
290
     0
176
     1
290
     0
176
     1
290
     0
176
     1
290
     0
176
     1
 90
       50
176
     1
 40
0.0
176
     1
 40
1.0
176
     1
 90
        0
176
     1
 62
    18
420
        0
176
     1
 90
       50
176
     1
 90
        3
176
     1
 62
     5
420
      255
176
     1
290
     0
176
     1
 90
       50
176
     1
 90
       50
176
     1
 90
       50
176
     1
290
     0
176
     1
 90
       50
176
     1
 62
   256
176
     0
 40
1.0
176
     0
 90
        2
176
     1
  1
strokes_ogs.tif
176
     1
290
     0
176
     1
 40
1.0
176
     1
 40
1.0
176
     1
  0
VISUALSTYLE
  5
2A
102
{ACAD_REACTORS
330
29
102
}
330
29
100
AcDbVisualStyle
  2
Flat
 70
     0
177
     3
291
     1
 70
    58
 90
        2
176
     1
 90
        1
176
     1
 90
        1
176
     1
 90
        2
176
     1
 40
0.6
176
     1
 40
30.0
176
     1
 62
     7
420
 16777215
176
     1
 90
        0
176
     1
 90
        0
176
     1
 62
     7
176
     1
 62
   257
176
     1
 90
        1
176
     1
 90
        1
176
     1
 40
1.0
176
     1
 90
        8
176
     1
 62
     7
176
     1
 40
1.0
176
     1
 90
        1
176
     1
 90
        6
176
     1
 90
        2
176
     1
 62
     7
176
     1
 90
        5
176
     1
 90
        0
176
     1
 90
        0
176
     1
290
     0
176
     1
 90
       13
176
     1
 40
0.0
176
     1
 90
        0
176
     1
290
     0
176
     1
290
     1
176
     1
290
     1
176
     1
290
     0
176
     1
290
     0
176
     1
290
     0
176
     1
290
     0
176
     1
290
     0
176
     1
290
     0
176
     1
 90
       50
176
     1
 40
0.0
176
     1
 40
1.0
176
     1
 90
        0
176
     1
 62
    18
420
        0
176
     1
 90
       50
176
     1
 90
        3
176
     1
 62
     5
420
      255
176
     1
290
     0
176
     1
 90
       50
176
     1
 90
       50
176
     1
 90
       50
176
     1
290
     0
176
     1
 90
       50
176
     1
 62
   256
176
     0
 40
1.0
176
     0
 90
        2
176
     1
  1
strokes_ogs.tif
176
     1
290
     0
176
     1
 40
1.0
176
     1
 40
1.0
176
     1
  0
VISUALSTYLE
  5
2B
102
{ACAD_REACTORS
330
29
102
}
330
29
100
AcDbVisualStyle
  2
FlatWithEdges
 70
     1
177
     3
291
     1
 70
    58
 90
        2
176
     1
 90
        1
176
     1
 90
        1
176
     1
 90
        2
176
     1
 40
0.6
176
     1
 40
30.0
176
     1
 62
     7
420
 16777215
176
     1
 90
        1
176
     1
 90
        0
176
     1
 62
     7
176
     1
 62
   257
176
     1
 90
        1
176
     1
 90
        1
176
     1
 40
1.0
176
     1
 90
        0
176
     1
 62
   257
176
     1
 40
1.0
176
     1
 90
        1
176
     1
 90
        6
176
     1
 90
        2
176
     1
 62
     7
176
     1
 90
        5
176
     1
 90
        0
176
     1
 90
        0
176
     1
290
     0
176
     1
 90
       13
176
     1
 40
0.0
176
     1
 90
        0
176
     1
290
     0
176
     1
290
     1
176
     1
290
     1
176
     1
290
     0
176
     1
290
     0
176
     1
290
     0
176
     1
290
     0
176
     1
290
     0
176
     1
290
     0
176
     1
 90
       50
176
     1
 40
0.0
176
     1
 40
1.0
176
     1
 90
        0
176
     1
 62
    18
420
        0
176
     1
 90
       50
176
     1
 90
        3
176
     1
 62
     5
420
      255
176
     1
290
     0
176
     1
 90
       50
176
     1
 90
       50
176
     1
 90
       50
176
     1
290
     0
176
     1
 90
       50
176
     1
 62
   256
176
     0
 40
1.0
176
     0
 90
        2
176
     1
  1
strokes_ogs.tif
176
     1
290
     0
176
     1
 40
1.0
176
     1
 40
1.0
176
     1
  0
VISUALSTYLE
  5
2C
102
{ACAD_REACTORS
330
29
102
}
330
29
100
AcDbVisualStyle
  2
Gouraud
 70
     2
177
     3
291
     1
 70
    58
 90
        2
176
     1
 90
        2
176
     1
 90
        1
176
     1
 90
        2
176
     1
 40
0.6
176
     1
 40
30.0
176
     1
 62
     7
420
 16777215
176
     1
 90
        0
176
     1
 90
        0
176
     1
 62
     7
176
     1
 62
   257
176
     1
 90
        1
176
     1
 90
        1
176
     1
 40
1.0
176
     1
 90
        0
176
     1
 62
     7
176
     1
 40
1.0
176
     1
 90
        1
176
     1
 90
        6
176
     1
 90
        2
176
     1
 62
     7
176
     1
 90
        5
176
     1
 90
        0
176
     1
 90
        0
176
     1
290
     0
176
     1
 90
       13
176
     1
 40
0.0
176
     1
 90
        0
176
     1
290
     0
176
     1
290
     1
176
     1
290
     1
176
     1
290
     0
176
     1
290
     0
176
     1
290
     0
176
     1
290
     0
176
     1
290
     0
176
     1
290
     0
176
     1
 90
       50
176
     1
 40
0.0
176
     1
 40
1.0
176
     1
 90
        0
176
     1
 62
    18
420
        0
176
     1
 90
       50
176
     1
 90
        3
176
     1
 62
     5
420
      255
176
     1
290
     0
176
     1
 90
       50
176
     1
 90
       50
176
     1
 90
       50
176
     1
290
     0
176
     1
 90
       50
176
     1
 62
   256
176
     0
 40
1.0
176
     0
 90
        2
176
     1
  1
strokes_ogs.tif
176
     1
290
     0
176
     1
 40
1.0
176
     1
 40
1.0
176
     1
  0
VISUALSTYLE
  5
2D
102
{ACAD_REACTORS
330
29
102
}
330
29
100
AcDbVisualStyle
  2
GouraudWithEdges
 70
     3
177
     3
291
     1
 70
    58
 90
        2
176
     1
 90
        2
176
     1
 90
        1
176
     1
 90
        2
176
     1
 40
0.6
176
     1
 40
30.0
176
     1
 62
     7
420
 16777215
176
     1
 90
        1
176
     1
 90
        0
176
     1
 62
     7
176
     1
 62
   257
176
     1
 90
        1
176
     1
 90
        1
176
     1
 40
1.0
176
     1
 90
        0
176
     1
 62
   257
176
     1
 40
1.0
176
     1
 90
        1
176
     1
 90
        6
176
     1
 90
        2
176
     1
 62
     7
176
     1
 90
        5
176
     1
 90
        0
176
     1
 90
        0
176
     1
290
     0
176
     1
 90
       13
176
     1
 40
0.0
176
     1
 90
        0
176
     1
290
     0
176
     1
290
     1
176
     1
290
     1
176
     1
290
     0
176
     1
290
     0
176
     1
290
     0
176
     1
290
     0
176
     1
290
     0
176
     1
290
     0
176
     1
 90
       50
176
     1
 40
0.0
176
     1
 40
1.0
176
     1
 90
        0
176
     1
 62
    18
420
        0
176
     1
 90
       50
176
     1
 90
        3
176
     1
 62
     5
420
      255
176
     1
290
     0
176
     1
 90
       50
176
     1
 90
       50
176
     1
 90
       50
176
     1
290
     0
176
     1
 90
       50
176
     1
 62
   256
176
     0
 40
1.0
176
     0
 90
        2
176
     1
  1
strokes_ogs.tif
176
     1
290
     0
176
     1
 40
1.0
176
     1
 40
1.0
176
     1
  0
VISUALSTYLE
  5
31
102
{ACAD_REACTORS
330
29
102
}
330
29
100
AcDbVisualStyle
  2
Hidden
 70
     6
177
     3
291
     0
 70
    58
 90
        1
176
     1
 90
        2
176
     1
 90
        2
176
     1
 90
        0
176
     1
 40
0.6
176
     1
 40
30.0
176
     1
 62
     7
420
 16777215
176
     1
 90
        2
176
     1
 90
        2
176
     1
 62
     7
176
     1
 62
   257
176
     1
 90
        2
176
     1
 90
        1
176
     1
 40
40.0
176
     1
 90
        0
176
     1
 62
   257
176
     1
 40
1.0
176
     1
 90
        1
176
     1
 90
        6
176
     1
 90
        2
176
     1
 62
     7
176
     1
 90
        3
176
     1
 90
        0
176
     1
 90
        0
176
     1
290
     0
176
     1
 90
        1
176
     1
 40
0.0
176
     1
 90
        0
176
     1
290
     0
176
     1
290
     1
176
     1
290
     1
176
     1
290
     0
176
     1
290
     0
176
     1
290
     0
176
     1
290
     0
176
     1
290
     0
176
     1
290
     0
176
     1
 90
       50
176
     1
 40
0.0
176
     1
 40
1.0
176
     1
 90
        0
176
     1
 62
    18
420
        0
176
     1
 90
       50
176
     1
 90
        3
176
     1
 62
     5
420
      255
176
     1
290
     0
176
     1
 90
       50
176
     1
 90
       50
176
     1
 90
       50
176
     1
290
     0
176
     1
 90
       50
176
     1
 62
   256
176
     0
 40
1.0
176
     0
 90
        2
176
     1
  1
strokes_ogs.tif
176
     1
290
     0
176
     1
 40
1.0
176
     1
 40
1.0
176
     1
  0
VISUALSTYLE
  5
3F
102
{ACAD_REACTORS
330
29
102
}
330
29
100
AcDbVisualStyle
  2
JitterOff
 70
    20
177
     3
291
     1
 70
    58
 90
        2
176
     0
 90
        2
176
     0
 90
        0
176
     0
 90
        0
176
     0
 40
0.6
176
     0
 40
30.0
176
     0
 62
     7
420
 16777215
176
     0
 90
        1
176
     0
 90
        4
176
     0
 62
     7
176
     0
 62
   257
176
     0
 90
        1
176
     0
 90
        1
176
     0
 40
1.0
176
     0
 90
       10
176
     2
 62
     7
176
     0
 40
1.0
176
     0
 90
        1
176
     0
 90
        6
176
     0
 90
        2
176
     0
 62
     7
176
     0
 90
        5
176
     0
 90
        0
176
     0
 90
        0
176
     0
290
     0
176
     0
 90
        1
176
     0
 40
0.0
176
     0
 90
        0
176
     0
290
     0
176
     0
290
     1
176
     0
290
     1
176
     0
290
     0
176
     0
290
     0
176
     0
290
     0
176
     0
290
     0
176
     0
290
     0
176
     0
290
     0
176
     0
 90
       50
176
     0
 40
0.0
176
     0
 40
1.0
176
     0
 90
        0
176
     0
 62
    18
420
        0
176
     0
 90
       50
176
     0
 90
        3
176
     0
 62
     5
420
      255
176
     0
290
     0
176
     0
 90
       50
176
     0
 90
       50
176
     0
 90
       50
176
     0
290
     0
176
     0
 90
       50
176
     0
 62
   256
176
     0
 40
1.0
176
     0
 90
        2
176
     0
  1
strokes_ogs.tif
176
     0
290
     0
176
     0
 40
1.0
176
     0
 40
1.0
176
     0
  0
VISUALSTYLE
  5
37
102
{ACAD_REACTORS
330
29
102
}
330
29
100
AcDbVisualStyle
  2
Linepattern
 70
    14
177
     3
291
     1
 70
    58
 90
        2
176
     1
 90
        2
176
     1
 90
        0
176
     1
 90
        0
176
     1
 40
0.6
176
     1
 40
30.0
176
     1
 62
     7
420
 16777215
176
     1
 90
        1
176
     1
 90
        4
176
     1
 62
     7
176
     1
 62
   257
176
     1
 90
        7
176
     1
 90
        7
176
     1
 40
1.0
176
     1
 90
        8
176
     1
 62
     7
176
     1
 40
1.0
176
     1
 90
        1
176
     1
 90
        6
176
     1
 90
        2
176
     1
 62
     7
176
     1
 90
        5
176
     1
 90
        0
176
     1
 90
        0
176
     1
290
     0
176
     1
 90
        1
176
     1
 40
0.0
176
     1
 90
        0
176
     1
290
     0
176
     1
290
     1
176
     1
290
     1
176
     1
290
     0
176
     1
290
     0
176
     1
290
     0
176
     1
290
     0
176
     1
290
     0
176
     1
290
     0
176
     1
 90
       50
176
     1
 40
0.0
176
     1
 40
1.0
176
     1
 90
        0
176
     1
 62
    18
420
        0
176
     1
 90
       50
176
     1
 90
        3
176
     1
 62
     5
420
      255
176
     1
290
     0
176
     1
 90
       50
176
     1
 90
       50
176
     1
 90
       50
176
     1
290
     0
176
     1
 90
       50
176
     1
 62
   256
176
     0
 40
1.0
176
     0
 90
        2
176
     1
  1
strokes_ogs.tif
176
     1
290
     0
176
     1
 40
1.0
176
     1
 40
1.0
176
     1
  0
VISUALSTYLE
  5
40
102
{ACAD_REACTORS
330
29
102
}
330
29
100
AcDbVisualStyle
  2
OverhangOff
 70
    21
177
     3
291
     1
 70
    58
 90
        2
176
     0
 90
        2
176
     0
 90
        0
176
     0
 90
        0
176
     0
 40
0.6
176
     0
 40
30.0
176
     0
 62
     7
420
 16777215
176
     0
 90
        1
176
     0
 90
        4
176
     0
 62
     7
176
     0
 62
   257
176
     0
 90
        1
176
     0
 90
        1
176
     0
 40
1.0
176
     0
 90
        9
176
     2
 62
     7
176
     0
 40
1.0
176
     0
 90
        1
176
     0
 90
        6
176
     0
 90
        2
176
     0
 62
     7
176
     0
 90
        5
176
     0
 90
        0
176
     0
 90
        0
176
     0
290
     0
176
     0
 90
        1
176
     0
 40
0.0
176
     0
 90
        0
176
     0
290
     0
176
     0
290
     1
176
     0
290
     1
176
     0
290
     0
176
     0
290
     0
176
     0
290
     0
176
     0
290
     0
176
     0
290
     0
176
     0
290
     0
176
     0
 90
       50
176
     0
 40
0.0
176
     0
 40
1.0
176
     0
 90
        0
176
     0
 62
    18
420
        0
176
     0
 90
       50
176
     0
 90
        3
176
     0
 62
     5
420
      255
176
     0
290
     0
176
     0
 90
       50
176
     0
 90
       50
176
     0
 90
       50
176
     0
290
     0
176
     0
 90
       50
176
     0
 62
   256
176
     0
 40
1.0
176
     0
 90
        2
176
     0
  1
strokes_ogs.tif
176
     0
290
     0
176
     0
 40
1.0
176
     0
 40
1.0
176
     0
  0
VISUALSTYLE
  5
33
102
{ACAD_REACTORS
330
29
102
}
330
29
100
AcDbVisualStyle
  2
Realistic
 70
     8
177
     3
291
     0
 70
    58
 90
        2
176
     1
 90
        3
176
     1
 90
        0
176
     1
 90
        2
176
     1
 40
0.6
176
     1
 40
30.0
176
     1
 62
     7
420
 16777215
176
     1
 90
        0
176
     1
 90
        0
176
     1
 62
     7
176
     1
 62
   257
176
     1
 90
        1
176
     1
 90
        1
176
     1
 40
1.0
176
     1
 90
        8
176
     1
 62
   257
176
     1
 40
1.0
176
     1
 90
        1
176
     1
 90
        6
176
     1
 90
        2
176
     1
 62
     7
176
     1
 90
        3
176
     1
 90
        0
176
     1
 90
        0
176
     1
290
     0
176
     1
 90
       13
176
     1
 40
0.0
176
     1
 90
        0
176
     1
290
     0
176
     1
290
     1
176
     1
290
     1
176
     1
290
     0
176
     1
290
     0
176
     1
290
     0
176
     1
290
     0
176
     1
290
     0
176
     1
290
     0
176
     1
 90
       50
176
     1
 40
0.0
176
     1
 40
1.0
176
     1
 90
        0
176
     1
 62
    18
420
        0
176
     1
 90
       50
176
     1
 90
        3
176
     1
 62
     5
420
      255
176
     1
290
     0
176
     1
 90
       50
176
     1
 90
       50
176
     1
 90
       50
176
     1
290
     0
176
     1
 90
       50
176
     1
 62
   256
176
     0
 40
1.0
176
     0
 90
        2
176
     1
  1
strokes_ogs.tif
176
     1
290
     0
176
     1
 40
1.0
176
     1
 40
1.0
176
     1
  0
VISUALSTYLE
  5
3E
102
{ACAD_REACTORS
330
29
102
}
330
29
100
AcDbVisualStyle
  2
Shaded
 70
    27
177
     3
291
     0
 70
    58
 90
        2
176
     1
 90
        2
176
     1
 90
        1
176
     1
 90
        2
176
     1
 40
0.6
176
     1
 40
30.0
176
     1
 62
     7
420
 16777215
176
     1
 90
        0
176
     1
 90
        4
176
     1
 62
     7
176
     1
 62
   257
176
     1
 90
        1
176
     1
 90
        1
176
     1
 40
1.0
176
     1
 90
        8
176
     1
 62
   257
176
     1
 40
1.0
176
     1
 90
        1
176
     1
 90
        6
176
     1
 90
        2
176
     1
 62
     8
420
  7895160
176
     1
 90
        3
176
     1
 90
        0
176
     1
 90
        0
176
     1
290
     0
176
     1
 90
        5
176
     1
 40
0.0
176
     1
 90
        0
176
     1
290
     0
176
     1
290
     1
176
     1
290
     1
176
     1
290
     0
176
     1
290
     0
176
     1
290
     0
176
     1
290
     0
176
     1
290
     0
176
     1
290
     0
176
     1
 90
       50
176
     1
 40
0.0
176
     1
 40
1.0
176
     1
 90
        0
176
     1
 62
    18
420
        0
176
     1
 90
       50
176
     1
 90
        3
176
     1
 62
     5
420
      255
176
     1
290
     0
176
     1
 90
       50
176
     1
 90
       50
176
     1
 90
       50
176
     1
290
     0
176
     1
 90
       50
176
     1
 62
   256
176
     0
 40
1.0
176
     0
 90
        2
176
     1
  1
strokes_ogs.tif
176
     1
290
     0
176
     1
 40
1.0
176
     1
 40
1.0
176
     1
  0
VISUALSTYLE
  5
3D
102
{ACAD_REACTORS
330
29
102
}
330
29
100
AcDbVisualStyle
  2
Shaded with edges
 70
    26
177
     3
291
     0
 70
    58
 90
        2
176
     1
 90
        2
176
     1
 90
        1
176
     1
 90
        2
176
     1
 40
0.6
176
     1
 40
30.0
176
     1
 62
     7
420
 16777215
176
     1
 90
        1
176
     1
 90
        2
176
     1
 62
     7
176
     1
 62
   257
176
     1
 90
        2
176
     1
 90
        1
176
     1
 40
1.0
176
     1
 90
        8
176
     1
 62
   257
176
     1
 40
1.0
176
     1
 90
        1
176
     1
 90
        6
176
     1
 90
        2
176
     1
 62
     7
176
     1
 90
        3
176
     1
 90
        0
176
     1
 90
        0
176
     1
290
     0
176
     1
 90
        5
176
     1
 40
0.0
176
     1
 90
        0
176
     1
290
     0
176
     1
290
     1
176
     1
290
     1
176
     1
290
     0
176
     1
290
     0
176
     1
290
     0
176
     1
290
     0
176
     1
290
     0
176
     1
290
     0
176
     1
 90
       50
176
     1
 40
0.0
176
     1
 40
1.0
176
     1
 90
        0
176
     1
 62
    18
420
        0
176
     1
 90
       50
176
     1
 90
        3
176
     1
 62
     5
420
      255
176
     1
290
     0
176
     1
 90
       50
176
     1
 90
       50
176
     1
 90
       50
176
     1
290
     0
176
     1
 90
       50
176
     1
 62
   256
176
     0
 40
1.0
176
     0
 90
        2
176
     1
  1
strokes_ogs.tif
176
     1
290
     0
176
     1
 40
1.0
176
     1
 40
1.0
176
     1
  0
VISUALSTYLE
  5
3A
102
{ACAD_REACTORS
330
29
102
}
330
29
100
AcDbVisualStyle
  2
Shades of Gray
 70
    23
177
     3
291
     0
 70
    58
 90
        2
176
     1
 90
        2
176
     1
 90
        3
176
     1
 90
        0
176
     1
 40
0.6
176
     1
 40
30.0
176
     1
 62
     7
420
 16777215
176
     1
 90
        2
176
     1
 90
        2
176
     1
 62
     7
176
     1
 62
     7
176
     1
 90
        1
176
     1
 90
        1
176
     1
 40
40.0
176
     1
 90
        8
176
     1
 62
     7
176
     1
 40
1.0
176
     1
 90
        1
176
     1
 90
        6
176
     1
 90
        2
176
     1
 62
     7
176
     1
 90
        3
176
     1
 90
        0
176
     1
 90
        0
176
     1
290
     0
176
     1
 90
        1
176
     1
 40
0.0
176
     1
 90
        0
176
     1
290
     0
176
     1
290
     1
176
     1
290
     1
176
     1
290
     0
176
     1
290
     0
176
     1
290
     0
176
     1
290
     0
176
     1
290
     0
176
     1
290
     0
176
     1
 90
       50
176
     1
 40
0.0
176
     1
 40
1.0
176
     1
 90
        0
176
     1
 62
    18
420
        0
176
     1
 90
       50
176
     1
 90
        3
176
     1
 62
     5
420
      255
176
     1
290
     0
176
     1
 90
       50
176
     1
 90
       50
176
     1
 90
       50
176
     1
290
     0
176
     1
 90
       50
176
     1
 62
   256
176
     0
 40
1.0
176
     0
 90
        2
176
     1
  1
strokes_ogs.tif
176
     1
290
     0
176
     1
 40
1.0
176
     1
 40
1.0
176
     1
  0
VISUALSTYLE
  5
3B
102
{ACAD_REACTORS
330
29
102
}
330
29
100
AcDbVisualStyle
  2
Sketchy
 70
    24
177
     3
291
     0
 70
    58
 90
        1
176
     1
 90
        2
176
     1
 90
        2
176
     1
 90
        0
176
     1
 40
0.6
176
     1
 40
30.0
176
     1
 62
     7
420
 16777215
176
     1
 90
        2
176
     1
 90
        2
176
     1
 62
     7
176
     1
 62
     7
176
     1
 90
        1
176
     1
 90
        1
176
     1
 40
40.0
176
     1
 90
       11
176
     1
 62
     7
176
     1
 40
1.0
176
     1
 90
        1
176
     1
 90
        6
176
     1
 90
        2
176
     1
 62
     7
176
     1
 90
        6
176
     1
 90
        0
176
     1
 90
        0
176
     1
290
     0
176
     1
 90
        1
176
     1
 40
0.0
176
     1
 90
        0
176
     1
290
     0
176
     1
290
     1
176
     1
290
     1
176
     1
290
     0
176
     1
290
     0
176
     1
290
     0
176
     1
290
     0
176
     1
290
     0
176
     1
290
     0
176
     1
 90
       50
176
     1
 40
0.0
176
     1
 40
1.0
176
     1
 90
        0
176
     1
 62
    18
420
        0
176
     1
 90
       50
176
     1
 90
        3
176
     1
 62
     5
420
      255
176
     1
290
     0
176
     1
 90
       50
176
     1
 90
       50
176
     1
 90
       50
176
     1
290
     0
176
     1
 90
       50
176
     1
 62
   256
176
     0
 40
1.0
176
     0
 90
        2
176
     1
  1
strokes_ogs.tif
176
     1
290
     0
176
     1
 40
1.0
176
     1
 40
1.0
176
     1
  0
VISUALSTYLE
  5
36
102
{ACAD_REACTORS
330
29
102
}
330
29
100
AcDbVisualStyle
  2
Thicken
 70
    13
177
     3
291
     1
 70
    58
 90
        2
176
     1
 90
        2
176
     1
 90
        0
176
     1
 90
        0
176
     1
 40
0.6
176
     1
 40
30.0
176
     1
 62
     7
420
 16777215
176
     1
 90
        1
176
     1
 90
        4
176
     1
 62
     7
176
     1
 62
   257
176
     1
 90
        1
176
     1
 90
        1
176
     1
 40
1.0
176
     1
 90
       12
176
     1
 62
     7
176
     1
 40
1.0
176
     1
 90
        1
176
     1
 90
        6
176
     1
 90
        2
176
     1
 62
     7
176
     1
 90
        5
176
     1
 90
        0
176
     1
 90
        0
176
     1
290
     0
176
     1
 90
        1
176
     1
 40
0.0
176
     1
 90
        0
176
     1
290
     0
176
     1
290
     1
176
     1
290
     1
176
     1
290
     0
176
     1
290
     0
176
     1
290
     0
176
     1
290
     0
176
     1
290
     0
176
     1
290
     0
176
     1
 90
       50
176
     1
 40
0.0
176
     1
 40
1.0
176
     1
 90
        0
176
     1
 62
    18
420
        0
176
     1
 90
       50
176
     1
 90
        3
176
     1
 62
     5
420
      255
176
     1
290
     0
176
     1
 90
       50
176
     1
 90
       50
176
     1
 90
       50
176
     1
290
     0
176
     1
 90
       50
176
     1
 62
   256
176
     0
 40
1.0
176
     0
 90
        2
176
     1
  1
strokes_ogs.tif
176
     1
290
     0
176
     1
 40
1.0
176
     1
 40
1.0
176
     1
  0
VISUALSTYLE
  5
30
102
{ACAD_REACTORS
330
29
102
}
330
29
100
AcDbVisualStyle
  2
Wireframe
 70
     5
177
     3
291
     0
 70
    58
 90
        0
176
     1
 90
        2
176
     1
 90
        0
176
     1
 90
        0
176
     1
 40
0.6
176
     1
 40
30.0
176
     1
 62
     7
420
 16777215
176
     1
 90
        1
176
     1
 90
        4
176
     1
 62
     7
176
     1
 62
   257
176
     1
 90
        1
176
     1
 90
        1
176
     1
 40
1.0
176
     1
 90
        0
176
     1
 62
   257
176
     1
 40
1.0
176
     1
 90
        1
176
     1
 90
        6
176
     1
 90
        2
176
     1
 62
     7
176
     1
 90
        3
176
     1
 90
        0
176
     1
 90
        0
176
     1
290
     0
176
     1
 90
        1
176
     1
 40
0.0
176
     1
 90
        0
176
     1
290
     0
176
     1
290
     1
176
     1
290
     1
176
     1
290
     0
176
     1
290
     0
176
     1
290
     0
176
     1
290
     0
176
     1
290
     0
176
     1
290
     0
176
     1
 90
       50
176
     1
 40
0.0
176
     1
 40
1.0
176
     1
 90
        0
176
     1
 62
    18
420
        0
176
     1
 90
       50
176
     1
 90
        3
176
     1
 62
     5
420
      255
176
     1
290
     0
176
     1
 90
       50
176
     1
 90
       50
176
     1
 90
       50
176
     1
290
     0
176
     1
 90
       50
176
     1
 62
   256
176
     0
 40
1.0
176
     0
 90
        2
176
     1
  1
strokes_ogs.tif
176
     1
290
     0
176
     1
 40
1.0
176
     1
 40
1.0
176
     1
  0
VISUALSTYLE
  5
3C
102
{ACAD_REACTORS
330
29
102
}
330
29
100
AcDbVisualStyle
  2
X-Ray
 70
    25
177
     3
291
     0
 70
    58
 90
        2
176
     1
 90
        2
176
     1
 90
        1
176
     1
 90
        1
176
     1
 40
0.5
176
     1
 40
30.0
176
     1
 62
     7
420
 16777215
176
     1
 90
        1
176
     1
 90
        0
176
     1
 62
     7
176
     1
 62
   257
176
     1
 90
        1
176
     1
 90
        1
176
     1
 40
1.0
176
     1
 90
        8
176
     1
 62
     7
176
     1
 40
1.0
176
     1
 90
        1
176
     1
 90
        6
176
     1
 90
        2
176
     1
 62
     7
176
     1
 90
        3
176
     1
 90
        0
176
     1
 90
        0
176
     1
290
     0
176
     1
 90
       13
176
     1
 40
0.0
176
     1
 90
        0
176
     1
290
     0
176
     1
290
     1
176
     1
290
     1
176
     1
290
     0
176
     1
290
     0
176
     1
290
     0
176
     1
290
     0
176
     1
290
     0
176
     1
290
     0
176
     1
 90
       50
176
     1
 40
0.0
176
     1
 40
1.0
176
     1
 90
        0
176
     1
 62
    18
420
        0
176
     1
 90
       50
176
     1
 90
        3
176
     1
 62
     5
420
      255
176
     1
290
     0
176
     1
 90
       50
176
     1
 90
       50
176
     1
 90
       50
176
     1
290
     0
176
     1
 90
       50
176
     1
 62
   256
176
     0
 40
1.0
176
     0
 90
        2
176
     1
  1
strokes_ogs.tif
176
     1
290
     0
176
     1
 40
1.0
176
     1
 40
1.0
176
     1
  0
DICTIONARYVAR
  5
DC
102
{ACAD_REACTORS
330
D7
102
}
330
D7
100
DictionaryVariables
280
     0
  1
1:1
  0
DICTIONARYVAR
  5
D9
102
{ACAD_REACTORS
330
D7
102
}
330
D7
100
DictionaryVariables
280
     0
  1
STANDARD
  0
DICTIONARYVAR
  5
D8
102
{ACAD_REACTORS
330
D7
102
}
330
D7
100
DictionaryVariables
280
     0
  1
STANDARD
  0
DICTIONARYVAR
  5
DA
102
{ACAD_REACTORS
330
D7
102
}
330
D7
100
DictionaryVariables
280
     0
  1
Imperial24
  0
DICTIONARYVAR
  5
DB
102
{ACAD_REACTORS
330
D7
102
}
330
D7
100
DictionaryVariables
280
     0
  1
Imperial24
  0
DICTIONARY
  5
1A
330
19
100
AcDbDictionary
280
     1
281
     1
  3
BUMPTILE
360
1C
  3
DIFFUSETILE
360
1B
  3
OPACITYTILE
360
1F
  3
REFLECTIONTILE
360
1E
  3
REFRACTIONTILE
360
20
  3
SPECULARTILE
360
1D
  0
DICTIONARY
  5
12
330
11
100
AcDbDictionary
280
     1
281
     1
  3
BUMPTILE
360
14
  3
DIFFUSETILE
360
13
  3
OPACITYTILE
360
17
  3
REFLECTIONTILE
360
16
  3
REFRACTIONTILE
360
18
  3
SPECULARTILE
360
15
  0
DICTIONARY
  5
22
330
21
100
AcDbDictionary
280
     1
281
     1
  3
BUMPTILE
360
24
  3
DIFFUSETILE
360
23
  3
OPACITYTILE
360
27
  3
REFLECTIONTILE
360
26
  3
REFRACTIONTILE
360
28
  3
SPECULARTILE
360
25
  0
DICTIONARY
  5
DD
330
65
100
AcDbDictionary
280
     1
281
     1
  3
ACAD_ROUNDTRIP_2008_TABLESTYLE_CELLSTYLEMAP
360
DE
  0
XRECORD
  5
1C
102
{ACAD_REACTORS
330
1A
102
}
330
1A
100
AcDbXrecord
280
     1
270
     1
271
     1
  0
XRECORD
  5
1B
102
{ACAD_REACTORS
330
1A
102
}
330
1A
100
AcDbXrecord
280
     1
270
     1
271
     1
  0
XRECORD
  5
1F
102
{ACAD_REACTORS
330
1A
102
}
330
1A
100
AcDbXrecord
280
     1
270
     1
271
     1
  0
XRECORD
  5
1E
102
{ACAD_REACTORS
330
1A
102
}
330
1A
100
AcDbXrecord
280
     1
270
     1
271
     1
  0
XRECORD
  5
20
102
{ACAD_REACTORS
330
1A
102
}
330
1A
100
AcDbXrecord
280
     1
270
     1
271
     1
  0
XRECORD
  5
1D
102
{ACAD_REACTORS
330
1A
102
}
330
1A
100
AcDbXrecord
280
     1
270
     1
271
     1
  0
XRECORD
  5
14
102
{ACAD_REACTORS
330
12
102
}
330
12
100
AcDbXrecord
280
     1
270
     1
271
     1
  0
XRECORD
  5
13
102
{ACAD_REACTORS
330
12
102
}
330
12
100
AcDbXrecord
280
     1
270
     1
271
     1
  0
XRECORD
  5
17
102
{ACAD_REACTORS
330
12
102
}
330
12
100
AcDbXrecord
280
     1
270
     1
271
     1
  0
XRECORD
  5
16
102
{ACAD_REACTORS
330
12
102
}
330
12
100
AcDbXrecord
280
     1
270
     1
271
     1
  0
XRECORD
  5
18
102
{ACAD_REACTORS
330
12
102
}
330
12
100
AcDbXrecord
280
     1
270
     1
271
     1
  0
XRECORD
  5
15
102
{ACAD_REACTORS
330
12
102
}
330
12
100
AcDbXrecord
280
     1
270
     1
271
     1
  0
XRECORD
  5
24
102
{ACAD_REACTORS
330
22
102
}
330
22
100
AcDbXrecord
280
     1
270
     1
271
     1
  0
XRECORD
  5
23
102
{ACAD_REACTORS
330
22
102
}
330
22
100
AcDbXrecord
280
     1
270
     1
271
     1
  0
XRECORD
  5
27
102
{ACAD_REACTORS
330
22
102
}
330
22
100
AcDbXrecord
280
     1
270
     1
271
     1
  0
XRECORD
  5
26
102
{ACAD_REACTORS
330
22
102
}
330
22
100
AcDbXrecord
280
     1
270
     1
271
     1
  0
XRECORD
  5
28
102
{ACAD_REACTORS
330
22
102
}
330
22
100
AcDbXrecord
280
     1
270
     1
271
     1
  0
XRECORD
  5
25
102
{ACAD_REACTORS
330
22
102
}
330
22
100
AcDbXrecord
280
     1
270
     1
271
     1
  0
CELLSTYLEMAP
  5
DE
102
{ACAD_REACTORS
330
DD
102
}
330
DD
100
AcDbCellStyleMap
 90
        3
300
CELLSTYLE
  1
TABLEFORMAT_BEGIN
 90
        5
170
     1
 91
        0
 92
    32768
 62
   257
 93
        1
300
CONTENTFORMAT
  1
CONTENTFORMAT_BEGIN
 90
        0
 91
        0
 92
      512
 93
        0
300

 40
0.0
140
1.0
 94
        5
 62
     0
340
55
144
0.25
309
CONTENTFORMAT_END
171
     0
 94
        0
309
TABLEFORMAT_END
  1
CELLSTYLE_BEGIN
 90
        1
 91
        1
300
_TITLE
309
CELLSTYLE_END
300
CELLSTYLE
  1
TABLEFORMAT_BEGIN
 90
        5
170
     1
 91
        0
 92
        0
 62
   257
 93
        1
300
CONTENTFORMAT
  1
CONTENTFORMAT_BEGIN
 90
        0
 91
        0
 92
      512
 93
        0
300

 40
0.0
140
1.0
 94
        5
 62
     0
340
55
144
0.18
309
CONTENTFORMAT_END
171
     0
 94
        0
309
TABLEFORMAT_END
  1
CELLSTYLE_BEGIN
 90
        2
 91
        1
300
_HEADER
309
CELLSTYLE_END
300
CELLSTYLE
  1
TABLEFORMAT_BEGIN
 90
        5
170
     1
 91
        0
 92
        0
 62
   257
 93
        1
300
CONTENTFORMAT
  1
CONTENTFORMAT_BEGIN
 90
        0
 91
        0
 92
      512
 93
        0
300

 40
0.0
140
1.0
 94
        2
 62
     0
340
55
144
0.18
309
CONTENTFORMAT_END
171
     0
 94
        0
309
TABLEFORMAT_END
  1
CELLSTYLE_BEGIN
 90
        3
 91
        2
300
_DATA
309
CELLSTYLE_END
  0
ENDSEC
  0
EOF
