  0
SECTION
  2
HEADER
  9
$ACADVER
  1
AC1032
  9
$ACADMAINTVER
 90
      327
  9
$DWGCODEPAGE
  3
ANSI_1252
  9
$REQUIREDVERSIONS
160
                 0
  9
$INSBASE
 10
0.0
 20
0.0
 30
0.0
  9
$EXTMIN
 10
1.000000000000000E+20
 20
1.000000000000000E+20
 30
1.000000000000000E+20
  9
$EXTMAX
 10
-1.000000000000000E+20
 20
-1.000000000000000E+20
 30
-1.000000000000000E+20
  9
$LIMMIN
 10
0.0
 20
0.0
  9
$LIMMAX
 10
12.0
 20
9.0
  9
$ORTHOMODE
 70
     0
  9
$REGENMODE
 70
     1
  9
$FILLMODE
 70
     1
  9
$QTEXTMODE
 70
     0
  9
$MIRRTEXT
 70
     0
  9
$LTSCALE
 40
1.0
  9
$ATTMODE
 70
     1
  9
$TEXTSIZE
 40
0.2
  9
$TRACEWID
 40
0.05
  9
$TEXTSTYLE
  7
Standard
  9
$CLAYER
  8
0
  9
$CELTYPE
  6
ByLayer
  9
$CECOLOR
 62
   256
  9
$CELTSCALE
 40
1.0
  9
$DISPSILH
 70
     0
  9
$DIMSCALE
 40
1.0
  9
$DIMASZ
 40
0.18
  9
$DIMEXO
 40
0.0625
  9
$DIMDLI
 40
0.38
  9
$DIMRND
 40
0.0
  9
$DIMDLE
 40
0.0
  9
$DIMEXE
 40
0.18
  9
$DIMTP
 40
0.0
  9
$DIMTM
 40
0.0
  9
$DIMTXT
 40
0.18
  9
$DIMCEN
 40
0.09
  9
$DIMTSZ
 40
0.0
  9
$DIMTOL
 70
     0
  9
$DIMLIM
 70
     0
  9
$DIMTIH
 70
     1
  9
$DIMTOH
 70
     1
  9
$DIMSE1
 70
     0
  9
$DIMSE2
 70
     0
  9
$DIMTAD
 70
     0
  9
$DIMZIN
 70
     0
  9
$DIMBLK
  1

  9
$DIMASO
 70
     1
  9
$DIMSHO
 70
     1
  9
$DIMPOST
  1

  9
$DIMAPOST
  1

  9
$DIMALT
 70
     0
  9
$DIMALTD
 70
     2
  9
$DIMALTF
 40
25.4
  9
$DIMLFAC
 40
1.0
  9
$DIMTOFL
 70
     0
  9
$DIMTVP
 40
0.0
  9
$DIMTIX
 70
     0
  9
$DIMSOXD
 70
     0
  9
$DIMSAH
 70
     0
  9
$DIMBLK1
  1

  9
$DIMBLK2
  1

  9
$DIMSTYLE
  2
Standard
  9
$DIMCLRD
 70
     0
  9
$DIMCLRE
 70
     0
  9
$DIMCLRT
 70
     0
  9
$DIMTFAC
 40
1.0
  9
$DIMGAP
 40
0.09
  9
$DIMJUST
 70
     0
  9
$DIMSD1
 70
     0
  9
$DIMSD2
 70
     0
  9
$DIMTOLJ
 70
     1
  9
$DIMTZIN
 70
     0
  9
$DIMALTZ
 70
     0
  9
$DIMALTTZ
 70
     0
  9
$DIMUPT
 70
     0
  9
$DIMDEC
 70
     4
  9
$DIMTDEC
 70
     4
  9
$DIMALTU
 70
     2
  9
$DIMALTTD
 70
     2
  9
$DIMTXSTY
  7
Standard
  9
$DIMAUNIT
 70
     0
  9
$DIMADEC
 70
     0
  9
$DIMALTRND
 40
0.0
  9
$DIMAZIN
 70
     0
  9
$DIMDSEP
 70
    46
  9
$DIMATFIT
 70
     3
  9
$DIMFRAC
 70
     0
  9
$DIMLDRBLK
  1

  9
$DIMLUNIT
 70
     2
  9
$DIMLWD
 70
    -2
  9
$DIMLWE
 70
    -2
  9
$DIMTMOVE
 70
     0
  9
$DIMFXL
 40
1.0
  9
$DIMFXLON
 70
     0
  9
$DIMJOGANG
 40
0.7853981633974483
  9
$DIMTFILL
 70
     0
  9
$DIMTFILLCLR
 70
     0
  9
$DIMARCSYM
 70
     0
  9
$DIMLTYPE
  6

  9
$DIMLTEX1
  6

  9
$DIMLTEX2
  6

  9
$DIMTXTDIRECTION
 70
     0
  9
$LUNITS
 70
     2
  9
$LUPREC
 70
     4
  9
$SKETCHINC
 40
0.1
  9
$FILLETRAD
 40
0.0
  9
$AUNITS
 70
     0
  9
$AUPREC
 70
     0
  9
$MENU
  1
.
  9
$ELEVATION
 40
0.0
  9
$PELEVATION
 40
0.0
  9
$THICKNESS
 40
0.0
  9
$LIMCHECK
 70
     0
  9
$CHAMFERA
 40
0.0
  9
$CHAMFERB
 40
0.0
  9
$CHAMFERC
 40
0.0
  9
$CHAMFERD
 40
0.0
  9
$SKPOLY
 70
     0
  9
$TDCREATE
 40
2460699.509270833
  9
$TDUCREATE
 40
2460699.509270833
  9
$TDUPDATE
 40
2460699.509270833
  9
$TDUUPDATE
 40
2460699.509270833
  9
$TDINDWG
 40
0.0000000000
  9
$TDUSRTIMER
 40
0.0000000000
  9
$USRTIMER
 70
     1
  9
$ANGBASE
 50
0.0
  9
$ANGDIR
 70
     0
  9
$PDMODE
 70
     0
  9
$PDSIZE
 40
0.0
  9
$PLINEWID
 40
0.0
  9
$SPLFRAME
 70
     0
  9
$SPLINETYPE
 70
     6
  9
$SPLINESEGS
 70
     8
  9
$HANDSEED
  5
143
  9
$SURFTAB1
 70
     6
  9
$SURFTAB2
 70
     6
  9
$SURFTYPE
 70
     6
  9
$SURFU
 70
     6
  9
$SURFV
 70
     6
  9
$UCSBASE
  2

  9
$UCSNAME
  2

  9
$UCSORG
 10
0.0
 20
0.0
 30
0.0
  9
$UCSXDIR
 10
1.0
 20
0.0
 30
0.0
  9
$UCSYDIR
 10
0.0
 20
1.0
 30
0.0
  9
$UCSORTHOREF
  2

  9
$UCSORTHOVIEW
 70
     0
  9
$UCSORGTOP
 10
0.0
 20
0.0
 30
0.0
  9
$UCSORGBOTTOM
 10
0.0
 20
0.0
 30
0.0
  9
$UCSORGLEFT
 10
0.0
 20
0.0
 30
0.0
  9
$UCSORGRIGHT
 10
0.0
 20
0.0
 30
0.0
  9
$UCSORGFRONT
 10
0.0
 20
0.0
 30
0.0
  9
$UCSORGBACK
 10
0.0
 20
0.0
 30
0.0
  9
$PUCSBASE
  2

  9
$PUCSNAME
  2

  9
$PUCSORG
 10
0.0
 20
0.0
 30
0.0
  9
$PUCSXDIR
 10
1.0
 20
0.0
 30
0.0
  9
$PUCSYDIR
 10
0.0
 20
1.0
 30
0.0
  9
$PUCSORTHOREF
  2

  9
$PUCSORTHOVIEW
 70
     0
  9
$PUCSORGTOP
 10
0.0
 20
0.0
 30
0.0
  9
$PUCSORGBOTTOM
 10
0.0
 20
0.0
 30
0.0
  9
$PUCSORGLEFT
 10
0.0
 20
0.0
 30
0.0
  9
$PUCSORGRIGHT
 10
0.0
 20
0.0
 30
0.0
  9
$PUCSORGFRONT
 10
0.0
 20
0.0
 30
0.0
  9
$PUCSORGBACK
 10
0.0
 20
0.0
 30
0.0
  9
$USERI1
 70
     0
  9
$USERI2
 70
     0
  9
$USERI3
 70
     0
  9
$USERI4
 70
     0
  9
$USERI5
 70
     0
  9
$USERR1
 40
0.0
  9
$USERR2
 40
0.0
  9
$USERR3
 40
0.0
  9
$USERR4
 40
0.0
  9
$USERR5
 40
0.0
  9
$WORLDVIEW
 70
     1
  9
$SHADEDGE
 70
     3
  9
$SHADEDIF
 70
    70
  9
$TILEMODE
 70
     1
  9
$MAXACTVP
 70
    64
  9
$PINSBASE
 10
0.0
 20
0.0
 30
0.0
  9
$PLIMCHECK
 70
     0
  9
$PEXTMIN
 10
1.000000000000000E+20
 20
1.000000000000000E+20
 30
1.000000000000000E+20
  9
$PEXTMAX
 10
-1.000000000000000E+20
 20
-1.000000000000000E+20
 30
-1.000000000000000E+20
  9
$PLIMMIN
 10
0.0
 20
0.0
  9
$PLIMMAX
 10
12.0
 20
9.0
  9
$UNITMODE
 70
     0
  9
$VISRETAIN
 70
     1
  9
$PLINEGEN
 70
     0
  9
$PSLTSCALE
 70
     1
  9
$TREEDEPTH
 70
  3020
  9
$CMLSTYLE
  2
Standard
  9
$CMLJUST
 70
     0
  9
$CMLSCALE
 40
1.0
  9
$PROXYGRAPHICS
 70
     1
  9
$MEASUREMENT
 70
     0
  9
$CELWEIGHT
370
    -1
  9
$ENDCAPS
280
     0
  9
$JOINSTYLE
280
     0
  9
$LWDISPLAY
290
     1
  9
$INSUNITS
 70
     5
  9
$HYPERLINKBASE
  1

  9
$STYLESHEET
  1

  9
$XEDIT
290
     1
  9
$CEPSNTYPE
380
     0
  9
$PSTYLEMODE
290
     1
  9
$FINGERPRINTGUID
  2
{9379AC04-17F0-F24A-8289-0390778F430E}
  9
$VERSIONGUID
  2
{E5304E59-5570-A246-8C3B-871C646FC9A9}
  9
$EXTNAMES
290
     1
  9
$PSVPSCALE
 40
0.0
  9
$OLESTARTUP
290
     0
  9
$SORTENTS
280
   127
  9
$INDEXCTL
280
     0
  9
$HIDETEXT
280
     1
  9
$XCLIPFRAME
280
     2
  9
$HALOGAP
280
     0
  9
$OBSCOLOR
 70
   257
  9
$OBSLTYPE
280
     0
  9
$INTERSECTIONDISPLAY
280
     0
  9
$INTERSECTIONCOLOR
 70
   257
  9
$DIMASSOC
280
     2
  9
$PROJECTNAME
  1

  9
$CAMERADISPLAY
290
     0
  9
$LENSLENGTH
 40
50.0
  9
$CAMERAHEIGHT
 40
0.0
  9
$STEPSPERSEC
 40
2.0
  9
$STEPSIZE
 40
6.0
  9
$3DDWFPREC
 40
2.0
  9
$PSOLWIDTH
 40
0.25
  9
$PSOLHEIGHT
 40
4.0
  9
$LOFTANG1
 40
1.570796326794896
  9
$LOFTANG2
 40
1.570796326794896
  9
$LOFTMAG1
 40
0.0
  9
$LOFTMAG2
 40
0.0
  9
$LOFTPARAM
 70
     7
  9
$LOFTNORMALS
280
     1
  9
$LATITUDE
 40
37.795
  9
$LONGITUDE
 40
-122.394
  9
$NORTHDIRECTION
 40
0.0
  9
$TIMEZONE
 70
 -8000
  9
$LIGHTGLYPHDISPLAY
280
     1
  9
$TILEMODELIGHTSYNCH
280
     1
  9
$CMATERIAL
347
11
  9
$SOLIDHIST
280
     0
  9
$SHOWHIST
280
     1
  9
$DWFFRAME
280
     2
  9
$DGNFRAME
280
     0
  9
$REALWORLDSCALE
290
     1
  9
$INTERFERECOLOR
 62
     1
  9
$INTERFEREOBJVS
345
33
  9
$INTERFEREVPVS
346
30
  9
$CSHADOW
280
     0
  9
$SHADOWPLANELOCATION
 40
0.0
  0
ENDSEC
  0
SECTION
  2
CLASSES
  0
CLASS
  1
ACDBDICTIONARYWDFLT
  2
AcDbDictionaryWithDefault
  3
ObjectDBX Classes
 90
        0
 91
        1
280
     0
281
     0
  0
CLASS
  1
MATERIAL
  2
AcDbMaterial
  3
ObjectDBX Classes
 90
     1153
 91
        3
280
     0
281
     0
  0
CLASS
  1
VISUALSTYLE
  2
AcDbVisualStyle
  3
ObjectDBX Classes
 90
     4095
 91
       24
280
     0
281
     0
  0
CLASS
  1
SCALE
  2
AcDbScale
  3
ObjectDBX Classes
 90
     1153
 91
       17
280
     0
281
     0
  0
CLASS
  1
TABLESTYLE
  2
AcDbTableStyle
  3
ObjectDBX Classes
 90
     4095
 91
        1
280
     0
281
     0
  0
CLASS
  1
MLEADERSTYLE
  2
AcDbMLeaderStyle
  3
ACDB_MLEADERSTYLE_CLASS
 90
     4095
 91
        1
280
     0
281
     0
  0
CLASS
  1
ACDBSECTIONVIEWSTYLE
  2
AcDbSectionViewStyle
  3
ObjectDBX Classes
 90
     1025
 91
        1
280
     0
281
     0
  0
CLASS
  1
ACDBDETAILVIEWSTYLE
  2
AcDbDetailViewStyle
  3
ObjectDBX Classes
 90
     1025
 91
        1
280
     0
281
     0
  0
CLASS
  1
DICTIONARYVAR
  2
AcDbDictionaryVar
  3
ObjectDBX Classes
 90
        0
 91
        5
280
     0
281
     0
  0
CLASS
  1
CELLSTYLEMAP
  2
AcDbCellStyleMap
  3
ObjectDBX Classes
 90
     1152
 91
        1
280
     0
281
     0
  0
ENDSEC
  0
SECTION
  2
TABLES
  0
TABLE
  2
VPORT
  5
8
330
0
100
AcDbSymbolTable
 70
     1
  0
VPORT
  5
57
330
8
100
AcDbSymbolTableRecord
100
AcDbViewportTableRecord
  2
*Active
 70
     0
 10
0.0
 20
0.0
 11
1.0
 21
1.0
 12
0.0
 22
0.0
 13
0.0
 23
0.0
 14
1.0
 24
1.0
 15
0.0
 25
0.0
 16
0.0
 26
0.0
 36
1.0
 17
4.999999998749408
 27
-4.999999998749408
 37
0.0
 40
10.19999999744879
 41
1.0
 42
50.0
 43
0.0
 44
0.0
 50
0.0
 51
0.0
 71
     0
 72
   100
 73
     1
 74
     1
 75
     0
 76
     0
 77
     0
 78
     0
281
     0
 65
     1
110
0.0
120
0.0
130
0.0
111
1.0
121
0.0
131
0.0
112
0.0
122
1.0
132
0.0
 79
     0
146
0.0
 60
     3
 61
     5
292
     1
282
     1
141
0.0
142
0.0
 63
   250
421
  3355443
  0
ENDTAB
  0
TABLE
  2
LTYPE
  5
5
330
0
100
AcDbSymbolTable
 70
     1
  0
LTYPE
  5
5B
330
5
100
AcDbSymbolTableRecord
100
AcDbLinetypeTableRecord
  2
ByBlock
 70
     0
  3

 72
    65
 73
     0
 40
0.0
  0
LTYPE
  5
5C
330
5
100
AcDbSymbolTableRecord
100
AcDbLinetypeTableRecord
  2
ByLayer
 70
     0
  3

 72
    65
 73
     0
 40
0.0
  0
LTYPE
  5
5D
330
5
100
AcDbSymbolTableRecord
100
AcDbLinetypeTableRecord
  2
Continuous
 70
     0
  3
Solid line
 72
    65
 73
     0
 40
0.0
  0
ENDTAB
  0
TABLE
  2
LAYER
  5
2
330
0
100
AcDbSymbolTable
 70
     2
  0
LAYER
  5
54
330
2
100
AcDbSymbolTableRecord
100
AcDbLayerTableRecord
  2
0
 70
     0
 62
     7
  6
Continuous
370
    -3
390
F
347
21
348
0
  0
LAYER
  5
78
330
2
100
AcDbSymbolTableRecord
100
AcDbLayerTableRecord
  2
Camada 1
 70
     0
 62
     7
  6
Continuous
370
     0
390
F
347
21
348
0
  0
ENDTAB
  0
TABLE
  2
STYLE
  5
3
330
0
100
AcDbSymbolTable
 70
     2
  0
STYLE
  5
55
330
3
100
AcDbSymbolTableRecord
100
AcDbTextStyleTableRecord
  2
Standard
 70
     0
 40
0.0
 41
1.0
 50
0.0
 71
     0
 42
0.2
  3
txt
  4

  0
STYLE
  5
5A
330
3
100
AcDbSymbolTableRecord
100
AcDbTextStyleTableRecord
  2
Annotative
 70
     0
 40
0.0
 41
1.0
 50
0.0
 71
     0
 42
0.2
  3
txt
  4

1001
AcadAnnotative
1000
AnnotativeData
1002
{
1070
     1
1070
     1
1002
}
  0
ENDTAB
  0
TABLE
  2
VIEW
  5
6
330
0
100
AcDbSymbolTable
 70
     0
  0
ENDTAB
  0
TABLE
  2
UCS
  5
7
330
0
100
AcDbSymbolTable
 70
     0
  0
ENDTAB
  0
TABLE
  2
APPID
  5
9
330
0
100
AcDbSymbolTable
 70
     2
  0
APPID
  5
56
330
9
100
AcDbSymbolTableRecord
100
AcDbRegAppTableRecord
  2
ACAD
 70
     0
  0
APPID
  5
5E
330
9
100
AcDbSymbolTableRecord
100
AcDbRegAppTableRecord
  2
AcadAnnotative
 70
     0
  0
ENDTAB
  0
TABLE
  2
DIMSTYLE
  5
A
330
0
100
AcDbSymbolTable
 70
     2
100
AcDbDimStyleTable
 71
     0
  0
DIMSTYLE
105
58
330
A
100
AcDbSymbolTableRecord
100
AcDbDimStyleTableRecord
  2
Standard
 70
     0
340
55
  0
DIMSTYLE
105
59
330
A
100
AcDbSymbolTableRecord
100
AcDbDimStyleTableRecord
  2
Annotative
 70
     0
340
55
1001
AcadAnnotative
1000
AnnotativeData
1002
{
1070
     1
1070
     1
1002
}
  0
ENDTAB
  0
TABLE
  2
BLOCK_RECORD
  5
1
330
0
100
AcDbSymbolTable
 70
     3
  0
BLOCK_RECORD
  5
70
330
1
100
AcDbSymbolTableRecord
100
AcDbBlockTableRecord
  2
*Model_Space
340
73
 70
     0
280
     1
281
     0
  0
BLOCK_RECORD
  5
6C
330
1
100
AcDbSymbolTableRecord
100
AcDbBlockTableRecord
  2
*Paper_Space
340
6F
 70
     0
280
     1
281
     0
  0
BLOCK_RECORD
  5
74
330
1
100
AcDbSymbolTableRecord
100
AcDbBlockTableRecord
  2
*Paper_Space0
340
77
 70
     0
280
     1
281
     0
  0
BLOCK_RECORD
  5
79
330
1
100
AcDbSymbolTableRecord
100
AcDbBlockTableRecord
  2
Block_0
340
0
102
{BLKREFS
331
7A
102
}
 70
     0
280
     1
281
     0
  0
BLOCK_RECORD
  5
124
330
1
100
AcDbSymbolTableRecord
100
AcDbBlockTableRecord
  2
Block_1
340
0
102
{BLKREFS
331
125
102
}
 70
     0
280
     1
281
     0
  0
ENDTAB
  0
ENDSEC
  0
SECTION
  2
BLOCKS
  0
BLOCK
  5
71
330
70
100
AcDbEntity
  8
0
100
AcDbBlockBegin
  2
*Model_Space
 70
     0
 10
0.0
 20
0.0
 30
0.0
  3
*Model_Space
  1

  0
ENDBLK
  5
72
330
70
100
AcDbEntity
  8
0
100
AcDbBlockEnd
  0
BLOCK
  5
6D
330
6C
100
AcDbEntity
 67
     1
  8
0
100
AcDbBlockBegin
  2
*Paper_Space
 70
     0
 10
0.0
 20
0.0
 30
0.0
  3
*Paper_Space
  1

  0
ENDBLK
  5
6E
330
6C
100
AcDbEntity
 67
     1
  8
0
100
AcDbBlockEnd
  0
BLOCK
  5
75
330
74
100
AcDbEntity
 67
     1
  8
0
100
AcDbBlockBegin
  2
*Paper_Space0
 70
     0
 10
0.0
 20
0.0
 30
0.0
  3
*Paper_Space0
  1

  0
ENDBLK
  5
76
330
74
100
AcDbEntity
 67
     1
  8
0
100
AcDbBlockEnd
  0
BLOCK
  5
7B
330
79
100
AcDbEntity
  8
0
100
AcDbBlockBegin
  2
Block_0
 70
     0
 10
0.0
 20
0.0
 30
0.0
  3
Block_0
  1

  0
LINE
  5
7D
330
79
100
AcDbEntity
  8
Camada 1
 62
   250
420
  1907995
370
    15
100
AcDbLine
 10
7.069590468214337
 20
-3.501433383509156
 30
0.0
 11
7.167950703803893
 21
-3.501433383509156
 31
0.0
  0
LINE
  5
7E
330
79
100
AcDbEntity
  8
Camada 1
 62
   250
420
  1907995
370
    15
100
AcDbLine
 10
6.523690837589202
 20
-3.81208779250981
 30
0.0
 11
6.098282646689968
 21
-3.81208779250981
 31
0.0
  0
LINE
  5
7F
330
79
100
AcDbEntity
  8
Camada 1
 62
   250
420
  1907995
370
    15
100
AcDbLine
 10
6.662215094873878
 20
-3.894054690243292
 30
0.0
 11
6.834345455042613
 21
-3.894054690243292
 31
0.0
  0
LINE
  5
80
330
79
100
AcDbEntity
  8
Camada 1
 62
   250
420
  1907995
370
    15
100
AcDbLine
 10
6.834345455042613
 20
-3.918644801254087
 30
0.0
 11
7.069590468214337
 21
-3.918644801254087
 31
0.0
  0
LINE
  5
81
330
79
100
AcDbEntity
  8
Camada 1
 62
   250
420
  1907995
370
    15
100
AcDbLine
 10
6.367953815276477
 20
-3.976021587977191
 30
0.0
 11
6.662215094873878
 21
-3.976021587977191
 31
0.0
  0
LINE
  5
82
330
79
100
AcDbEntity
  8
Camada 1
 62
   250
420
  1907995
370
    15
100
AcDbLine
 10
7.692538765918345
 20
-4.121103138713052
 30
0.0
 11
7.373687583762907
 21
-4.121103138713052
 31
0.0
  0
LINE
  5
83
330
79
100
AcDbEntity
  8
Camada 1
 62
   250
420
  1907995
370
    15
100
AcDbLine
 10
7.226966866003271
 20
-4.245692756563668
 30
0.0
 11
7.373687583762907
 21
-4.245692756563668
 31
0.0
  0
LINE
  5
84
330
79
100
AcDbEntity
  8
Camada 1
 62
   250
420
  1907995
370
    15
100
AcDbLine
 10
6.04910263312168
 20
-4.163725858829865
 30
0.0
 11
6.04910263312168
 21
-4.671100947462774
 31
0.0
  0
LWPOLYLINE
  5
85
330
79
100
AcDbEntity
  8
Camada 1
 62
   250
420
  1907995
370
    15
100
AcDbPolyline
 90
        3
 70
     0
 43
0.0
 10
6.04910263312168
 20
-5.820276786983101
 10
6.04910263312168
 20
-6.052243153429087
 10
6.065495970977691
 20
-6.068636491285162
  0
LWPOLYLINE
  5
86
330
79
100
AcDbEntity
  8
Camada 1
 62
   250
420
  1907995
370
    15
100
AcDbPolyline
 90
        3
 70
     0
 43
0.0
 10
6.098282646689968
 20
-3.81208779250981
 10
6.081889308833829
 20
-3.828481130366013
 10
6.081889308833829
 20
-4.107168707731781
  0
LINE
  5
87
330
79
100
AcDbEntity
  8
Camada 1
 62
   250
420
  1907995
370
    15
100
AcDbLine
 10
6.081889308833829
 20
-5.549786086997998
 30
0.0
 11
6.081889308833829
 21
-5.747326298029071
 31
0.0
  0
LINE
  5
88
330
79
100
AcDbEntity
  8
Camada 1
 62
   250
420
  1907995
370
    15
100
AcDbLine
 10
6.106479419844207
 20
-4.735854663262789
 30
0.0
 11
6.106479419844207
 21
-5.323557378379557
 31
0.0
  0
LINE
  5
89
330
79
100
AcDbEntity
  8
Camada 1
 62
   250
420
  1907995
370
    15
100
AcDbLine
 10
6.331888388611523
 20
-5.545687700421136
 30
0.0
 11
6.332708024236672
 21
-5.617818553750466
 31
0.0
  0
LWPOLYLINE
  5
8A
330
79
100
AcDbEntity
  8
Camada 1
 62
   250
420
  1907995
370
    15
100
AcDbPolyline
 90
        3
 70
     0
 43
0.0
 10
6.367953815276477
 20
-3.976021587977191
 10
6.367953815276477
 20
-4.074381823566779
 10
6.367953815276477
 20
-4.189135605465199
  0
LINE
  5
8B
330
79
100
AcDbEntity
  8
Camada 1
 62
   250
420
  1907995
370
    15
100
AcDbLine
 10
6.367953815276477
 20
-4.644871565202291
 30
0.0
 11
6.367953815276477
 21
-5.241590480646139
 31
0.0
  0
LWPOLYLINE
  5
8C
330
79
100
AcDbEntity
  8
Camada 1
 62
   250
420
  1907995
370
    15
100
AcDbPolyline
 90
        3
 70
     0
 43
0.0
 10
6.367953815276477
 20
-5.685851124728719
 10
6.367953815276477
 20
-5.823555433709544
 10
6.367953815276477
 20
-5.921096033674401
  0
LINE
  5
8D
330
79
100
AcDbEntity
  8
Camada 1
 62
   250
420
  1907995
370
    15
100
AcDbLine
 10
6.331888388611523
 20
-5.516179567208169
 30
0.0
 11
6.331888388611523
 21
-5.545687700421136
 31
0.0
  0
LINE
  5
8E
330
79
100
AcDbEntity
  8
Camada 1
 62
   250
420
  1907995
370
    15
100
AcDbLine
 10
7.226966866003271
 20
-4.58913404972942
 30
0.0
 11
7.373687583762907
 21
-4.58913404972942
 31
0.0
  0
LINE
  5
8F
330
79
100
AcDbEntity
  8
Camada 1
 62
   250
420
  1907995
370
    15
100
AcDbLine
 10
7.692538765918345
 20
-4.621920725441633
 30
0.0
 11
7.57368680589521
 21
-4.621920725441633
 31
0.0
  0
LINE
  5
90
330
79
100
AcDbEntity
  8
Camada 1
 62
   250
420
  1907995
370
    15
100
AcDbLine
 10
7.499916681315903
 20
-4.621920725441633
 30
0.0
 11
7.373687583762907
 21
-4.621920725441633
 31
0.0
  0
LINE
  5
91
330
79
100
AcDbEntity
  8
Camada 1
 62
   250
420
  1907995
370
    15
100
AcDbLine
 10
7.199917743891663
 20
-4.171922423531764
 30
0.0
 11
7.226966866003271
 21
-4.237495983409107
 31
0.0
  0
LWPOLYLINE
  5
92
330
79
100
AcDbEntity
  8
Camada 1
 62
   250
420
  1907995
370
    15
100
AcDbPolyline
 90
        3
 70
     0
 43
0.0
 10
6.523690837589202
 20
-3.81208779250981
 10
6.540084175445213
 20
-3.828481130366013
 10
6.540084175445213
 20
-3.976021587977191
  0
LWPOLYLINE
  5
93
330
79
100
AcDbEntity
  8
Camada 1
 62
   250
420
  1907995
370
    15
100
AcDbPolyline
 90
        3
 70
     0
 43
0.0
 10
6.572871059610343
 20
-5.921096033674401
 10
6.572871059610343
 20
-6.052243153429087
 10
6.556477721754204
 20
-6.068636491285162
  0
LINE
  5
94
330
79
100
AcDbEntity
  8
Camada 1
 62
   250
420
  1907995
370
    15
100
AcDbLine
 10
7.417949679355674
 20
-5.128476178449714
 30
0.0
 11
7.409753010427989
 21
-5.120279405295603
 31
0.0
  0
LINE
  5
95
330
79
100
AcDbEntity
  8
Camada 1
 62
   250
420
  1907995
370
    15
100
AcDbLine
 10
6.662215094873878
 20
-3.894054690243292
 30
0.0
 11
6.662215094873878
 21
-6.003062931407884
 31
0.0
  0
LINE
  5
96
330
79
100
AcDbEntity
  8
Camada 1
 62
   250
420
  1907995
370
    15
100
AcDbLine
 10
7.199917743891663
 20
-5.062902618572435
 30
0.0
 11
7.228606241479353
 21
-5.120279405295603
 31
0.0
  0
LINE
  5
97
330
79
100
AcDbEntity
  8
Camada 1
 62
   250
420
  1907995
370
    15
100
AcDbLine
 10
6.834345455042613
 20
-3.894054690243292
 30
0.0
 11
6.834345455042613
 21
-6.003062931407884
 31
0.0
  0
LINE
  5
98
330
79
100
AcDbEntity
  8
Camada 1
 62
   250
420
  1907995
370
    15
100
AcDbLine
 10
6.063036855650162
 20
-5.793227769098048
 30
0.0
 11
6.058938677525575
 21
-5.79732605144887
 31
0.0
  0
LINE
  5
99
330
79
100
AcDbEntity
  8
Camada 1
 62
   250
420
  1907995
370
    15
100
AcDbLine
 10
7.896636426740468
 20
-5.11290247621866
 30
0.0
 11
7.607293325684975
 21
-5.11290247621866
 31
0.0
  0
LINE
  5
9A
330
79
100
AcDbEntity
  8
Camada 1
 62
   250
420
  1907995
370
    15
100
AcDbLine
 10
7.228606241479353
 20
-5.120279405295603
 30
0.0
 11
7.409753010427989
 21
-5.120279405295603
 31
0.0
  0
LINE
  5
9B
330
79
100
AcDbEntity
  8
Camada 1
 62
   250
420
  1907995
370
    15
100
AcDbLine
 10
7.069590468214337
 20
-3.502253019133759
 30
0.0
 11
7.069590468214337
 21
-6.444864564389554
 31
0.0
  0
LINE
  5
9C
330
79
100
AcDbEntity
  8
Camada 1
 62
   250
420
  1907995
370
    15
100
AcDbLine
 10
7.199917743891663
 20
-4.662904174308663
 30
0.0
 11
7.226966866003271
 21
-4.597330614430902
 31
0.0
  0
LINE
  5
9D
330
79
100
AcDbEntity
  8
Camada 1
 62
   250
420
  1907995
370
    15
100
AcDbLine
 10
7.199917743891663
 20
-3.534220059221401
 30
0.0
 11
7.199917743891663
 21
-6.41207778445085
 31
0.0
  0
LINE
  5
9E
330
79
100
AcDbEntity
  8
Camada 1
 62
   250
420
  1907995
370
    15
100
AcDbLine
 10
7.226966866003271
 20
-4.597330614430902
 30
0.0
 11
7.226966866003271
 21
-4.237495983409107
 31
0.0
  0
LINE
  5
9F
330
79
100
AcDbEntity
  8
Camada 1
 62
   250
420
  1907995
370
    15
100
AcDbLine
 10
6.364675064324313
 20
-5.484212527120591
 30
0.0
 11
6.458117277711923
 21
-5.484212527120591
 31
0.0
  0
LINE
  5
A0
330
79
100
AcDbEntity
  8
Camada 1
 62
   250
420
  1907995
370
    15
100
AcDbLine
 10
6.441723939855656
 20
-5.545687700421136
 30
0.0
 11
6.364675064324313
 21
-5.545687700421136
 31
0.0
  0
LINE
  5
A1
330
79
100
AcDbEntity
  8
Camada 1
 62
   250
420
  1907995
370
    15
100
AcDbLine
 10
7.373687583762907
 20
-4.121103138713052
 30
0.0
 11
7.373687583762907
 21
-4.621920725441633
 31
0.0
  0
LINE
  5
A2
330
79
100
AcDbEntity
  8
Camada 1
 62
   250
420
  1907995
370
    15
100
AcDbLine
 10
7.417949679355674
 20
-5.128476178449714
 30
0.0
 11
7.417949679355674
 21
-5.79896542692508
 31
0.0
  0
LINE
  5
A3
330
79
100
AcDbEntity
  8
Camada 1
 62
   250
420
  1907995
370
    15
100
AcDbLine
 10
7.452375834771101
 20
-5.816178400406174
 30
0.0
 11
7.452375834771101
 21
-5.453065122658097
 31
0.0
  0
LINE
  5
A4
330
79
100
AcDbEntity
  8
Camada 1
 62
   250
420
  1907995
370
    15
100
AcDbLine
 10
7.607293325684975
 20
-5.816178400406174
 30
0.0
 11
7.607293325684975
 21
-5.821096422608314
 31
0.0
  0
LINE
  5
A5
330
79
100
AcDbEntity
  8
Camada 1
 62
   250
420
  1907995
370
    15
100
AcDbLine
 10
7.454834845871561
 20
-5.439130691676827
 30
0.0
 11
7.607293325684975
 21
-5.11290247621866
 31
0.0
  0
LWPOLYLINE
  5
A6
330
79
100
AcDbEntity
  8
Camada 1
 62
   250
420
  1907995
370
    15
100
AcDbPolyline
 90
        3
 70
     0
 43
0.0
 10
7.199917743891663
 20
-5.864538882575932
 10
7.228606241479353
 20
-5.807162095852828
 10
7.409753010427989
 20
-5.807162095852828
  0
LINE
  5
A7
330
79
100
AcDbEntity
  8
Camada 1
 62
   250
420
  1907995
370
    15
100
AcDbLine
 10
7.452375834771101
 20
-5.816178400406174
 30
0.0
 11
7.794997440198234
 21
-5.816178400406174
 31
0.0
  0
LINE
  5
A8
330
79
100
AcDbEntity
  8
Camada 1
 62
   250
420
  1907995
370
    15
100
AcDbLine
 10
7.700735539072456
 20
-4.613724160739765
 30
0.0
 11
7.700735539072456
 21
-4.129299703415079
 31
0.0
  0
LINE
  5
A9
330
79
100
AcDbEntity
  8
Camada 1
 62
   250
420
  1907995
370
    15
100
AcDbLine
 10
6.367953815276477
 20
-5.921096033674401
 30
0.0
 11
6.662215094873878
 21
-5.921096033674401
 31
0.0
  0
LINE
  5
AA
330
79
100
AcDbEntity
  8
Camada 1
 62
   250
420
  1907995
370
    15
100
AcDbLine
 10
6.834345455042613
 20
-5.978472924623418
 30
0.0
 11
7.069590468214337
 21
-5.978472924623418
 31
0.0
  0
LINE
  5
AB
330
79
100
AcDbEntity
  8
Camada 1
 62
   250
420
  1907995
370
    15
100
AcDbLine
 10
6.662215094873878
 20
-6.003062931407884
 30
0.0
 11
6.834345455042613
 21
-6.003062931407884
 31
0.0
  0
LINE
  5
AC
330
79
100
AcDbEntity
  8
Camada 1
 62
   250
420
  1907995
370
    15
100
AcDbLine
 10
7.754833679069759
 20
-5.816178400406174
 30
0.0
 11
7.754833679069759
 21
-5.821096422608314
 31
0.0
  0
LINE
  5
AD
330
79
100
AcDbEntity
  8
Camada 1
 62
   250
420
  1907995
370
    15
100
AcDbLine
 10
7.827784220137323
 20
-5.701424826960094
 30
0.0
 11
7.827784220137323
 21
-6.743224048168117
 31
0.0
  0
LINE
  5
AE
330
79
100
AcDbEntity
  8
Camada 1
 62
   250
420
  1907995
370
    15
100
AcDbLine
 10
7.417949679355674
 20
-5.79896542692508
 30
0.0
 11
7.409753010427989
 21
-5.807162095852828
 31
0.0
  0
LINE
  5
AF
330
79
100
AcDbEntity
  8
Camada 1
 62
   250
420
  1907995
370
    15
100
AcDbLine
 10
6.556477721754204
 20
-6.068636491285162
 30
0.0
 11
6.065495970977691
 21
-6.068636491285162
 31
0.0
  0
LINE
  5
B0
330
79
100
AcDbEntity
  8
Camada 1
 62
   250
420
  1907995
370
    15
100
AcDbLine
 10
7.901554396829522
 20
-5.117820498420671
 30
0.0
 11
7.901554396829522
 21
-6.743224048168117
 31
0.0
  0
LINE
  5
B1
330
79
100
AcDbEntity
  8
Camada 1
 62
   250
420
  1907995
370
    15
100
AcDbLine
 10
7.069590468214337
 20
-6.444864564389554
 30
0.0
 11
7.167950703803893
 21
-6.444864564389554
 31
0.0
  0
LINE
  5
B2
330
79
100
AcDbEntity
  8
Camada 1
 62
   250
420
  1907995
370
    15
100
AcDbLine
 10
7.832702242339399
 20
-6.748142070370128
 30
0.0
 11
7.896636426740468
 21
-6.748142070370128
 31
0.0
  0
SPLINE
  5
B3
330
79
100
AcDbEntity
  8
Camada 1
 62
   250
420
  1907995
370
    15
100
AcDbSpline
210
0.0
220
0.0
230
1.0
 70
     8
 71
     3
 72
     8
 73
     4
 74
     0
 42
0.0000000001
 43
0.0000000001
 40
0.0
 40
0.0
 40
0.0
 40
0.0
 40
1.0
 40
1.0
 40
1.0
 40
1.0
 10
6.10103213648967
 20
-5.339508588270016
 30
0.0
 10
6.065262920970478
 20
-5.399932013975011
 30
0.0
 10
6.057375908380108
 20
-5.472872705656895
 30
0.0
 10
6.079401427047523
 20
-5.539545540322987
 30
0.0
  0
SPLINE
  5
B4
330
79
100
AcDbEntity
  8
Camada 1
 62
   250
420
  1907995
370
    15
100
AcDbSpline
210
0.0
220
0.0
230
1.0
 70
     8
 71
     3
 72
    11
 73
     7
 74
     0
 42
0.0000000001
 43
0.0000000001
 40
0.0
 40
0.0
 40
0.0
 40
0.0
 40
1.0
 40
1.0
 40
1.0
 40
2.0
 40
2.0
 40
2.0
 40
2.0
 10
6.367427680912957
 20
-4.644681247978246
 30
0.0
 10
6.469165057082485
 20
-4.615484334497867
 30
0.0
 10
6.539264539820705
 20
-4.522437764145879
 30
0.0
 10
6.539264539820705
 20
-4.416593663295065
 30
0.0
 10
6.539264539820705
 20
-4.310749562444701
 30
0.0
 10
6.469165057082485
 20
-4.21770320054502
 30
0.0
 10
6.367427680912957
 20
-4.188506287064609
 30
0.0
  0
SPLINE
  5
B5
330
79
100
AcDbEntity
  8
Camada 1
 62
   250
420
  1907995
370
    15
100
AcDbSpline
210
0.0
220
0.0
230
1.0
 70
     9
 71
     3
 72
    17
 73
    13
 74
     0
 42
0.0000000001
 43
0.0000000001
 40
0.0
 40
0.0
 40
0.0
 40
0.0
 40
1.0
 40
1.0
 40
1.0
 40
2.0
 40
2.0
 40
2.0
 40
3.0
 40
3.0
 40
3.0
 40
4.0
 40
4.0
 40
4.0
 40
4.0
 10
6.310167210740991
 20
-5.233393915944239
 30
0.0
 10
6.183187475373959
 20
-5.233393915944239
 30
0.0
 10
6.080250037584174
 20
-5.336331145281878
 30
0.0
 10
6.080250037584174
 20
-5.463310984874823
 30
0.0
 10
6.080250037584174
 20
-5.590290720241854
 30
0.0
 10
6.183187475373959
 20
-5.693228158032217
 30
0.0
 10
6.310167210740991
 20
-5.693228158032217
 30
0.0
 10
6.437146737655426
 20
-5.693228158032217
 30
0.0
 10
6.540084175445213
 20
-5.590290720241854
 30
0.0
 10
6.540084175445213
 20
-5.463310984874823
 30
0.0
 10
6.540084175445213
 20
-5.336331145281878
 30
0.0
 10
6.437146737655426
 20
-5.233393915944239
 30
0.0
 10
6.310167210740991
 20
-5.233393915944239
 30
0.0
  0
SPLINE
  5
B6
330
79
100
AcDbEntity
  8
Camada 1
 62
   250
420
  1907995
370
    15
100
AcDbSpline
210
0.0
220
0.0
230
1.0
 70
     9
 71
     3
 72
    17
 73
    13
 74
     0
 42
0.0000000001
 43
0.0000000001
 40
0.0
 40
0.0
 40
0.0
 40
0.0
 40
1.0
 40
1.0
 40
1.0
 40
2.0
 40
2.0
 40
2.0
 40
3.0
 40
3.0
 40
3.0
 40
4.0
 40
4.0
 40
4.0
 40
4.0
 10
6.310167210740991
 20
-5.258803454126913
 30
0.0
 10
6.197220712888038
 20
-5.258803454126913
 30
0.0
 10
6.1056597842197
 20
-5.350364695474786
 30
0.0
 10
6.1056597842197
 20
-5.463310984874823
 30
0.0
 10
6.1056597842197
 20
-5.576257274275115
 30
0.0
 10
6.197220712888038
 20
-5.66781841139637
 30
0.0
 10
6.310167210740991
 20
-5.66781841139637
 30
0.0
 10
6.423113500141348
 20
-5.66781841139637
 30
0.0
 10
6.514674637262539
 20
-5.576257274275115
 30
0.0
 10
6.514674637262539
 20
-5.463310984874823
 30
0.0
 10
6.514674637262539
 20
-5.350364695474786
 30
0.0
 10
6.423113500141348
 20
-5.258803454126913
 30
0.0
 10
6.310167210740991
 20
-5.258803454126913
 30
0.0
  0
SPLINE
  5
B7
330
79
100
AcDbEntity
  8
Camada 1
 62
   250
420
  1907995
370
    15
100
AcDbSpline
210
0.0
220
0.0
230
1.0
 70
    11
 71
     3
 72
    17
 73
    13
 74
     0
 42
0.0000000001
 43
0.0000000001
 40
0.0
 40
0.0
 40
0.0
 40
0.0
 40
1.0
 40
1.0
 40
1.0
 40
2.0
 40
2.0
 40
2.0
 40
3.0
 40
3.0
 40
3.0
 40
4.0
 40
4.0
 40
4.0
 40
4.0
 10
6.310167210740991
 20
-5.291590338291914
 30
0.0
 10
6.215328573383214
 20
-5.291590338291914
 30
0.0
 10
6.13844645993185
 20
-5.368472347516853
 30
0.0
 10
6.13844645993185
 20
-5.463310984874823
 30
0.0
 10
6.13844645993185
 20
-5.558149622232728
 30
0.0
 10
6.215328573383214
 20
-5.635031631457602
 30
0.0
 10
6.310167210740991
 20
-5.635031631457602
 30
0.0
 10
6.405005848099025
 20
-5.635031631457602
 30
0.0
 10
6.481887753097666
 20
-5.558149622232728
 30
0.0
 10
6.481887753097666
 20
-5.463310984874823
 30
0.0
 10
6.481887753097666
 20
-5.368472347516853
 30
0.0
 10
6.405005848099025
 20
-5.291590338291914
 30
0.0
 10
6.310167210740991
 20
-5.291590338291914
 30
0.0
  0
SPLINE
  5
B8
330
79
100
AcDbEntity
  8
Camada 1
 62
   250
420
  1907995
370
    15
100
AcDbSpline
210
0.0
220
0.0
230
1.0
 70
     9
 71
     3
 72
    17
 73
    13
 74
     0
 42
0.0000000001
 43
0.0000000001
 40
0.0
 40
0.0
 40
0.0
 40
0.0
 40
1.0
 40
1.0
 40
1.0
 40
2.0
 40
2.0
 40
2.0
 40
3.0
 40
3.0
 40
3.0
 40
4.0
 40
4.0
 40
4.0
 40
4.0
 10
6.310167210740991
 20
-5.307983676148053
 30
0.0
 10
6.224382295178077
 20
-5.307983676148053
 30
0.0
 10
6.154839797788116
 20
-5.377526069311716
 30
0.0
 10
6.154839797788116
 20
-5.463310984874823
 30
0.0
 10
6.154839797788116
 20
-5.549095796212016
 30
0.0
 10
6.224382295178077
 20
-5.618638189375166
 30
0.0
 10
6.310167210740991
 20
-5.618638189375166
 30
0.0
 10
6.395951917851566
 20
-5.618638189375166
 30
0.0
 10
6.465494415241527
 20
-5.549095796212016
 30
0.0
 10
6.465494415241527
 20
-5.463310984874823
 30
0.0
 10
6.465494415241527
 20
-5.377526069311716
 30
0.0
 10
6.395951917851566
 20
-5.307983676148053
 30
0.0
 10
6.310167210740991
 20
-5.307983676148053
 30
0.0
  0
SPLINE
  5
B9
330
79
100
AcDbEntity
  8
Camada 1
 62
   250
420
  1907995
370
    15
100
AcDbSpline
210
0.0
220
0.0
230
1.0
 70
     8
 71
     3
 72
     8
 73
     4
 74
     0
 42
0.0000000001
 43
0.0000000001
 40
0.0
 40
0.0
 40
0.0
 40
0.0
 40
1.0
 40
1.0
 40
1.0
 40
1.0
 10
6.081889308833829
 20
-5.549341144922784
 30
0.0
 10
6.081885556687099
 20
-5.545824341100589
 30
0.0
 10
6.081322943118616
 20
-5.542330467064543
 30
0.0
 10
6.08022273029344
 20
-5.53899022259524
 30
0.0
  0
SPLINE
  5
BA
330
79
100
AcDbEntity
  8
Camada 1
 62
   250
420
  1907995
370
    15
100
AcDbSpline
210
0.0
220
0.0
230
1.0
 70
     8
 71
     3
 72
     8
 73
     4
 74
     0
 42
0.0000000001
 43
0.0000000001
 40
0.0
 40
0.0
 40
0.0
 40
0.0
 40
1.0
 40
1.0
 40
1.0
 40
1.0
 10
6.101143867083629
 20
-5.339640642992419
 30
0.0
 10
6.104100558768239
 20
-5.334646014459728
 30
0.0
 10
6.105660409577231
 20
-5.328948587984647
 30
0.0
 10
6.1056597842197
 20
-5.323144433778169
 30
0.0
  0
SPLINE
  5
BB
330
79
100
AcDbEntity
  8
Camada 1
 62
   250
420
  1907995
370
    15
100
AcDbSpline
210
0.0
220
0.0
230
1.0
 70
     8
 71
     3
 72
     8
 73
     4
 74
     0
 42
0.0000000001
 43
0.0000000001
 40
0.0
 40
0.0
 40
0.0
 40
0.0
 40
1.0
 40
1.0
 40
1.0
 40
1.0
 10
6.065192672443917
 20
-4.135333780840085
 30
0.0
 10
6.05522968040616
 20
-4.141132723731532
 30
0.0
 10
6.049101382405718
 20
-4.151791322097016
 30
0.0
 10
6.04910263312168
 20
-4.163319167806522
 30
0.0
  0
SPLINE
  5
BC
330
79
100
AcDbEntity
  8
Camada 1
 62
   250
420
  1907995
370
    15
100
AcDbSpline
210
0.0
220
0.0
230
1.0
 70
     8
 71
     3
 72
     8
 73
     4
 74
     0
 42
0.0000000001
 43
0.0000000001
 40
0.0
 40
0.0
 40
0.0
 40
0.0
 40
1.0
 40
1.0
 40
1.0
 40
1.0
 10
6.04910263312168
 20
-4.670678622494335
 30
0.0
 10
6.049096379543412
 20
-4.686958770588374
 30
0.0
 10
6.061179959885664
 20
-4.700711430902329
 30
0.0
 10
6.077325239147027
 20
-4.702800542864073
 30
0.0
  0
SPLINE
  5
BD
330
79
100
AcDbEntity
  8
Camada 1
 62
   250
420
  1907995
370
    15
100
AcDbSpline
210
0.0
220
0.0
230
1.0
 70
     8
 71
     3
 72
     8
 73
     4
 74
     0
 42
0.0000000001
 43
0.0000000001
 40
0.0
 40
0.0
 40
0.0
 40
0.0
 40
1.0
 40
1.0
 40
1.0
 40
1.0
 10
6.1056597842197
 20
-4.735438800325088
 30
0.0
 10
6.105656448977777
 20
-4.719124466004035
 30
0.0
 10
6.093515544170565
 20
-4.705360757702421
 30
0.0
 10
6.077329408199206
 20
-4.703321882817562
 30
0.0
  0
SPLINE
  5
BE
330
79
100
AcDbEntity
  8
Camada 1
 62
   250
420
  1907995
370
    15
100
AcDbSpline
210
0.0
220
0.0
230
1.0
 70
     8
 71
     3
 72
     8
 73
     4
 74
     0
 42
0.0000000001
 43
0.0000000001
 40
0.0
 40
0.0
 40
0.0
 40
0.0
 40
1.0
 40
1.0
 40
1.0
 40
1.0
 10
6.064882911879663
 20
-4.134797015394034
 30
0.0
 10
6.074899476235906
 20
-4.129013081089701
 30
0.0
 10
6.081069673208809
 20
-4.118325299359957
 30
0.0
 10
6.081069673208809
 20
-4.106758889919463
 30
0.0
  0
SPLINE
  5
BF
330
79
100
AcDbEntity
  8
Camada 1
 62
   250
420
  1907995
370
    15
100
AcDbSpline
210
0.0
220
0.0
230
1.0
 70
     8
 71
     3
 72
     8
 73
     4
 74
     0
 42
0.0000000001
 43
0.0000000001
 40
0.0
 40
0.0
 40
0.0
 40
0.0
 40
1.0
 40
1.0
 40
1.0
 40
1.0
 10
6.364265246511997
 20
-5.484212527120591
 30
0.0
 10
6.34660409993955
 20
-5.484212527120591
 30
0.0
 10
6.332201484417572
 20
-5.49836614601156
 30
0.0
 10
6.331893391474215
 20
-5.516024478473317
 30
0.0
  0
SPLINE
  5
C0
330
79
100
AcDbEntity
  8
Camada 1
 62
   250
420
  1907995
370
    15
100
AcDbSpline
210
0.0
220
0.0
230
1.0
 70
     8
 71
     3
 72
     8
 73
     4
 74
     0
 42
0.0000000001
 43
0.0000000001
 40
0.0
 40
0.0
 40
0.0
 40
0.0
 40
1.0
 40
1.0
 40
1.0
 40
1.0
 10
7.621648726693034
 20
-5.837620251792191
 30
0.0
 10
7.66087335674358
 20
-5.841817966033609
 30
0.0
 10
7.700433908160093
 20
-5.841817966033609
 30
0.0
 10
7.739658538210639
 20
-5.837620251792191
 30
0.0
  0
SPLINE
  5
C1
330
79
100
AcDbEntity
  8
Camada 1
 62
   250
420
  1907995
370
    15
100
AcDbSpline
210
0.0
220
0.0
230
1.0
 70
     8
 71
     3
 72
     8
 73
     4
 74
     0
 42
0.0000000001
 43
0.0000000001
 40
0.0
 40
0.0
 40
0.0
 40
0.0
 40
1.0
 40
1.0
 40
1.0
 40
1.0
 10
7.570432860802498
 20
-5.191368829432956
 30
0.0
 10
7.522967891003712
 20
-5.16775010754027
 30
0.0
 10
7.470467227510413
 20
-5.156039865805757
 30
0.0
 10
7.417464401701892
 20
-5.157249724698354
 30
0.0
  0
SPLINE
  5
C2
330
79
100
AcDbEntity
  8
Camada 1
 62
   250
420
  1907995
370
    15
100
AcDbSpline
210
0.0
220
0.0
230
1.0
 70
     8
 71
     3
 72
     8
 73
     4
 74
     0
 42
0.0000000001
 43
0.0000000001
 40
0.0
 40
0.0
 40
0.0
 40
0.0
 40
1.0
 40
1.0
 40
1.0
 40
1.0
 10
7.417464401701892
 20
-5.769372245051227
 30
0.0
 10
7.428915224175397
 20
-5.769633644612218
 30
0.0
 10
7.440371987548277
 20
-5.769292407705179
 30
0.0
 10
7.451786956174479
 20
-5.76835030617782
 30
0.0
  0
SPLINE
  5
C3
330
79
100
AcDbEntity
  8
Camada 1
 62
   250
420
  1907995
370
    15
100
AcDbSpline
210
0.0
220
0.0
230
1.0
 70
     8
 71
     3
 72
     8
 73
     4
 74
     0
 42
0.0000000001
 43
0.0000000001
 40
0.0
 40
0.0
 40
0.0
 40
0.0
 40
1.0
 40
1.0
 40
1.0
 40
1.0
 10
7.199917743891663
 20
-3.533807323072705
 30
0.0
 10
7.199916076270895
 20
-3.515927092817564
 30
0.0
 10
7.185420907794056
 20
-3.501433383509156
 30
0.0
 10
7.167540885991703
 20
-3.501433383509156
 30
0.0
  0
SPLINE
  5
C4
330
79
100
AcDbEntity
  8
Camada 1
 62
   250
420
  1907995
370
    15
100
AcDbSpline
210
0.0
220
0.0
230
1.0
 70
     8
 71
     3
 72
     8
 73
     4
 74
     0
 42
0.0000000001
 43
0.0000000001
 40
0.0
 40
0.0
 40
0.0
 40
0.0
 40
1.0
 40
1.0
 40
1.0
 40
1.0
 10
7.45458949716092
 20
-5.438972580379203
 30
0.0
 10
7.452591583212066
 20
-5.443257323581619
 30
0.0
 10
7.451556199145953
 20
-5.44792759986775
 30
0.0
 10
7.451556199145953
 20
-5.452655304845715
 30
0.0
  0
SPLINE
  5
C5
330
79
100
AcDbEntity
  8
Camada 1
 62
   250
420
  1907995
370
    15
100
AcDbSpline
210
0.0
220
0.0
230
1.0
 70
     8
 71
     3
 72
     8
 73
     4
 74
     0
 42
0.0000000001
 43
0.0000000001
 40
0.0
 40
0.0
 40
0.0
 40
0.0
 40
1.0
 40
1.0
 40
1.0
 40
1.0
 10
7.692128948105899
 20
-4.621101089816645
 30
0.0
 10
7.696429533705428
 20
-4.621101089816645
 30
0.0
 10
7.699915851334415
 20
-4.617614928526848
 30
0.0
 10
7.699915851334415
 20
-4.613314342927416
 30
0.0
  0
SPLINE
  5
C6
330
79
100
AcDbEntity
  8
Camada 1
 62
   250
420
  1907995
370
    15
100
AcDbSpline
210
0.0
220
0.0
230
1.0
 70
     8
 71
     3
 72
     8
 73
     4
 74
     0
 42
0.0000000001
 43
0.0000000001
 40
0.0
 40
0.0
 40
0.0
 40
0.0
 40
1.0
 40
1.0
 40
1.0
 40
1.0
 10
7.699915851334415
 20
-4.128889051792249
 30
0.0
 10
7.699915434429479
 20
-4.124588883097784
 30
0.0
 10
7.696429273139811
 20
-4.121103138713052
 30
0.0
 10
7.692128948105899
 20
-4.121103138713052
 30
0.0
  0
SPLINE
  5
C7
330
79
100
AcDbEntity
  8
Camada 1
 62
   250
420
  1907995
370
    15
100
AcDbSpline
210
0.0
220
0.0
230
1.0
 70
     8
 71
     3
 72
     8
 73
     4
 74
     0
 42
0.0000000001
 43
0.0000000001
 40
0.0
 40
0.0
 40
0.0
 40
0.0
 40
1.0
 40
1.0
 40
1.0
 40
1.0
 10
7.900734761204888
 20
-5.11741026370284
 30
0.0
 10
7.900734500638629
 20
-5.114920714295958
 30
0.0
 10
7.898716210448375
 20
-5.11290247621866
 30
0.0
 10
7.896226556814744
 20
-5.11290247621866
 30
0.0
  0
SPLINE
  5
C8
330
79
100
AcDbEntity
  8
Camada 1
 62
   250
420
  1907995
370
    15
100
AcDbSpline
210
0.0
220
0.0
230
1.0
 70
     8
 71
     3
 72
     8
 73
     4
 74
     0
 42
0.0000000001
 43
0.0000000001
 40
0.0
 40
0.0
 40
0.0
 40
0.0
 40
1.0
 40
1.0
 40
1.0
 40
1.0
 10
6.061983753112865
 20
-5.792994093733047
 30
0.0
 10
6.074204078360997
 20
-5.780773455806085
 30
0.0
 10
6.081069673208809
 20
-5.76419886841364
 30
0.0
 10
6.081069673208809
 20
-5.746916375990456
 30
0.0
  0
SPLINE
  5
C9
330
79
100
AcDbEntity
  8
Camada 1
 62
   250
420
  1907995
370
    15
100
AcDbSpline
210
0.0
220
0.0
230
1.0
 70
     8
 71
     3
 72
     8
 73
     4
 74
     0
 42
0.0000000001
 43
0.0000000001
 40
0.0
 40
0.0
 40
0.0
 40
0.0
 40
1.0
 40
1.0
 40
1.0
 40
1.0
 10
6.058585558820301
 20
-5.796973036970086
 30
0.0
 10
6.05251375147482
 20
-5.80304484431576
 30
0.0
 10
6.04910263312168
 20
-5.811280076975074
 30
0.0
 10
6.04910263312168
 20
-5.819866969170848
 30
0.0
  0
SPLINE
  5
CA
330
79
100
AcDbEntity
  8
Camada 1
 62
   250
420
  1907995
370
    15
100
AcDbSpline
210
0.0
220
0.0
230
1.0
 70
     8
 71
     3
 72
     8
 73
     4
 74
     0
 42
0.0000000001
 43
0.0000000001
 40
0.0
 40
0.0
 40
0.0
 40
0.0
 40
1.0
 40
1.0
 40
1.0
 40
1.0
 10
7.167540885991703
 20
-6.444044876651513
 30
0.0
 10
7.18542215850989
 20
-6.444044876651513
 30
0.0
 10
7.199917743891663
 20
-6.429549239156975
 30
0.0
 10
7.199917743891663
 20
-6.411667966638533
 30
0.0
  0
SPLINE
  5
CB
330
79
100
AcDbEntity
  8
Camada 1
 62
   250
420
  1907995
370
    15
100
AcDbSpline
210
0.0
220
0.0
230
1.0
 70
     8
 71
     3
 72
     8
 73
     4
 74
     0
 42
0.0000000001
 43
0.0000000001
 40
0.0
 40
0.0
 40
0.0
 40
0.0
 40
1.0
 40
1.0
 40
1.0
 40
1.0
 10
7.826964532398897
 20
-5.848552235743555
 30
0.0
 10
7.826962864778385
 20
-5.830672213940689
 30
0.0
 10
7.812467696301675
 20
-5.816178400406174
 30
0.0
 10
7.794587622386045
 20
-5.816178400406174
 30
0.0
  0
SPLINE
  5
CC
330
79
100
AcDbEntity
  8
Camada 1
 62
   250
420
  1907995
370
    15
100
AcDbSpline
210
0.0
220
0.0
230
1.0
 70
     8
 71
     3
 72
     8
 73
     4
 74
     0
 42
0.0000000001
 43
0.0000000001
 40
0.0
 40
0.0
 40
0.0
 40
0.0
 40
1.0
 40
1.0
 40
1.0
 40
1.0
 10
7.739731288168098
 20
-5.836579447958323
 30
0.0
 10
7.747853956423131
 20
-5.835710096388293
 30
0.0
 10
7.754013991331718
 20
-5.828855653754438
 30
0.0
 10
7.754013991331718
 20
-5.820686604795996
 30
0.0
  0
SPLINE
  5
CD
330
79
100
AcDbEntity
  8
Camada 1
 62
   250
420
  1907995
370
    15
100
AcDbSpline
210
0.0
220
0.0
230
1.0
 70
     8
 71
     3
 72
     8
 73
     4
 74
     0
 42
0.0000000001
 43
0.0000000001
 40
0.0
 40
0.0
 40
0.0
 40
0.0
 40
1.0
 40
1.0
 40
1.0
 40
1.0
 10
7.607293325684975
 20
-5.820686604795996
 30
0.0
 10
7.607293325684975
 20
-5.828855653754438
 30
0.0
 10
7.613453308480541
 20
-5.835710096388293
 30
0.0
 10
7.621575976735447
 20
-5.836579447958323
 30
0.0
  0
SPLINE
  5
CE
330
79
100
AcDbEntity
  8
Camada 1
 62
   250
420
  1907995
370
    15
100
AcDbSpline
210
0.0
220
0.0
230
1.0
 70
     8
 71
     3
 72
     8
 73
     4
 74
     0
 42
0.0000000001
 43
0.0000000001
 40
0.0
 40
0.0
 40
0.0
 40
0.0
 40
1.0
 40
1.0
 40
1.0
 40
1.0
 10
7.896226556814744
 20
-6.747322382632151
 30
0.0
 10
7.898716366787565
 20
-6.747322382632151
 30
0.0
 10
7.900734761204888
 20
-6.745304014271724
 30
0.0
 10
7.900734761204888
 20
-6.742814204299224
 30
0.0
  0
SPLINE
  5
CF
330
79
100
AcDbEntity
  8
Camada 1
 62
   250
420
  1907995
370
    15
100
AcDbSpline
210
0.0
220
0.0
230
1.0
 70
     8
 71
     3
 72
     8
 73
     4
 74
     0
 42
0.0000000001
 43
0.0000000001
 40
0.0
 40
0.0
 40
0.0
 40
0.0
 40
1.0
 40
1.0
 40
1.0
 40
1.0
 10
7.827784220137323
 20
-6.742814204299224
 30
0.0
 10
7.827784220137323
 20
-6.745304014271724
 30
0.0
 10
7.829802614554132
 20
-6.747322382632151
 30
0.0
 10
7.832292372413547
 20
-6.747322382632151
 30
0.0
  0
LWPOLYLINE
  5
D0
330
79
100
AcDbEntity
  8
Camada 1
 62
   250
420
  1907995
370
    15
100
AcDbPolyline
 90
        5
 70
     0
 43
0.0
 10
7.499916681315903
 20
-4.621920725441633
 10
7.518769030273272
 20
-4.619461818566861
 10
7.536801743605621
 20
-4.618642182942259
 10
7.555654092562605
 20
-4.619461818566861
 10
7.57368680589521
 20
-4.621920725441633
  0
LWPOLYLINE
  5
D1
330
79
100
AcDbEntity
  8
Camada 1
 62
   250
420
  1907995
370
    15
100
AcDbPolyline
 90
        5
 70
     0
 43
0.0
 10
7.626965310266851
 20
-5.815358764781154
 10
7.654014432378972
 20
-5.812899753679924
 10
7.681063450264153
 20
-5.811260482430204
 10
7.708112520262742
 20
-5.812899753679924
 10
7.735161642374349
 20
-5.815358764781154
  0
LWPOLYLINE
  5
D2
330
79
100
AcDbEntity
  8
Camada 1
 62
   250
420
  1907995
370
    15
100
AcDbPolyline
 90
        9
 70
     0
 43
0.0
 10
7.693358505769278
 20
-5.839129135940406
 10
7.686801108091249
 20
-5.839129135940406
 10
7.681063450264153
 20
-5.838309500315899
 10
7.674506156812551
 20
-5.839129135940406
 10
7.668768498985327
 20
-5.839129135940406
 10
7.674506156812551
 20
-5.839948875792045
 10
7.681063450264153
 20
-5.839948875792045
 10
7.686801108091249
 20
-5.839948875792045
 10
7.693358505769278
 20
-5.839129135940406
  0
LINE
  5
D3
330
79
100
AcDbEntity
  8
Camada 1
 62
   250
420
  1907995
370
    15
100
AcDbLine
 10
6.364675064324313
 20
-5.545687700421136
 30
0.0
 11
6.331888388611523
 21
-5.545687700421136
 31
0.0
  0
LWPOLYLINE
  5
D4
330
79
100
AcDbEntity
  8
Camada 1
 62
   250
420
  1907995
370
    15
100
AcDbPolyline
 90
       18
 70
     0
 43
0.0
 10
6.281068895340599
 20
-5.144869516305917
 10
6.281888530965876
 20
-5.144049880681217
 10
6.281888530965876
 20
-5.142410609431434
 10
6.281888530965876
 20
-5.139131858478757
 10
6.281888530965876
 20
-5.134213836276745
 10
6.281888530965876
 20
-5.128476178449714
 10
6.281888530965876
 20
-5.121918884997983
 10
6.281888530965876
 20
-5.115361591545739
 10
6.281888530965876
 20
-5.107984454016134
 10
6.281888530965876
 20
-5.100607524939384
 10
6.281888530965876
 20
-5.092410751785145
 10
6.281888530965876
 20
-5.085853458333029
 10
6.281888530965876
 20
-5.079295956428445
 10
6.281888530965876
 20
-5.073558298601414
 10
6.281888530965876
 20
-5.06946012047689
 10
6.281888530965876
 20
-5.066181369524598
 10
6.281888530965876
 20
-5.06372225419707
 10
6.281068895340599
 20
-5.062902618572435
  0
LWPOLYLINE
  5
D5
330
79
100
AcDbEntity
  8
Camada 1
 62
   250
420
  1907995
370
    15
100
AcDbPolyline
 90
       18
 70
     0
 43
0.0
 10
6.340084953313808
 20
-5.062902618572435
 10
6.340084953313808
 20
-5.06372225419707
 10
6.340084953313808
 20
-5.066181369524598
 10
6.340084953313808
 20
-5.06946012047689
 10
6.340084953313808
 20
-5.073558298601414
 10
6.340084953313808
 20
-5.079295956428445
 10
6.340084953313808
 20
-5.085853458333029
 10
6.340084953313808
 20
-5.092410751785145
 10
6.340084953313808
 20
-5.100607524939384
 10
6.340084953313808
 20
-5.107984454016134
 10
6.340084953313808
 20
-5.115361591545739
 10
6.340084953313808
 20
-5.121918884997983
 10
6.340084953313808
 20
-5.128476178449714
 10
6.340084953313808
 20
-5.134213836276745
 10
6.340084953313808
 20
-5.139131858478757
 10
6.340084953313808
 20
-5.142410609431434
 10
6.340084953313808
 20
-5.144049880681217
 10
6.340084953313808
 20
-5.144869516305917
  0
LWPOLYLINE
  5
D6
330
79
100
AcDbEntity
  8
Camada 1
 62
   250
420
  1907995
370
    15
100
AcDbPolyline
 90
        3
 70
     0
 43
0.0
 10
6.464674779616379
 20
-5.485032162745803
 10
6.461396028664215
 20
-5.484212527120591
 10
6.458117277711923
 20
-5.484212527120591
  0
LWPOLYLINE
  5
D7
330
79
100
AcDbEntity
  8
Camada 1
 62
   250
420
  1907995
370
    15
100
AcDbPolyline
 90
       34
 70
     0
 43
0.0
 10
6.281068895340599
 20
-5.138312222854121
 10
6.281888530965876
 20
-5.137492587228973
 10
6.281888530965876
 20
-5.135853315979254
 10
6.281888530965876
 20
-5.132574565026962
 10
6.281888530965876
 20
-5.128476178449714
 10
6.281888530965876
 20
-5.123558156247831
 10
6.281888530965876
 20
-5.11864013404537
 10
6.281888530965876
 20
-5.112082840593576
 10
6.281888530965876
 20
-5.105525547141331
 10
6.281888530965876
 20
-5.098968045236875
 10
6.281888530965876
 20
-5.092410751785145
 10
6.281888530965876
 20
-5.086673093958113
 10
6.281888530965876
 20
-5.081755071756102
 10
6.281888530965876
 20
-5.07683704955377
 10
6.281888530965876
 20
-5.073558298601414
 10
6.281888530965876
 20
-5.071099391726674
 10
6.281888530965876
 20
-5.06946012047689
 10
6.281068895340599
 20
-5.06946012047689
 10
6.281068895340599
 20
-5.071099391726674
 10
6.281068895340599
 20
-5.073558298601414
 10
6.281068895340599
 20
-5.07683704955377
 10
6.281068895340599
 20
-5.081755071756102
 10
6.281068895340599
 20
-5.086673093958113
 10
6.281068895340599
 20
-5.092410751785145
 10
6.281068895340599
 20
-5.098968045236875
 10
6.281068895340599
 20
-5.105525547141331
 10
6.281068895340599
 20
-5.112082840593576
 10
6.281068895340599
 20
-5.11864013404537
 10
6.281068895340599
 20
-5.123558156247831
 10
6.281068895340599
 20
-5.128476178449714
 10
6.281068895340599
 20
-5.132574565026962
 10
6.281068895340599
 20
-5.135853315979254
 10
6.281068895340599
 20
-5.137492587228973
 10
6.281068895340599
 20
-5.138312222854121
  0
LWPOLYLINE
  5
D8
330
79
100
AcDbEntity
  8
Camada 1
 62
   250
420
  1907995
370
    15
100
AcDbPolyline
 90
       34
 70
     0
 43
0.0
 10
6.340084953313808
 20
-5.876833938081571
 10
6.340904797390782
 20
-5.875194666831851
 10
6.340904797390782
 20
-5.872735655730749
 10
6.340904797390782
 20
-5.867817633528673
 10
6.340904797390782
 20
-5.862079871475151
 10
6.340904797390782
 20
-5.853883202547017
 10
6.340904797390782
 20
-5.845686533619077
 10
6.341724433015931
 20
-5.835850489214605
 10
6.341724433015931
 20
-5.826014444810197
 10
6.341724433015931
 20
-5.816178400406174
 10
6.341724433015931
 20
-5.806342460228322
 10
6.340904797390782
 20
-5.796506415823849
 10
6.340904797390782
 20
-5.788309746895908
 10
6.340904797390782
 20
-5.781752349217494
 10
6.340904797390782
 20
-5.776014691390335
 10
6.340904797390782
 20
-5.772736044664405
 10
6.340904797390782
 20
-5.770277033563303
 10
6.340084953313808
 20
-5.770277033563303
 10
6.340084953313808
 20
-5.772736044664405
 10
6.340084953313808
 20
-5.776014691390335
 10
6.340084953313808
 20
-5.781752349217494
 10
6.340084953313808
 20
-5.788309746895908
 10
6.339265317688788
 20
-5.796506415823849
 10
6.339265317688788
 20
-5.806342460228322
 10
6.339265317688788
 20
-5.816178400406174
 10
6.339265317688788
 20
-5.826014444810197
 10
6.339265317688788
 20
-5.835850489214605
 10
6.339265317688788
 20
-5.845686533619077
 10
6.340084953313808
 20
-5.853883202547017
 10
6.340084953313808
 20
-5.862079871475151
 10
6.340084953313808
 20
-5.867817633528673
 10
6.340084953313808
 20
-5.872735655730749
 10
6.340084953313808
 20
-5.875194666831851
 10
6.340084953313808
 20
-5.876833938081571
  0
LWPOLYLINE
  5
D9
330
79
100
AcDbEntity
  8
Camada 1
 62
   250
420
  1907995
370
    15
100
AcDbPolyline
 90
       34
 70
     0
 43
0.0
 10
6.281068895340599
 20
-5.876833938081571
 10
6.281888530965876
 20
-5.875194666831851
 10
6.281888530965876
 20
-5.872735655730749
 10
6.281888530965876
 20
-5.867817633528673
 10
6.281888530965876
 20
-5.862079871475151
 10
6.281888530965876
 20
-5.853883202547017
 10
6.282708166590896
 20
-5.845686533619077
 10
6.282708166590896
 20
-5.835850489214605
 10
6.282708166590896
 20
-5.826014444810197
 10
6.282708166590896
 20
-5.816178400406174
 10
6.282708166590896
 20
-5.806342460228322
 10
6.281888530965876
 20
-5.796506415823849
 10
6.281888530965876
 20
-5.788309746895908
 10
6.281888530965876
 20
-5.781752349217494
 10
6.281888530965876
 20
-5.776014691390335
 10
6.281888530965876
 20
-5.772736044664405
 10
6.281888530965876
 20
-5.770277033563303
 10
6.281068895340599
 20
-5.770277033563303
 10
6.281068895340599
 20
-5.772736044664405
 10
6.281068895340599
 20
-5.776014691390335
 10
6.281068895340599
 20
-5.781752349217494
 10
6.281068895340599
 20
-5.788309746895908
 10
6.280249259715963
 20
-5.796506415823849
 10
6.280249259715963
 20
-5.806342460228322
 10
6.280249259715963
 20
-5.816178400406174
 10
6.280249259715963
 20
-5.826014444810197
 10
6.280249259715963
 20
-5.835850489214605
 10
6.280249259715963
 20
-5.845686533619077
 10
6.281068895340599
 20
-5.853883202547017
 10
6.281068895340599
 20
-5.862079871475151
 10
6.281068895340599
 20
-5.867817633528673
 10
6.281068895340599
 20
-5.872735655730749
 10
6.281068895340599
 20
-5.875194666831851
 10
6.281068895340599
 20
-5.876833938081571
  0
LWPOLYLINE
  5
DA
330
79
100
AcDbEntity
  8
Camada 1
 62
   250
420
  1907995
370
    15
100
AcDbPolyline
 90
       34
 70
     0
 43
0.0
 10
6.340084953313808
 20
-5.138312222854121
 10
6.340904797390782
 20
-5.137492587228973
 10
6.340904797390782
 20
-5.135853315979254
 10
6.340904797390782
 20
-5.132574565026962
 10
6.340904797390782
 20
-5.128476178449714
 10
6.340904797390782
 20
-5.123558156247831
 10
6.340904797390782
 20
-5.11864013404537
 10
6.340904797390782
 20
-5.112082840593576
 10
6.340904797390782
 20
-5.105525547141331
 10
6.340904797390782
 20
-5.098968045236875
 10
6.340904797390782
 20
-5.092410751785145
 10
6.340904797390782
 20
-5.086673093958113
 10
6.340904797390782
 20
-5.081755071756102
 10
6.340904797390782
 20
-5.07683704955377
 10
6.340904797390782
 20
-5.073558298601414
 10
6.340904797390782
 20
-5.071099391726674
 10
6.340904797390782
 20
-5.06946012047689
 10
6.340084953313808
 20
-5.06946012047689
 10
6.340084953313808
 20
-5.071099391726674
 10
6.340084953313808
 20
-5.073558298601414
 10
6.340084953313808
 20
-5.07683704955377
 10
6.340084953313808
 20
-5.081755071756102
 10
6.340084953313808
 20
-5.086673093958113
 10
6.340084953313808
 20
-5.092410751785145
 10
6.340084953313808
 20
-5.098968045236875
 10
6.340084953313808
 20
-5.105525547141331
 10
6.340084953313808
 20
-5.112082840593576
 10
6.340084953313808
 20
-5.11864013404537
 10
6.340084953313808
 20
-5.123558156247831
 10
6.340084953313808
 20
-5.128476178449714
 10
6.340084953313808
 20
-5.132574565026962
 10
6.340084953313808
 20
-5.135853315979254
 10
6.340084953313808
 20
-5.137492587228973
 10
6.340084953313808
 20
-5.138312222854121
  0
LINE
  5
DB
330
79
100
AcDbEntity
  8
Camada 1
 62
   250
420
  1907995
370
    15
100
AcDbLine
 10
7.228606241479353
 20
-5.120279405295603
 30
0.0
 11
7.228606241479353
 21
-5.807162095852828
 31
0.0
  0
LWPOLYLINE
  5
DC
330
79
100
AcDbEntity
  8
Camada 1
 62
   250
420
  1907995
370
    15
100
AcDbPolyline
 90
        5
 70
     0
 43
0.0
 10
7.581883579049449
 20
-4.621920725441633
 10
7.581883579049449
 20
-4.635855156423032
 10
7.536801743605621
 20
-4.635855156423032
 10
7.491719908161407
 20
-4.635855156423032
 10
7.491719908161407
 20
-4.621920725441633
  0
LINE
  5
DD
330
79
100
AcDbEntity
  8
Camada 1
 62
   250
420
  1907995
370
    15
100
AcDbLine
 10
6.279429624090943
 20
-5.770277033563303
 30
0.0
 11
6.280249259715963
 21
-5.774375315914253
 31
0.0
  0
LINE
  5
DE
330
79
100
AcDbEntity
  8
Camada 1
 62
   250
420
  1907995
370
    15
100
AcDbLine
 10
6.278609780013455
 20
-5.200607031779109
 30
0.0
 11
6.278609780013455
 21
-5.03093557848476
 31
0.0
  0
LINE
  5
DF
330
79
100
AcDbEntity
  8
Camada 1
 62
   250
420
  1907995
370
    15
100
AcDbLine
 10
6.279429624090943
 20
-5.747326298029071
 30
0.0
 11
6.279429624090943
 21
-5.725195198119474
 31
0.0
  0
LINE
  5
E0
330
79
100
AcDbEntity
  8
Camada 1
 62
   250
420
  1907995
370
    15
100
AcDbLine
 10
6.280249259715963
 20
-5.894866651413855
 30
0.0
 11
6.280249259715963
 21
-5.820276786983101
 31
0.0
  0
LINE
  5
E1
330
79
100
AcDbEntity
  8
Camada 1
 62
   250
420
  1907995
370
    15
100
AcDbLine
 10
6.282708166590896
 20
-5.112082840593576
 30
0.0
 11
6.282708166590896
 21
-5.20716432523084
 31
0.0
  0
LINE
  5
E2
330
79
100
AcDbEntity
  8
Camada 1
 62
   250
420
  1907995
370
    15
100
AcDbLine
 10
6.282708166590896
 20
-5.720277175917399
 30
0.0
 11
6.282708166590896
 21
-5.815358764781154
 31
0.0
  0
LINE
  5
E3
330
79
100
AcDbEntity
  8
Camada 1
 62
   250
420
  1907995
370
    15
100
AcDbLine
 10
6.339265317688788
 20
-5.815358764781154
 30
0.0
 11
6.339265317688788
 21
-5.720277175917399
 31
0.0
  0
LINE
  5
E4
330
79
100
AcDbEntity
  8
Camada 1
 62
   250
420
  1907995
370
    15
100
AcDbLine
 10
6.339265317688788
 20
-5.20716432523084
 30
0.0
 11
6.339265317688788
 21
-5.112082840593576
 31
0.0
  0
LINE
  5
E5
330
79
100
AcDbEntity
  8
Camada 1
 62
   250
420
  1907995
370
    15
100
AcDbLine
 10
6.341724433015931
 20
-5.820276786983101
 30
0.0
 11
6.341724433015931
 21
-5.894866651413855
 31
0.0
  0
LINE
  5
E6
330
79
100
AcDbEntity
  8
Camada 1
 62
   250
420
  1907995
370
    15
100
AcDbLine
 10
6.342544068641079
 20
-5.725195198119474
 30
0.0
 11
6.342544068641079
 21
-5.747326298029071
 31
0.0
  0
LINE
  5
E7
330
79
100
AcDbEntity
  8
Camada 1
 62
   250
420
  1907995
370
    15
100
AcDbLine
 10
6.343363704265715
 20
-5.03093557848476
 30
0.0
 11
6.343363704265715
 21
-5.200607031779109
 31
0.0
  0
LINE
  5
E8
330
79
100
AcDbEntity
  8
Camada 1
 62
   250
420
  1907995
370
    15
100
AcDbLine
 10
6.341724433015931
 20
-5.774375315914253
 30
0.0
 11
6.342544068641079
 21
-5.770277033563303
 31
0.0
  0
LINE
  5
E9
330
79
100
AcDbEntity
  8
Camada 1
 62
   250
420
  1907995
370
    15
100
AcDbLine
 10
6.320413072957845
 20
-5.013722605003505
 30
0.0
 11
6.323691615457413
 21
-5.011263489676395
 31
0.0
  0
LINE
  5
EA
330
79
100
AcDbEntity
  8
Camada 1
 62
   250
420
  1907995
370
    15
100
AcDbLine
 10
6.343363704265715
 20
-5.03093557848476
 30
0.0
 11
6.340084953313808
 21
-5.033394693812289
 31
0.0
  0
LINE
  5
EB
330
79
100
AcDbEntity
  8
Camada 1
 62
   250
420
  1907995
370
    15
100
AcDbLine
 10
6.298281868821886
 20
-5.011263489676395
 30
0.0
 11
6.323691615457413
 21
-5.011263489676395
 31
0.0
  0
LINE
  5
EC
330
79
100
AcDbEntity
  8
Camada 1
 62
   250
420
  1907995
370
    15
100
AcDbLine
 10
6.320413072957845
 20
-5.013722605003505
 30
0.0
 11
6.300740984149414
 21
-5.013722605003505
 31
0.0
  0
LINE
  5
ED
330
79
100
AcDbEntity
  8
Camada 1
 62
   250
420
  1907995
370
    15
100
AcDbLine
 10
6.339265317688788
 20
-5.20716432523084
 30
0.0
 11
6.343363704265715
 21
-5.200607031779109
 31
0.0
  0
LINE
  5
EE
330
79
100
AcDbEntity
  8
Camada 1
 62
   250
420
  1907995
370
    15
100
AcDbLine
 10
6.298281868821886
 20
-5.011263489676395
 30
0.0
 11
6.300740984149414
 21
-5.013722605003505
 31
0.0
  0
LINE
  5
EF
330
79
100
AcDbEntity
  8
Camada 1
 62
   250
420
  1907995
370
    15
100
AcDbLine
 10
6.368773450901755
 20
-5.232574280319027
 30
0.0
 11
6.363855428699037
 21
-5.238311729693847
 31
0.0
  0
LINE
  5
F0
330
79
100
AcDbEntity
  8
Camada 1
 62
   250
420
  1907995
370
    15
100
AcDbLine
 10
6.281888530965876
 20
-5.033394693812289
 30
0.0
 11
6.278609780013455
 21
-5.03093557848476
 31
0.0
  0
LINE
  5
F1
330
79
100
AcDbEntity
  8
Camada 1
 62
   250
420
  1907995
370
    15
100
AcDbLine
 10
6.278609780013455
 20
-5.200607031779109
 30
0.0
 11
6.282708166590896
 21
-5.20716432523084
 31
0.0
  0
LINE
  5
F2
330
79
100
AcDbEntity
  8
Camada 1
 62
   250
420
  1907995
370
    15
100
AcDbLine
 10
6.254839513080052
 20
-5.693228158032217
 30
0.0
 11
6.257298419954985
 21
-5.689129771454969
 31
0.0
  0
LINE
  5
F3
330
79
100
AcDbEntity
  8
Camada 1
 62
   250
420
  1907995
370
    15
100
AcDbLine
 10
6.282708166590896
 20
-5.720277175917399
 30
0.0
 11
6.279429624090943
 21
-5.725195198119474
 31
0.0
  0
LINE
  5
F4
330
79
100
AcDbEntity
  8
Camada 1
 62
   250
420
  1907995
370
    15
100
AcDbLine
 10
6.342544068641079
 20
-5.725195198119474
 30
0.0
 11
6.339265317688788
 21
-5.720277175917399
 31
0.0
  0
LINE
  5
F5
330
79
100
AcDbEntity
  8
Camada 1
 62
   250
420
  1907995
370
    15
100
AcDbLine
 10
6.363855428699037
 20
-5.689129771454969
 30
0.0
 11
6.367134179651842
 21
-5.693228158032217
 31
0.0
  0
LINE
  5
F6
330
79
100
AcDbEntity
  8
Camada 1
 62
   250
420
  1907995
370
    15
100
AcDbLine
 10
6.280249259715963
 20
-5.894866651413855
 30
0.0
 11
6.281888530965876
 21
-5.893227380164136
 31
0.0
  0
LINE
  5
F7
330
79
100
AcDbEntity
  8
Camada 1
 62
   250
420
  1907995
370
    15
100
AcDbLine
 10
6.300740984149414
 20
-5.912899364746011
 30
0.0
 11
6.299921348524266
 21
-5.914538740222157
 31
0.0
  0
LINE
  5
F8
330
79
100
AcDbEntity
  8
Camada 1
 62
   250
420
  1907995
370
    15
100
AcDbLine
 10
6.340084953313808
 20
-5.893227380164136
 30
0.0
 11
6.341724433015931
 21
-5.894866651413855
 31
0.0
  0
LWPOLYLINE
  5
F9
330
79
100
AcDbEntity
  8
Camada 1
 62
   250
420
  1907995
370
    15
100
AcDbPolyline
 90
        3
 70
     0
 43
0.0
 10
6.322052344207628
 20
-5.914538740222157
 10
6.320413072957845
 20
-5.912899364746011
 10
6.300740984149414
 20
-5.912899364746011
  0
SPLINE
  5
FA
330
79
100
AcDbEntity
  8
Camada 1
 62
   250
420
  1907995
370
    15
100
AcDbSpline
210
0.0
220
0.0
230
1.0
 70
     8
 71
     3
 72
     8
 73
     4
 74
     0
 42
0.0000000001
 43
0.0000000001
 40
0.0
 40
0.0
 40
0.0
 40
0.0
 40
1.0
 40
1.0
 40
1.0
 40
1.0
 10
6.317594376894692
 20
-5.233513984642108
 30
0.0
 10
6.312636748698582
 20
-5.233353476139629
 30
0.0
 10
6.307675368355743
 20
-5.233353893045014
 30
0.0
 10
6.302717948611846
 20
-5.233514401547108
 30
0.0
  0
SPLINE
  5
FB
330
79
100
AcDbEntity
  8
Camada 1
 62
   250
420
  1907995
370
    15
100
AcDbSpline
210
0.0
220
0.0
230
1.0
 70
     8
 71
     3
 72
     8
 73
     4
 74
     0
 42
0.0000000001
 43
0.0000000001
 40
0.0
 40
0.0
 40
0.0
 40
0.0
 40
1.0
 40
1.0
 40
1.0
 40
1.0
 10
6.302717948611846
 20
-5.69310746397624
 30
0.0
 10
6.307682664196479
 20
-5.693268285157805
 30
0.0
 10
6.312651548833035
 20
-5.693268285157805
 30
0.0
 10
6.317616472870393
 20
-5.69310746397624
 30
0.0
  0
SPLINE
  5
FC
330
79
100
AcDbEntity
  8
Camada 1
 62
   250
420
  1907995
370
    15
100
AcDbSpline
210
0.0
220
0.0
230
1.0
 70
     8
 71
     3
 72
     8
 73
     4
 74
     0
 42
0.0000000001
 43
0.0000000001
 40
0.0
 40
0.0
 40
0.0
 40
0.0
 40
1.0
 40
1.0
 40
1.0
 40
1.0
 10
6.339265317688788
 20
-5.205950505738853
 30
0.0
 10
6.339272613529524
 20
-5.220948670340528
 30
0.0
 10
6.349579760810921
 20
-5.2339788339407
 30
0.0
 10
6.364173527368034
 20
-5.237438521750597
 30
0.0
  0
SPLINE
  5
FD
330
79
100
AcDbEntity
  8
Camada 1
 62
   250
420
  1907995
370
    15
100
AcDbSpline
210
0.0
220
0.0
230
1.0
 70
     8
 71
     3
 72
     8
 73
     4
 74
     0
 42
0.0000000001
 43
0.0000000001
 40
0.0
 40
0.0
 40
0.0
 40
0.0
 40
1.0
 40
1.0
 40
1.0
 40
1.0
 10
6.256980529739482
 20
-5.237438521750597
 30
0.0
 10
6.271574296296082
 20
-5.2339788339407
 30
0.0
 10
6.281881443577223
 20
-5.220948670340528
 30
0.0
 10
6.281888530965876
 20
-5.205950505738853
 30
0.0
  0
SPLINE
  5
FE
330
79
100
AcDbEntity
  8
Camada 1
 62
   250
420
  1907995
370
    15
100
AcDbSpline
210
0.0
220
0.0
230
1.0
 70
     8
 71
     3
 72
     8
 73
     4
 74
     0
 42
0.0000000001
 43
0.0000000001
 40
0.0
 40
0.0
 40
0.0
 40
0.0
 40
1.0
 40
1.0
 40
1.0
 40
1.0
 10
6.343363704265715
 20
-5.200212847911693
 30
0.0
 10
6.343371000107092
 20
-5.215075518322874
 30
0.0
 10
6.353496376720435
 20
-5.228024593862191
 30
0.0
 10
6.367918795239559
 20
-5.231615189904442
 30
0.0
  0
SPLINE
  5
FF
330
79
100
AcDbEntity
  8
Camada 1
 62
   250
420
  1907995
370
    15
100
AcDbSpline
210
0.0
220
0.0
230
1.0
 70
     8
 71
     3
 72
     8
 73
     4
 74
     0
 42
0.0000000001
 43
0.0000000001
 40
0.0
 40
0.0
 40
0.0
 40
0.0
 40
1.0
 40
1.0
 40
1.0
 40
1.0
 10
6.253235261867187
 20
-5.231615189904442
 30
0.0
 10
6.267657680386439
 20
-5.228024593862191
 30
0.0
 10
6.277783057000424
 20
-5.215075518322874
 30
0.0
 10
6.277790144388435
 20
-5.200212847911693
 30
0.0
  0
SPLINE
  5
100
330
79
100
AcDbEntity
  8
Camada 1
 62
   250
420
  1907995
370
    15
100
AcDbSpline
210
0.0
220
0.0
230
1.0
 70
     8
 71
     3
 72
     8
 73
     4
 74
     0
 42
0.0000000001
 43
0.0000000001
 40
0.0
 40
0.0
 40
0.0
 40
0.0
 40
1.0
 40
1.0
 40
1.0
 40
1.0
 10
6.300323662043123
 20
-5.013722605003505
 30
0.0
 10
6.289691120252891
 20
-5.013726565602993
 30
0.0
 10
6.281072855940182
 20
-5.022344829915798
 30
0.0
 10
6.281068895340599
 20
-5.032977371705966
 30
0.0
  0
SPLINE
  5
101
330
79
100
AcDbEntity
  8
Camada 1
 62
   250
420
  1907995
370
    15
100
AcDbSpline
210
0.0
220
0.0
230
1.0
 70
     8
 71
     3
 72
     8
 73
     4
 74
     0
 42
0.0000000001
 43
0.0000000001
 40
0.0
 40
0.0
 40
0.0
 40
0.0
 40
1.0
 40
1.0
 40
1.0
 40
1.0
 10
6.339265317688788
 20
-5.032975495632889
 30
0.0
 10
6.339260314826224
 20
-5.022343162294869
 30
0.0
 10
6.330641216703258
 20
-5.0137255233403
 30
0.0
 10
6.320008674912641
 20
-5.013722605003505
 30
0.0
  0
SPLINE
  5
102
330
79
100
AcDbEntity
  8
Camada 1
 62
   250
420
  1907995
370
    15
100
AcDbSpline
210
0.0
220
0.0
230
1.0
 70
     8
 71
     3
 72
     8
 73
     4
 74
     0
 42
0.0000000001
 43
0.0000000001
 40
0.0
 40
0.0
 40
0.0
 40
0.0
 40
1.0
 40
1.0
 40
1.0
 40
1.0
 10
6.342544068641079
 20
-5.030533056513211
 30
0.0
 10
6.342545527809252
 20
-5.026878048617508
 30
0.0
 10
6.341506808501344
 20
-5.023298083657307
 30
0.0
 10
6.339549647035673
 20
-5.020211109097746
 30
0.0
  0
SPLINE
  5
103
330
79
100
AcDbEntity
  8
Camada 1
 62
   250
420
  1907995
370
    15
100
AcDbSpline
210
0.0
220
0.0
230
1.0
 70
     8
 71
     3
 72
     8
 73
     4
 74
     0
 42
0.0000000001
 43
0.0000000001
 40
0.0
 40
0.0
 40
0.0
 40
0.0
 40
1.0
 40
1.0
 40
1.0
 40
1.0
 10
6.281604201618605
 20
-5.020211109097746
 30
0.0
 10
6.279647040153447
 20
-5.023298083657307
 30
0.0
 10
6.278608529298136
 20
-5.026878048617508
 30
0.0
 10
6.278609780013455
 20
-5.030533056513211
 30
0.0
  0
LINE
  5
104
330
79
100
AcDbEntity
  8
Camada 1
 62
   250
420
  1907995
370
    15
100
AcDbLine
 10
6.339265317688788
 20
-5.06372225419707
 30
0.0
 11
6.339265317688788
 21
-5.112082840593576
 31
0.0
  0
SPLINE
  5
105
330
79
100
AcDbEntity
  8
Camada 1
 62
   250
420
  1907995
370
    15
100
AcDbSpline
210
0.0
220
0.0
230
1.0
 70
     8
 71
     3
 72
     8
 73
     4
 74
     0
 42
0.0000000001
 43
0.0000000001
 40
0.0
 40
0.0
 40
0.0
 40
0.0
 40
1.0
 40
1.0
 40
1.0
 40
1.0
 10
6.281888530965876
 20
-5.719848701597151
 30
0.0
 10
6.281879984408922
 20
-5.704850432769562
 30
0.0
 10
6.27157158641259
 20
-5.6918214156579
 30
0.0
 10
6.25697740295054
 20
-5.688362874337923
 30
0.0
  0
SPLINE
  5
106
330
79
100
AcDbEntity
  8
Camada 1
 62
   250
420
  1907995
370
    15
100
AcDbSpline
210
0.0
220
0.0
230
1.0
 70
     8
 71
     3
 72
     8
 73
     4
 74
     0
 42
0.0000000001
 43
0.0000000001
 40
0.0
 40
0.0
 40
0.0
 40
0.0
 40
1.0
 40
1.0
 40
1.0
 40
1.0
 10
6.364173527368034
 20
-5.688363708148307
 30
0.0
 10
6.349579760810921
 20
-5.691823604410159
 30
0.0
 10
6.339272613529524
 20
-5.704853559558504
 30
0.0
 10
6.339265317688788
 20
-5.719851828386221
 30
0.0
  0
SPLINE
  5
107
330
79
100
AcDbEntity
  8
Camada 1
 62
   250
420
  1907995
370
    15
100
AcDbSpline
210
0.0
220
0.0
230
1.0
 70
     8
 71
     3
 72
     8
 73
     4
 74
     0
 42
0.0000000001
 43
0.0000000001
 40
0.0
 40
0.0
 40
0.0
 40
0.0
 40
1.0
 40
1.0
 40
1.0
 40
1.0
 10
6.278609780013455
 20
-5.724766723799034
 30
0.0
 10
6.278601233456758
 20
-5.709865698109654
 30
0.0
 10
6.268423535240376
 20
-5.696894839273785
 30
0.0
 10
6.25395233881299
 20
-5.693342181604799
 30
0.0
  0
SPLINE
  5
108
330
79
100
AcDbEntity
  8
Camada 1
 62
   250
420
  1907995
370
    15
100
AcDbSpline
210
0.0
220
0.0
230
1.0
 70
     8
 71
     3
 72
     8
 73
     4
 74
     0
 42
0.0000000001
 43
0.0000000001
 40
0.0
 40
0.0
 40
0.0
 40
0.0
 40
1.0
 40
1.0
 40
1.0
 40
1.0
 10
6.367198591505327
 20
-5.693342911188436
 30
0.0
 10
6.352727603530152
 20
-5.696896923799681
 30
0.0
 10
6.342551156029091
 20
-5.709868824898724
 30
0.0
 10
6.342544068641079
 20
-5.724769850588104
 30
0.0
  0
SPLINE
  5
109
330
79
100
AcDbEntity
  8
Camada 1
 62
   250
420
  1907995
370
    15
100
AcDbSpline
210
0.0
220
0.0
230
1.0
 70
     8
 71
     3
 72
     8
 73
     4
 74
     0
 42
0.0000000001
 43
0.0000000001
 40
0.0
 40
0.0
 40
0.0
 40
0.0
 40
1.0
 40
1.0
 40
1.0
 40
1.0
 10
6.281068895340599
 20
-5.892824858192682
 30
0.0
 10
6.281072855940182
 20
-5.903457399982849
 30
0.0
 10
6.289691120252891
 20
-5.912075664295623
 30
0.0
 10
6.300323662043123
 20
-5.912079729121055
 30
0.0
  0
SPLINE
  5
10A
330
79
100
AcDbEntity
  8
Camada 1
 62
   250
420
  1907995
370
    15
100
AcDbSpline
210
0.0
220
0.0
230
1.0
 70
     8
 71
     3
 72
     8
 73
     4
 74
     0
 42
0.0000000001
 43
0.0000000001
 40
0.0
 40
0.0
 40
0.0
 40
0.0
 40
1.0
 40
1.0
 40
1.0
 40
1.0
 10
6.320010550986263
 20
-5.912079729121055
 30
0.0
 10
6.33064309277688
 20
-5.912075664295623
 30
0.0
 10
6.339261357089333
 20
-5.903457399982849
 30
0.0
 10
6.339265317688788
 20
-5.892824858192682
 30
0.0
  0
LWPOLYLINE
  5
10B
330
79
100
AcDbEntity
  8
Camada 1
 62
   250
420
  1907995
370
    15
100
AcDbPolyline
 90
        3
 70
     0
 43
0.0
 10
6.363855428699037
 20
-5.238311729693847
 10
6.341724433015931
 20
-5.235852822819043
 10
6.318773593255465
 20
-5.23421355156926
  0
LWPOLYLINE
  5
10C
330
79
100
AcDbEntity
  8
Camada 1
 62
   250
420
  1907995
370
    15
100
AcDbPolyline
 90
        3
 70
     0
 43
0.0
 10
6.318773593255465
 20
-5.693228158032217
 10
6.341724433015931
 20
-5.691588782555751
 10
6.363855428699037
 20
-5.689129771454969
  0
LWPOLYLINE
  5
10D
330
79
100
AcDbEntity
  8
Camada 1
 62
   250
420
  1907995
370
    15
100
AcDbPolyline
 90
        3
 70
     0
 43
0.0
 10
6.257298419954985
 20
-5.689129771454969
 10
6.280249259715963
 20
-5.691588782555751
 10
6.303199891023833
 20
-5.693228158032217
  0
LWPOLYLINE
  5
10E
330
79
100
AcDbEntity
  8
Camada 1
 62
   250
420
  1907995
370
    15
100
AcDbPolyline
 90
        3
 70
     0
 43
0.0
 10
6.303199891023833
 20
-5.23421355156926
 10
6.280249259715963
 20
-5.235852822819043
 10
6.257298419954985
 20
-5.238311729693847
  0
LWPOLYLINE
  5
10F
330
79
100
AcDbEntity
  8
Camada 1
 62
   250
420
  1907995
370
    15
100
AcDbPolyline
 90
        5
 70
     0
 43
0.0
 10
6.337626046439132
 20
-5.017001147503522
 10
6.335166931111475
 20
-5.014542240628654
 10
6.331888388611523
 20
-5.012083125301479
 10
6.327790002034596
 20
-5.011263489676395
 10
6.323691615457413
 20
-5.011263489676395
  0
LWPOLYLINE
  5
110
330
79
100
AcDbEntity
  8
Camada 1
 62
   250
420
  1907995
370
    15
100
AcDbPolyline
 90
        5
 70
     0
 43
0.0
 10
6.298281868821886
 20
-5.011263489676395
 10
6.294183690697298
 20
-5.011263489676395
 10
6.290085304119858
 20
-5.012083125301479
 10
6.286806553167695
 20
-5.014542240628654
 10
6.284347646292762
 20
-5.017001147503522
  0
LWPOLYLINE
  5
111
330
79
100
AcDbEntity
  8
Camada 1
 62
   250
420
  1907995
370
    15
100
AcDbPolyline
 90
        5
 70
     0
 43
0.0
 10
6.282708166590896
 20
-5.112082840593576
 10
6.282708166590896
 20
-5.06372225419707
 10
6.282708166590896
 20
-5.062902618572435
 10
6.281888530965876
 20
-5.048148551966016
 10
6.281888530965876
 20
-5.033394693812289
  0
LWPOLYLINE
  5
112
330
79
100
AcDbEntity
  8
Camada 1
 62
   250
420
  1907995
370
    15
100
AcDbPolyline
 90
        4
 70
     0
 43
0.0
 10
6.339265317688788
 20
-5.815358764781154
 10
6.339265317688788
 20
-5.8547029423984
 10
6.339265317688788
 20
-5.874374926980468
 10
6.340084953313808
 20
-5.893227380164136
  0
LINE
  5
113
330
79
100
AcDbEntity
  8
Camada 1
 62
   250
420
  1907995
370
    15
100
AcDbLine
 10
6.341724433015931
 20
-5.820276786983101
 30
0.0
 11
6.341724433015931
 21
-5.774375315914253
 31
0.0
  0
LINE
  5
114
330
79
100
AcDbEntity
  8
Camada 1
 62
   250
420
  1907995
370
    15
100
AcDbLine
 10
6.342544068641079
 20
-5.770277033563303
 30
0.0
 11
6.342544068641079
 21
-5.747326298029071
 31
0.0
  0
LWPOLYLINE
  5
115
330
79
100
AcDbEntity
  8
Camada 1
 62
   250
420
  1907995
370
    15
100
AcDbPolyline
 90
        9
 70
     0
 43
0.0
 10
6.322052344207628
 20
-5.914538740222157
 10
6.326150730784941
 20
-5.91371910459765
 10
6.329429273284508
 20
-5.912899364746011
 10
6.332708024236672
 20
-5.911260093496355
 10
6.335986775188835
 20
-5.908801082395254
 10
6.338445682063639
 20
-5.905522331442898
 10
6.340084953313808
 20
-5.902243684717096
 10
6.341724433015931
 20
-5.898965037991295
 10
6.341724433015931
 20
-5.894866651413855
  0
LWPOLYLINE
  5
116
330
79
100
AcDbEntity
  8
Camada 1
 62
   250
420
  1907995
370
    15
100
AcDbPolyline
 90
       11
 70
     0
 43
0.0
 10
6.280249259715963
 20
-5.894866651413855
 10
6.280249259715963
 20
-5.898965037991295
 10
6.281888530965876
 20
-5.902243684717096
 10
6.283527802215531
 20
-5.905522331442898
 10
6.285986917543059
 20
-5.908801082395254
 10
6.289265668495351
 20
-5.911260093496355
 10
6.29254421099479
 20
-5.912899364746011
 10
6.295822961947083
 20
-5.91371910459765
 10
6.299921348524266
 20
-5.914538740222157
 10
6.310577028553309
 20
-5.914538740222157
 10
6.322052344207628
 20
-5.914538740222157
  0
LWPOLYLINE
  5
117
330
79
100
AcDbEntity
  8
Camada 1
 62
   250
420
  1907995
370
    15
100
AcDbPolyline
 90
        4
 70
     0
 43
0.0
 10
6.281888530965876
 20
-5.893227380164136
 10
6.282708166590896
 20
-5.874374926980468
 10
6.282708166590896
 20
-5.8547029423984
 10
6.282708166590896
 20
-5.815358764781154
  0
LINE
  5
118
330
79
100
AcDbEntity
  8
Camada 1
 62
   250
420
  1907995
370
    15
100
AcDbLine
 10
6.279429624090943
 20
-5.747326298029071
 30
0.0
 11
6.279429624090943
 21
-5.770277033563303
 31
0.0
  0
LINE
  5
119
330
79
100
AcDbEntity
  8
Camada 1
 62
   250
420
  1907995
370
    15
100
AcDbLine
 10
6.280249259715963
 20
-5.774375315914253
 30
0.0
 11
6.280249259715963
 21
-5.820276786983101
 31
0.0
  0
LWPOLYLINE
  5
11A
330
79
100
AcDbEntity
  8
Camada 1
 62
   250
420
  1907995
370
    15
100
AcDbPolyline
 90
        4
 70
     0
 43
0.0
 10
6.340084953313808
 20
-5.033394693812289
 10
6.339265317688788
 20
-5.048148551966016
 10
6.339265317688788
 20
-5.062902618572435
 10
6.339265317688788
 20
-5.06372225419707
  0
LWPOLYLINE
  5
11B
330
79
100
AcDbEntity
  8
Camada 1
 62
   250
420
  1907995
370
    15
100
AcDbPolyline
 90
       18
 70
     0
 43
0.0
 10
6.281068895340599
 20
-5.144869516305917
 10
6.281888530965876
 20
-5.144049880681217
 10
6.281888530965876
 20
-5.142410609431434
 10
6.281888530965876
 20
-5.139131858478757
 10
6.281888530965876
 20
-5.134213836276745
 10
6.281888530965876
 20
-5.128476178449714
 10
6.281888530965876
 20
-5.121918884997983
 10
6.281888530965876
 20
-5.115361591545739
 10
6.281888530965876
 20
-5.107984454016134
 10
6.281888530965876
 20
-5.100607524939384
 10
6.281888530965876
 20
-5.092410751785145
 10
6.281888530965876
 20
-5.085853458333029
 10
6.281888530965876
 20
-5.079295956428445
 10
6.281888530965876
 20
-5.073558298601414
 10
6.281888530965876
 20
-5.06946012047689
 10
6.281888530965876
 20
-5.066181369524598
 10
6.281888530965876
 20
-5.06372225419707
 10
6.281068895340599
 20
-5.062902618572435
  0
LWPOLYLINE
  5
11C
330
79
100
AcDbEntity
  8
Camada 1
 62
   250
420
  1907995
370
    15
100
AcDbPolyline
 90
       18
 70
     0
 43
0.0
 10
6.340084953313808
 20
-5.062902618572435
 10
6.340084953313808
 20
-5.06372225419707
 10
6.340084953313808
 20
-5.066181369524598
 10
6.340084953313808
 20
-5.06946012047689
 10
6.340084953313808
 20
-5.073558298601414
 10
6.340084953313808
 20
-5.079295956428445
 10
6.340084953313808
 20
-5.085853458333029
 10
6.340084953313808
 20
-5.092410751785145
 10
6.340084953313808
 20
-5.100607524939384
 10
6.340084953313808
 20
-5.107984454016134
 10
6.340084953313808
 20
-5.115361591545739
 10
6.340084953313808
 20
-5.121918884997983
 10
6.340084953313808
 20
-5.128476178449714
 10
6.340084953313808
 20
-5.134213836276745
 10
6.340084953313808
 20
-5.139131858478757
 10
6.340084953313808
 20
-5.142410609431434
 10
6.340084953313808
 20
-5.144049880681217
 10
6.340084953313808
 20
-5.144869516305917
  0
LWPOLYLINE
  5
11D
330
79
100
AcDbEntity
  8
Camada 1
 62
   250
420
  1907995
370
    15
100
AcDbPolyline
 90
       34
 70
     0
 43
0.0
 10
6.281068895340599
 20
-5.138312222854121
 10
6.281888530965876
 20
-5.137492587228973
 10
6.281888530965876
 20
-5.135853315979254
 10
6.281888530965876
 20
-5.132574565026962
 10
6.281888530965876
 20
-5.128476178449714
 10
6.281888530965876
 20
-5.123558156247831
 10
6.281888530965876
 20
-5.11864013404537
 10
6.281888530965876
 20
-5.112082840593576
 10
6.281888530965876
 20
-5.105525547141331
 10
6.281888530965876
 20
-5.098968045236875
 10
6.281888530965876
 20
-5.092410751785145
 10
6.281888530965876
 20
-5.086673093958113
 10
6.281888530965876
 20
-5.081755071756102
 10
6.281888530965876
 20
-5.07683704955377
 10
6.281888530965876
 20
-5.073558298601414
 10
6.281888530965876
 20
-5.071099391726674
 10
6.281888530965876
 20
-5.06946012047689
 10
6.281068895340599
 20
-5.06946012047689
 10
6.281068895340599
 20
-5.071099391726674
 10
6.281068895340599
 20
-5.073558298601414
 10
6.281068895340599
 20
-5.07683704955377
 10
6.281068895340599
 20
-5.081755071756102
 10
6.281068895340599
 20
-5.086673093958113
 10
6.281068895340599
 20
-5.092410751785145
 10
6.281068895340599
 20
-5.098968045236875
 10
6.281068895340599
 20
-5.105525547141331
 10
6.281068895340599
 20
-5.112082840593576
 10
6.281068895340599
 20
-5.11864013404537
 10
6.281068895340599
 20
-5.123558156247831
 10
6.281068895340599
 20
-5.128476178449714
 10
6.281068895340599
 20
-5.132574565026962
 10
6.281068895340599
 20
-5.135853315979254
 10
6.281068895340599
 20
-5.137492587228973
 10
6.281068895340599
 20
-5.138312222854121
  0
LWPOLYLINE
  5
11E
330
79
100
AcDbEntity
  8
Camada 1
 62
   250
420
  1907995
370
    15
100
AcDbPolyline
 90
       34
 70
     0
 43
0.0
 10
6.340084953313808
 20
-5.876833938081571
 10
6.340904797390782
 20
-5.875194666831851
 10
6.340904797390782
 20
-5.872735655730749
 10
6.340904797390782
 20
-5.867817633528673
 10
6.340904797390782
 20
-5.862079871475151
 10
6.340904797390782
 20
-5.853883202547017
 10
6.340904797390782
 20
-5.845686533619077
 10
6.341724433015931
 20
-5.835850489214605
 10
6.341724433015931
 20
-5.826014444810197
 10
6.341724433015931
 20
-5.816178400406174
 10
6.341724433015931
 20
-5.806342460228322
 10
6.340904797390782
 20
-5.796506415823849
 10
6.340904797390782
 20
-5.788309746895908
 10
6.340904797390782
 20
-5.781752349217494
 10
6.340904797390782
 20
-5.776014691390335
 10
6.340904797390782
 20
-5.772736044664405
 10
6.340904797390782
 20
-5.770277033563303
 10
6.340084953313808
 20
-5.770277033563303
 10
6.340084953313808
 20
-5.772736044664405
 10
6.340084953313808
 20
-5.776014691390335
 10
6.340084953313808
 20
-5.781752349217494
 10
6.340084953313808
 20
-5.788309746895908
 10
6.339265317688788
 20
-5.796506415823849
 10
6.339265317688788
 20
-5.806342460228322
 10
6.339265317688788
 20
-5.816178400406174
 10
6.339265317688788
 20
-5.826014444810197
 10
6.339265317688788
 20
-5.835850489214605
 10
6.339265317688788
 20
-5.845686533619077
 10
6.340084953313808
 20
-5.853883202547017
 10
6.340084953313808
 20
-5.862079871475151
 10
6.340084953313808
 20
-5.867817633528673
 10
6.340084953313808
 20
-5.872735655730749
 10
6.340084953313808
 20
-5.875194666831851
 10
6.340084953313808
 20
-5.876833938081571
  0
LWPOLYLINE
  5
11F
330
79
100
AcDbEntity
  8
Camada 1
 62
   250
420
  1907995
370
    15
100
AcDbPolyline
 90
       34
 70
     0
 43
0.0
 10
6.281068895340599
 20
-5.876833938081571
 10
6.281888530965876
 20
-5.875194666831851
 10
6.281888530965876
 20
-5.872735655730749
 10
6.281888530965876
 20
-5.867817633528673
 10
6.281888530965876
 20
-5.862079871475151
 10
6.281888530965876
 20
-5.853883202547017
 10
6.282708166590896
 20
-5.845686533619077
 10
6.282708166590896
 20
-5.835850489214605
 10
6.282708166590896
 20
-5.826014444810197
 10
6.282708166590896
 20
-5.816178400406174
 10
6.282708166590896
 20
-5.806342460228322
 10
6.281888530965876
 20
-5.796506415823849
 10
6.281888530965876
 20
-5.788309746895908
 10
6.281888530965876
 20
-5.781752349217494
 10
6.281888530965876
 20
-5.776014691390335
 10
6.281888530965876
 20
-5.772736044664405
 10
6.281888530965876
 20
-5.770277033563303
 10
6.281068895340599
 20
-5.770277033563303
 10
6.281068895340599
 20
-5.772736044664405
 10
6.281068895340599
 20
-5.776014691390335
 10
6.281068895340599
 20
-5.781752349217494
 10
6.281068895340599
 20
-5.788309746895908
 10
6.280249259715963
 20
-5.796506415823849
 10
6.280249259715963
 20
-5.806342460228322
 10
6.280249259715963
 20
-5.816178400406174
 10
6.280249259715963
 20
-5.826014444810197
 10
6.280249259715963
 20
-5.835850489214605
 10
6.280249259715963
 20
-5.845686533619077
 10
6.281068895340599
 20
-5.853883202547017
 10
6.281068895340599
 20
-5.862079871475151
 10
6.281068895340599
 20
-5.867817633528673
 10
6.281068895340599
 20
-5.872735655730749
 10
6.281068895340599
 20
-5.875194666831851
 10
6.281068895340599
 20
-5.876833938081571
  0
LWPOLYLINE
  5
120
330
79
100
AcDbEntity
  8
Camada 1
 62
   250
420
  1907995
370
    15
100
AcDbPolyline
 90
       34
 70
     0
 43
0.0
 10
6.340084953313808
 20
-5.138312222854121
 10
6.340904797390782
 20
-5.137492587228973
 10
6.340904797390782
 20
-5.135853315979254
 10
6.340904797390782
 20
-5.132574565026962
 10
6.340904797390782
 20
-5.128476178449714
 10
6.340904797390782
 20
-5.123558156247831
 10
6.340904797390782
 20
-5.11864013404537
 10
6.340904797390782
 20
-5.112082840593576
 10
6.340904797390782
 20
-5.105525547141331
 10
6.340904797390782
 20
-5.098968045236875
 10
6.340904797390782
 20
-5.092410751785145
 10
6.340904797390782
 20
-5.086673093958113
 10
6.340904797390782
 20
-5.081755071756102
 10
6.340904797390782
 20
-5.07683704955377
 10
6.340904797390782
 20
-5.073558298601414
 10
6.340904797390782
 20
-5.071099391726674
 10
6.340904797390782
 20
-5.06946012047689
 10
6.340084953313808
 20
-5.06946012047689
 10
6.340084953313808
 20
-5.071099391726674
 10
6.340084953313808
 20
-5.073558298601414
 10
6.340084953313808
 20
-5.07683704955377
 10
6.340084953313808
 20
-5.081755071756102
 10
6.340084953313808
 20
-5.086673093958113
 10
6.340084953313808
 20
-5.092410751785145
 10
6.340084953313808
 20
-5.098968045236875
 10
6.340084953313808
 20
-5.105525547141331
 10
6.340084953313808
 20
-5.112082840593576
 10
6.340084953313808
 20
-5.11864013404537
 10
6.340084953313808
 20
-5.123558156247831
 10
6.340084953313808
 20
-5.128476178449714
 10
6.340084953313808
 20
-5.132574565026962
 10
6.340084953313808
 20
-5.135853315979254
 10
6.340084953313808
 20
-5.137492587228973
 10
6.340084953313808
 20
-5.138312222854121
  0
LINE
  5
121
330
79
100
AcDbEntity
  8
Camada 1
 62
   250
420
  1907995
370
    15
100
AcDbLine
 10
6.081889308833829
 20
-3.828481130366013
 30
0.0
 11
6.540084175445213
 21
-3.828481130366013
 31
0.0
  0
LINE
  5
122
330
79
100
AcDbEntity
  8
Camada 1
 62
   250
420
  1907995
370
    15
100
AcDbLine
 10
6.04910263312168
 20
-6.052243153429087
 30
0.0
 11
6.572871059610343
 21
-6.052243153429087
 31
0.0
  0
SPLINE
  5
123
330
79
100
AcDbEntity
  8
Camada 1
 62
   250
420
  1907995
370
    15
100
AcDbSpline
210
0.0
220
0.0
230
1.0
 70
     9
 71
     3
 72
   470
 73
   466
 74
     0
 42
0.0000000001
 43
0.0000000001
 40
0.0
 40
0.0
 40
0.0
 40
0.0
 40
1.0
 40
1.0
 40
1.0
 40
2.0
 40
2.0
 40
2.0
 40
3.0
 40
3.0
 40
3.0
 40
4.0
 40
4.0
 40
4.0
 40
5.0
 40
5.0
 40
5.0
 40
6.0
 40
6.0
 40
6.0
 40
7.0
 40
7.0
 40
7.0
 40
8.0
 40
8.0
 40
8.0
 40
9.0
 40
9.0
 40
9.0
 40
10.0
 40
10.0
 40
10.0
 40
11.0
 40
11.0
 40
11.0
 40
12.0
 40
12.0
 40
12.0
 40
13.0
 40
13.0
 40
13.0
 40
14.0
 40
14.0
 40
14.0
 40
15.0
 40
15.0
 40
15.0
 40
16.0
 40
16.0
 40
16.0
 40
17.0
 40
17.0
 40
17.0
 40
18.0
 40
18.0
 40
18.0
 40
19.0
 40
19.0
 40
19.0
 40
20.0
 40
20.0
 40
20.0
 40
21.0
 40
21.0
 40
21.0
 40
22.0
 40
22.0
 40
22.0
 40
23.0
 40
23.0
 40
23.0
 40
24.0
 40
24.0
 40
24.0
 40
25.0
 40
25.0
 40
25.0
 40
26.0
 40
26.0
 40
26.0
 40
27.0
 40
27.0
 40
27.0
 40
28.0
 40
28.0
 40
28.0
 40
29.0
 40
29.0
 40
29.0
 40
30.0
 40
30.0
 40
30.0
 40
31.0
 40
31.0
 40
31.0
 40
32.0
 40
32.0
 40
32.0
 40
33.0
 40
33.0
 40
33.0
 40
34.0
 40
34.0
 40
34.0
 40
35.0
 40
35.0
 40
35.0
 40
36.0
 40
36.0
 40
36.0
 40
37.0
 40
37.0
 40
37.0
 40
38.0
 40
38.0
 40
38.0
 40
39.0
 40
39.0
 40
39.0
 40
40.0
 40
40.0
 40
40.0
 40
41.0
 40
41.0
 40
41.0
 40
42.0
 40
42.0
 40
42.0
 40
43.0
 40
43.0
 40
43.0
 40
44.0
 40
44.0
 40
44.0
 40
45.0
 40
45.0
 40
45.0
 40
46.0
 40
46.0
 40
46.0
 40
47.0
 40
47.0
 40
47.0
 40
48.0
 40
48.0
 40
48.0
 40
49.0
 40
49.0
 40
49.0
 40
50.0
 40
50.0
 40
50.0
 40
51.0
 40
51.0
 40
51.0
 40
52.0
 40
52.0
 40
52.0
 40
53.0
 40
53.0
 40
53.0
 40
54.0
 40
54.0
 40
54.0
 40
55.0
 40
55.0
 40
55.0
 40
56.0
 40
56.0
 40
56.0
 40
57.0
 40
57.0
 40
57.0
 40
58.0
 40
58.0
 40
58.0
 40
59.0
 40
59.0
 40
59.0
 40
60.0
 40
60.0
 40
60.0
 40
61.0
 40
61.0
 40
61.0
 40
62.0
 40
62.0
 40
62.0
 40
63.0
 40
63.0
 40
63.0
 40
64.0
 40
64.0
 40
64.0
 40
65.0
 40
65.0
 40
65.0
 40
66.0
 40
66.0
 40
66.0
 40
67.0
 40
67.0
 40
67.0
 40
68.0
 40
68.0
 40
68.0
 40
69.0
 40
69.0
 40
69.0
 40
70.0
 40
70.0
 40
70.0
 40
71.0
 40
71.0
 40
71.0
 40
72.0
 40
72.0
 40
72.0
 40
73.0
 40
73.0
 40
73.0
 40
74.0
 40
74.0
 40
74.0
 40
75.0
 40
75.0
 40
75.0
 40
76.0
 40
76.0
 40
76.0
 40
77.0
 40
77.0
 40
77.0
 40
78.0
 40
78.0
 40
78.0
 40
79.0
 40
79.0
 40
79.0
 40
80.0
 40
80.0
 40
80.0
 40
81.0
 40
81.0
 40
81.0
 40
82.0
 40
82.0
 40
82.0
 40
83.0
 40
83.0
 40
83.0
 40
84.0
 40
84.0
 40
84.0
 40
85.0
 40
85.0
 40
85.0
 40
86.0
 40
86.0
 40
86.0
 40
87.0
 40
87.0
 40
87.0
 40
88.0
 40
88.0
 40
88.0
 40
89.0
 40
89.0
 40
89.0
 40
90.0
 40
90.0
 40
90.0
 40
91.0
 40
91.0
 40
91.0
 40
92.0
 40
92.0
 40
92.0
 40
93.0
 40
93.0
 40
93.0
 40
94.0
 40
94.0
 40
94.0
 40
95.0
 40
95.0
 40
95.0
 40
96.0
 40
96.0
 40
96.0
 40
97.0
 40
97.0
 40
97.0
 40
98.0
 40
98.0
 40
98.0
 40
99.0
 40
99.0
 40
99.0
 40
100.0
 40
100.0
 40
100.0
 40
101.0
 40
101.0
 40
101.0
 40
102.0
 40
102.0
 40
102.0
 40
103.0
 40
103.0
 40
103.0
 40
104.0
 40
104.0
 40
104.0
 40
105.0
 40
105.0
 40
105.0
 40
106.0
 40
106.0
 40
106.0
 40
107.0
 40
107.0
 40
107.0
 40
108.0
 40
108.0
 40
108.0
 40
109.0
 40
109.0
 40
109.0
 40
110.0
 40
110.0
 40
110.0
 40
111.0
 40
111.0
 40
111.0
 40
112.0
 40
112.0
 40
112.0
 40
113.0
 40
113.0
 40
113.0
 40
114.0
 40
114.0
 40
114.0
 40
115.0
 40
115.0
 40
115.0
 40
116.0
 40
116.0
 40
116.0
 40
117.0
 40
117.0
 40
117.0
 40
118.0
 40
118.0
 40
118.0
 40
119.0
 40
119.0
 40
119.0
 40
120.0
 40
120.0
 40
120.0
 40
121.0
 40
121.0
 40
121.0
 40
122.0
 40
122.0
 40
122.0
 40
123.0
 40
123.0
 40
123.0
 40
124.0
 40
124.0
 40
124.0
 40
125.0
 40
125.0
 40
125.0
 40
126.0
 40
126.0
 40
126.0
 40
127.0
 40
127.0
 40
127.0
 40
128.0
 40
128.0
 40
128.0
 40
129.0
 40
129.0
 40
129.0
 40
130.0
 40
130.0
 40
130.0
 40
131.0
 40
131.0
 40
131.0
 40
132.0
 40
132.0
 40
132.0
 40
133.0
 40
133.0
 40
133.0
 40
134.0
 40
134.0
 40
134.0
 40
135.0
 40
135.0
 40
135.0
 40
136.0
 40
136.0
 40
136.0
 40
137.0
 40
137.0
 40
137.0
 40
138.0
 40
138.0
 40
138.0
 40
139.0
 40
139.0
 40
139.0
 40
140.0
 40
140.0
 40
140.0
 40
141.0
 40
141.0
 40
141.0
 40
142.0
 40
142.0
 40
142.0
 40
143.0
 40
143.0
 40
143.0
 40
144.0
 40
144.0
 40
144.0
 40
145.0
 40
145.0
 40
145.0
 40
146.0
 40
146.0
 40
146.0
 40
147.0
 40
147.0
 40
147.0
 40
148.0
 40
148.0
 40
148.0
 40
149.0
 40
149.0
 40
149.0
 40
150.0
 40
150.0
 40
150.0
 40
151.0
 40
151.0
 40
151.0
 40
152.0
 40
152.0
 40
152.0
 40
153.0
 40
153.0
 40
153.0
 40
154.0
 40
154.0
 40
154.0
 40
155.0
 40
155.0
 40
155.0
 40
155.0
 10
7.904861708946055
 20
-5.113409579039406
 30
0.0
 10
7.903936564545475
 20
-5.111432364939942
 30
0.0
 10
7.902718081676412
 20
-5.11006721283702
 30
0.0
 10
7.900811381631577
 20
-5.109020784261963
 30
0.0
 10
7.899762132494702
 20
-5.107881277134523
 30
0.0
 10
7.898318004650156
 20
-5.10711972534147
 30
0.0
 10
7.896636949581316
 20
-5.10711972534147
 30
0.0
 10
7.896636949581316
 20
-5.10711972534147
 30
0.0
 10
7.607314961727511
 20
-5.10711972534147
 30
0.0
 10
7.607314961727511
 20
-5.10711972534147
 30
0.0
 10
7.606914441895563
 20
-5.10711972534147
 30
0.0
 10
7.606671873546606
 20
-5.107466654491815
 30
0.0
 10
7.606671873546606
 20
-5.107466654491815
 30
0.0
 10
7.605633906658542
 20
-5.107672555532325
 30
0.0
 10
7.605148769960885
 20
-5.107915123880832
 30
0.0
 10
7.604562093023657
 20
-5.108259232468975
 30
0.0
 10
7.603828746852765
 20
-5.10869359904704
 30
0.0
 10
7.603287198910916
 20
-5.10910822169026
 30
0.0
 10
7.602813344462199
 20
-5.10980772111478
 30
0.0
 10
7.602610263984086
 20
-5.110081315647907
 30
0.0
 10
7.602237949773783
 20
-5.110143368016377
 30
0.0
 10
7.602079998291178
 20
-5.110459270982295
 30
0.0
 10
7.602079998291178
 20
-5.110459270982295
 30
0.0
 10
7.56772555073938
 20
-5.183963121819496
 30
0.0
 10
7.56772555073938
 20
-5.183963121819496
 30
0.0
 10
7.522856047319536
 20
-5.162605824868545
 30
0.0
 10
7.473704930486097
 20
-5.15160845286498
 30
0.0
 10
7.423730209491008
 20
-5.151729737039202
 30
0.0
 10
7.423730209491008
 20
-5.151729737039202
 30
0.0
 10
7.423730209491008
 20
-5.128465740043865
 30
0.0
 10
7.423730209491008
 20
-5.128465740043865
 30
0.0
 10
7.423730209491008
 20
-5.126858019591858
 30
0.0
 10
7.423064556812221
 20
-5.125416712309195
 30
0.0
 10
7.422004025426789
 20
-5.124367463172384
 30
0.0
 10
7.422004025426789
 20
-5.124367463172384
 30
0.0
 10
7.413846959554927
 20
-5.116235782360413
 30
0.0
 10
7.413846959554927
 20
-5.116235782360413
 30
0.0
 10
7.412797710417795
 20
-5.115169609849806
 30
0.0
 10
7.411359223697528
 20
-5.114498316047383
 30
0.0
 10
7.4097402209969
 20
-5.114498316047383
 30
0.0
 10
7.4097402209969
 20
-5.114498316047383
 30
0.0
 10
7.232180189611686
 20
-5.114498316047383
 30
0.0
 10
7.232180189611686
 20
-5.114498316047383
 30
0.0
 10
7.232180189611686
 20
-5.114498316047383
 30
0.0
 10
7.205712033961019
 20
-5.061494311253173
 30
0.0
 10
7.205712033961019
 20
-5.061494311253173
 30
0.0
 10
7.205712033961019
 20
-5.061494311253173
 30
0.0
 10
7.205712033961019
 20
-4.664031968791274
 30
0.0
 10
7.205712033961019
 20
-4.664031968791274
 30
0.0
 10
7.205712033961019
 20
-4.664031968791274
 30
0.0
 10
7.232293012099556
 20
-4.599531352484634
 30
0.0
 10
7.232293012099556
 20
-4.599531352484634
 30
0.0
 10
7.232450963582419
 20
-4.599159038275006
 30
0.0
 10
7.232219677482274
 20
-4.598792365189463
 30
0.0
 10
7.232293012099556
 20
-4.59841158929268
 30
0.0
 10
7.232293012099556
 20
-4.59841158929268
 30
0.0
 10
7.232744302051032
 20
-4.597745936614406
 30
0.0
 10
7.232744302051032
 20
-4.59732003172279
 30
0.0
 10
7.232744302051032
 20
-4.59732003172279
 30
0.0
 10
7.232744302051032
 20
-4.594905630482993
 30
0.0
 10
7.232744302051032
 20
-4.594905630482993
 30
0.0
 10
7.232744302051032
 20
-4.594905630482993
 30
0.0
 10
7.367905642500454
 20
-4.594905630482993
 30
0.0
 10
7.367905642500454
 20
-4.594905630482993
 30
0.0
 10
7.367905642500454
 20
-4.594905630482993
 30
0.0
 10
7.367905642500454
 20
-4.62191533407506
 30
0.0
 10
7.367905642500454
 20
-4.62191533407506
 30
0.0
 10
7.367905642500454
 20
-4.625096928232765
 30
0.0
 10
7.370477995223564
 20
-4.62769184545321
 30
0.0
 10
7.373682153878766
 20
-4.62769184545321
 30
0.0
 10
7.373682153878766
 20
-4.62769184545321
 30
0.0
 10
7.485963093791196
 20
-4.62769184545321
 30
0.0
 10
7.485963093791196
 20
-4.62769184545321
 30
0.0
 10
7.485963093791196
 20
-4.62769184545321
 30
0.0
 10
7.485963093791196
 20
-4.635860193573758
 30
0.0
 10
7.485963093791196
 20
-4.635860193573758
 30
0.0
 10
7.485963093791196
 20
-4.639041787731366
 30
0.0
 10
7.488535446514305
 20
-4.641636704951908
 30
0.0
 10
7.491739605169378
 20
-4.641636704951908
 30
0.0
 10
7.491739605169378
 20
-4.641636704951908
 30
0.0
 10
7.581907337462532
 20
-4.641636704951908
 30
0.0
 10
7.581907337462532
 20
-4.641636704951908
 30
0.0
 10
7.585111496117478
 20
-4.641636704951908
 30
0.0
 10
7.587683848840715
 20
-4.639041787731366
 30
0.0
 10
7.587683848840715
 20
-4.635860193573758
 30
0.0
 10
7.587683848840715
 20
-4.635860193573758
 30
0.0
 10
7.587683848840715
 20
-4.62769184545321
 30
0.0
 10
7.587683848840715
 20
-4.62769184545321
 30
0.0
 10
7.587683848840715
 20
-4.62769184545321
 30
0.0
 10
7.692563633550314
 20
-4.62769184545321
 30
0.0
 10
7.692563633550314
 20
-4.62769184545321
 30
0.0
 10
7.694633926202161
 20
-4.62769184545321
 30
0.0
 10
7.69612882416662
 20
-4.626428233589312
 30
0.0
 10
7.697144226557186
 20
-4.624803589764151
 30
0.0
 10
7.700224280475321
 20
-4.623435617098865
 30
0.0
 10
7.702266367505521
 20
-4.621382247820205
 30
0.0
 10
7.703631519608893
 20
-4.618299373339353
 30
0.0
 10
7.705256163433541
 20
-4.617272688699751
 30
0.0
 10
7.706508493049043
 20
-4.615780611298072
 30
0.0
 10
7.706508493049043
 20
-4.613724421457177
 30
0.0
 10
7.706508493049043
 20
-4.613724421457177
 30
0.0
 10
7.706508493049043
 20
-4.129309787605529
 30
0.0
 10
7.706508493049043
 20
-4.129309787605529
 30
0.0
 10
7.706508493049043
 20
-4.127417190371486
 30
0.0
 10
7.705459243912168
 20
-4.125961780278448
 30
0.0
 10
7.704048962813931
 20
-4.124906890016878
 30
0.0
 10
7.702762786452121
 20
-4.121203491852842
 30
0.0
 10
7.700348385212259
 20
-4.11869319149833
 30
0.0
 10
7.696738065600703
 20
-4.117226499156288
 30
0.0
 10
7.695688816463827
 20
-4.116084171466484
 30
0.0
 10
7.694250329743431
 20
-4.115319799111517
 30
0.0
 10
7.692563633550314
 20
-4.115319799111517
 30
0.0
 10
7.692563633550314
 20
-4.115319799111517
 30
0.0
 10
7.373682153878766
 20
-4.115319799111517
 30
0.0
 10
7.373682153878766
 20
-4.115319799111517
 30
0.0
 10
7.370477995223564
 20
-4.115319799111517
 30
0.0
 10
7.367905642500454
 20
-4.117914716331962
 30
0.0
 10
7.367905642500454
 20
-4.121096310489668
 30
0.0
 10
7.367905642500454
 20
-4.121096310489668
 30
0.0
 10
7.367905642500454
 20
-4.239920954698028
 30
0.0
 10
7.367905642500454
 20
-4.239920954698028
 30
0.0
 10
7.367905642500454
 20
-4.239920954698028
 30
0.0
 10
7.232744302051032
 20
-4.239920954698028
 30
0.0
 10
7.232744302051032
 20
-4.239920954698028
 30
0.0
 10
7.232744302051032
 20
-4.239920954698028
 30
0.0
 10
7.232744302051032
 20
-4.23750655345775
 30
0.0
 10
7.232744302051032
 20
-4.23750655345775
 30
0.0
 10
7.232744302051032
 20
-4.237080648566133
 30
0.0
 10
7.232383270089799
 20
-4.236815515719615
 30
0.0
 10
7.232293012099556
 20
-4.23641499588786
 30
0.0
 10
7.232219677482274
 20
-4.236034219991076
 30
0.0
 10
7.232450963582419
 20
-4.235667546905534
 30
0.0
 10
7.232293012099556
 20
-4.235295232695841
 30
0.0
 10
7.232293012099556
 20
-4.235295232695841
 30
0.0
 10
7.205712033961019
 20
-4.170794616389201
 30
0.0
 10
7.205712033961019
 20
-4.170794616389201
 30
0.0
 10
7.205712033961019
 20
-4.170794616389201
 30
0.0
 10
7.205712033961019
 20
-3.534216293168539
 30
0.0
 10
7.205712033961019
 20
-3.534216293168539
 30
0.0
 10
7.205712033961019
 20
-3.534137317427012
 30
0.0
 10
7.205633058219332
 20
-3.53409218843221
 30
0.0
 10
7.205627417095054
 20
-3.534013212690554
 30
0.0
 10
7.205633058219332
 20
-3.53393423694893
 30
0.0
 10
7.205712033961019
 20
-3.533889107954129
 30
0.0
 10
7.205712033961019
 20
-3.533810132212602
 30
0.0
 10
7.205712033961019
 20
-3.51306207669615
 30
0.0
 10
7.188969176763443
 20
-3.49626280825435
 30
0.0
 10
7.168322661485952
 20
-3.495814338865366
 30
0.0
 10
7.168322661485952
 20
-3.495814338865366
 30
0.0
 10
7.168091375385936
 20
-3.495653566820299
 30
0.0
 10
7.167939065027351
 20
-3.495653566820299
 30
0.0
 10
7.167939065027351
 20
-3.495653566820299
 30
0.0
 10
7.069602984613394
 20
-3.495653566820299
 30
0.0
 10
7.069602984613394
 20
-3.495653566820299
 30
0.0
 10
7.066398825958576
 20
-3.495653566820299
 30
0.0
 10
7.063826473235339
 20
-3.498248484040713
 30
0.0
 10
7.063826473235339
 20
-3.501430078198354
 30
0.0
 10
7.063826473235339
 20
-3.501588029681153
 30
0.0
 10
7.063984424718074
 20
-3.501681108233535
 30
0.0
 10
7.063995706967014
 20
-3.501836239154323
 30
0.0
 10
7.063984424718074
 20
-3.50199137007524
 30
0.0
 10
7.063826473235339
 20
-3.502084448627719
 30
0.0
 10
7.063826473235339
 20
-3.502242400110903
 30
0.0
 10
7.063826473235339
 20
-3.502242400110903
 30
0.0
 10
7.063826473235339
 20
-3.912871126905741
 30
0.0
 10
7.063826473235339
 20
-3.912871126905741
 30
0.0
 10
7.063826473235339
 20
-3.912871126905741
 30
0.0
 10
6.840122044317797
 20
-3.912871126905741
 30
0.0
 10
6.840122044317797
 20
-3.912871126905741
 30
0.0
 10
6.840122044317797
 20
-3.912871126905741
 30
0.0
 10
6.840122044317797
 20
-3.894052335931653
 30
0.0
 10
6.840122044317797
 20
-3.894052335931653
 30
0.0
 10
6.840122044317797
 20
-3.89087074177398
 30
0.0
 10
6.837549691594688
 20
-3.888275824553535
 30
0.0
 10
6.834345532939614
 20
-3.888275824553535
 30
0.0
 10
6.834345532939614
 20
-3.888275824553535
 30
0.0
 10
6.662223545468976
 20
-3.888275824553535
 30
0.0
 10
6.662223545468976
 20
-3.888275824553535
 30
0.0
 10
6.659019386814031
 20
-3.888275824553535
 30
0.0
 10
6.656447034090922
 20
-3.89087074177398
 30
0.0
 10
6.656447034090922
 20
-3.894052335931653
 30
0.0
 10
6.656447034090922
 20
-3.894052335931653
 30
0.0
 10
6.656447034090922
 20
-3.97025264422826
 30
0.0
 10
6.656447034090922
 20
-3.97025264422826
 30
0.0
 10
6.656447034090922
 20
-3.97025264422826
 30
0.0
 10
6.545880995993512
 20
-3.97025264422826
 30
0.0
 10
6.545880995993512
 20
-3.97025264422826
 30
0.0
 10
6.545880995993512
 20
-3.97025264422826
 30
0.0
 10
6.545880995993512
 20
-3.828479905990641
 30
0.0
 10
6.545880995993512
 20
-3.828479905990641
 30
0.0
 10
6.545880995993512
 20
-3.826872185538634
 30
0.0
 10
6.545215343315367
 20
-3.82543087825597
 30
0.0
 10
6.54415481192955
 20
-3.824381629119095
 30
0.0
 10
6.54415481192955
 20
-3.824381629119095
 30
0.0
 10
6.527784268941762
 20
-3.80805903568876
 30
0.0
 10
6.527784268941762
 20
-3.80805903568876
 30
0.0
 10
6.526735019804502
 20
-3.806992863178602
 30
0.0
 10
6.525296533084747
 20
-3.806321569375601
 30
0.0
 10
6.523677530383735
 20
-3.806321569375601
 30
0.0
 10
6.523677530383735
 20
-3.806321569375601
 30
0.0
 10
6.098291622177683
 20
-3.806321569375601
 30
0.0
 10
6.098291622177683
 20
-3.806321569375601
 30
0.0
 10
6.096802365337887
 20
-3.806321569375601
 30
0.0
 10
6.095313108497963
 20
-3.806885681815396
 30
0.0
 10
6.094184883620041
 20
-3.80801390669351
 30
0.0
 10
6.094184883620041
 20
-3.80801390669351
 30
0.0
 10
6.07780305838344
 20
-3.824395731930336
 30
0.0
 10
6.07780305838344
 20
-3.824395731930336
 30
0.0
 10
6.076719962499999
 20
-3.825478827813649
 30
0.0
 10
6.076133285563156
 20
-3.826945520155563
 30
0.0
 10
6.076133285563156
 20
-3.828479905990641
 30
0.0
 10
6.076133285563156
 20
-3.828479905990641
 30
0.0
 10
6.076133285563156
 20
-4.104801922681364
 30
0.0
 10
6.076133285563156
 20
-4.104801922681364
 30
0.0
 10
6.075862511592424
 20
-4.105470395921584
 30
0.0
 10
6.075320963650575
 20
-4.10600066161446
 30
0.0
 10
6.075320963650575
 20
-4.106767854531855
 30
0.0
 10
6.075320963650575
 20
-4.11624494351155
 30
0.0
 10
6.070221387199607
 20
-4.125045097564543
 30
0.0
 10
6.062007910083682
 20
-4.129783642054213
 30
0.0
 10
6.06122943491741
 20
-4.130234932005979
 30
0.0
 10
6.060969943195362
 20
-4.131064177291714
 30
0.0
 10
6.060496088746646
 20
-4.131758035591635
 30
0.0
 10
6.049935903883093
 20
-4.138778414898646
 30
0.0
 10
6.043324506095089
 20
-4.150557082630782
 30
0.0
 10
6.043324506095089
 20
-4.16331448544481
 30
0.0
 10
6.043324506095089
 20
-4.163393461186434
 30
0.0
 10
6.04340348183652
 20
-4.163438590181267
 30
0.0
 10
6.043409122960927
 20
-4.163517565922827
 30
0.0
 10
6.04340348183652
 20
-4.163596541664484
 30
0.0
 10
6.043324506095089
 20
-4.16364167065922
 30
0.0
 10
6.043324506095089
 20
-4.163720646400908
 30
0.0
 10
6.043324506095089
 20
-4.163720646400908
 30
0.0
 10
6.043324506095089
 20
-4.671105938779631
 30
0.0
 10
6.043324506095089
 20
-4.671105938779631
 30
0.0
 10
6.043324506095089
 20
-4.671241325764997
 30
0.0
 10
6.043459893080455
 20
-4.671320301506525
 30
0.0
 10
6.043459893080455
 20
-4.671320301506525
 30
0.0
 10
6.043854771787997
 20
-4.689459336991162
 30
0.0
 10
6.05693089813034
 20
-4.704521139119899
 30
0.0
 10
6.074542488484432
 20
-4.707866325884617
 30
0.0
 10
6.075230705659946
 20
-4.708300692463195
 30
0.0
 10
6.075772253601924
 20
-4.708949421768314
 30
0.0
 10
6.076629704509755
 20
-4.709059423693885
 30
0.0
 10
6.089897629081141
 20
-4.71072919651388
 30
0.0
 10
6.099871137007466
 20
-4.722056574294699
 30
0.0
 10
6.099871137007466
 20
-4.735437321354083
 30
0.0
 10
6.099871137007466
 20
-4.736246822704782
 30
0.0
 10
6.100423967197871
 20
-4.736813755705977
 30
0.0
 10
6.100728587915426
 20
-4.737513255130657
 30
0.0
 10
6.100728587915426
 20
-4.737513255130657
 30
0.0
 10
6.100728587915426
 20
-5.321076291308618
 30
0.0
 10
6.100728587915426
 20
-5.321076291308618
 30
0.0
 10
6.100423967197871
 20
-5.32177579073333
 30
0.0
 10
6.099871137007466
 20
-5.322342723734751
 30
0.0
 10
6.099871137007466
 20
-5.323152225085128
 30
0.0
 10
6.099871137007466
 20
-5.32785410226648
 30
0.0
 10
6.098584960646297
 20
-5.332451618646571
 30
0.0
 10
6.096232611774391
 20
-5.336462458089947
 30
0.0
 10
6.096193123903932
 20
-5.33652168989602
 30
0.0
 10
6.096114148162116
 20
-5.336518869333625
 30
0.0
 10
6.096114148162116
 20
-5.336518869333625
 30
0.0
 10
6.05943555736083
 20
-5.398404824484301
 30
0.0
 10
6.051402596225392
 20
-5.473048182448493
 30
0.0
 10
6.073921964801152
 20
-5.541350916595284
 30
0.0
 10
6.074074275159865
 20
-5.541807847671424
 30
0.0
 10
6.07470608109183
 20
-5.541703486869971
 30
0.0
 10
6.074948649440915
 20
-5.542092724453429
 30
0.0
 10
6.075625584367745
 20
-5.544504305131279
 30
0.0
 10
6.076133285563156
 20
-5.546935629744359
 30
0.0
 10
6.076133285563156
 20
-5.549338748735793
 30
0.0
 10
6.076133285563156
 20
-5.549338748735793
 30
0.0
 10
6.076223543553143
 20
-5.549564393711146
 30
0.0
 10
6.076223543553143
 20
-5.549564393711146
 30
0.0
 10
6.076223543553143
 20
-5.549651831139444
 30
0.0
 10
6.076133285563156
 20
-5.549702601258972
 30
0.0
 10
6.076133285563156
 20
-5.549702601258972
 30
0.0
 10
6.076133285563156
 20
-5.549702601258972
 30
0.0
 10
6.076133285563156
 20
-5.744947557615175
 30
0.0
 10
6.076133285563156
 20
-5.744947557615175
 30
0.0
 10
6.075862511592424
 20
-5.74561603085578
 30
0.0
 10
6.075320963650575
 20
-5.746146296548753
 30
0.0
 10
6.075320963650575
 20
-5.746913489466018
 30
0.0
 10
6.075320963650575
 20
-5.762528121785097
 30
0.0
 10
6.068957775335293
 20
-5.777826851138256
 30
0.0
 10
6.057901171525655
 20
-5.788906019445327
 30
0.0
 10
6.057291930091572
 20
-5.789512440317592
 30
0.0
 10
6.057280647842631
 20
-5.790347326728054
 30
0.0
 10
6.057004232747236
 20
-5.791100416834369
 30
0.0
 10
6.057004232747236
 20
-5.791100416834369
 30
0.0
 10
6.055712415261147
 20
-5.792386593195796
 30
0.0
 10
6.055712415261147
 20
-5.792386593195796
 30
0.0
 10
6.055317536554118
 20
-5.792623520420218
 30
0.0
 10
6.054815476482857
 20
-5.79255582692792
 30
0.0
 10
6.0544713678951
 20
-5.792899935515613
 30
0.0
 10
6.047386115657865
 20
-5.800030316748097
 30
0.0
 10
6.043324506095089
 20
-5.809845873191239
 30
0.0
 10
6.043324506095089
 20
-5.819864510112878
 30
0.0
 10
6.043324506095089
 20
-5.819864510112878
 30
0.0
 10
6.043409122960927
 20
-5.820067590590928
 30
0.0
 10
6.043409122960927
 20
-5.820067590590928
 30
0.0
 10
6.043409122960927
 20
-5.820067590590928
 30
0.0
 10
6.043324506095089
 20
-5.820270671068977
 30
0.0
 10
6.043324506095089
 20
-5.820270671068977
 30
0.0
 10
6.043324506095089
 20
-5.820270671068977
 30
0.0
 10
6.043324506095089
 20
-6.05223370609776
 30
0.0
 10
6.043324506095089
 20
-6.05223370609776
 30
0.0
 10
6.043324506095089
 20
-6.053768091932356
 30
0.0
 10
6.043911183031675
 20
-6.055234784274784
 30
0.0
 10
6.044994278915373
 20
-6.056317880158033
 30
0.0
 10
6.044994278915373
 20
-6.056317880158033
 30
0.0
 10
6.061376104151846
 20
-6.072722269891873
 30
0.0
 10
6.061376104151846
 20
-6.072722269891873
 30
0.0
 10
6.062504329030537
 20
-6.073850494770822
 30
0.0
 10
6.063993585870205
 20
-6.074414607209718
 30
0.0
 10
6.065482842709616
 20
-6.074414607209718
 30
0.0
 10
6.065482842709616
 20
-6.074414607209718
 30
0.0
 10
6.556486309851802
 20
-6.074414607209718
 30
0.0
 10
6.556486309851802
 20
-6.074414607209718
 30
0.0
 10
6.557975566691598
 20
-6.074414607209718
 30
0.0
 10
6.559464823530881
 20
-6.073850494770822
 30
0.0
 10
6.560593048409573
 20
-6.072722269891873
 30
0.0
 10
6.560593048409573
 20
-6.072722269891873
 30
0.0
 10
6.576974873646045
 20
-6.056317880158033
 30
0.0
 10
6.576974873646045
 20
-6.056317880158033
 30
0.0
 10
6.57805796953
 20
-6.055234784274784
 30
0.0
 10
6.578644646466457
 20
-6.053768091932356
 30
0.0
 10
6.578644646466457
 20
-6.05223370609776
 30
0.0
 10
6.578644646466457
 20
-6.05223370609776
 30
0.0
 10
6.578644646466457
 20
-5.926865357593918
 30
0.0
 10
6.578644646466457
 20
-5.926865357593918
 30
0.0
 10
6.578644646466457
 20
-5.926865357593918
 30
0.0
 10
6.656447034090922
 20
-5.926865357593918
 30
0.0
 10
6.656447034090922
 20
-5.926865357593918
 30
0.0
 10
6.656447034090922
 20
-5.926865357593918
 30
0.0
 10
6.656447034090922
 20
-6.003065665890588
 30
0.0
 10
6.656447034090922
 20
-6.003065665890588
 30
0.0
 10
6.656447034090922
 20
-6.006247260048229
 30
0.0
 10
6.659019386814031
 20
-6.008842177268706
 30
0.0
 10
6.662223545468976
 20
-6.008842177268706
 30
0.0
 10
6.662223545468976
 20
-6.008842177268706
 30
0.0
 10
6.834345532939614
 20
-6.008842177268706
 30
0.0
 10
6.834345532939614
 20
-6.008842177268706
 30
0.0
 10
6.837549691594688
 20
-6.008842177268706
 30
0.0
 10
6.840122044317797
 20
-6.006247260048229
 30
0.0
 10
6.840122044317797
 20
-6.003065665890588
 30
0.0
 10
6.840122044317797
 20
-6.003065665890588
 30
0.0
 10
6.840122044317797
 20
-5.984246874916501
 30
0.0
 10
6.840122044317797
 20
-5.984246874916501
 30
0.0
 10
6.840122044317797
 20
-5.984246874916501
 30
0.0
 10
7.063826473235339
 20
-5.984246874916501
 30
0.0
 10
7.063826473235339
 20
-5.984246874916501
 30
0.0
 10
7.063826473235339
 20
-5.984246874916501
 30
0.0
 10
7.063826473235339
 20
-6.444855963831058
 30
0.0
 10
7.063826473235339
 20
-6.444855963831058
 30
0.0
 10
7.063826473235339
 20
-6.448037557988635
 30
0.0
 10
7.066398825958576
 20
-6.450632475208984
 30
0.0
 10
7.069602984613394
 20
-6.450632475208984
 30
0.0
 10
7.069602984613394
 20
-6.450632475208984
 30
0.0
 10
7.167939065027351
 20
-6.450632475208984
 30
0.0
 10
7.167939065027351
 20
-6.450632475208984
 30
0.0
 10
7.169552426603572
 20
-6.450632475208984
 30
0.0
 10
7.170996554448631
 20
-6.449966822530774
 30
0.0
 10
7.172040162460715
 20
-6.448906291144958
 30
0.0
 10
7.190588179464326
 20
-6.446607532954913
 30
0.0
 10
7.205130998148455
 20
-6.431514704642134
 30
0.0
 10
7.205554082478285
 20
-6.412461807005442
 30
0.0
 10
7.205565364726584
 20
-6.412312317209382
 30
0.0
 10
7.205712033961019
 20
-6.412222059219266
 30
0.0
 10
7.205712033961019
 20
-6.412069748860232
 30
0.0
 10
7.205712033961019
 20
-6.412069748860232
 30
0.0
 10
7.205712033961019
 20
-5.865938393590065
 30
0.0
 10
7.205712033961019
 20
-5.865938393590065
 30
0.0
 10
7.205712033961019
 20
-5.865938393590065
 30
0.0
 10
7.232157625114446
 20
-5.812937209358828
 30
0.0
 10
7.232157625114446
 20
-5.812937209358828
 30
0.0
 10
7.232157625114446
 20
-5.812937209358828
 30
0.0
 10
7.4097402209969
 20
-5.812937209358828
 30
0.0
 10
7.4097402209969
 20
-5.812937209358828
 30
0.0
 10
7.411359223697528
 20
-5.812937209358828
 30
0.0
 10
7.412797710417795
 20
-5.812265915555891
 30
0.0
 10
7.413846959554927
 20
-5.811199743045669
 30
0.0
 10
7.413846959554927
 20
-5.811199743045669
 30
0.0
 10
7.422004025426789
 20
-5.803068062233314
 30
0.0
 10
7.422004025426789
 20
-5.803068062233314
 30
0.0
 10
7.423064556812221
 20
-5.802018813096438
 30
0.0
 10
7.423730209491008
 20
-5.800577505814224
 30
0.0
 10
7.423730209491008
 20
-5.798969785362281
 30
0.0
 10
7.423730209491008
 20
-5.798969785362281
 30
0.0
 10
7.423730209491008
 20
-5.775217831106506
 30
0.0
 10
7.423730209491008
 20
-5.775217831106506
 30
0.0
 10
7.424170217193416
 20
-5.775220651668838
 30
0.0
 10
7.424598942647396
 20
-5.775231933917779
 30
0.0
 10
7.425038950349675
 20
-5.775231933917779
 30
0.0
 10
7.432214460577665
 20
-5.775231933917779
 30
0.0
 10
7.439435099800137
 20
-5.774808849588205
 30
0.0
 10
7.446610610027615
 20
-5.774337815701306
 30
0.0
 10
7.446610610027615
 20
-5.774337815701306
 30
0.0
 10
7.446610610027615
 20
-5.816186497008639
 30
0.0
 10
7.446610610027615
 20
-5.816186497008639
 30
0.0
 10
7.446610610027615
 20
-5.819368091166216
 30
0.0
 10
7.449182962750724
 20
-5.821963008386822
 30
0.0
 10
7.452387121405798
 20
-5.821963008386822
 30
0.0
 10
7.452387121405798
 20
-5.821963008386822
 30
0.0
 10
7.601775377573622
 20
-5.821963008386822
 30
0.0
 10
7.601775377573622
 20
-5.821963008386822
 30
0.0
 10
7.60233949001284
 20
-5.831149579460266
 30
0.0
 10
7.608533444596575
 20
-5.83858458140992
 30
0.0
 10
7.617147441544193
 20
-5.841187960317392
 30
0.0
 10
7.618072585944129
 20
-5.842361314190821
 30
0.0
 10
7.619432096922966
 20
-5.843193380038887
 30
0.0
 10
7.621034176250502
 20
-5.843376716581835
 30
0.0
 10
7.64084580511753
 20
-5.845475214855778
 30
0.0
 10
7.660747691975315
 20
-5.846535746241531
 30
0.0
 10
7.680694707828223
 20
-5.846535746241531
 30
0.0
 10
7.700596594685623
 20
-5.846535746241531
 30
0.0
 10
7.720498481543152
 20
-5.845475214855778
 30
0.0
 10
7.740310110410307
 20
-5.843376716581835
 30
0.0
 10
7.741912189737716
 20
-5.843193380038887
 30
0.0
 10
7.743277341840702
 20
-5.842355673066607
 30
0.0
 10
7.744202486241152
 20
-5.841176678068515
 30
0.0
 10
7.751818004171294
 20
-5.838866637629593
 30
0.0
 10
7.757368870574123
 20
-5.832802428907459
 30
0.0
 10
7.758993514398643
 20
-5.825045882867224
 30
0.0
 10
7.759755066191825
 20
-5.824233560955157
 30
0.0
 10
7.760065328033529
 20
-5.823110977200872
 30
0.0
 10
7.760262767387236
 20
-5.821963008386822
 30
0.0
 10
7.760262767387236
 20
-5.821963008386822
 30
0.0
 10
7.794600291565815
 20
-5.821963008386822
 30
0.0
 10
7.794600291565815
 20
-5.821963008386822
 30
0.0
 10
7.80926721498701
 20
-5.821963008386822
 30
0.0
 10
7.821181269703965
 20
-5.833877063104227
 30
0.0
 10
7.821181269703965
 20
-5.848543986525422
 30
0.0
 10
7.821181269703965
 20
-5.849311179442689
 30
0.0
 10
7.821722817645944
 20
-5.849841445135661
 30
0.0
 10
7.821993591616675
 20
-5.850509918376266
 30
0.0
 10
7.821993591616675
 20
-5.850509918376266
 30
0.0
 10
7.821993591616675
 20
-6.743226315210739
 30
0.0
 10
7.821993591616675
 20
-6.743226315210739
 30
0.0
 10
7.821993591616675
 20
-6.744898908592969
 30
0.0
 10
7.82274950228545
 20
-6.746340215875183
 30
0.0
 10
7.823889009412826
 20
-6.747395106136786
 30
0.0
 10
7.824932617425166
 20
-6.749307447305771
 30
0.0
 10
7.826303410652687
 20
-6.750514647925894
 30
0.0
 10
7.828277804190269
 20
-6.751445433450686
 30
0.0
 10
7.829327053327144
 20
-6.752864176235467
 30
0.0
 10
7.830782463420759
 20
-6.75392188705908
 30
0.0
 10
7.832689163465595
 20
-6.75392188705908
 30
0.0
 10
7.832689163465595
 20
-6.75392188705908
 30
0.0
 10
7.896636949581316
 20
-6.75392188705908
 30
0.0
 10
7.896636949581316
 20
-6.75392188705908
 30
0.0
 10
7.898701601108886
 20
-6.75392188705908
 30
0.0
 10
7.900202140197622
 20
-6.752661095757546
 30
0.0
 10
7.901217542588188
 20
-6.751039272494716
 30
0.0
 10
7.902644747059515
 20
-6.750176180462607
 30
0.0
 10
7.90359809708174
 20
-6.749228471564211
 30
0.0
 10
7.904455547989571
 20
-6.747801267092948
 30
0.0
 10
7.906080191814734
 20
-6.746777403015708
 30
0.0
 10
7.907332521429593
 20
-6.745279684489239
 30
0.0
 10
7.907332521429593
 20
-6.743226315210739
 30
0.0
 10
7.907332521429593
 20
-6.743226315210739
 30
0.0
 10
7.907332521429593
 20
-5.117815297190261
 30
0.0
 10
7.907332521429593
 20
-5.117815297190261
 30
0.0
 10
7.907332521429593
 20
-5.115919879394431
 30
0.0
 10
7.906277631168569
 20
-5.114464469300944
 30
0.0
 10
7.904861708946055
 20
-5.113409579039406
 30
0.0
  0
ENDBLK
  5
7C
330
79
100
AcDbEntity
  8
0
100
AcDbBlockEnd
  0
BLOCK
  5
126
330
124
100
AcDbEntity
  8
0
100
AcDbBlockBegin
  2
Block_1
 70
     0
 10
0.0
 20
0.0
 30
0.0
  3
Block_1
  1

  0
LINE
  5
128
330
124
100
AcDbEntity
  8
Camada 1
 62
   250
420
  1907995
370
    15
100
AcDbLine
 10
2.837502807124347
 20
-4.451807377012188
 30
0.0
 11
2.837502807124347
 21
-5.433195809318895
 31
0.0
  0
LINE
  5
129
330
124
100
AcDbEntity
  8
Camada 1
 62
   250
420
  1907995
370
    15
100
AcDbLine
 10
3.466345539856472
 20
-5.434015649338856
 30
0.0
 11
3.466345539856472
 21
-6.366211699665246
 31
0.0
  0
LINE
  5
12A
330
124
100
AcDbEntity
  8
Camada 1
 62
   250
420
  1907995
370
    15
100
AcDbLine
 10
3.768879017430969
 20
-4.175510031098135
 30
0.0
 11
3.768879017430969
 21
-4.139435610695962
 31
0.0
  0
LINE
  5
12B
330
124
100
AcDbEntity
  8
Camada 1
 62
   250
420
  1907995
370
    15
100
AcDbLine
 10
3.867263572887573
 20
-4.139435610695962
 30
0.0
 11
3.867263572887573
 21
-4.175510031098135
 31
0.0
  0
LINE
  5
12C
330
124
100
AcDbEntity
  8
Camada 1
 62
   250
420
  1907995
370
    15
100
AcDbLine
 10
4.169797050462102
 20
-6.366211699665246
 30
0.0
 11
4.169797050462102
 21
-5.434015649338856
 31
0.0
  0
LINE
  5
12D
330
124
100
AcDbEntity
  8
Camada 1
 62
   250
420
  1907995
370
    15
100
AcDbLine
 10
4.799459623214092
 20
-5.433195809318895
 30
0.0
 11
4.799459623214092
 21
-4.451807377012188
 31
0.0
  0
SPLINE
  5
12E
330
124
100
AcDbEntity
  8
Camada 1
 62
   250
420
  1907995
370
    15
100
AcDbSpline
210
0.0
220
0.0
230
1.0
 70
     8
 71
     3
 72
     8
 73
     4
 74
     0
 42
0.0000000001
 43
0.0000000001
 40
0.0
 40
0.0
 40
0.0
 40
0.0
 40
1.0
 40
1.0
 40
1.0
 40
1.0
 10
2.836682967104899
 20
-5.432785889309267
 30
0.0
 10
2.836682967104899
 20
-5.838919455975515
 30
0.0
 10
3.086946847812914
 20
-6.203058218861908
 30
0.0
 10
3.466104091549778
 20
-6.348605937572197
 30
0.0
  0
SPLINE
  5
12F
330
124
100
AcDbEntity
  8
Camada 1
 62
   250
420
  1907995
370
    15
100
AcDbSpline
210
0.0
220
0.0
230
1.0
 70
     8
 71
     3
 72
     8
 73
     4
 74
     0
 42
0.0000000001
 43
0.0000000001
 40
0.0
 40
0.0
 40
0.0
 40
0.0
 40
1.0
 40
1.0
 40
1.0
 40
1.0
 10
4.169218241740106
 20
-6.348605937572197
 30
0.0
 10
4.548375902485699
 20
-6.203058218861908
 30
0.0
 10
4.79863978319426
 20
-5.838919455975515
 30
0.0
 10
4.79863978319426
 20
-5.432785889309267
 30
0.0
  0
SPLINE
  5
130
330
124
100
AcDbEntity
  8
Camada 1
 62
   250
420
  1907995
370
    15
100
AcDbSpline
210
0.0
220
0.0
230
1.0
 70
     8
 71
     3
 72
    11
 73
     7
 74
     0
 42
0.0000000001
 43
0.0000000001
 40
0.0
 40
0.0
 40
0.0
 40
0.0
 40
1.0
 40
1.0
 40
1.0
 40
2.0
 40
2.0
 40
2.0
 40
2.0
 10
4.79863978319426
 20
-4.451303421435438
 30
0.0
 10
4.798587865552862
 20
-3.909542210723435
 30
0.0
 10
4.359375463825847
 20
-3.470392777380193
 30
0.0
 10
3.817614461618481
 20
-3.470419048957896
 30
0.0
 10
3.275853250906285
 20
-3.47044490352626
 30
0.0
 10
2.836682967104899
 20
-3.909636246290011
 30
0.0
 10
2.836682967104899
 20
-4.451397457002593
 30
0.0
  0
SPLINE
  5
131
330
124
100
AcDbEntity
  8
Camada 1
 62
   250
420
  1907995
370
    15
100
AcDbSpline
210
0.0
220
0.0
230
1.0
 70
     8
 71
     3
 72
    14
 73
    10
 74
     0
 42
0.0000000001
 43
0.0000000001
 40
0.0
 40
0.0
 40
0.0
 40
0.0
 40
1.0
 40
1.0
 40
1.0
 40
2.0
 40
2.0
 40
2.0
 40
3.0
 40
3.0
 40
3.0
 40
3.0
 10
4.169217407721874
 20
-5.624658582850631
 30
0.0
 10
4.261174600906925
 20
-5.456170825051398
 30
0.0
 10
4.220663828495183
 20
-5.246130814449269
 30
0.0
 10
4.072640169989251
 20
-5.123929197502486
 30
0.0
 10
3.924616928493141
 20
-5.001727163547037
 30
0.0
 10
3.710705821805472
 20
-5.001727163547037
 30
0.0
 10
3.562682163300022
 20
-5.123929197502486
 30
0.0
 10
3.414658921803526
 20
-5.246130814449269
 30
0.0
 10
3.374147732382765
 20
-5.456170825051398
 30
0.0
 10
3.466105342577252
 20
-5.624658582850631
 30
0.0
  0
SPLINE
  5
132
330
124
100
AcDbEntity
  8
Camada 1
 62
   250
420
  1907995
370
    15
100
AcDbSpline
210
0.0
220
0.0
230
1.0
 70
     8
 71
     3
 72
    11
 73
     7
 74
     0
 42
0.0000000001
 43
0.0000000001
 40
0.0
 40
0.0
 40
0.0
 40
0.0
 40
1.0
 40
1.0
 40
1.0
 40
2.0
 40
2.0
 40
2.0
 40
2.0
 10
4.168977210442205
 20
-5.433572055838836
 30
0.0
 10
4.168958862039234
 20
-5.239552494860036
 30
0.0
 10
4.01166425576134
 20
-5.08228082408705
 30
0.0
 10
3.817644486278288
 20
-5.082289998288295
 30
0.0
 10
3.623624716795267
 20
-5.08229917248999
 30
0.0
 10
3.466345539856472
 20
-5.239585855593761
 30
0.0
 10
3.466345539856472
 20
-5.433605729329036
 30
0.0
  0
SPLINE
  5
133
330
124
100
AcDbEntity
  8
Camada 1
 62
   250
420
  1907995
370
    15
100
AcDbSpline
210
0.0
220
0.0
230
1.0
 70
     8
 71
     3
 72
    11
 73
     7
 74
     0
 42
0.0000000001
 43
0.0000000001
 40
0.0
 40
0.0
 40
0.0
 40
0.0
 40
1.0
 40
1.0
 40
1.0
 40
2.0
 40
2.0
 40
2.0
 40
2.0
 10
3.466345539856472
 20
-6.365801779655619
 30
0.0
 10
3.466345539856472
 20
-6.559828117033065
 30
0.0
 10
3.623635142024115
 20
-6.717117484632853
 30
0.0
 10
3.817661166644926
 20
-6.717117484632853
 30
0.0
 10
4.011687608274595
 20
-6.717117484632853
 30
0.0
 10
4.168977210442205
 20
-6.559828117033065
 30
0.0
 10
4.168977210442205
 20
-6.365801779655619
 30
0.0
  0
SPLINE
  5
134
330
124
100
AcDbEntity
  8
Camada 1
 62
   250
420
  1907995
370
    15
100
AcDbSpline
210
0.0
220
0.0
230
1.0
 70
     8
 71
     3
 72
    17
 73
    13
 74
     0
 42
0.0000000001
 43
0.0000000001
 40
0.0
 40
0.0
 40
0.0
 40
0.0
 40
1.0
 40
1.0
 40
1.0
 40
2.0
 40
2.0
 40
2.0
 40
3.0
 40
3.0
 40
3.0
 40
4.0
 40
4.0
 40
4.0
 40
4.0
 10
3.768510381328579
 20
-4.14522494894324
 30
0.0
 10
3.645011448867235
 20
-4.170455671505359
 30
0.0
 10
3.560675098185538
 20
-4.285097954800705
 30
0.0
 10
3.573354678878005
 20
-4.410508457277298
 30
0.0
 10
3.586034676579652
 20
-4.535918959753892
 30
0.0
 10
3.691611389117158
 20
-4.631359639004727
 30
0.0
 10
3.817661166644926
 20
-4.631359639004727
 30
0.0
 10
3.943711361181519
 20
-4.631359639004727
 30
0.0
 10
4.049288073719025
 20
-4.535918959753892
 30
0.0
 10
4.061968071420769
 20
-4.410508457277298
 30
0.0
 10
4.074647652113204
 20
-4.285097954800705
 30
0.0
 10
3.990311301431346
 20
-4.170455671505359
 30
0.0
 10
3.866812368970002
 20
-4.14522494894324
 30
0.0
  0
SPLINE
  5
135
330
124
100
AcDbEntity
  8
Camada 1
 62
   250
420
  1907995
370
    15
100
AcDbSpline
210
0.0
220
0.0
230
1.0
 70
     8
 71
     3
 72
    17
 73
    13
 74
     0
 42
0.0000000001
 43
0.0000000001
 40
0.0
 40
0.0
 40
0.0
 40
0.0
 40
1.0
 40
1.0
 40
1.0
 40
2.0
 40
2.0
 40
2.0
 40
3.0
 40
3.0
 40
3.0
 40
4.0
 40
4.0
 40
4.0
 40
4.0
 10
3.757043463289915
 20
-4.190437082689427
 30
0.0
 10
3.660449962200444
 20
-4.220407322924075
 30
0.0
 10
3.600256774176121
 20
-4.316468303309392
 30
0.0
 10
3.615412972304095
 20
-4.41646251414502
 30
0.0
 10
3.630569170431652
 20
-4.516457141990311
 30
0.0
 10
3.716524767703953
 20
-4.590365969978986
 30
0.0
 10
3.817661166644926
 20
-4.590365969978986
 30
0.0
 10
3.91879798259482
 20
-4.590365969978986
 30
0.0
 10
4.004753579867121
 20
-4.516457141990311
 30
0.0
 10
4.019909777995032
 20
-4.41646251414502
 30
0.0
 10
4.035065976122525
 20
-4.316468303309392
 30
0.0
 10
3.974872788098619
 20
-4.220407322924075
 30
0.0
 10
3.878279287008666
 20
-4.190437082689427
 30
0.0
  0
SPLINE
  5
136
330
124
100
AcDbEntity
  8
Camada 1
 62
   250
420
  1907995
370
    15
100
AcDbSpline
210
0.0
220
0.0
230
1.0
 70
     8
 71
     3
 72
    11
 73
     7
 74
     0
 42
0.0000000001
 43
0.0000000001
 40
0.0
 40
0.0
 40
0.0
 40
0.0
 40
1.0
 40
1.0
 40
1.0
 40
2.0
 40
2.0
 40
2.0
 40
2.0
 10
3.866443732867677
 20
-4.139021103584878
 30
0.0
 10
3.866441230812696
 20
-4.112080226434282
 30
0.0
 10
3.844599958749592
 20
-4.09024208194001
 30
0.0
 10
3.817659081599092
 20
-4.090243332967612
 30
0.0
 10
3.790718204448591
 20
-4.090244375490417
 30
0.0
 10
3.768879017430969
 20
-4.112084813535226
 30
0.0
 10
3.768879017430969
 20
-4.139025690685693
 30
0.0
  0
SPLINE
  5
137
330
124
100
AcDbEntity
  8
Camada 1
 62
   250
420
  1907995
370
    15
100
AcDbSpline
210
0.0
220
0.0
230
1.0
 70
     8
 71
     3
 72
     8
 73
     4
 74
     0
 42
0.0000000001
 43
0.0000000001
 40
0.0
 40
0.0
 40
0.0
 40
0.0
 40
1.0
 40
1.0
 40
1.0
 40
1.0
 10
3.756809104138727
 20
-4.190369527204197
 30
0.0
 10
3.763499182184396
 20
-4.18829386408216
 30
0.0
 10
3.768059177411585
 20
-4.18210482254924
 30
0.0
 10
3.768059177411585
 20
-4.175100111088476
 30
0.0
  0
SPLINE
  5
138
330
124
100
AcDbEntity
  8
Camada 1
 62
   250
420
  1907995
370
    15
100
AcDbSpline
210
0.0
220
0.0
230
1.0
 70
     8
 71
     3
 72
     8
 73
     4
 74
     0
 42
0.0000000001
 43
0.0000000001
 40
0.0
 40
0.0
 40
0.0
 40
0.0
 40
1.0
 40
1.0
 40
1.0
 40
1.0
 10
3.867263572887573
 20
-4.175100111088476
 30
0.0
 10
3.867263572887573
 20
-4.18210482254924
 30
0.0
 10
3.871823568114313
 20
-4.18829386408216
 30
0.0
 10
3.878513646159982
 20
-4.190369527204197
 30
0.0
  0
SPLINE
  5
139
330
124
100
AcDbEntity
  8
Camada 1
 62
   250
420
  1907995
370
    15
100
AcDbSpline
210
0.0
220
0.0
230
1.0
 70
     9
 71
     3
 72
    53
 73
    49
 74
     0
 42
0.0000000001
 43
0.0000000001
 40
0.0
 40
0.0
 40
0.0
 40
0.0
 40
1.0
 40
1.0
 40
1.0
 40
2.0
 40
2.0
 40
2.0
 40
3.0
 40
3.0
 40
3.0
 40
4.0
 40
4.0
 40
4.0
 40
5.0
 40
5.0
 40
5.0
 40
6.0
 40
6.0
 40
6.0
 40
7.0
 40
7.0
 40
7.0
 40
8.0
 40
8.0
 40
8.0
 40
9.0
 40
9.0
 40
9.0
 40
10.0
 40
10.0
 40
10.0
 40
11.0
 40
11.0
 40
11.0
 40
12.0
 40
12.0
 40
12.0
 40
13.0
 40
13.0
 40
13.0
 40
14.0
 40
14.0
 40
14.0
 40
15.0
 40
15.0
 40
15.0
 40
16.0
 40
16.0
 40
16.0
 40
16.0
 10
3.817597322543809
 20
-3.464634106951145
 30
0.0
 10
3.273521900293973
 20
-3.464656677075861
 30
0.0
 10
2.830921757992497
 20
-3.907324529751037
 30
0.0
 10
2.830921757992497
 20
-4.451399952001001
 30
0.0
 10
2.830921757992497
 20
-4.452167336235286
 30
0.0
 10
2.831463440981641
 20
-4.452697734161929
 30
0.0
 10
2.83173428247586
 20
-4.453366374101987
 30
0.0
 10
2.83173428247586
 20
-4.453366374101987
 30
0.0
 10
2.83173428247586
 20
-5.430805115183337
 30
0.0
 10
2.83173428247586
 20
-5.430805115183337
 30
0.0
 10
2.831463440981641
 20
-5.431473755122851
 30
0.0
 10
2.830921757992497
 20
-5.432004153049974
 30
0.0
 10
2.830921757992497
 20
-5.432771537284226
 30
0.0
 10
2.830921757992497
 20
-5.837151994936687
 30
0.0
 10
3.08383693109778
 20
-6.206213028944031
 30
0.0
 10
3.460583092511785
 20
-6.352521040032539
 30
0.0
 10
3.460583092511785
 20
-6.352521040032539
 30
0.0
 10
3.460583092511785
 20
-6.366204178037056
 30
0.0
 10
3.460583092511785
 20
-6.366204178037056
 30
0.0
 10
3.460583092511785
 20
-6.366204178037056
 30
0.0
 10
3.460605662636566
 20
-6.366260603348766
 30
0.0
 10
3.460605662636566
 20
-6.366260603348766
 30
0.0
 10
3.460859576537657
 20
-6.562950774950247
 30
0.0
 10
3.620898687145684
 20
-6.722902426325557
 30
0.0
 10
3.817642462792793
 20
-6.722902426325557
 30
0.0
 10
4.013630139267863
 20
-6.722902426325557
 30
0.0
 10
4.173133209417884
 20
-6.564146991550866
 30
0.0
 10
4.174611552575866
 20
-6.368500688209765
 30
0.0
 10
4.174972674568564
 20
-6.367741767771644
 30
0.0
 10
4.175559497806244
 20
-6.367098519222255
 30
0.0
 10
4.175559497806244
 20
-6.366204178037056
 30
0.0
 10
4.175559497806244
 20
-6.366204178037056
 30
0.0
 10
4.175559497806244
 20
-6.352171203102054
 30
0.0
 10
4.175559497806244
 20
-6.352171203102054
 30
0.0
 10
4.551024804652964
 20
-6.205967578839615
 30
0.0
 10
4.803200806179336
 20
-5.838461062160404
 30
0.0
 10
4.804306742282021
 20
-5.435415063121594
 30
0.0
 10
4.804645294150388
 20
-5.434678712808221
 30
0.0
 10
4.805220832326141
 20
-5.434063676914399
 30
0.0
 10
4.805220832326141
 20
-5.433200369650785
 30
0.0
 10
4.805220832326141
 20
-5.433200369650785
 30
0.0
 10
4.805220832326141
 20
-4.45180621424262
 30
0.0
 10
4.805220832326141
 20
-4.45180621424262
 30
0.0
 10
4.805220832326141
 20
-4.450959834572422
 30
0.0
 10
4.804650936681302
 20
-4.450358905006095
 30
0.0
 10
4.804323669875437
 20
-4.449633839755416
 30
0.0
 10
4.803358797051162
 20
-3.906331444271163
 30
0.0
 10
4.361108491680266
 20
-3.464611536826846
 30
0.0
 10
3.817597322543809
 20
-3.464634106951145
 30
0.0
  0
ENDBLK
  5
127
330
124
100
AcDbEntity
  8
0
100
AcDbBlockEnd
  0
ENDSEC
  0
SECTION
  2
ENTITIES
  0
INSERT
  5
7A
330
70
100
AcDbEntity
  8
Camada 1
100
AcDbBlockReference
  2
Block_0
 10
0.0
 20
0.0
 30
0.0
  0
INSERT
  5
125
330
70
100
AcDbEntity
  8
Camada 1
100
AcDbBlockReference
  2
Block_1
 10
0.0
 20
0.0
 30
0.0
  0
ENDSEC
  0
SECTION
  2
OBJECTS
  0
DICTIONARY
  5
C
330
0
100
AcDbDictionary
281
     1
  3
ACAD_COLOR
350
63
  3
ACAD_DETAILVIEWSTYLE
350
6A
  3
ACAD_GROUP
350
D
  3
ACAD_LAYOUT
350
62
  3
ACAD_MATERIAL
350
10
  3
ACAD_MLEADERSTYLE
350
66
  3
ACAD_MLINESTYLE
350
5F
  3
ACAD_PLOTSETTINGS
350
61
  3
ACAD_PLOTSTYLENAME
350
E
  3
ACAD_SCALELIST
350
42
  3
ACAD_SECTIONVIEWSTYLE
350
68
  3
ACAD_TABLESTYLE
350
64
  3
ACAD_VISUALSTYLE
350
29
  3
ACDB_RECOMPOSE_DATA
350
142
  3
AcDbVariableDictionary
350
13A
  0
DICTIONARY
  5
63
102
{ACAD_REACTORS
330
C
102
}
330
C
100
AcDbDictionary
281
     1
  0
DICTIONARY
  5
6A
102
{ACAD_REACTORS
330
C
102
}
330
C
100
AcDbDictionary
281
     1
  3
Imperial24
350
6B
  0
DICTIONARY
  5
D
102
{ACAD_REACTORS
330
C
102
}
330
C
100
AcDbDictionary
281
     1
  0
DICTIONARY
  5
62
102
{ACAD_REACTORS
330
C
102
}
330
C
100
AcDbDictionary
281
     1
  3
Layout1
350
6F
  3
Layout2
350
77
  3
Model
350
73
  0
DICTIONARY
  5
10
102
{ACAD_REACTORS
330
C
102
}
330
C
100
AcDbDictionary
281
     1
  3
ByBlock
350
19
  3
ByLayer
350
11
  3
Global
350
21
  0
DICTIONARY
  5
66
102
{ACAD_REACTORS
330
C
102
}
330
C
100
AcDbDictionary
281
     1
  3
Standard
350
67
  0
DICTIONARY
  5
5F
102
{ACAD_REACTORS
330
C
102
}
330
C
100
AcDbDictionary
281
     1
  3
Standard
350
60
  0
DICTIONARY
  5
61
102
{ACAD_REACTORS
330
C
102
}
330
C
100
AcDbDictionary
281
     1
  0
ACDBDICTIONARYWDFLT
  5
E
102
{ACAD_REACTORS
330
C
102
}
330
C
100
AcDbDictionary
281
     1
  3
Normal
350
F
100
AcDbDictionaryWithDefault
340
F
  0
DICTIONARY
  5
42
102
{ACAD_REACTORS
330
C
102
}
330
C
100
AcDbDictionary
281
     1
  3
A0
350
43
  3
A1
350
44
  3
A2
350
45
  3
A3
350
46
  3
A4
350
47
  3
A5
350
48
  3
A6
350
49
  3
A7
350
4A
  3
A8
350
4B
  3
A9
350
4C
  3
B0
350
4D
  3
B1
350
4E
  3
B2
350
4F
  3
B3
350
50
  3
B4
350
51
  3
B5
350
52
  3
B6
350
53
  0
DICTIONARY
  5
68
102
{ACAD_REACTORS
330
C
102
}
330
C
100
AcDbDictionary
281
     1
  3
Imperial24
350
69
  0
DICTIONARY
  5
64
102
{ACAD_REACTORS
330
C
102
}
330
C
100
AcDbDictionary
281
     1
  3
Standard
350
65
  0
DICTIONARY
  5
29
102
{ACAD_REACTORS
330
C
102
}
330
C
100
AcDbDictionary
281
     1
  3
2dWireframe
350
2F
  3
Basic
350
2E
  3
Brighten
350
35
  3
ColorChange
350
39
  3
Conceptual
350
32
  3
Dim
350
34
  3
EdgeColorOff
350
41
  3
Facepattern
350
38
  3
Flat
350
2A
  3
FlatWithEdges
350
2B
  3
Gouraud
350
2C
  3
GouraudWithEdges
350
2D
  3
Hidden
350
31
  3
JitterOff
350
3F
  3
Linepattern
350
37
  3
OverhangOff
350
40
  3
Realistic
350
33
  3
Shaded
350
3E
  3
Shaded with edges
350
3D
  3
Shades of Gray
350
3A
  3
Sketchy
350
3B
  3
Thicken
350
36
  3
Wireframe
350
30
  3
X-Ray
350
3C
  0
XRECORD
  5
142
102
{ACAD_REACTORS
330
C
102
}
330
C
100
AcDbXrecord
280
     1
 90
        1
330
65
  0
DICTIONARY
  5
13A
102
{ACAD_REACTORS
330
C
102
}
330
C
100
AcDbDictionary
281
     1
  3
CANNOSCALE
350
13F
  3
CMLEADERSTYLE
350
13C
  3
CTABLESTYLE
350
13B
  3
CVIEWDETAILSTYLE
350
13D
  3
CVIEWSECTIONSTYLE
350
13E
  0
ACDBDETAILVIEWSTYLE
  5
6B
102
{ACAD_REACTORS
330
6A
102
}
330
6A
100
AcDbModelDocViewStyle
 70
     0
  3
Imperial24
290
     1
300
Imperial24
 90
        0
100
AcDbDetailViewStyle
 70
     0
 71
     0
 90
        3
 71
     1
340
55
 62
   256
 40
0.24
340
0
 62
   256
 40
0.24
300

 40
0.36
280
     3
 71
     2
340
5D
 90
       25
 62
   256
 71
     3
340
55
 62
   256
 40
0.24
 90
        1
 40
0.75
 90
        1
300
%<\AcVar ViewType \f "%tc1">% %<\AcVar ViewDetailId>%\PSCALE %<\AcVar ViewScale \f "%sn">%
 71
     4
340
5D
 90
       25
 62
   256
340
5D
 90
       25
 62
   256
280
     0
  0
LAYOUT
  5
6F
102
{ACAD_REACTORS
330
62
102
}
330
62
100
AcDbPlotSettings
  1

  2

  4

  6

 40
0.0
 41
0.0
 42
0.0
 43
0.0
 44
0.0
 45
0.0
 46
0.0
 47
0.0
 48
0.0
 49
0.0
140
0.0
141
0.0
142
1.0
143
1.0
 70
   688
 72
     0
 73
     0
 74
     5
  7

 75
    16
147
1.0
 76
     0
 77
     2
 78
   300
148
0.0
149
0.0
100
AcDbLayout
  1
Layout1
 70
     1
 71
     1
 10
0.0
 20
0.0
 11
12.0
 21
9.0
 12
0.0
 22
0.0
 32
0.0
 14
0.0
 24
0.0
 34
0.0
 15
0.0
 25
0.0
 35
0.0
146
0.0
 13
0.0
 23
0.0
 33
0.0
 16
1.0
 26
0.0
 36
0.0
 17
0.0
 27
1.0
 37
0.0
 76
     0
330
6C
  0
LAYOUT
  5
77
102
{ACAD_REACTORS
330
62
102
}
330
62
100
AcDbPlotSettings
  1

  2

  4

  6

 40
0.0
 41
0.0
 42
0.0
 43
0.0
 44
0.0
 45
0.0
 46
0.0
 47
0.0
 48
0.0
 49
0.0
140
0.0
141
0.0
142
1.0
143
1.0
 70
   688
 72
     0
 73
     0
 74
     5
  7

 75
    16
147
1.0
 76
     0
 77
     2
 78
   300
148
0.0
149
0.0
100
AcDbLayout
  1
Layout2
 70
     1
 71
     2
 10
0.0
 20
0.0
 11
12.0
 21
9.0
 12
0.0
 22
0.0
 32
0.0
 14
0.0
 24
0.0
 34
0.0
 15
0.0
 25
0.0
 35
0.0
146
0.0
 13
0.0
 23
0.0
 33
0.0
 16
1.0
 26
0.0
 36
0.0
 17
0.0
 27
1.0
 37
0.0
 76
     0
330
74
  0
LAYOUT
  5
73
102
{ACAD_REACTORS
330
62
102
}
330
62
100
AcDbPlotSettings
  1

  2

  4

  6

 40
0.0
 41
0.0
 42
0.0
 43
0.0
 44
0.0
 45
0.0
 46
0.0
 47
0.0
 48
0.0
 49
0.0
140
0.0
141
0.0
142
1.0
143
1.0
 70
  1712
 72
     0
 73
     0
 74
     0
  7

 75
     0
147
1.0
 76
     0
 77
     2
 78
   300
148
0.0
149
0.0
100
AcDbLayout
  1
Model
 70
     1
 71
     0
 10
0.0
 20
0.0
 11
12.0
 21
9.0
 12
0.0
 22
0.0
 32
0.0
 14
0.0
 24
0.0
 34
0.0
 15
0.0
 25
0.0
 35
0.0
146
0.0
 13
0.0
 23
0.0
 33
0.0
 16
1.0
 26
0.0
 36
0.0
 17
0.0
 27
1.0
 37
0.0
 76
     0
330
70
  0
MATERIAL
  5
19
102
{ACAD_XDICTIONARY
360
1A
102
}
102
{ACAD_REACTORS
330
10
102
}
330
10
100
AcDbMaterial
  1
ByBlock
 72
     0
 43
0.0208333333333333
 43
0.0
 43
0.0
 43
0.0
 43
0.0
 43
0.0208333333333333
 43
0.0
 43
0.0
 43
0.0
 43
0.0
 43
1.0
 43
0.0
 43
0.0
 43
0.0
 43
0.0
 43
1.0
 77
     0
 47
0.0208333333333333
 47
0.0
 47
0.0
 47
0.0
 47
0.0
 47
0.0208333333333333
 47
0.0
 47
0.0
 47
0.0
 47
0.0
 47
1.0
 47
0.0
 47
0.0
 47
0.0
 47
0.0
 47
1.0
171
     0
 49
0.0208333333333333
 49
0.0
 49
0.0
 49
0.0
 49
0.0
 49
0.0208333333333333
 49
0.0
 49
0.0
 49
0.0
 49
0.0
 49
1.0
 49
0.0
 49
0.0
 49
0.0
 49
0.0
 49
1.0
175
     0
142
0.0208333333333333
142
0.0
142
0.0
142
0.0
142
0.0
142
0.0208333333333333
142
0.0
142
0.0
142
0.0
142
0.0
142
1.0
142
0.0
142
0.0
142
0.0
142
0.0
142
1.0
179
     0
144
0.0208333333333333
144
0.0
144
0.0
144
0.0
144
0.0
144
0.0208333333333333
144
0.0
144
0.0
144
0.0
144
0.0
144
1.0
144
0.0
144
0.0
144
0.0
144
0.0
144
1.0
147
0.0208333333333333
147
0.0
147
0.0
147
0.0
147
0.0
147
0.0208333333333333
147
0.0
147
0.0
147
0.0
147
0.0
147
1.0
147
0.0
147
0.0
147
0.0
147
0.0
147
1.0
  0
MATERIAL
  5
11
102
{ACAD_XDICTIONARY
360
12
102
}
102
{ACAD_REACTORS
330
10
102
}
330
10
100
AcDbMaterial
  1
ByLayer
 72
     0
 43
0.0208333333333333
 43
0.0
 43
0.0
 43
0.0
 43
0.0
 43
0.0208333333333333
 43
0.0
 43
0.0
 43
0.0
 43
0.0
 43
1.0
 43
0.0
 43
0.0
 43
0.0
 43
0.0
 43
1.0
 77
     0
 47
0.0208333333333333
 47
0.0
 47
0.0
 47
0.0
 47
0.0
 47
0.0208333333333333
 47
0.0
 47
0.0
 47
0.0
 47
0.0
 47
1.0
 47
0.0
 47
0.0
 47
0.0
 47
0.0
 47
1.0
171
     0
 49
0.0208333333333333
 49
0.0
 49
0.0
 49
0.0
 49
0.0
 49
0.0208333333333333
 49
0.0
 49
0.0
 49
0.0
 49
0.0
 49
1.0
 49
0.0
 49
0.0
 49
0.0
 49
0.0
 49
1.0
175
     0
142
0.0208333333333333
142
0.0
142
0.0
142
0.0
142
0.0
142
0.0208333333333333
142
0.0
142
0.0
142
0.0
142
0.0
142
1.0
142
0.0
142
0.0
142
0.0
142
0.0
142
1.0
179
     0
144
0.0208333333333333
144
0.0
144
0.0
144
0.0
144
0.0
144
0.0208333333333333
144
0.0
144
0.0
144
0.0
144
0.0
144
1.0
144
0.0
144
0.0
144
0.0
144
0.0
144
1.0
147
0.0208333333333333
147
0.0
147
0.0
147
0.0
147
0.0
147
0.0208333333333333
147
0.0
147
0.0
147
0.0
147
0.0
147
1.0
147
0.0
147
0.0
147
0.0
147
0.0
147
1.0
  0
MATERIAL
  5
21
102
{ACAD_XDICTIONARY
360
22
102
}
102
{ACAD_REACTORS
330
10
102
}
330
10
100
AcDbMaterial
  1
Global
 72
     0
 43
0.0208333333333333
 43
0.0
 43
0.0
 43
0.0
 43
0.0
 43
0.0208333333333333
 43
0.0
 43
0.0
 43
0.0
 43
0.0
 43
1.0
 43
0.0
 43
0.0
 43
0.0
 43
0.0
 43
1.0
 77
     0
 47
0.0208333333333333
 47
0.0
 47
0.0
 47
0.0
 47
0.0
 47
0.0208333333333333
 47
0.0
 47
0.0
 47
0.0
 47
0.0
 47
1.0
 47
0.0
 47
0.0
 47
0.0
 47
0.0
 47
1.0
171
     0
 49
0.0208333333333333
 49
0.0
 49
0.0
 49
0.0
 49
0.0
 49
0.0208333333333333
 49
0.0
 49
0.0
 49
0.0
 49
0.0
 49
1.0
 49
0.0
 49
0.0
 49
0.0
 49
0.0
 49
1.0
175
     0
142
0.0208333333333333
142
0.0
142
0.0
142
0.0
142
0.0
142
0.0208333333333333
142
0.0
142
0.0
142
0.0
142
0.0
142
1.0
142
0.0
142
0.0
142
0.0
142
0.0
142
1.0
179
     0
144
0.0208333333333333
144
0.0
144
0.0
144
0.0
144
0.0
144
0.0208333333333333
144
0.0
144
0.0
144
0.0
144
0.0
144
1.0
144
0.0
144
0.0
144
0.0
144
0.0
144
1.0
147
0.0208333333333333
147
0.0
147
0.0
147
0.0
147
0.0
147
0.0208333333333333
147
0.0
147
0.0
147
0.0
147
0.0
147
1.0
147
0.0
147
0.0
147
0.0
147
0.0
147
1.0
  0
MLEADERSTYLE
  5
67
102
{ACAD_REACTORS
330
66
102
}
330
66
100
AcDbMLeaderStyle
179
     2
170
     2
171
     1
172
     0
 90
        2
 40
0.0
 41
0.0
173
     1
 91
-1056964608
340
5B
 92
       -2
290
     1
 42
0.09
291
     1
 43
0.36
  3
Standard
 44
0.18
300

342
55
174
     1
178
     6
175
     1
176
     0
 93
-1056964608
 45
0.18
292
     0
297
     0
 46
0.18
 94
-1056964608
 47
1.0
 49
1.0
140
1.0
293
     1
141
0.0
294
     1
177
     0
142
1.0
295
     1
296
     0
143
0.125
271
     0
272
     9
273
     9
298
     1
  0
MLINESTYLE
  5
60
102
{ACAD_REACTORS
330
5F
102
}
330
5F
100
AcDbMlineStyle
  2
STANDARD
 70
     0
  3

 62
   256
 51
90.0
 52
90.0
 71
     2
 49
0.5
 62
   256
  6
BYLAYER
 49
-0.5
 62
   256
  6
BYLAYER
  0
ACDBPLACEHOLDER
  5
F
102
{ACAD_REACTORS
330
E
102
}
330
E
  0
SCALE
  5
43
102
{ACAD_REACTORS
330
42
102
}
330
42
100
AcDbScale
 70
     0
300
1:1
140
1.0
141
1.0
290
     1
  0
SCALE
  5
44
102
{ACAD_REACTORS
330
42
102
}
330
42
100
AcDbScale
 70
     0
300
1/128" = 1'-0"
140
0.0078125
141
12.0
290
     0
  0
SCALE
  5
45
102
{ACAD_REACTORS
330
42
102
}
330
42
100
AcDbScale
 70
     0
300
1/64" = 1'-0"
140
0.015625
141
12.0
290
     0
  0
SCALE
  5
46
102
{ACAD_REACTORS
330
42
102
}
330
42
100
AcDbScale
 70
     0
300
1/32" = 1'-0"
140
0.03125
141
12.0
290
     0
  0
SCALE
  5
47
102
{ACAD_REACTORS
330
42
102
}
330
42
100
AcDbScale
 70
     0
300
1/16" = 1'-0"
140
0.0625
141
12.0
290
     0
  0
SCALE
  5
48
102
{ACAD_REACTORS
330
42
102
}
330
42
100
AcDbScale
 70
     0
300
3/32" = 1'-0"
140
0.09375
141
12.0
290
     0
  0
SCALE
  5
49
102
{ACAD_REACTORS
330
42
102
}
330
42
100
AcDbScale
 70
     0
300
1/8" = 1'-0"
140
0.125
141
12.0
290
     0
  0
SCALE
  5
4A
102
{ACAD_REACTORS
330
42
102
}
330
42
100
AcDbScale
 70
     0
300
3/16" = 1'-0"
140
0.1875
141
12.0
290
     0
  0
SCALE
  5
4B
102
{ACAD_REACTORS
330
42
102
}
330
42
100
AcDbScale
 70
     0
300
1/4" = 1'-0"
140
0.25
141
12.0
290
     0
  0
SCALE
  5
4C
102
{ACAD_REACTORS
330
42
102
}
330
42
100
AcDbScale
 70
     0
300
3/8" = 1'-0"
140
0.375
141
12.0
290
     0
  0
SCALE
  5
4D
102
{ACAD_REACTORS
330
42
102
}
330
42
100
AcDbScale
 70
     0
300
1/2" = 1'-0"
140
0.5
141
12.0
290
     0
  0
SCALE
  5
4E
102
{ACAD_REACTORS
330
42
102
}
330
42
100
AcDbScale
 70
     0
300
3/4" = 1'-0"
140
0.75
141
12.0
290
     0
  0
SCALE
  5
4F
102
{ACAD_REACTORS
330
42
102
}
330
42
100
AcDbScale
 70
     0
300
1" = 1'-0"
140
1.0
141
12.0
290
     0
  0
SCALE
  5
50
102
{ACAD_REACTORS
330
42
102
}
330
42
100
AcDbScale
 70
     0
300
1-1/2" = 1'-0"
140
1.5
141
12.0
290
     0
  0
SCALE
  5
51
102
{ACAD_REACTORS
330
42
102
}
330
42
100
AcDbScale
 70
     0
300
3" = 1'-0"
140
3.0
141
12.0
290
     0
  0
SCALE
  5
52
102
{ACAD_REACTORS
330
42
102
}
330
42
100
AcDbScale
 70
     0
300
6" = 1'-0"
140
6.0
141
12.0
290
     0
  0
SCALE
  5
53
102
{ACAD_REACTORS
330
42
102
}
330
42
100
AcDbScale
 70
     0
300
1'-0" = 1'-0"
140
12.0
141
12.0
290
     0
  0
ACDBSECTIONVIEWSTYLE
  5
69
102
{ACAD_REACTORS
330
68
102
}
330
68
100
AcDbModelDocViewStyle
 70
     0
  3
Imperial24
290
     1
300
Imperial24
 90
        0
100
AcDbSectionViewStyle
 70
     0
 71
     0
 90
       78
 71
     1
340
55
 62
   256
 40
0.24
340
0
340
0
 62
   256
 40
0.24
300
I, O, Q, S, X, Z
 40
0.48
 90
        3
 40
0.18
 90
        1
 71
     2
340
5D
 90
       25
 62
   256
340
5D
 90
       50
 62
   256
 40
0.24
 40
0.0
 40
0.24
 71
     3
340
55
 62
   256
 40
0.24
 90
        1
 40
0.75
 90
        1
300
%<\AcVar ViewType \f "%tc1">% %<\AcVar ViewSectionStartId>%-%<\AcVar ViewSectionEndId>%\PSCALE %<\AcVar ViewScale \f "%sn">%
 71
     4
 62
   256
 62
   257
300
ANSI31
 40
1.0
 90
        0
290
     0
290
     0
 90
        6
 40
0.0
 40
1.570796326794896
 40
0.2617993877991494
 40
1.308996938995747
 40
-0.2617993877991494
 40
1.832595714594046
  0
TABLESTYLE
  5
65
102
{ACAD_XDICTIONARY
360
140
102
}
102
{ACAD_REACTORS
330
64
102
}
330
64
100
AcDbTableStyle
280
     0
  3
Standard
 70
     0
 71
     0
 40
0.06
 41
0.06
280
     0
281
     0
  7
Standard
140
0.18
170
     2
 62
     0
 63
     7
283
     0
 90
      512
 91
        0
  1

274
    -2
284
     1
 64
     0
275
    -2
285
     1
 65
     0
276
    -2
286
     1
 66
     0
277
    -2
287
     1
 67
     0
278
    -2
288
     1
 68
     0
279
    -2
289
     1
 69
     0
  7
Standard
140
0.25
170
     5
 62
     0
 63
     7
283
     0
 90
      512
 91
        0
  1

274
    -2
284
     1
 64
     0
275
    -2
285
     1
 65
     0
276
    -2
286
     1
 66
     0
277
    -2
287
     1
 67
     0
278
    -2
288
     1
 68
     0
279
    -2
289
     1
 69
     0
  7
Standard
140
0.18
170
     5
 62
     0
 63
     7
283
     0
 90
      512
 91
        0
  1

274
    -2
284
     1
 64
     0
275
    -2
285
     1
 65
     0
276
    -2
286
     1
 66
     0
277
    -2
287
     1
 67
     0
278
    -2
288
     1
 68
     0
279
    -2
289
     1
 69
     0
  0
VISUALSTYLE
  5
2F
102
{ACAD_REACTORS
330
29
102
}
330
29
100
AcDbVisualStyle
  2
2dWireframe
 70
     4
177
     3
291
     0
 70
    58
 90
        0
176
     1
 90
        2
176
     1
 90
        0
176
     1
 90
        0
176
     1
 40
0.6
176
     1
 40
30.0
176
     1
 62
     7
420
 16777215
176
     1
 90
        1
176
     1
 90
        4
176
     1
 62
     7
176
     1
 62
   257
176
     1
 90
        1
176
     1
 90
        1
176
     1
 40
1.0
176
     1
 90
        0
176
     1
 62
   257
176
     1
 40
1.0
176
     1
 90
        1
176
     1
 90
        6
176
     1
 90
        2
176
     1
 62
     7
176
     1
 90
        5
176
     1
 90
        0
176
     1
 90
        0
176
     1
290
     0
176
     1
 90
        1
176
     1
 40
0.0
176
     1
 90
        0
176
     1
290
     1
176
     1
290
     1
176
     1
290
     0
176
     1
290
     0
176
     1
290
     0
176
     1
290
     0
176
     1
290
     0
176
     1
290
     0
176
     1
290
     0
176
     1
 90
       50
176
     1
 40
0.0
176
     1
 40
1.0
176
     1
 90
        0
176
     1
 62
    18
420
        0
176
     1
 90
       50
176
     1
 90
        3
176
     1
 62
     5
420
      255
176
     1
290
     0
176
     1
 90
       50
176
     1
 90
       50
176
     1
 90
       50
176
     1
290
     0
176
     1
 90
       50
176
     1
 62
   256
176
     0
 40
1.0
176
     0
 90
        2
176
     1
  1
strokes_ogs.tif
176
     1
290
     0
176
     1
 40
1.0
176
     1
 40
1.0
176
     1
  0
VISUALSTYLE
  5
2E
102
{ACAD_REACTORS
330
29
102
}
330
29
100
AcDbVisualStyle
  2
Basic
 70
     7
177
     3
291
     1
 70
    58
 90
        1
176
     1
 90
        0
176
     1
 90
        1
176
     1
 90
        0
176
     1
 40
0.6
176
     1
 40
30.0
176
     1
 62
     7
420
 16777215
176
     1
 90
        0
176
     1
 90
        4
176
     1
 62
     7
176
     1
 62
   257
176
     1
 90
        1
176
     1
 90
        1
176
     1
 40
1.0
176
     1
 90
        8
176
     1
 62
     7
176
     1
 40
1.0
176
     1
 90
        1
176
     1
 90
        6
176
     1
 90
        2
176
     1
 62
     7
176
     1
 90
        5
176
     1
 90
        0
176
     1
 90
        0
176
     1
290
     0
176
     1
 90
        1
176
     1
 40
0.0
176
     1
 90
        0
176
     1
290
     0
176
     1
290
     1
176
     1
290
     1
176
     1
290
     0
176
     1
290
     0
176
     1
290
     0
176
     1
290
     0
176
     1
290
     0
176
     1
290
     0
176
     1
 90
       50
176
     1
 40
0.0
176
     1
 40
1.0
176
     1
 90
        0
176
     1
 62
    18
420
        0
176
     1
 90
       50
176
     1
 90
        3
176
     1
 62
     5
420
      255
176
     1
290
     0
176
     1
 90
       50
176
     1
 90
       50
176
     1
 90
       50
176
     1
290
     0
176
     1
 90
       50
176
     1
 62
   256
176
     0
 40
1.0
176
     0
 90
        2
176
     1
  1
strokes_ogs.tif
176
     1
290
     0
176
     1
 40
1.0
176
     1
 40
1.0
176
     1
  0
VISUALSTYLE
  5
35
102
{ACAD_REACTORS
330
29
102
}
330
29
100
AcDbVisualStyle
  2
Brighten
 70
    12
177
     3
291
     1
 70
    58
 90
        2
176
     1
 90
        2
176
     1
 90
        0
176
     1
 90
        0
176
     1
 40
0.6
176
     1
 40
30.0
176
     1
 62
     7
420
 16777215
176
     1
 90
        1
176
     1
 90
        4
176
     1
 62
     7
176
     1
 62
   257
176
     1
 90
        1
176
     1
 90
        1
176
     1
 40
1.0
176
     1
 90
        8
176
     1
 62
     7
176
     1
 40
1.0
176
     1
 90
        1
176
     1
 90
        6
176
     1
 90
        2
176
     1
 62
     7
176
     1
 90
        5
176
     1
 90
        0
176
     1
 90
        0
176
     1
290
     0
176
     1
 90
        1
176
     1
 40
50.0
176
     1
 90
        0
176
     1
290
     0
176
     1
290
     1
176
     1
290
     1
176
     1
290
     0
176
     1
290
     0
176
     1
290
     0
176
     1
290
     0
176
     1
290
     0
176
     1
290
     0
176
     1
 90
       50
176
     1
 40
0.0
176
     1
 40
1.0
176
     1
 90
        0
176
     1
 62
    18
420
        0
176
     1
 90
       50
176
     1
 90
        3
176
     1
 62
     5
420
      255
176
     1
290
     0
176
     1
 90
       50
176
     1
 90
       50
176
     1
 90
       50
176
     1
290
     0
176
     1
 90
       50
176
     1
 62
   256
176
     0
 40
1.0
176
     0
 90
        2
176
     1
  1
strokes_ogs.tif
176
     1
290
     0
176
     1
 40
1.0
176
     1
 40
1.0
176
     1
  0
VISUALSTYLE
  5
39
102
{ACAD_REACTORS
330
29
102
}
330
29
100
AcDbVisualStyle
  2
ColorChange
 70
    16
177
     3
291
     1
 70
    58
 90
        2
176
     1
 90
        2
176
     1
 90
        3
176
     1
 90
        0
176
     1
 40
0.6
176
     1
 40
30.0
176
     1
 62
     8
420
  8421504
176
     1
 90
        1
176
     1
 90
        4
176
     1
 62
     7
176
     1
 62
   257
176
     1
 90
        1
176
     1
 90
        1
176
     1
 40
1.0
176
     1
 90
        8
176
     1
 62
     8
420
  8421504
176
     1
 40
1.0
176
     1
 90
        1
176
     1
 90
        6
176
     1
 90
        2
176
     1
 62
     7
176
     1
 90
        5
176
     1
 90
        0
176
     1
 90
        0
176
     1
290
     0
176
     1
 90
        1
176
     1
 40
0.0
176
     1
 90
        0
176
     1
290
     0
176
     1
290
     1
176
     1
290
     1
176
     1
290
     0
176
     1
290
     0
176
     1
290
     0
176
     1
290
     0
176
     1
290
     0
176
     1
290
     0
176
     1
 90
       50
176
     1
 40
0.0
176
     1
 40
1.0
176
     1
 90
        0
176
     1
 62
    18
420
        0
176
     1
 90
       50
176
     1
 90
        3
176
     1
 62
     5
420
      255
176
     1
290
     0
176
     1
 90
       50
176
     1
 90
       50
176
     1
 90
       50
176
     1
290
     0
176
     1
 90
       50
176
     1
 62
   256
176
     0
 40
1.0
176
     0
 90
        2
176
     1
  1
strokes_ogs.tif
176
     1
290
     0
176
     1
 40
1.0
176
     1
 40
1.0
176
     1
  0
VISUALSTYLE
  5
32
102
{ACAD_REACTORS
330
29
102
}
330
29
100
AcDbVisualStyle
  2
Conceptual
 70
     9
177
     3
291
     0
 70
    58
 90
        3
176
     1
 90
        2
176
     1
 90
        0
176
     1
 90
        0
176
     1
 40
0.6
176
     1
 40
30.0
176
     1
 62
     7
420
 16777215
176
     1
 90
        2
176
     1
 90
        2
176
     1
 62
     7
176
     1
 62
   257
176
     1
 90
        1
176
     1
 90
        1
176
     1
 40
179.0
176
     1
 90
        8
176
     1
 62
     7
176
     1
 40
1.0
176
     1
 90
        1
176
     1
 90
        6
176
     1
 90
        2
176
     1
 62
     7
176
     1
 90
        3
176
     1
 90
        0
176
     1
 90
        0
176
     1
290
     0
176
     1
 90
        1
176
     1
 40
0.0
176
     1
 90
        0
176
     1
290
     0
176
     1
290
     1
176
     1
290
     1
176
     1
290
     0
176
     1
290
     0
176
     1
290
     0
176
     1
290
     0
176
     1
290
     0
176
     1
290
     0
176
     1
 90
       50
176
     1
 40
0.0
176
     1
 40
1.0
176
     1
 90
        0
176
     1
 62
    18
420
        0
176
     1
 90
       50
176
     1
 90
        3
176
     1
 62
     5
420
      255
176
     1
290
     0
176
     1
 90
       50
176
     1
 90
       50
176
     1
 90
       50
176
     1
290
     0
176
     1
 90
       50
176
     1
 62
   256
176
     0
 40
1.0
176
     0
 90
        2
176
     1
  1
strokes_ogs.tif
176
     1
290
     0
176
     1
 40
1.0
176
     1
 40
1.0
176
     1
  0
VISUALSTYLE
  5
34
102
{ACAD_REACTORS
330
29
102
}
330
29
100
AcDbVisualStyle
  2
Dim
 70
    11
177
     3
291
     1
 70
    58
 90
        2
176
     1
 90
        2
176
     1
 90
        0
176
     1
 90
        0
176
     1
 40
0.6
176
     1
 40
30.0
176
     1
 62
     7
420
 16777215
176
     1
 90
        1
176
     1
 90
        4
176
     1
 62
     7
176
     1
 62
   257
176
     1
 90
        1
176
     1
 90
        1
176
     1
 40
1.0
176
     1
 90
        8
176
     1
 62
     7
176
     1
 40
1.0
176
     1
 90
        1
176
     1
 90
        6
176
     1
 90
        2
176
     1
 62
     7
176
     1
 90
        5
176
     1
 90
        0
176
     1
 90
        0
176
     1
290
     0
176
     1
 90
        1
176
     1
 40
-50.0
176
     1
 90
        0
176
     1
290
     0
176
     1
290
     1
176
     1
290
     1
176
     1
290
     0
176
     1
290
     0
176
     1
290
     0
176
     1
290
     0
176
     1
290
     0
176
     1
290
     0
176
     1
 90
       50
176
     1
 40
0.0
176
     1
 40
1.0
176
     1
 90
        0
176
     1
 62
    18
420
        0
176
     1
 90
       50
176
     1
 90
        3
176
     1
 62
     5
420
      255
176
     1
290
     0
176
     1
 90
       50
176
     1
 90
       50
176
     1
 90
       50
176
     1
290
     0
176
     1
 90
       50
176
     1
 62
   256
176
     0
 40
1.0
176
     0
 90
        2
176
     1
  1
strokes_ogs.tif
176
     1
290
     0
176
     1
 40
1.0
176
     1
 40
1.0
176
     1
  0
VISUALSTYLE
  5
41
102
{ACAD_REACTORS
330
29
102
}
330
29
100
AcDbVisualStyle
  2
EdgeColorOff
 70
    22
177
     3
291
     1
 70
    58
 90
        2
176
     0
 90
        2
176
     0
 90
        0
176
     0
 90
        0
176
     0
 40
0.6
176
     0
 40
30.0
176
     0
 62
     7
420
 16777215
176
     0
 90
        1
176
     0
 90
        4
176
     0
 62
     7
176
     0
 62
   257
176
     0
 90
        1
176
     0
 90
        1
176
     0
 40
1.0
176
     0
 90
        8
176
     2
 62
     7
176
     0
 40
1.0
176
     0
 90
        1
176
     0
 90
        6
176
     0
 90
        2
176
     0
 62
     7
176
     0
 90
        5
176
     0
 90
        0
176
     0
 90
        0
176
     0
290
     0
176
     0
 90
        1
176
     0
 40
0.0
176
     0
 90
        0
176
     0
290
     0
176
     0
290
     1
176
     0
290
     1
176
     0
290
     0
176
     0
290
     0
176
     0
290
     0
176
     0
290
     0
176
     0
290
     0
176
     0
290
     0
176
     0
 90
       50
176
     0
 40
0.0
176
     0
 40
1.0
176
     0
 90
        0
176
     0
 62
    18
420
        0
176
     0
 90
       50
176
     0
 90
        3
176
     0
 62
     5
420
      255
176
     0
290
     0
176
     0
 90
       50
176
     0
 90
       50
176
     0
 90
       50
176
     0
290
     0
176
     0
 90
       50
176
     0
 62
   256
176
     0
 40
1.0
176
     0
 90
        2
176
     0
  1
strokes_ogs.tif
176
     0
290
     0
176
     0
 40
1.0
176
     0
 40
1.0
176
     0
  0
VISUALSTYLE
  5
38
102
{ACAD_REACTORS
330
29
102
}
330
29
100
AcDbVisualStyle
  2
Facepattern
 70
    15
177
     3
291
     1
 70
    58
 90
        2
176
     1
 90
        2
176
     1
 90
        0
176
     1
 90
        0
176
     1
 40
0.6
176
     1
 40
30.0
176
     1
 62
     7
420
 16777215
176
     1
 90
        1
176
     1
 90
        4
176
     1
 62
     7
176
     1
 62
   257
176
     1
 90
        1
176
     1
 90
        1
176
     1
 40
1.0
176
     1
 90
        8
176
     1
 62
     7
176
     1
 40
1.0
176
     1
 90
        1
176
     1
 90
        6
176
     1
 90
        2
176
     1
 62
     7
176
     1
 90
        5
176
     1
 90
        0
176
     1
 90
        0
176
     1
290
     0
176
     1
 90
        1
176
     1
 40
0.0
176
     1
 90
        0
176
     1
290
     0
176
     1
290
     1
176
     1
290
     1
176
     1
290
     0
176
     1
290
     0
176
     1
290
     0
176
     1
290
     0
176
     1
290
     0
176
     1
290
     0
176
     1
 90
       50
176
     1
 40
0.0
176
     1
 40
1.0
176
     1
 90
        0
176
     1
 62
    18
420
        0
176
     1
 90
       50
176
     1
 90
        3
176
     1
 62
     5
420
      255
176
     1
290
     0
176
     1
 90
       50
176
     1
 90
       50
176
     1
 90
       50
176
     1
290
     0
176
     1
 90
       50
176
     1
 62
   256
176
     0
 40
1.0
176
     0
 90
        2
176
     1
  1
strokes_ogs.tif
176
     1
290
     0
176
     1
 40
1.0
176
     1
 40
1.0
176
     1
  0
VISUALSTYLE
  5
2A
102
{ACAD_REACTORS
330
29
102
}
330
29
100
AcDbVisualStyle
  2
Flat
 70
     0
177
     3
291
     1
 70
    58
 90
        2
176
     1
 90
        1
176
     1
 90
        1
176
     1
 90
        2
176
     1
 40
0.6
176
     1
 40
30.0
176
     1
 62
     7
420
 16777215
176
     1
 90
        0
176
     1
 90
        0
176
     1
 62
     7
176
     1
 62
   257
176
     1
 90
        1
176
     1
 90
        1
176
     1
 40
1.0
176
     1
 90
        8
176
     1
 62
     7
176
     1
 40
1.0
176
     1
 90
        1
176
     1
 90
        6
176
     1
 90
        2
176
     1
 62
     7
176
     1
 90
        5
176
     1
 90
        0
176
     1
 90
        0
176
     1
290
     0
176
     1
 90
       13
176
     1
 40
0.0
176
     1
 90
        0
176
     1
290
     0
176
     1
290
     1
176
     1
290
     1
176
     1
290
     0
176
     1
290
     0
176
     1
290
     0
176
     1
290
     0
176
     1
290
     0
176
     1
290
     0
176
     1
 90
       50
176
     1
 40
0.0
176
     1
 40
1.0
176
     1
 90
        0
176
     1
 62
    18
420
        0
176
     1
 90
       50
176
     1
 90
        3
176
     1
 62
     5
420
      255
176
     1
290
     0
176
     1
 90
       50
176
     1
 90
       50
176
     1
 90
       50
176
     1
290
     0
176
     1
 90
       50
176
     1
 62
   256
176
     0
 40
1.0
176
     0
 90
        2
176
     1
  1
strokes_ogs.tif
176
     1
290
     0
176
     1
 40
1.0
176
     1
 40
1.0
176
     1
  0
VISUALSTYLE
  5
2B
102
{ACAD_REACTORS
330
29
102
}
330
29
100
AcDbVisualStyle
  2
FlatWithEdges
 70
     1
177
     3
291
     1
 70
    58
 90
        2
176
     1
 90
        1
176
     1
 90
        1
176
     1
 90
        2
176
     1
 40
0.6
176
     1
 40
30.0
176
     1
 62
     7
420
 16777215
176
     1
 90
        1
176
     1
 90
        0
176
     1
 62
     7
176
     1
 62
   257
176
     1
 90
        1
176
     1
 90
        1
176
     1
 40
1.0
176
     1
 90
        0
176
     1
 62
   257
176
     1
 40
1.0
176
     1
 90
        1
176
     1
 90
        6
176
     1
 90
        2
176
     1
 62
     7
176
     1
 90
        5
176
     1
 90
        0
176
     1
 90
        0
176
     1
290
     0
176
     1
 90
       13
176
     1
 40
0.0
176
     1
 90
        0
176
     1
290
     0
176
     1
290
     1
176
     1
290
     1
176
     1
290
     0
176
     1
290
     0
176
     1
290
     0
176
     1
290
     0
176
     1
290
     0
176
     1
290
     0
176
     1
 90
       50
176
     1
 40
0.0
176
     1
 40
1.0
176
     1
 90
        0
176
     1
 62
    18
420
        0
176
     1
 90
       50
176
     1
 90
        3
176
     1
 62
     5
420
      255
176
     1
290
     0
176
     1
 90
       50
176
     1
 90
       50
176
     1
 90
       50
176
     1
290
     0
176
     1
 90
       50
176
     1
 62
   256
176
     0
 40
1.0
176
     0
 90
        2
176
     1
  1
strokes_ogs.tif
176
     1
290
     0
176
     1
 40
1.0
176
     1
 40
1.0
176
     1
  0
VISUALSTYLE
  5
2C
102
{ACAD_REACTORS
330
29
102
}
330
29
100
AcDbVisualStyle
  2
Gouraud
 70
     2
177
     3
291
     1
 70
    58
 90
        2
176
     1
 90
        2
176
     1
 90
        1
176
     1
 90
        2
176
     1
 40
0.6
176
     1
 40
30.0
176
     1
 62
     7
420
 16777215
176
     1
 90
        0
176
     1
 90
        0
176
     1
 62
     7
176
     1
 62
   257
176
     1
 90
        1
176
     1
 90
        1
176
     1
 40
1.0
176
     1
 90
        0
176
     1
 62
     7
176
     1
 40
1.0
176
     1
 90
        1
176
     1
 90
        6
176
     1
 90
        2
176
     1
 62
     7
176
     1
 90
        5
176
     1
 90
        0
176
     1
 90
        0
176
     1
290
     0
176
     1
 90
       13
176
     1
 40
0.0
176
     1
 90
        0
176
     1
290
     0
176
     1
290
     1
176
     1
290
     1
176
     1
290
     0
176
     1
290
     0
176
     1
290
     0
176
     1
290
     0
176
     1
290
     0
176
     1
290
     0
176
     1
 90
       50
176
     1
 40
0.0
176
     1
 40
1.0
176
     1
 90
        0
176
     1
 62
    18
420
        0
176
     1
 90
       50
176
     1
 90
        3
176
     1
 62
     5
420
      255
176
     1
290
     0
176
     1
 90
       50
176
     1
 90
       50
176
     1
 90
       50
176
     1
290
     0
176
     1
 90
       50
176
     1
 62
   256
176
     0
 40
1.0
176
     0
 90
        2
176
     1
  1
strokes_ogs.tif
176
     1
290
     0
176
     1
 40
1.0
176
     1
 40
1.0
176
     1
  0
VISUALSTYLE
  5
2D
102
{ACAD_REACTORS
330
29
102
}
330
29
100
AcDbVisualStyle
  2
GouraudWithEdges
 70
     3
177
     3
291
     1
 70
    58
 90
        2
176
     1
 90
        2
176
     1
 90
        1
176
     1
 90
        2
176
     1
 40
0.6
176
     1
 40
30.0
176
     1
 62
     7
420
 16777215
176
     1
 90
        1
176
     1
 90
        0
176
     1
 62
     7
176
     1
 62
   257
176
     1
 90
        1
176
     1
 90
        1
176
     1
 40
1.0
176
     1
 90
        0
176
     1
 62
   257
176
     1
 40
1.0
176
     1
 90
        1
176
     1
 90
        6
176
     1
 90
        2
176
     1
 62
     7
176
     1
 90
        5
176
     1
 90
        0
176
     1
 90
        0
176
     1
290
     0
176
     1
 90
       13
176
     1
 40
0.0
176
     1
 90
        0
176
     1
290
     0
176
     1
290
     1
176
     1
290
     1
176
     1
290
     0
176
     1
290
     0
176
     1
290
     0
176
     1
290
     0
176
     1
290
     0
176
     1
290
     0
176
     1
 90
       50
176
     1
 40
0.0
176
     1
 40
1.0
176
     1
 90
        0
176
     1
 62
    18
420
        0
176
     1
 90
       50
176
     1
 90
        3
176
     1
 62
     5
420
      255
176
     1
290
     0
176
     1
 90
       50
176
     1
 90
       50
176
     1
 90
       50
176
     1
290
     0
176
     1
 90
       50
176
     1
 62
   256
176
     0
 40
1.0
176
     0
 90
        2
176
     1
  1
strokes_ogs.tif
176
     1
290
     0
176
     1
 40
1.0
176
     1
 40
1.0
176
     1
  0
VISUALSTYLE
  5
31
102
{ACAD_REACTORS
330
29
102
}
330
29
100
AcDbVisualStyle
  2
Hidden
 70
     6
177
     3
291
     0
 70
    58
 90
        1
176
     1
 90
        2
176
     1
 90
        2
176
     1
 90
        0
176
     1
 40
0.6
176
     1
 40
30.0
176
     1
 62
     7
420
 16777215
176
     1
 90
        2
176
     1
 90
        2
176
     1
 62
     7
176
     1
 62
   257
176
     1
 90
        2
176
     1
 90
        1
176
     1
 40
40.0
176
     1
 90
        0
176
     1
 62
   257
176
     1
 40
1.0
176
     1
 90
        1
176
     1
 90
        6
176
     1
 90
        2
176
     1
 62
     7
176
     1
 90
        3
176
     1
 90
        0
176
     1
 90
        0
176
     1
290
     0
176
     1
 90
        1
176
     1
 40
0.0
176
     1
 90
        0
176
     1
290
     0
176
     1
290
     1
176
     1
290
     1
176
     1
290
     0
176
     1
290
     0
176
     1
290
     0
176
     1
290
     0
176
     1
290
     0
176
     1
290
     0
176
     1
 90
       50
176
     1
 40
0.0
176
     1
 40
1.0
176
     1
 90
        0
176
     1
 62
    18
420
        0
176
     1
 90
       50
176
     1
 90
        3
176
     1
 62
     5
420
      255
176
     1
290
     0
176
     1
 90
       50
176
     1
 90
       50
176
     1
 90
       50
176
     1
290
     0
176
     1
 90
       50
176
     1
 62
   256
176
     0
 40
1.0
176
     0
 90
        2
176
     1
  1
strokes_ogs.tif
176
     1
290
     0
176
     1
 40
1.0
176
     1
 40
1.0
176
     1
  0
VISUALSTYLE
  5
3F
102
{ACAD_REACTORS
330
29
102
}
330
29
100
AcDbVisualStyle
  2
JitterOff
 70
    20
177
     3
291
     1
 70
    58
 90
        2
176
     0
 90
        2
176
     0
 90
        0
176
     0
 90
        0
176
     0
 40
0.6
176
     0
 40
30.0
176
     0
 62
     7
420
 16777215
176
     0
 90
        1
176
     0
 90
        4
176
     0
 62
     7
176
     0
 62
   257
176
     0
 90
        1
176
     0
 90
        1
176
     0
 40
1.0
176
     0
 90
       10
176
     2
 62
     7
176
     0
 40
1.0
176
     0
 90
        1
176
     0
 90
        6
176
     0
 90
        2
176
     0
 62
     7
176
     0
 90
        5
176
     0
 90
        0
176
     0
 90
        0
176
     0
290
     0
176
     0
 90
        1
176
     0
 40
0.0
176
     0
 90
        0
176
     0
290
     0
176
     0
290
     1
176
     0
290
     1
176
     0
290
     0
176
     0
290
     0
176
     0
290
     0
176
     0
290
     0
176
     0
290
     0
176
     0
290
     0
176
     0
 90
       50
176
     0
 40
0.0
176
     0
 40
1.0
176
     0
 90
        0
176
     0
 62
    18
420
        0
176
     0
 90
       50
176
     0
 90
        3
176
     0
 62
     5
420
      255
176
     0
290
     0
176
     0
 90
       50
176
     0
 90
       50
176
     0
 90
       50
176
     0
290
     0
176
     0
 90
       50
176
     0
 62
   256
176
     0
 40
1.0
176
     0
 90
        2
176
     0
  1
strokes_ogs.tif
176
     0
290
     0
176
     0
 40
1.0
176
     0
 40
1.0
176
     0
  0
VISUALSTYLE
  5
37
102
{ACAD_REACTORS
330
29
102
}
330
29
100
AcDbVisualStyle
  2
Linepattern
 70
    14
177
     3
291
     1
 70
    58
 90
        2
176
     1
 90
        2
176
     1
 90
        0
176
     1
 90
        0
176
     1
 40
0.6
176
     1
 40
30.0
176
     1
 62
     7
420
 16777215
176
     1
 90
        1
176
     1
 90
        4
176
     1
 62
     7
176
     1
 62
   257
176
     1
 90
        7
176
     1
 90
        7
176
     1
 40
1.0
176
     1
 90
        8
176
     1
 62
     7
176
     1
 40
1.0
176
     1
 90
        1
176
     1
 90
        6
176
     1
 90
        2
176
     1
 62
     7
176
     1
 90
        5
176
     1
 90
        0
176
     1
 90
        0
176
     1
290
     0
176
     1
 90
        1
176
     1
 40
0.0
176
     1
 90
        0
176
     1
290
     0
176
     1
290
     1
176
     1
290
     1
176
     1
290
     0
176
     1
290
     0
176
     1
290
     0
176
     1
290
     0
176
     1
290
     0
176
     1
290
     0
176
     1
 90
       50
176
     1
 40
0.0
176
     1
 40
1.0
176
     1
 90
        0
176
     1
 62
    18
420
        0
176
     1
 90
       50
176
     1
 90
        3
176
     1
 62
     5
420
      255
176
     1
290
     0
176
     1
 90
       50
176
     1
 90
       50
176
     1
 90
       50
176
     1
290
     0
176
     1
 90
       50
176
     1
 62
   256
176
     0
 40
1.0
176
     0
 90
        2
176
     1
  1
strokes_ogs.tif
176
     1
290
     0
176
     1
 40
1.0
176
     1
 40
1.0
176
     1
  0
VISUALSTYLE
  5
40
102
{ACAD_REACTORS
330
29
102
}
330
29
100
AcDbVisualStyle
  2
OverhangOff
 70
    21
177
     3
291
     1
 70
    58
 90
        2
176
     0
 90
        2
176
     0
 90
        0
176
     0
 90
        0
176
     0
 40
0.6
176
     0
 40
30.0
176
     0
 62
     7
420
 16777215
176
     0
 90
        1
176
     0
 90
        4
176
     0
 62
     7
176
     0
 62
   257
176
     0
 90
        1
176
     0
 90
        1
176
     0
 40
1.0
176
     0
 90
        9
176
     2
 62
     7
176
     0
 40
1.0
176
     0
 90
        1
176
     0
 90
        6
176
     0
 90
        2
176
     0
 62
     7
176
     0
 90
        5
176
     0
 90
        0
176
     0
 90
        0
176
     0
290
     0
176
     0
 90
        1
176
     0
 40
0.0
176
     0
 90
        0
176
     0
290
     0
176
     0
290
     1
176
     0
290
     1
176
     0
290
     0
176
     0
290
     0
176
     0
290
     0
176
     0
290
     0
176
     0
290
     0
176
     0
290
     0
176
     0
 90
       50
176
     0
 40
0.0
176
     0
 40
1.0
176
     0
 90
        0
176
     0
 62
    18
420
        0
176
     0
 90
       50
176
     0
 90
        3
176
     0
 62
     5
420
      255
176
     0
290
     0
176
     0
 90
       50
176
     0
 90
       50
176
     0
 90
       50
176
     0
290
     0
176
     0
 90
       50
176
     0
 62
   256
176
     0
 40
1.0
176
     0
 90
        2
176
     0
  1
strokes_ogs.tif
176
     0
290
     0
176
     0
 40
1.0
176
     0
 40
1.0
176
     0
  0
VISUALSTYLE
  5
33
102
{ACAD_REACTORS
330
29
102
}
330
29
100
AcDbVisualStyle
  2
Realistic
 70
     8
177
     3
291
     0
 70
    58
 90
        2
176
     1
 90
        3
176
     1
 90
        0
176
     1
 90
        2
176
     1
 40
0.6
176
     1
 40
30.0
176
     1
 62
     7
420
 16777215
176
     1
 90
        0
176
     1
 90
        0
176
     1
 62
     7
176
     1
 62
   257
176
     1
 90
        1
176
     1
 90
        1
176
     1
 40
1.0
176
     1
 90
        8
176
     1
 62
   257
176
     1
 40
1.0
176
     1
 90
        1
176
     1
 90
        6
176
     1
 90
        2
176
     1
 62
     7
176
     1
 90
        3
176
     1
 90
        0
176
     1
 90
        0
176
     1
290
     0
176
     1
 90
       13
176
     1
 40
0.0
176
     1
 90
        0
176
     1
290
     0
176
     1
290
     1
176
     1
290
     1
176
     1
290
     0
176
     1
290
     0
176
     1
290
     0
176
     1
290
     0
176
     1
290
     0
176
     1
290
     0
176
     1
 90
       50
176
     1
 40
0.0
176
     1
 40
1.0
176
     1
 90
        0
176
     1
 62
    18
420
        0
176
     1
 90
       50
176
     1
 90
        3
176
     1
 62
     5
420
      255
176
     1
290
     0
176
     1
 90
       50
176
     1
 90
       50
176
     1
 90
       50
176
     1
290
     0
176
     1
 90
       50
176
     1
 62
   256
176
     0
 40
1.0
176
     0
 90
        2
176
     1
  1
strokes_ogs.tif
176
     1
290
     0
176
     1
 40
1.0
176
     1
 40
1.0
176
     1
  0
VISUALSTYLE
  5
3E
102
{ACAD_REACTORS
330
29
102
}
330
29
100
AcDbVisualStyle
  2
Shaded
 70
    27
177
     3
291
     0
 70
    58
 90
        2
176
     1
 90
        2
176
     1
 90
        1
176
     1
 90
        2
176
     1
 40
0.6
176
     1
 40
30.0
176
     1
 62
     7
420
 16777215
176
     1
 90
        0
176
     1
 90
        4
176
     1
 62
     7
176
     1
 62
   257
176
     1
 90
        1
176
     1
 90
        1
176
     1
 40
1.0
176
     1
 90
        8
176
     1
 62
   257
176
     1
 40
1.0
176
     1
 90
        1
176
     1
 90
        6
176
     1
 90
        2
176
     1
 62
     8
420
  7895160
176
     1
 90
        3
176
     1
 90
        0
176
     1
 90
        0
176
     1
290
     0
176
     1
 90
        5
176
     1
 40
0.0
176
     1
 90
        0
176
     1
290
     0
176
     1
290
     1
176
     1
290
     1
176
     1
290
     0
176
     1
290
     0
176
     1
290
     0
176
     1
290
     0
176
     1
290
     0
176
     1
290
     0
176
     1
 90
       50
176
     1
 40
0.0
176
     1
 40
1.0
176
     1
 90
        0
176
     1
 62
    18
420
        0
176
     1
 90
       50
176
     1
 90
        3
176
     1
 62
     5
420
      255
176
     1
290
     0
176
     1
 90
       50
176
     1
 90
       50
176
     1
 90
       50
176
     1
290
     0
176
     1
 90
       50
176
     1
 62
   256
176
     0
 40
1.0
176
     0
 90
        2
176
     1
  1
strokes_ogs.tif
176
     1
290
     0
176
     1
 40
1.0
176
     1
 40
1.0
176
     1
  0
VISUALSTYLE
  5
3D
102
{ACAD_REACTORS
330
29
102
}
330
29
100
AcDbVisualStyle
  2
Shaded with edges
 70
    26
177
     3
291
     0
 70
    58
 90
        2
176
     1
 90
        2
176
     1
 90
        1
176
     1
 90
        2
176
     1
 40
0.6
176
     1
 40
30.0
176
     1
 62
     7
420
 16777215
176
     1
 90
        1
176
     1
 90
        2
176
     1
 62
     7
176
     1
 62
   257
176
     1
 90
        2
176
     1
 90
        1
176
     1
 40
1.0
176
     1
 90
        8
176
     1
 62
   257
176
     1
 40
1.0
176
     1
 90
        1
176
     1
 90
        6
176
     1
 90
        2
176
     1
 62
     7
176
     1
 90
        3
176
     1
 90
        0
176
     1
 90
        0
176
     1
290
     0
176
     1
 90
        5
176
     1
 40
0.0
176
     1
 90
        0
176
     1
290
     0
176
     1
290
     1
176
     1
290
     1
176
     1
290
     0
176
     1
290
     0
176
     1
290
     0
176
     1
290
     0
176
     1
290
     0
176
     1
290
     0
176
     1
 90
       50
176
     1
 40
0.0
176
     1
 40
1.0
176
     1
 90
        0
176
     1
 62
    18
420
        0
176
     1
 90
       50
176
     1
 90
        3
176
     1
 62
     5
420
      255
176
     1
290
     0
176
     1
 90
       50
176
     1
 90
       50
176
     1
 90
       50
176
     1
290
     0
176
     1
 90
       50
176
     1
 62
   256
176
     0
 40
1.0
176
     0
 90
        2
176
     1
  1
strokes_ogs.tif
176
     1
290
     0
176
     1
 40
1.0
176
     1
 40
1.0
176
     1
  0
VISUALSTYLE
  5
3A
102
{ACAD_REACTORS
330
29
102
}
330
29
100
AcDbVisualStyle
  2
Shades of Gray
 70
    23
177
     3
291
     0
 70
    58
 90
        2
176
     1
 90
        2
176
     1
 90
        3
176
     1
 90
        0
176
     1
 40
0.6
176
     1
 40
30.0
176
     1
 62
     7
420
 16777215
176
     1
 90
        2
176
     1
 90
        2
176
     1
 62
     7
176
     1
 62
     7
176
     1
 90
        1
176
     1
 90
        1
176
     1
 40
40.0
176
     1
 90
        8
176
     1
 62
     7
176
     1
 40
1.0
176
     1
 90
        1
176
     1
 90
        6
176
     1
 90
        2
176
     1
 62
     7
176
     1
 90
        3
176
     1
 90
        0
176
     1
 90
        0
176
     1
290
     0
176
     1
 90
        1
176
     1
 40
0.0
176
     1
 90
        0
176
     1
290
     0
176
     1
290
     1
176
     1
290
     1
176
     1
290
     0
176
     1
290
     0
176
     1
290
     0
176
     1
290
     0
176
     1
290
     0
176
     1
290
     0
176
     1
 90
       50
176
     1
 40
0.0
176
     1
 40
1.0
176
     1
 90
        0
176
     1
 62
    18
420
        0
176
     1
 90
       50
176
     1
 90
        3
176
     1
 62
     5
420
      255
176
     1
290
     0
176
     1
 90
       50
176
     1
 90
       50
176
     1
 90
       50
176
     1
290
     0
176
     1
 90
       50
176
     1
 62
   256
176
     0
 40
1.0
176
     0
 90
        2
176
     1
  1
strokes_ogs.tif
176
     1
290
     0
176
     1
 40
1.0
176
     1
 40
1.0
176
     1
  0
VISUALSTYLE
  5
3B
102
{ACAD_REACTORS
330
29
102
}
330
29
100
AcDbVisualStyle
  2
Sketchy
 70
    24
177
     3
291
     0
 70
    58
 90
        1
176
     1
 90
        2
176
     1
 90
        2
176
     1
 90
        0
176
     1
 40
0.6
176
     1
 40
30.0
176
     1
 62
     7
420
 16777215
176
     1
 90
        2
176
     1
 90
        2
176
     1
 62
     7
176
     1
 62
     7
176
     1
 90
        1
176
     1
 90
        1
176
     1
 40
40.0
176
     1
 90
       11
176
     1
 62
     7
176
     1
 40
1.0
176
     1
 90
        1
176
     1
 90
        6
176
     1
 90
        2
176
     1
 62
     7
176
     1
 90
        6
176
     1
 90
        0
176
     1
 90
        0
176
     1
290
     0
176
     1
 90
        1
176
     1
 40
0.0
176
     1
 90
        0
176
     1
290
     0
176
     1
290
     1
176
     1
290
     1
176
     1
290
     0
176
     1
290
     0
176
     1
290
     0
176
     1
290
     0
176
     1
290
     0
176
     1
290
     0
176
     1
 90
       50
176
     1
 40
0.0
176
     1
 40
1.0
176
     1
 90
        0
176
     1
 62
    18
420
        0
176
     1
 90
       50
176
     1
 90
        3
176
     1
 62
     5
420
      255
176
     1
290
     0
176
     1
 90
       50
176
     1
 90
       50
176
     1
 90
       50
176
     1
290
     0
176
     1
 90
       50
176
     1
 62
   256
176
     0
 40
1.0
176
     0
 90
        2
176
     1
  1
strokes_ogs.tif
176
     1
290
     0
176
     1
 40
1.0
176
     1
 40
1.0
176
     1
  0
VISUALSTYLE
  5
36
102
{ACAD_REACTORS
330
29
102
}
330
29
100
AcDbVisualStyle
  2
Thicken
 70
    13
177
     3
291
     1
 70
    58
 90
        2
176
     1
 90
        2
176
     1
 90
        0
176
     1
 90
        0
176
     1
 40
0.6
176
     1
 40
30.0
176
     1
 62
     7
420
 16777215
176
     1
 90
        1
176
     1
 90
        4
176
     1
 62
     7
176
     1
 62
   257
176
     1
 90
        1
176
     1
 90
        1
176
     1
 40
1.0
176
     1
 90
       12
176
     1
 62
     7
176
     1
 40
1.0
176
     1
 90
        1
176
     1
 90
        6
176
     1
 90
        2
176
     1
 62
     7
176
     1
 90
        5
176
     1
 90
        0
176
     1
 90
        0
176
     1
290
     0
176
     1
 90
        1
176
     1
 40
0.0
176
     1
 90
        0
176
     1
290
     0
176
     1
290
     1
176
     1
290
     1
176
     1
290
     0
176
     1
290
     0
176
     1
290
     0
176
     1
290
     0
176
     1
290
     0
176
     1
290
     0
176
     1
 90
       50
176
     1
 40
0.0
176
     1
 40
1.0
176
     1
 90
        0
176
     1
 62
    18
420
        0
176
     1
 90
       50
176
     1
 90
        3
176
     1
 62
     5
420
      255
176
     1
290
     0
176
     1
 90
       50
176
     1
 90
       50
176
     1
 90
       50
176
     1
290
     0
176
     1
 90
       50
176
     1
 62
   256
176
     0
 40
1.0
176
     0
 90
        2
176
     1
  1
strokes_ogs.tif
176
     1
290
     0
176
     1
 40
1.0
176
     1
 40
1.0
176
     1
  0
VISUALSTYLE
  5
30
102
{ACAD_REACTORS
330
29
102
}
330
29
100
AcDbVisualStyle
  2
Wireframe
 70
     5
177
     3
291
     0
 70
    58
 90
        0
176
     1
 90
        2
176
     1
 90
        0
176
     1
 90
        0
176
     1
 40
0.6
176
     1
 40
30.0
176
     1
 62
     7
420
 16777215
176
     1
 90
        1
176
     1
 90
        4
176
     1
 62
     7
176
     1
 62
   257
176
     1
 90
        1
176
     1
 90
        1
176
     1
 40
1.0
176
     1
 90
        0
176
     1
 62
   257
176
     1
 40
1.0
176
     1
 90
        1
176
     1
 90
        6
176
     1
 90
        2
176
     1
 62
     7
176
     1
 90
        3
176
     1
 90
        0
176
     1
 90
        0
176
     1
290
     0
176
     1
 90
        1
176
     1
 40
0.0
176
     1
 90
        0
176
     1
290
     0
176
     1
290
     1
176
     1
290
     1
176
     1
290
     0
176
     1
290
     0
176
     1
290
     0
176
     1
290
     0
176
     1
290
     0
176
     1
290
     0
176
     1
 90
       50
176
     1
 40
0.0
176
     1
 40
1.0
176
     1
 90
        0
176
     1
 62
    18
420
        0
176
     1
 90
       50
176
     1
 90
        3
176
     1
 62
     5
420
      255
176
     1
290
     0
176
     1
 90
       50
176
     1
 90
       50
176
     1
 90
       50
176
     1
290
     0
176
     1
 90
       50
176
     1
 62
   256
176
     0
 40
1.0
176
     0
 90
        2
176
     1
  1
strokes_ogs.tif
176
     1
290
     0
176
     1
 40
1.0
176
     1
 40
1.0
176
     1
  0
VISUALSTYLE
  5
3C
102
{ACAD_REACTORS
330
29
102
}
330
29
100
AcDbVisualStyle
  2
X-Ray
 70
    25
177
     3
291
     0
 70
    58
 90
        2
176
     1
 90
        2
176
     1
 90
        1
176
     1
 90
        1
176
     1
 40
0.5
176
     1
 40
30.0
176
     1
 62
     7
420
 16777215
176
     1
 90
        1
176
     1
 90
        0
176
     1
 62
     7
176
     1
 62
   257
176
     1
 90
        1
176
     1
 90
        1
176
     1
 40
1.0
176
     1
 90
        8
176
     1
 62
     7
176
     1
 40
1.0
176
     1
 90
        1
176
     1
 90
        6
176
     1
 90
        2
176
     1
 62
     7
176
     1
 90
        3
176
     1
 90
        0
176
     1
 90
        0
176
     1
290
     0
176
     1
 90
       13
176
     1
 40
0.0
176
     1
 90
        0
176
     1
290
     0
176
     1
290
     1
176
     1
290
     1
176
     1
290
     0
176
     1
290
     0
176
     1
290
     0
176
     1
290
     0
176
     1
290
     0
176
     1
290
     0
176
     1
 90
       50
176
     1
 40
0.0
176
     1
 40
1.0
176
     1
 90
        0
176
     1
 62
    18
420
        0
176
     1
 90
       50
176
     1
 90
        3
176
     1
 62
     5
420
      255
176
     1
290
     0
176
     1
 90
       50
176
     1
 90
       50
176
     1
 90
       50
176
     1
290
     0
176
     1
 90
       50
176
     1
 62
   256
176
     0
 40
1.0
176
     0
 90
        2
176
     1
  1
strokes_ogs.tif
176
     1
290
     0
176
     1
 40
1.0
176
     1
 40
1.0
176
     1
  0
DICTIONARYVAR
  5
13F
102
{ACAD_REACTORS
330
13A
102
}
330
13A
100
DictionaryVariables
280
     0
  1
1:1
  0
DICTIONARYVAR
  5
13C
102
{ACAD_REACTORS
330
13A
102
}
330
13A
100
DictionaryVariables
280
     0
  1
STANDARD
  0
DICTIONARYVAR
  5
13B
102
{ACAD_REACTORS
330
13A
102
}
330
13A
100
DictionaryVariables
280
     0
  1
STANDARD
  0
DICTIONARYVAR
  5
13D
102
{ACAD_REACTORS
330
13A
102
}
330
13A
100
DictionaryVariables
280
     0
  1
Imperial24
  0
DICTIONARYVAR
  5
13E
102
{ACAD_REACTORS
330
13A
102
}
330
13A
100
DictionaryVariables
280
     0
  1
Imperial24
  0
DICTIONARY
  5
1A
330
19
100
AcDbDictionary
280
     1
281
     1
  3
BUMPTILE
360
1C
  3
DIFFUSETILE
360
1B
  3
OPACITYTILE
360
1F
  3
REFLECTIONTILE
360
1E
  3
REFRACTIONTILE
360
20
  3
SPECULARTILE
360
1D
  0
DICTIONARY
  5
12
330
11
100
AcDbDictionary
280
     1
281
     1
  3
BUMPTILE
360
14
  3
DIFFUSETILE
360
13
  3
OPACITYTILE
360
17
  3
REFLECTIONTILE
360
16
  3
REFRACTIONTILE
360
18
  3
SPECULARTILE
360
15
  0
DICTIONARY
  5
22
330
21
100
AcDbDictionary
280
     1
281
     1
  3
BUMPTILE
360
24
  3
DIFFUSETILE
360
23
  3
OPACITYTILE
360
27
  3
REFLECTIONTILE
360
26
  3
REFRACTIONTILE
360
28
  3
SPECULARTILE
360
25
  0
DICTIONARY
  5
140
330
65
100
AcDbDictionary
280
     1
281
     1
  3
ACAD_ROUNDTRIP_2008_TABLESTYLE_CELLSTYLEMAP
360
141
  0
XRECORD
  5
1C
102
{ACAD_REACTORS
330
1A
102
}
330
1A
100
AcDbXrecord
280
     1
270
     1
271
     1
  0
XRECORD
  5
1B
102
{ACAD_REACTORS
330
1A
102
}
330
1A
100
AcDbXrecord
280
     1
270
     1
271
     1
  0
XRECORD
  5
1F
102
{ACAD_REACTORS
330
1A
102
}
330
1A
100
AcDbXrecord
280
     1
270
     1
271
     1
  0
XRECORD
  5
1E
102
{ACAD_REACTORS
330
1A
102
}
330
1A
100
AcDbXrecord
280
     1
270
     1
271
     1
  0
XRECORD
  5
20
102
{ACAD_REACTORS
330
1A
102
}
330
1A
100
AcDbXrecord
280
     1
270
     1
271
     1
  0
XRECORD
  5
1D
102
{ACAD_REACTORS
330
1A
102
}
330
1A
100
AcDbXrecord
280
     1
270
     1
271
     1
  0
XRECORD
  5
14
102
{ACAD_REACTORS
330
12
102
}
330
12
100
AcDbXrecord
280
     1
270
     1
271
     1
  0
XRECORD
  5
13
102
{ACAD_REACTORS
330
12
102
}
330
12
100
AcDbXrecord
280
     1
270
     1
271
     1
  0
XRECORD
  5
17
102
{ACAD_REACTORS
330
12
102
}
330
12
100
AcDbXrecord
280
     1
270
     1
271
     1
  0
XRECORD
  5
16
102
{ACAD_REACTORS
330
12
102
}
330
12
100
AcDbXrecord
280
     1
270
     1
271
     1
  0
XRECORD
  5
18
102
{ACAD_REACTORS
330
12
102
}
330
12
100
AcDbXrecord
280
     1
270
     1
271
     1
  0
XRECORD
  5
15
102
{ACAD_REACTORS
330
12
102
}
330
12
100
AcDbXrecord
280
     1
270
     1
271
     1
  0
XRECORD
  5
24
102
{ACAD_REACTORS
330
22
102
}
330
22
100
AcDbXrecord
280
     1
270
     1
271
     1
  0
XRECORD
  5
23
102
{ACAD_REACTORS
330
22
102
}
330
22
100
AcDbXrecord
280
     1
270
     1
271
     1
  0
XRECORD
  5
27
102
{ACAD_REACTORS
330
22
102
}
330
22
100
AcDbXrecord
280
     1
270
     1
271
     1
  0
XRECORD
  5
26
102
{ACAD_REACTORS
330
22
102
}
330
22
100
AcDbXrecord
280
     1
270
     1
271
     1
  0
XRECORD
  5
28
102
{ACAD_REACTORS
330
22
102
}
330
22
100
AcDbXrecord
280
     1
270
     1
271
     1
  0
XRECORD
  5
25
102
{ACAD_REACTORS
330
22
102
}
330
22
100
AcDbXrecord
280
     1
270
     1
271
     1
  0
CELLSTYLEMAP
  5
141
102
{ACAD_REACTORS
330
140
102
}
330
140
100
AcDbCellStyleMap
 90
        3
300
CELLSTYLE
  1
TABLEFORMAT_BEGIN
 90
        5
170
     1
 91
        0
 92
    32768
 62
   257
 93
        1
300
CONTENTFORMAT
  1
CONTENTFORMAT_BEGIN
 90
        0
 91
        0
 92
      512
 93
        0
300

 40
0.0
140
1.0
 94
        5
 62
     0
340
55
144
0.25
309
CONTENTFORMAT_END
171
     0
 94
        0
309
TABLEFORMAT_END
  1
CELLSTYLE_BEGIN
 90
        1
 91
        1
300
_TITLE
309
CELLSTYLE_END
300
CELLSTYLE
  1
TABLEFORMAT_BEGIN
 90
        5
170
     1
 91
        0
 92
        0
 62
   257
 93
        1
300
CONTENTFORMAT
  1
CONTENTFORMAT_BEGIN
 90
        0
 91
        0
 92
      512
 93
        0
300

 40
0.0
140
1.0
 94
        5
 62
     0
340
55
144
0.18
309
CONTENTFORMAT_END
171
     0
 94
        0
309
TABLEFORMAT_END
  1
CELLSTYLE_BEGIN
 90
        2
 91
        1
300
_HEADER
309
CELLSTYLE_END
300
CELLSTYLE
  1
TABLEFORMAT_BEGIN
 90
        5
170
     1
 91
        0
 92
        0
 62
   257
 93
        1
300
CONTENTFORMAT
  1
CONTENTFORMAT_BEGIN
 90
        0
 91
        0
 92
      512
 93
        0
300

 40
0.0
140
1.0
 94
        2
 62
     0
340
55
144
0.18
309
CONTENTFORMAT_END
171
     0
 94
        0
309
TABLEFORMAT_END
  1
CELLSTYLE_BEGIN
 90
        3
 91
        2
300
_DATA
309
CELLSTYLE_END
  0
ENDSEC
  0
EOF
