  0
SECTION
  2
HEADER
  9
$ACADVER
  1
AC1032
  9
$ACADMAINTVER
 90
      327
  9
$DWGCODEPAGE
  3
ANSI_1252
  9
$REQUIREDVERSIONS
160
                 0
  9
$INSBASE
 10
0.0
 20
0.0
 30
0.0
  9
$EXTMIN
 10
1.000000000000000E+20
 20
1.000000000000000E+20
 30
1.000000000000000E+20
  9
$EXTMAX
 10
-1.000000000000000E+20
 20
-1.000000000000000E+20
 30
-1.000000000000000E+20
  9
$LIMMIN
 10
0.0
 20
0.0
  9
$LIMMAX
 10
12.0
 20
9.0
  9
$ORTHOMODE
 70
     0
  9
$REGENMODE
 70
     1
  9
$FILLMODE
 70
     1
  9
$QTEXTMODE
 70
     0
  9
$MIRRTEXT
 70
     0
  9
$LTSCALE
 40
1.0
  9
$ATTMODE
 70
     1
  9
$TEXTSIZE
 40
0.2
  9
$TRACEWID
 40
0.05
  9
$TEXTSTYLE
  7
Standard
  9
$CLAYER
  8
0
  9
$CELTYPE
  6
ByLayer
  9
$CECOLOR
 62
   256
  9
$CELTSCALE
 40
1.0
  9
$DISPSILH
 70
     0
  9
$DIMSCALE
 40
1.0
  9
$DIMASZ
 40
0.18
  9
$DIMEXO
 40
0.0625
  9
$DIMDLI
 40
0.38
  9
$DIMRND
 40
0.0
  9
$DIMDLE
 40
0.0
  9
$DIMEXE
 40
0.18
  9
$DIMTP
 40
0.0
  9
$DIMTM
 40
0.0
  9
$DIMTXT
 40
0.18
  9
$DIMCEN
 40
0.09
  9
$DIMTSZ
 40
0.0
  9
$DIMTOL
 70
     0
  9
$DIMLIM
 70
     0
  9
$DIMTIH
 70
     1
  9
$DIMTOH
 70
     1
  9
$DIMSE1
 70
     0
  9
$DIMSE2
 70
     0
  9
$DIMTAD
 70
     0
  9
$DIMZIN
 70
     0
  9
$DIMBLK
  1

  9
$DIMASO
 70
     1
  9
$DIMSHO
 70
     1
  9
$DIMPOST
  1

  9
$DIMAPOST
  1

  9
$DIMALT
 70
     0
  9
$DIMALTD
 70
     2
  9
$DIMALTF
 40
25.4
  9
$DIMLFAC
 40
1.0
  9
$DIMTOFL
 70
     0
  9
$DIMTVP
 40
0.0
  9
$DIMTIX
 70
     0
  9
$DIMSOXD
 70
     0
  9
$DIMSAH
 70
     0
  9
$DIMBLK1
  1

  9
$DIMBLK2
  1

  9
$DIMSTYLE
  2
Standard
  9
$DIMCLRD
 70
     0
  9
$DIMCLRE
 70
     0
  9
$DIMCLRT
 70
     0
  9
$DIMTFAC
 40
1.0
  9
$DIMGAP
 40
0.09
  9
$DIMJUST
 70
     0
  9
$DIMSD1
 70
     0
  9
$DIMSD2
 70
     0
  9
$DIMTOLJ
 70
     1
  9
$DIMTZIN
 70
     0
  9
$DIMALTZ
 70
     0
  9
$DIMALTTZ
 70
     0
  9
$DIMUPT
 70
     0
  9
$DIMDEC
 70
     4
  9
$DIMTDEC
 70
     4
  9
$DIMALTU
 70
     2
  9
$DIMALTTD
 70
     2
  9
$DIMTXSTY
  7
Standard
  9
$DIMAUNIT
 70
     0
  9
$DIMADEC
 70
     0
  9
$DIMALTRND
 40
0.0
  9
$DIMAZIN
 70
     0
  9
$DIMDSEP
 70
    46
  9
$DIMATFIT
 70
     3
  9
$DIMFRAC
 70
     0
  9
$DIMLDRBLK
  1

  9
$DIMLUNIT
 70
     2
  9
$DIMLWD
 70
    -2
  9
$DIMLWE
 70
    -2
  9
$DIMTMOVE
 70
     0
  9
$DIMFXL
 40
1.0
  9
$DIMFXLON
 70
     0
  9
$DIMJOGANG
 40
0.7853981633974483
  9
$DIMTFILL
 70
     0
  9
$DIMTFILLCLR
 70
     0
  9
$DIMARCSYM
 70
     0
  9
$DIMLTYPE
  6

  9
$DIMLTEX1
  6

  9
$DIMLTEX2
  6

  9
$DIMTXTDIRECTION
 70
     0
  9
$LUNITS
 70
     2
  9
$LUPREC
 70
     4
  9
$SKETCHINC
 40
0.1
  9
$FILLETRAD
 40
0.0
  9
$AUNITS
 70
     0
  9
$AUPREC
 70
     0
  9
$MENU
  1
.
  9
$ELEVATION
 40
0.0
  9
$PELEVATION
 40
0.0
  9
$THICKNESS
 40
0.0
  9
$LIMCHECK
 70
     0
  9
$CHAMFERA
 40
0.0
  9
$CHAMFERB
 40
0.0
  9
$CHAMFERC
 40
0.0
  9
$CHAMFERD
 40
0.0
  9
$SKPOLY
 70
     0
  9
$TDCREATE
 40
2460699.510960648
  9
$TDUCREATE
 40
2460699.510960648
  9
$TDUPDATE
 40
2460699.510960648
  9
$TDUUPDATE
 40
2460699.510960648
  9
$TDINDWG
 40
0.0000000000
  9
$TDUSRTIMER
 40
0.0000000000
  9
$USRTIMER
 70
     1
  9
$ANGBASE
 50
0.0
  9
$ANGDIR
 70
     0
  9
$PDMODE
 70
     0
  9
$PDSIZE
 40
0.0
  9
$PLINEWID
 40
0.0
  9
$SPLFRAME
 70
     0
  9
$SPLINETYPE
 70
     6
  9
$SPLINESEGS
 70
     8
  9
$HANDSEED
  5
BA
  9
$SURFTAB1
 70
     6
  9
$SURFTAB2
 70
     6
  9
$SURFTYPE
 70
     6
  9
$SURFU
 70
     6
  9
$SURFV
 70
     6
  9
$UCSBASE
  2

  9
$UCSNAME
  2

  9
$UCSORG
 10
0.0
 20
0.0
 30
0.0
  9
$UCSXDIR
 10
1.0
 20
0.0
 30
0.0
  9
$UCSYDIR
 10
0.0
 20
1.0
 30
0.0
  9
$UCSORTHOREF
  2

  9
$UCSORTHOVIEW
 70
     0
  9
$UCSORGTOP
 10
0.0
 20
0.0
 30
0.0
  9
$UCSORGBOTTOM
 10
0.0
 20
0.0
 30
0.0
  9
$UCSORGLEFT
 10
0.0
 20
0.0
 30
0.0
  9
$UCSORGRIGHT
 10
0.0
 20
0.0
 30
0.0
  9
$UCSORGFRONT
 10
0.0
 20
0.0
 30
0.0
  9
$UCSORGBACK
 10
0.0
 20
0.0
 30
0.0
  9
$PUCSBASE
  2

  9
$PUCSNAME
  2

  9
$PUCSORG
 10
0.0
 20
0.0
 30
0.0
  9
$PUCSXDIR
 10
1.0
 20
0.0
 30
0.0
  9
$PUCSYDIR
 10
0.0
 20
1.0
 30
0.0
  9
$PUCSORTHOREF
  2

  9
$PUCSORTHOVIEW
 70
     0
  9
$PUCSORGTOP
 10
0.0
 20
0.0
 30
0.0
  9
$PUCSORGBOTTOM
 10
0.0
 20
0.0
 30
0.0
  9
$PUCSORGLEFT
 10
0.0
 20
0.0
 30
0.0
  9
$PUCSORGRIGHT
 10
0.0
 20
0.0
 30
0.0
  9
$PUCSORGFRONT
 10
0.0
 20
0.0
 30
0.0
  9
$PUCSORGBACK
 10
0.0
 20
0.0
 30
0.0
  9
$USERI1
 70
     0
  9
$USERI2
 70
     0
  9
$USERI3
 70
     0
  9
$USERI4
 70
     0
  9
$USERI5
 70
     0
  9
$USERR1
 40
0.0
  9
$USERR2
 40
0.0
  9
$USERR3
 40
0.0
  9
$USERR4
 40
0.0
  9
$USERR5
 40
0.0
  9
$WORLDVIEW
 70
     1
  9
$SHADEDGE
 70
     3
  9
$SHADEDIF
 70
    70
  9
$TILEMODE
 70
     1
  9
$MAXACTVP
 70
    64
  9
$PINSBASE
 10
0.0
 20
0.0
 30
0.0
  9
$PLIMCHECK
 70
     0
  9
$PEXTMIN
 10
1.000000000000000E+20
 20
1.000000000000000E+20
 30
1.000000000000000E+20
  9
$PEXTMAX
 10
-1.000000000000000E+20
 20
-1.000000000000000E+20
 30
-1.000000000000000E+20
  9
$PLIMMIN
 10
0.0
 20
0.0
  9
$PLIMMAX
 10
12.0
 20
9.0
  9
$UNITMODE
 70
     0
  9
$VISRETAIN
 70
     1
  9
$PLINEGEN
 70
     0
  9
$PSLTSCALE
 70
     1
  9
$TREEDEPTH
 70
  3020
  9
$CMLSTYLE
  2
Standard
  9
$CMLJUST
 70
     0
  9
$CMLSCALE
 40
1.0
  9
$PROXYGRAPHICS
 70
     1
  9
$MEASUREMENT
 70
     0
  9
$CELWEIGHT
370
    -1
  9
$ENDCAPS
280
     0
  9
$JOINSTYLE
280
     0
  9
$LWDISPLAY
290
     1
  9
$INSUNITS
 70
     5
  9
$HYPERLINKBASE
  1

  9
$STYLESHEET
  1

  9
$XEDIT
290
     1
  9
$CEPSNTYPE
380
     0
  9
$PSTYLEMODE
290
     1
  9
$FINGERPRINTGUID
  2
{AF10F88B-4A04-7D4B-A9EF-C1F11740B09D}
  9
$VERSIONGUID
  2
{49167884-BC6C-6B42-AA2B-C6051A97578D}
  9
$EXTNAMES
290
     1
  9
$PSVPSCALE
 40
0.0
  9
$OLESTARTUP
290
     0
  9
$SORTENTS
280
   127
  9
$INDEXCTL
280
     0
  9
$HIDETEXT
280
     1
  9
$XCLIPFRAME
280
     2
  9
$HALOGAP
280
     0
  9
$OBSCOLOR
 70
   257
  9
$OBSLTYPE
280
     0
  9
$INTERSECTIONDISPLAY
280
     0
  9
$INTERSECTIONCOLOR
 70
   257
  9
$DIMASSOC
280
     2
  9
$PROJECTNAME
  1

  9
$CAMERADISPLAY
290
     0
  9
$LENSLENGTH
 40
50.0
  9
$CAMERAHEIGHT
 40
0.0
  9
$STEPSPERSEC
 40
2.0
  9
$STEPSIZE
 40
6.0
  9
$3DDWFPREC
 40
2.0
  9
$PSOLWIDTH
 40
0.25
  9
$PSOLHEIGHT
 40
4.0
  9
$LOFTANG1
 40
1.570796326794896
  9
$LOFTANG2
 40
1.570796326794896
  9
$LOFTMAG1
 40
0.0
  9
$LOFTMAG2
 40
0.0
  9
$LOFTPARAM
 70
     7
  9
$LOFTNORMALS
280
     1
  9
$LATITUDE
 40
37.795
  9
$LONGITUDE
 40
-122.394
  9
$NORTHDIRECTION
 40
0.0
  9
$TIMEZONE
 70
 -8000
  9
$LIGHTGLYPHDISPLAY
280
     1
  9
$TILEMODELIGHTSYNCH
280
     1
  9
$CMATERIAL
347
11
  9
$SOLIDHIST
280
     0
  9
$SHOWHIST
280
     1
  9
$DWFFRAME
280
     2
  9
$DGNFRAME
280
     0
  9
$REALWORLDSCALE
290
     1
  9
$INTERFERECOLOR
 62
     1
  9
$INTERFEREOBJVS
345
33
  9
$INTERFEREVPVS
346
30
  9
$CSHADOW
280
     0
  9
$SHADOWPLANELOCATION
 40
0.0
  0
ENDSEC
  0
SECTION
  2
CLASSES
  0
CLASS
  1
ACDBDICTIONARYWDFLT
  2
AcDbDictionaryWithDefault
  3
ObjectDBX Classes
 90
        0
 91
        1
280
     0
281
     0
  0
CLASS
  1
MATERIAL
  2
AcDbMaterial
  3
ObjectDBX Classes
 90
     1153
 91
        3
280
     0
281
     0
  0
CLASS
  1
VISUALSTYLE
  2
AcDbVisualStyle
  3
ObjectDBX Classes
 90
     4095
 91
       24
280
     0
281
     0
  0
CLASS
  1
SCALE
  2
AcDbScale
  3
ObjectDBX Classes
 90
     1153
 91
       17
280
     0
281
     0
  0
CLASS
  1
TABLESTYLE
  2
AcDbTableStyle
  3
ObjectDBX Classes
 90
     4095
 91
        1
280
     0
281
     0
  0
CLASS
  1
MLEADERSTYLE
  2
AcDbMLeaderStyle
  3
ACDB_MLEADERSTYLE_CLASS
 90
     4095
 91
        1
280
     0
281
     0
  0
CLASS
  1
ACDBSECTIONVIEWSTYLE
  2
AcDbSectionViewStyle
  3
ObjectDBX Classes
 90
     1025
 91
        1
280
     0
281
     0
  0
CLASS
  1
ACDBDETAILVIEWSTYLE
  2
AcDbDetailViewStyle
  3
ObjectDBX Classes
 90
     1025
 91
        1
280
     0
281
     0
  0
CLASS
  1
DICTIONARYVAR
  2
AcDbDictionaryVar
  3
ObjectDBX Classes
 90
        0
 91
        5
280
     0
281
     0
  0
CLASS
  1
CELLSTYLEMAP
  2
AcDbCellStyleMap
  3
ObjectDBX Classes
 90
     1152
 91
        1
280
     0
281
     0
  0
ENDSEC
  0
SECTION
  2
TABLES
  0
TABLE
  2
VPORT
  5
8
330
0
100
AcDbSymbolTable
 70
     1
  0
VPORT
  5
57
330
8
100
AcDbSymbolTableRecord
100
AcDbViewportTableRecord
  2
*Active
 70
     0
 10
0.0
 20
0.0
 11
1.0
 21
1.0
 12
0.0
 22
0.0
 13
0.0
 23
0.0
 14
1.0
 24
1.0
 15
0.0
 25
0.0
 16
0.0
 26
0.0
 36
1.0
 17
4.999999998749408
 27
-4.999999998749408
 37
0.0
 40
10.19999999744879
 41
1.0
 42
50.0
 43
0.0
 44
0.0
 50
0.0
 51
0.0
 71
     0
 72
   100
 73
     1
 74
     1
 75
     0
 76
     0
 77
     0
 78
     0
281
     0
 65
     1
110
0.0
120
0.0
130
0.0
111
1.0
121
0.0
131
0.0
112
0.0
122
1.0
132
0.0
 79
     0
146
0.0
 60
     3
 61
     5
292
     1
282
     1
141
0.0
142
0.0
 63
   250
421
  3355443
  0
ENDTAB
  0
TABLE
  2
LTYPE
  5
5
330
0
100
AcDbSymbolTable
 70
     1
  0
LTYPE
  5
5B
330
5
100
AcDbSymbolTableRecord
100
AcDbLinetypeTableRecord
  2
ByBlock
 70
     0
  3

 72
    65
 73
     0
 40
0.0
  0
LTYPE
  5
5C
330
5
100
AcDbSymbolTableRecord
100
AcDbLinetypeTableRecord
  2
ByLayer
 70
     0
  3

 72
    65
 73
     0
 40
0.0
  0
LTYPE
  5
5D
330
5
100
AcDbSymbolTableRecord
100
AcDbLinetypeTableRecord
  2
Continuous
 70
     0
  3
Solid line
 72
    65
 73
     0
 40
0.0
  0
ENDTAB
  0
TABLE
  2
LAYER
  5
2
330
0
100
AcDbSymbolTable
 70
     2
  0
LAYER
  5
54
330
2
100
AcDbSymbolTableRecord
100
AcDbLayerTableRecord
  2
0
 70
     0
 62
     7
  6
Continuous
370
    -3
390
F
347
21
348
0
  0
LAYER
  5
78
330
2
100
AcDbSymbolTableRecord
100
AcDbLayerTableRecord
  2
Camada 1
 70
     0
 62
     7
  6
Continuous
370
     0
390
F
347
21
348
0
  0
ENDTAB
  0
TABLE
  2
STYLE
  5
3
330
0
100
AcDbSymbolTable
 70
     2
  0
STYLE
  5
55
330
3
100
AcDbSymbolTableRecord
100
AcDbTextStyleTableRecord
  2
Standard
 70
     0
 40
0.0
 41
1.0
 50
0.0
 71
     0
 42
0.2
  3
txt
  4

  0
STYLE
  5
5A
330
3
100
AcDbSymbolTableRecord
100
AcDbTextStyleTableRecord
  2
Annotative
 70
     0
 40
0.0
 41
1.0
 50
0.0
 71
     0
 42
0.2
  3
txt
  4

1001
AcadAnnotative
1000
AnnotativeData
1002
{
1070
     1
1070
     1
1002
}
  0
ENDTAB
  0
TABLE
  2
VIEW
  5
6
330
0
100
AcDbSymbolTable
 70
     0
  0
ENDTAB
  0
TABLE
  2
UCS
  5
7
330
0
100
AcDbSymbolTable
 70
     0
  0
ENDTAB
  0
TABLE
  2
APPID
  5
9
330
0
100
AcDbSymbolTable
 70
     2
  0
APPID
  5
56
330
9
100
AcDbSymbolTableRecord
100
AcDbRegAppTableRecord
  2
ACAD
 70
     0
  0
APPID
  5
5E
330
9
100
AcDbSymbolTableRecord
100
AcDbRegAppTableRecord
  2
AcadAnnotative
 70
     0
  0
ENDTAB
  0
TABLE
  2
DIMSTYLE
  5
A
330
0
100
AcDbSymbolTable
 70
     2
100
AcDbDimStyleTable
 71
     0
  0
DIMSTYLE
105
58
330
A
100
AcDbSymbolTableRecord
100
AcDbDimStyleTableRecord
  2
Standard
 70
     0
340
55
  0
DIMSTYLE
105
59
330
A
100
AcDbSymbolTableRecord
100
AcDbDimStyleTableRecord
  2
Annotative
 70
     0
340
55
1001
AcadAnnotative
1000
AnnotativeData
1002
{
1070
     1
1070
     1
1002
}
  0
ENDTAB
  0
TABLE
  2
BLOCK_RECORD
  5
1
330
0
100
AcDbSymbolTable
 70
     3
  0
BLOCK_RECORD
  5
70
330
1
100
AcDbSymbolTableRecord
100
AcDbBlockTableRecord
  2
*Model_Space
340
73
 70
     0
280
     1
281
     0
  0
BLOCK_RECORD
  5
6C
330
1
100
AcDbSymbolTableRecord
100
AcDbBlockTableRecord
  2
*Paper_Space
340
6F
 70
     0
280
     1
281
     0
  0
BLOCK_RECORD
  5
74
330
1
100
AcDbSymbolTableRecord
100
AcDbBlockTableRecord
  2
*Paper_Space0
340
77
 70
     0
280
     1
281
     0
  0
BLOCK_RECORD
  5
79
330
1
100
AcDbSymbolTableRecord
100
AcDbBlockTableRecord
  2
Block_0
340
0
102
{BLKREFS
331
7A
102
}
 70
     0
280
     1
281
     0
  0
BLOCK_RECORD
  5
A2
330
1
100
AcDbSymbolTableRecord
100
AcDbBlockTableRecord
  2
Block_1
340
0
102
{BLKREFS
331
A3
102
}
 70
     0
280
     1
281
     0
  0
ENDTAB
  0
ENDSEC
  0
SECTION
  2
BLOCKS
  0
BLOCK
  5
71
330
70
100
AcDbEntity
  8
0
100
AcDbBlockBegin
  2
*Model_Space
 70
     0
 10
0.0
 20
0.0
 30
0.0
  3
*Model_Space
  1

  0
ENDBLK
  5
72
330
70
100
AcDbEntity
  8
0
100
AcDbBlockEnd
  0
BLOCK
  5
6D
330
6C
100
AcDbEntity
 67
     1
  8
0
100
AcDbBlockBegin
  2
*Paper_Space
 70
     0
 10
0.0
 20
0.0
 30
0.0
  3
*Paper_Space
  1

  0
ENDBLK
  5
6E
330
6C
100
AcDbEntity
 67
     1
  8
0
100
AcDbBlockEnd
  0
BLOCK
  5
75
330
74
100
AcDbEntity
 67
     1
  8
0
100
AcDbBlockBegin
  2
*Paper_Space0
 70
     0
 10
0.0
 20
0.0
 30
0.0
  3
*Paper_Space0
  1

  0
ENDBLK
  5
76
330
74
100
AcDbEntity
 67
     1
  8
0
100
AcDbBlockEnd
  0
BLOCK
  5
7B
330
79
100
AcDbEntity
  8
0
100
AcDbBlockBegin
  2
Block_0
 70
     0
 10
0.0
 20
0.0
 30
0.0
  3
Block_0
  1

  0
LWPOLYLINE
  5
7D
330
79
100
AcDbEntity
  8
Camada 1
 62
   250
420
  1907995
370
    15
100
AcDbPolyline
 90
        4
 70
     1
 43
0.0
 10
6.459674645314914
 20
-3.479972305318566
 10
6.537572423289361
 20
-3.479972305318566
 10
6.537572423289361
 20
-3.709919121607732
 10
6.459674645314914
 20
-3.709919121607732
  0
SPLINE
  5
7E
330
79
100
AcDbEntity
  8
Camada 1
 62
   250
420
  1907995
370
    15
100
AcDbSpline
210
0.0
220
0.0
230
1.0
 70
     9
 71
     3
 72
    38
 73
    34
 74
     0
 42
0.0000000001
 43
0.0000000001
 40
0.0
 40
0.0
 40
0.0
 40
0.0
 40
1.0
 40
1.0
 40
1.0
 40
2.0
 40
2.0
 40
2.0
 40
3.0
 40
3.0
 40
3.0
 40
4.0
 40
4.0
 40
4.0
 40
5.0
 40
5.0
 40
5.0
 40
6.0
 40
6.0
 40
6.0
 40
7.0
 40
7.0
 40
7.0
 40
8.0
 40
8.0
 40
8.0
 40
9.0
 40
9.0
 40
9.0
 40
10.0
 40
10.0
 40
10.0
 40
11.0
 40
11.0
 40
11.0
 40
11.0
 10
5.740721348405842
 20
-3.526431415436026
 30
0.0
 10
5.740721348405842
 20
-3.526431415436026
 30
0.0
 10
5.740721348405842
 20
-3.461193888183903
 30
0.0
 10
5.740721348405842
 20
-3.461193888183903
 30
0.0
 10
5.740721348405842
 20
-3.461193888183903
 30
0.0
 10
6.41274578833834
 20
-3.461193888183903
 30
0.0
 10
6.41274578833834
 20
-3.461193888183903
 30
0.0
 10
6.41274578833834
 20
-3.461193888183903
 30
0.0
 10
6.41274578833834
 20
-3.698186907363588
 30
0.0
 10
6.41274578833834
 20
-3.698186907363588
 30
0.0
 10
6.41274578833834
 20
-3.698186907363588
 30
0.0
 10
6.330150541769678
 20
-3.698186907363588
 30
0.0
 10
6.330150541769678
 20
-3.698186907363588
 30
0.0
 10
6.330150541769678
 20
-3.698186907363588
 30
0.0
 10
6.330150541769678
 20
-3.589314479770906
 30
0.0
 10
6.330150541769678
 20
-3.589314479770906
 30
0.0
 10
6.330150541769678
 20
-3.576173024948332
 30
0.0
 10
6.319357821244307
 20
-3.565850051282588
 30
0.0
 10
6.306686113281327
 20
-3.565850051282588
 30
0.0
 10
6.306686113281327
 20
-3.565850051282588
 30
0.0
 10
5.960826395129031
 20
-3.565850051282588
 30
0.0
 10
5.960826395129031
 20
-3.565850051282588
 30
0.0
 10
5.960826395129031
 20
-3.565850051282588
 30
0.0
 10
5.960826395129031
 20
-3.548016856486832
 30
0.0
 10
5.960826395129031
 20
-3.548016856486832
 30
0.0
 10
5.960826395129031
 20
-3.534875401664225
 30
0.0
 10
5.950022217363006
 20
-3.524552427998513
 30
0.0
 10
5.93736196664068
 20
-3.524552427998513
 30
0.0
 10
5.93736196664068
 20
-3.524552427998513
 30
0.0
 10
5.749646538734259
 20
-3.524552427998513
 30
0.0
 10
5.749646538734259
 20
-3.524552427998513
 30
0.0
 10
5.746358310718412
 20
-3.524552427998513
 30
0.0
 10
5.743539829562191
 20
-3.525022174857627
 30
0.0
 10
5.740721348405842
 20
-3.526431415436026
 30
0.0
  0
LWPOLYLINE
  5
7F
330
79
100
AcDbEntity
  8
Camada 1
 62
   250
420
  1907995
370
    15
100
AcDbPolyline
 90
        4
 70
     1
 43
0.0
 10
6.283221684793105
 20
-3.612778908259225
 10
6.283221684793105
 20
-3.709919121607732
 10
5.94909418088492
 20
-3.709919121607732
 10
5.94909418088492
 20
-3.612778908259225
  0
SPLINE
  5
80
330
79
100
AcDbEntity
  8
Camada 1
 62
   250
420
  1907995
370
    15
100
AcDbSpline
210
0.0
220
0.0
230
1.0
 70
     9
 71
     3
 72
    23
 73
    19
 74
     0
 42
0.0000000001
 43
0.0000000001
 40
0.0
 40
0.0
 40
0.0
 40
0.0
 40
1.0
 40
1.0
 40
1.0
 40
2.0
 40
2.0
 40
2.0
 40
3.0
 40
3.0
 40
3.0
 40
4.0
 40
4.0
 40
4.0
 40
5.0
 40
5.0
 40
5.0
 40
6.0
 40
6.0
 40
6.0
 40
6.0
 10
5.925629752396569
 20
-3.609496408863865
 30
0.0
 10
5.925629752396569
 20
-3.609496408863865
 30
0.0
 10
5.925629752396569
 20
-3.903735530065797
 30
0.0
 10
5.925629752396569
 20
-3.903735530065797
 30
0.0
 10
5.925629752396569
 20
-3.903735530065797
 30
0.0
 10
5.77311096722261
 20
-3.903735530065797
 30
0.0
 10
5.77311096722261
 20
-3.903735530065797
 30
0.0
 10
5.77311096722261
 20
-3.903735530065797
 30
0.0
 10
5.77311096722261
 20
-3.571481284975086
 30
0.0
 10
5.77311096722261
 20
-3.571481284975086
 30
0.0
 10
5.77311096722261
 20
-3.571481284975086
 30
0.0
 10
5.913897538152458
 20
-3.571481284975086
 30
0.0
 10
5.913897538152458
 20
-3.571481284975086
 30
0.0
 10
5.913897538152458
 20
-3.571481284975086
 30
0.0
 10
5.913897538152458
 20
-3.589314479770906
 30
0.0
 10
5.913897538152458
 20
-3.589314479770906
 30
0.0
 10
5.913897538152458
 20
-3.597764194619722
 30
0.0
 10
5.918583549505633
 20
-3.60526868712915
 30
0.0
 10
5.925629752396569
 20
-3.609496408863865
 30
0.0
  0
SPLINE
  5
81
330
79
100
AcDbEntity
  8
Camada 1
 62
   250
420
  1907995
370
    15
100
AcDbSpline
210
0.0
220
0.0
230
1.0
 70
     9
 71
     3
 72
    23
 73
    19
 74
     0
 42
0.0000000001
 43
0.0000000001
 40
0.0
 40
0.0
 40
0.0
 40
0.0
 40
1.0
 40
1.0
 40
1.0
 40
2.0
 40
2.0
 40
2.0
 40
3.0
 40
3.0
 40
3.0
 40
4.0
 40
4.0
 40
4.0
 40
5.0
 40
5.0
 40
5.0
 40
6.0
 40
6.0
 40
6.0
 40
6.0
 10
5.925629752396569
 20
-6.108927789727335
 30
0.0
 10
5.918583549505633
 20
-6.112674307362026
 30
0.0
 10
5.913897538152458
 20
-6.120190257112204
 30
0.0
 10
5.913897538152458
 20
-6.129103990200094
 30
0.0
 10
5.913897538152458
 20
-6.129103990200094
 30
0.0
 10
5.913897538152458
 20
-6.279274041076948
 30
0.0
 10
5.913897538152458
 20
-6.279274041076948
 30
0.0
 10
5.913897538152458
 20
-6.279274041076948
 30
0.0
 10
5.77311096722261
 20
-6.279274041076948
 30
0.0
 10
5.77311096722261
 20
-6.279274041076948
 30
0.0
 10
5.77311096722261
 20
-6.279274041076948
 30
0.0
 10
5.77311096722261
 20
-5.946550049126417
 30
0.0
 10
5.77311096722261
 20
-5.946550049126417
 30
0.0
 10
5.77311096722261
 20
-5.946550049126417
 30
0.0
 10
5.925629752396569
 20
-5.946550049126417
 30
0.0
 10
5.925629752396569
 20
-5.946550049126417
 30
0.0
 10
5.925629752396569
 20
-5.946550049126417
 30
0.0
 10
5.925629752396569
 20
-6.108927789727335
 30
0.0
 10
5.925629752396569
 20
-6.108927789727335
 30
0.0
  0
LWPOLYLINE
  5
82
330
79
100
AcDbEntity
  8
Camada 1
 62
   250
420
  1907995
370
    15
100
AcDbPolyline
 90
        4
 70
     1
 43
0.0
 10
6.537572423289361
 20
-6.370313273873874
 10
6.459674645314914
 20
-6.370313273873874
 10
6.459674645314914
 20
-6.140836204444206
 10
6.537572423289361
 20
-6.140836204444206
  0
SPLINE
  5
83
330
79
100
AcDbEntity
  8
Camada 1
 62
   250
420
  1907995
370
    15
100
AcDbSpline
210
0.0
220
0.0
230
1.0
 70
    11
 71
     3
 72
    23
 73
    19
 74
     0
 42
0.0000000001
 43
0.0000000001
 40
0.0
 40
0.0
 40
0.0
 40
0.0
 40
1.0
 40
1.0
 40
1.0
 40
2.0
 40
2.0
 40
2.0
 40
3.0
 40
3.0
 40
3.0
 40
4.0
 40
4.0
 40
4.0
 40
5.0
 40
5.0
 40
5.0
 40
6.0
 40
6.0
 40
6.0
 40
6.0
 10
6.549304637533473
 20
-6.117371775955855
 30
0.0
 10
6.549304637533473
 20
-6.117371775955855
 30
0.0
 10
6.456856164158565
 20
-6.117371775955855
 30
0.0
 10
6.456856164158565
 20
-6.117371775955855
 30
0.0
 10
6.452639899664632
 20
-6.11033130168499
 30
0.0
 10
6.445123949914454
 20
-6.105639561711744
 30
0.0
 10
6.436210216826562
 20
-6.105639561711744
 30
0.0
 10
6.436210216826562
 20
-6.105639561711744
 30
0.0
 10
5.94909418088492
 20
-6.105639561711744
 30
0.0
 10
5.94909418088492
 20
-6.105639561711744
 30
0.0
 10
5.94909418088492
 20
-6.105639561711744
 30
0.0
 10
5.94909418088492
 20
-5.940918815434047
 30
0.0
 10
5.94909418088492
 20
-5.940918815434047
 30
0.0
 10
5.94909418088492
 20
-5.940918815434047
 30
0.0
 10
6.549304637533473
 20
-5.940918815434047
 30
0.0
 10
6.549304637533473
 20
-5.940918815434047
 30
0.0
 10
6.549304637533473
 20
-5.940918815434047
 30
0.0
 10
6.549304637533473
 20
-6.117371775955855
 30
0.0
 10
6.549304637533473
 20
-6.117371775955855
 30
0.0
  0
LWPOLYLINE
  5
84
330
79
100
AcDbEntity
  8
Camada 1
 62
   250
420
  1907995
370
    15
100
AcDbPolyline
 90
       12
 70
     1
 43
0.0
 10
6.549304637533473
 20
-5.543902518570462
 10
6.549304637533473
 20
-5.567366947058812
 10
6.549304637533473
 20
-5.929186601189935
 10
5.94909418088492
 20
-5.929186601189935
 10
5.94909418088492
 20
-5.923085620638195
 10
5.77311096722261
 20
-5.923085620638195
 10
5.77311096722261
 20
-5.580978148740532
 10
5.77311096722261
 20
-5.530291316888741
 10
5.77311096722261
 20
-3.927199958554052
 10
5.94909418088492
 20
-3.927199958554052
 10
5.94909418088492
 20
-3.921568724862098
 10
6.549304637533473
 20
-3.921568724862098
  0
SPLINE
  5
85
330
79
100
AcDbEntity
  8
Camada 1
 62
   250
420
  1907995
370
    15
100
AcDbSpline
210
0.0
220
0.0
230
1.0
 70
    11
 71
     3
 72
    32
 73
    28
 74
     0
 42
0.0000000001
 43
0.0000000001
 40
0.0
 40
0.0
 40
0.0
 40
0.0
 40
1.0
 40
1.0
 40
1.0
 40
2.0
 40
2.0
 40
2.0
 40
3.0
 40
3.0
 40
3.0
 40
4.0
 40
4.0
 40
4.0
 40
5.0
 40
5.0
 40
5.0
 40
6.0
 40
6.0
 40
6.0
 40
7.0
 40
7.0
 40
7.0
 40
8.0
 40
8.0
 40
8.0
 40
9.0
 40
9.0
 40
9.0
 40
9.0
 10
6.549304637533473
 20
-3.909836510617955
 30
0.0
 10
6.549304637533473
 20
-3.909836510617955
 30
0.0
 10
5.94909418088492
 20
-3.909836510617955
 30
0.0
 10
5.94909418088492
 20
-3.909836510617955
 30
0.0
 10
5.94909418088492
 20
-3.909836510617955
 30
0.0
 10
5.94909418088492
 20
-3.73338355009605
 30
0.0
 10
5.94909418088492
 20
-3.73338355009605
 30
0.0
 10
5.94909418088492
 20
-3.73338355009605
 30
0.0
 10
6.286509912808952
 20
-3.73338355009605
 30
0.0
 10
6.286509912808952
 20
-3.73338355009605
 30
0.0
 10
6.290256430443387
 20
-3.740424024366467
 30
0.0
 10
6.297772380193565
 20
-3.745115764340193
 30
0.0
 10
6.306686113281327
 20
-3.745115764340193
 30
0.0
 10
6.306686113281327
 20
-3.745115764340193
 30
0.0
 10
6.436210216826562
 20
-3.745115764340193
 30
0.0
 10
6.436210216826562
 20
-3.745115764340193
 30
0.0
 10
6.445123949914454
 20
-3.745115764340193
 30
0.0
 10
6.452639899664632
 20
-3.740424024366467
 30
0.0
 10
6.456856164158565
 20
-3.73338355009605
 30
0.0
 10
6.456856164158565
 20
-3.73338355009605
 30
0.0
 10
6.540860651305209
 20
-3.73338355009605
 30
0.0
 10
6.540860651305209
 20
-3.73338355009605
 30
0.0
 10
6.542739638742689
 20
-3.737141524971075
 30
0.0
 10
6.545558119899038
 20
-3.739954277507322
 30
0.0
 10
6.549304637533473
 20
-3.742297283183877
 30
0.0
 10
6.549304637533473
 20
-3.742297283183877
 30
0.0
 10
6.549304637533473
 20
-3.909836510617955
 30
0.0
 10
6.549304637533473
 20
-3.909836510617955
 30
0.0
  0
LWPOLYLINE
  5
86
330
79
100
AcDbEntity
  8
Camada 1
 62
   250
420
  1907995
370
    15
100
AcDbPolyline
 90
        4
 70
     1
 43
0.0
 10
6.775974683047445
 20
-6.105639561711744
 10
6.572769066021823
 20
-6.105639561711744
 10
6.572769066021823
 20
-5.940918815434047
 10
6.775974683047445
 20
-5.940918815434047
  0
LWPOLYLINE
  5
87
330
79
100
AcDbEntity
  8
Camada 1
 62
   250
420
  1907995
370
    15
100
AcDbPolyline
 90
        8
 70
     1
 43
0.0
 10
6.775974683047445
 20
-5.929186601189935
 10
6.572769066021823
 20
-5.929186601189935
 10
6.572769066021823
 20
-5.567366947058812
 10
6.647859820080577
 20
-5.567366947058812
 10
6.647859820080577
 20
-5.543902518570462
 10
6.572769066021823
 20
-5.543902518570462
 10
6.572769066021823
 20
-3.921568724862098
 10
6.775974683047445
 20
-3.921568724862098
  0
LWPOLYLINE
  5
88
330
79
100
AcDbEntity
  8
Camada 1
 62
   250
420
  1907995
370
    15
100
AcDbPolyline
 90
        4
 70
     1
 43
0.0
 10
6.775974683047445
 20
-3.909836510617955
 10
6.572769066021823
 20
-3.909836510617955
 10
6.572769066021823
 20
-3.745115764340193
 10
6.775974683047445
 20
-3.745115764340193
  0
LWPOLYLINE
  5
89
330
79
100
AcDbEntity
  8
Camada 1
 62
   250
420
  1907995
370
    15
100
AcDbPolyline
 90
        4
 70
     1
 43
0.0
 10
6.866555626225398
 20
-6.105639561711744
 10
6.799439111535796
 20
-6.105639561711744
 10
6.799439111535796
 20
-5.940918815434047
 10
6.866555626225398
 20
-5.940918815434047
  0
LWPOLYLINE
  5
8A
330
79
100
AcDbEntity
  8
Camada 1
 62
   250
420
  1907995
370
    15
100
AcDbPolyline
 90
        4
 70
     1
 43
0.0
 10
6.866555626225398
 20
-5.929186601189935
 10
6.799439111535796
 20
-5.929186601189935
 10
6.799439111535796
 20
-3.921568724862098
 10
6.866555626225398
 20
-3.921568724862098
  0
LWPOLYLINE
  5
8B
330
79
100
AcDbEntity
  8
Camada 1
 62
   250
420
  1907995
370
    15
100
AcDbPolyline
 90
        4
 70
     1
 43
0.0
 10
6.866555626225398
 20
-3.909836510617955
 10
6.799439111535796
 20
-3.909836510617955
 10
6.799439111535796
 20
-3.745115764340193
 10
6.866555626225398
 20
-3.745115764340193
  0
LWPOLYLINE
  5
8C
330
79
100
AcDbEntity
  8
Camada 1
 62
   250
420
  1907995
370
    15
100
AcDbPolyline
 90
        4
 70
     1
 43
0.0
 10
6.954776377865976
 20
-6.105639561711744
 10
6.878287840469638
 20
-6.105639561711744
 10
6.878287840469638
 20
-5.940918815434047
 10
6.954776377865976
 20
-5.940918815434047
  0
LWPOLYLINE
  5
8D
330
79
100
AcDbEntity
  8
Camada 1
 62
   250
420
  1907995
370
    15
100
AcDbPolyline
 90
        4
 70
     1
 43
0.0
 10
6.954776377865976
 20
-5.929186601189935
 10
6.878287840469638
 20
-5.929186601189935
 10
6.878287840469638
 20
-3.921568724862098
 10
6.954776377865976
 20
-3.921568724862098
  0
LWPOLYLINE
  5
8E
330
79
100
AcDbEntity
  8
Camada 1
 62
   250
420
  1907995
370
    15
100
AcDbPolyline
 90
        4
 70
     1
 43
0.0
 10
6.954776377865976
 20
-3.909836510617955
 10
6.878287840469638
 20
-3.909836510617955
 10
6.878287840469638
 20
-3.745115764340193
 10
6.954776377865976
 20
-3.745115764340193
  0
LWPOLYLINE
  5
8F
330
79
100
AcDbEntity
  8
Camada 1
 62
   250
420
  1907995
370
    15
100
AcDbPolyline
 90
        4
 70
     1
 43
0.0
 10
7.039250611872118
 20
-6.105639561711744
 10
6.966508592110216
 20
-6.105639561711744
 10
6.966508592110216
 20
-5.940918815434047
 10
7.039250611872118
 20
-5.940918815434047
  0
LWPOLYLINE
  5
90
330
79
100
AcDbEntity
  8
Camada 1
 62
   250
420
  1907995
370
    15
100
AcDbPolyline
 90
        4
 70
     1
 43
0.0
 10
7.039250611872118
 20
-5.929186601189935
 10
6.966508592110216
 20
-5.929186601189935
 10
6.966508592110216
 20
-3.921568724862098
 10
7.039250611872118
 20
-3.921568724862098
  0
LWPOLYLINE
  5
91
330
79
100
AcDbEntity
  8
Camada 1
 62
   250
420
  1907995
370
    15
100
AcDbPolyline
 90
        4
 70
     1
 43
0.0
 10
7.039250611872118
 20
-3.909836510617955
 10
6.966508592110216
 20
-3.909836510617955
 10
6.966508592110216
 20
-3.745115764340193
 10
7.039250611872118
 20
-3.745115764340193
  0
LWPOLYLINE
  5
92
330
79
100
AcDbEntity
  8
Camada 1
 62
   250
420
  1907995
370
    15
100
AcDbPolyline
 90
        4
 70
     1
 43
0.0
 10
7.111511427533997
 20
-6.105639561711744
 10
7.050982826116357
 20
-6.105639561711744
 10
7.050982826116357
 20
-5.940918815434047
 10
7.111511427533997
 20
-5.940918815434047
  0
LWPOLYLINE
  5
93
330
79
100
AcDbEntity
  8
Camada 1
 62
   250
420
  1907995
370
    15
100
AcDbPolyline
 90
        4
 70
     1
 43
0.0
 10
7.111511427533997
 20
-5.929186601189935
 10
7.050982826116357
 20
-5.929186601189935
 10
7.050982826116357
 20
-3.921568724862098
 10
7.111511427533997
 20
-3.921568724862098
  0
LWPOLYLINE
  5
94
330
79
100
AcDbEntity
  8
Camada 1
 62
   250
420
  1907995
370
    15
100
AcDbPolyline
 90
        4
 70
     1
 43
0.0
 10
7.111511427533997
 20
-3.909836510617955
 10
7.050982826116357
 20
-3.909836510617955
 10
7.050982826116357
 20
-3.745115764340193
 10
7.111511427533997
 20
-3.745115764340193
  0
SPLINE
  5
95
330
79
100
AcDbEntity
  8
Camada 1
 62
   250
420
  1907995
370
    15
100
AcDbSpline
210
0.0
220
0.0
230
1.0
 70
     9
 71
     3
 72
    53
 73
    49
 74
     0
 42
0.0000000001
 43
0.0000000001
 40
0.0
 40
0.0
 40
0.0
 40
0.0
 40
1.0
 40
1.0
 40
1.0
 40
2.0
 40
2.0
 40
2.0
 40
3.0
 40
3.0
 40
3.0
 40
4.0
 40
4.0
 40
4.0
 40
5.0
 40
5.0
 40
5.0
 40
6.0
 40
6.0
 40
6.0
 40
7.0
 40
7.0
 40
7.0
 40
8.0
 40
8.0
 40
8.0
 40
9.0
 40
9.0
 40
9.0
 40
10.0
 40
10.0
 40
10.0
 40
11.0
 40
11.0
 40
11.0
 40
12.0
 40
12.0
 40
12.0
 40
13.0
 40
13.0
 40
13.0
 40
14.0
 40
14.0
 40
14.0
 40
15.0
 40
15.0
 40
15.0
 40
16.0
 40
16.0
 40
16.0
 40
16.0
 10
7.177688448504859
 20
-4.669142208471841
 30
0.0
 10
7.170653702854577
 20
-4.673369930206589
 30
0.0
 10
7.165956234260748
 20
-4.680874422715952
 30
0.0
 10
7.165956234260748
 20
-4.68932986618487
 30
0.0
 10
7.165956234260748
 20
-4.68932986618487
 30
0.0
 10
7.165486487401507
 20
-5.190526850667987
 30
0.0
 10
7.165486487401507
 20
-5.190526850667987
 30
0.0
 10
7.165486487401507
 20
-5.1966278312196
 30
0.0
 10
7.168304968557855
 20
-5.202728811771341
 30
0.0
 10
7.172521233051789
 20
-5.206950804885345
 30
0.0
 10
7.17393047362977
 20
-5.208360045463711
 30
0.0
 10
7.175339714208138
 20
-5.209763557421623
 30
0.0
 10
7.177218701645617
 20
-5.210233304281249
 30
0.0
 10
7.177218701645617
 20
-5.210233304281249
 30
0.0
 10
7.177218701645617
 20
-5.874747523083255
 30
0.0
 10
7.177218701645617
 20
-5.874747523083255
 30
0.0
 10
7.170172498754681
 20
-5.878969516197772
 30
0.0
 10
7.165486487401507
 20
-5.886479737327366
 30
0.0
 10
7.165486487401507
 20
-5.89539919903584
 30
0.0
 10
7.165486487401507
 20
-5.89539919903584
 30
0.0
 10
7.167365474839115
 20
-6.498433865460812
 30
0.0
 10
7.167365474839115
 20
-6.498433865460812
 30
0.0
 10
7.167365474839115
 20
-6.498433865460812
 30
0.0
 10
7.13497585602222
 20
-6.498433865460812
 30
0.0
 10
7.13497585602222
 20
-6.498433865460812
 30
0.0
 10
7.13497585602222
 20
-6.498433865460812
 30
0.0
 10
7.13497585602222
 20
-3.742297283183877
 30
0.0
 10
7.13497585602222
 20
-3.742297283183877
 30
0.0
 10
7.142022058913284
 20
-3.738081018689879
 30
0.0
 10
7.146708070266459
 20
-3.730565068939733
 30
0.0
 10
7.146708070266459
 20
-3.721651335851875
 30
0.0
 10
7.146708070266459
 20
-3.721651335851875
 30
0.0
 10
7.146708070266459
 20
-3.351857442351697
 30
0.0
 10
7.146708070266459
 20
-3.351857442351697
 30
0.0
 10
7.146708070266459
 20
-3.351857442351697
 30
0.0
 10
7.167365474839115
 20
-3.351857442351697
 30
0.0
 10
7.167365474839115
 20
-3.351857442351697
 30
0.0
 10
7.167365474839115
 20
-3.351857442351697
 30
0.0
 10
7.166425981120246
 20
-4.319054768584829
 30
0.0
 10
7.166425981120246
 20
-4.319054768584829
 30
0.0
 10
7.166425981120246
 20
-4.325161477757089
 30
0.0
 10
7.168774715417097
 20
-4.331256729688631
 30
0.0
 10
7.17299097991103
 20
-4.335484451422834
 30
0.0
 10
7.174400220489397
 20
-4.336893692001233
 30
0.0
 10
7.176279207926877
 20
-4.338297203959048
 30
0.0
 10
7.178158195364486
 20
-4.338766950818161
 30
0.0
 10
7.178158195364486
 20
-4.338766950818161
 30
0.0
 10
7.177688448504859
 20
-4.669142208471841
 30
0.0
 10
7.177688448504859
 20
-4.669142208471841
 30
0.0
  0
LWPOLYLINE
  5
96
330
79
100
AcDbEntity
  8
Camada 1
 62
   250
420
  1907995
370
    15
100
AcDbPolyline
 90
        4
 70
     1
 43
0.0
 10
7.201622623852708
 20
-4.342519197073148
 10
7.316126285137921
 20
-4.342519197073148
 10
7.316126285137921
 20
-4.665865437696615
 10
7.20115287699321
 20
-4.665865437696615
  0
SPLINE
  5
97
330
79
100
AcDbEntity
  8
Camada 1
 62
   250
420
  1907995
370
    15
100
AcDbSpline
210
0.0
220
0.0
230
1.0
 70
    11
 71
     3
 72
    23
 73
    19
 74
     0
 42
0.0000000001
 43
0.0000000001
 40
0.0
 40
0.0
 40
0.0
 40
0.0
 40
1.0
 40
1.0
 40
1.0
 40
2.0
 40
2.0
 40
2.0
 40
3.0
 40
3.0
 40
3.0
 40
4.0
 40
4.0
 40
4.0
 40
5.0
 40
5.0
 40
5.0
 40
6.0
 40
6.0
 40
6.0
 40
6.0
 10
7.200683130133969
 20
-5.865828061375293
 30
0.0
 10
7.200683130133969
 20
-5.865828061375293
 30
0.0
 10
7.200683130133969
 20
-5.213991279156338
 30
0.0
 10
7.200683130133969
 20
-5.213991279156338
 30
0.0
 10
7.200683130133969
 20
-5.213991279156338
 30
0.0
 10
7.251839708844936
 20
-5.213991279156338
 30
0.0
 10
7.251839708844936
 20
-5.213991279156338
 30
0.0
 10
7.252779202563741
 20
-5.22102602480662
 30
0.0
 10
7.256525720198561
 20
-5.227132733978431
 30
0.0
 10
7.262632429370436
 20
-5.230415233373695
 30
0.0
 10
7.262632429370436
 20
-5.230415233373695
 30
0.0
 10
7.262632429370436
 20
-5.539674796836259
 30
0.0
 10
7.262632429370436
 20
-5.539674796836259
 30
0.0
 10
7.262632429370436
 20
-5.539674796836259
 30
0.0
 10
7.263102176229806
 20
-5.865828061375293
 30
0.0
 10
7.263102176229806
 20
-5.865828061375293
 30
0.0
 10
7.263102176229806
 20
-5.865828061375293
 30
0.0
 10
7.200683130133969
 20
-5.865828061375293
 30
0.0
 10
7.200683130133969
 20
-5.865828061375293
 30
0.0
  0
SPLINE
  5
98
330
79
100
AcDbEntity
  8
Camada 1
 62
   250
420
  1907995
370
    15
100
AcDbSpline
210
0.0
220
0.0
230
1.0
 70
    11
 71
     3
 72
    38
 73
    34
 74
     0
 42
0.0000000001
 43
0.0000000001
 40
0.0
 40
0.0
 40
0.0
 40
0.0
 40
1.0
 40
1.0
 40
1.0
 40
2.0
 40
2.0
 40
2.0
 40
3.0
 40
3.0
 40
3.0
 40
4.0
 40
4.0
 40
4.0
 40
5.0
 40
5.0
 40
5.0
 40
6.0
 40
6.0
 40
6.0
 40
7.0
 40
7.0
 40
7.0
 40
8.0
 40
8.0
 40
8.0
 40
9.0
 40
9.0
 40
9.0
 40
10.0
 40
10.0
 40
10.0
 40
11.0
 40
11.0
 40
11.0
 40
11.0
 10
7.354141409026796
 20
-5.51574062148841
 30
0.0
 10
7.354141409026796
 20
-5.51574062148841
 30
0.0
 10
7.353671662167041
 20
-5.517149862066649
 30
0.0
 10
7.353671662167041
 20
-5.517149862066649
 30
0.0
 10
7.353671662167041
 20
-5.517149862066649
 30
0.0
 10
7.351792674729432
 20
-5.521847330660477
 30
0.0
 10
7.351792674729432
 20
-5.521847330660477
 30
0.0
 10
7.351792674729432
 20
-5.521847330660477
 30
0.0
 10
7.350383434151579
 20
-5.531700557467108
 30
0.0
 10
7.350383434151579
 20
-5.531700557467108
 30
0.0
 10
7.350383434151579
 20
-5.531700557467108
 30
0.0
 10
7.349913687292144
 20
-5.534049291763831
 30
0.0
 10
7.349913687292144
 20
-5.534049291763831
 30
0.0
 10
7.349913687292144
 20
-5.534049291763831
 30
0.0
 10
7.349913687292144
 20
-5.836268380955529
 30
0.0
 10
7.349913687292144
 20
-5.836268380955529
 30
0.0
 10
7.346636916516759
 20
-5.838147368393009
 30
0.0
 10
7.343818435360346
 20
-5.840490374069533
 30
0.0
 10
7.341939447923122
 20
-5.84377287346531
 30
0.0
 10
7.323630777647574
 20
-5.848470342059267
 30
0.0
 10
7.304863817753052
 20
-5.851752841454531
 30
0.0
 10
7.286566604717965
 20
-5.854095847131183
 30
0.0
 10
7.286566604717965
 20
-5.854095847131183
 30
0.0
 10
7.286096857858594
 20
-5.539674796836259
 30
0.0
 10
7.286096857858594
 20
-5.539674796836259
 30
0.0
 10
7.286096857858594
 20
-5.539674796836259
 30
0.0
 10
7.286096857858594
 20
-5.235576720207081
 30
0.0
 10
7.286096857858594
 20
-5.235576720207081
 30
0.0
 10
7.346636916516759
 20
-5.244020706435344
 30
0.0
 10
7.40763526479396
 20
-5.262329376710893
 30
0.0
 10
7.460201084083424
 20
-5.287672792636724
 30
0.0
 10
7.460201084083424
 20
-5.287672792636724
 30
0.0
 10
7.354141409026796
 20
-5.51574062148841
 30
0.0
 10
7.354141409026796
 20
-5.51574062148841
 30
0.0
  0
SPLINE
  5
99
330
79
100
AcDbEntity
  8
Camada 1
 62
   250
420
  1907995
370
    15
100
AcDbSpline
210
0.0
220
0.0
230
1.0
 70
    11
 71
     3
 72
    56
 73
    52
 74
     0
 42
0.0000000001
 43
0.0000000001
 40
0.0
 40
0.0
 40
0.0
 40
0.0
 40
1.0
 40
1.0
 40
1.0
 40
2.0
 40
2.0
 40
2.0
 40
3.0
 40
3.0
 40
3.0
 40
4.0
 40
4.0
 40
4.0
 40
5.0
 40
5.0
 40
5.0
 40
6.0
 40
6.0
 40
6.0
 40
7.0
 40
7.0
 40
7.0
 40
8.0
 40
8.0
 40
8.0
 40
9.0
 40
9.0
 40
9.0
 40
10.0
 40
10.0
 40
10.0
 40
11.0
 40
11.0
 40
11.0
 40
12.0
 40
12.0
 40
12.0
 40
13.0
 40
13.0
 40
13.0
 40
14.0
 40
14.0
 40
14.0
 40
15.0
 40
15.0
 40
15.0
 40
16.0
 40
16.0
 40
16.0
 40
17.0
 40
17.0
 40
17.0
 40
17.0
 10
7.801374790882545
 20
-6.912813610261136
 30
0.0
 10
7.801374790882545
 20
-6.912813610261136
 30
0.0
 10
7.772743146940995
 20
-6.912813610261136
 30
0.0
 10
7.772743146940995
 20
-6.912813610261136
 30
0.0
 10
7.772743146940995
 20
-6.912813610261136
 30
0.0
 10
7.772273400081561
 20
-5.943737296590396
 30
0.0
 10
7.772273400081561
 20
-5.943737296590396
 30
0.0
 10
7.77415238751917
 20
-5.928716854330693
 30
0.0
 10
7.768057135587435
 20
-5.913226665211493
 30
0.0
 10
7.755855174484082
 20
-5.901024704107755
 30
0.0
 10
7.743653213380408
 20
-5.888828471624473
 30
0.0
 10
7.728163024261337
 20
-5.882727491072861
 30
0.0
 10
7.715491316298228
 20
-5.884136731650842
 30
0.0
 10
7.715491316298228
 20
-5.884136731650842
 30
0.0
 10
7.385110330024542
 20
-5.884136731650842
 30
0.0
 10
7.385110330024542
 20
-5.884136731650842
 30
0.0
 10
7.385110330024542
 20
-5.884136731650842
 30
0.0
 10
7.385110330024542
 20
-5.85644458142829
 30
0.0
 10
7.385110330024542
 20
-5.85644458142829
 30
0.0
 10
7.385110330024542
 20
-5.847530848340398
 30
0.0
 10
7.380424318671368
 20
-5.840020627210291
 30
0.0
 10
7.373378115780303
 20
-5.836268380955529
 30
0.0
 10
7.373378115780303
 20
-5.836268380955529
 30
0.0
 10
7.373378115780303
 20
-5.536392297440354
 30
0.0
 10
7.373378115780303
 20
-5.536392297440354
 30
0.0
 10
7.373378115780303
 20
-5.536392297440354
 30
0.0
 10
7.37666634379615
 20
-5.522781095758762
 30
0.0
 10
7.37666634379615
 20
-5.522781095758762
 30
0.0
 10
7.37666634379615
 20
-5.522781095758762
 30
0.0
 10
7.37666634379615
 20
-5.522317077519719
 30
0.0
 10
7.37666634379615
 20
-5.522317077519719
 30
0.0
 10
7.37666634379615
 20
-5.522317077519719
 30
0.0
 10
7.483195765712533
 20
-5.293768044568267
 30
0.0
 10
7.483195765712533
 20
-5.293768044568267
 30
0.0
 10
7.490230511362815
 20
-5.292828550849526
 30
0.0
 10
7.496806967394061
 20
-5.288606557735266
 30
0.0
 10
7.500553485028495
 20
-5.281566083464913
 30
0.0
 10
7.500553485028495
 20
-5.281566083464913
 30
0.0
 10
7.50102323188793
 20
-5.281566083464913
 30
0.0
 10
7.50102323188793
 20
-5.281566083464913
 30
0.0
 10
7.50102323188793
 20
-5.281566083464913
 30
0.0
 10
7.531533863267088
 20
-5.218683019129584
 30
0.0
 10
7.531533863267088
 20
-5.218683019129584
 30
0.0
 10
7.531533863267088
 20
-5.218683019129584
 30
0.0
 10
7.536689621479697
 20
-5.206950804885345
 30
0.0
 10
7.536689621479697
 20
-5.206950804885345
 30
0.0
 10
7.536689621479697
 20
-5.206950804885345
 30
0.0
 10
7.801374790882545
 20
-5.206950804885345
 30
0.0
 10
7.801374790882545
 20
-5.206950804885345
 30
0.0
 10
7.801374790882545
 20
-5.206950804885345
 30
0.0
 10
7.801374790882545
 20
-6.912813610261136
 30
0.0
 10
7.801374790882545
 20
-6.912813610261136
 30
0.0
  0
SPLINE
  5
9A
330
79
100
AcDbEntity
  8
Camada 1
 62
   250
420
  1907995
370
    15
100
AcDbSpline
210
0.0
220
0.0
230
1.0
 70
     9
 71
     3
 72
    17
 73
    13
 74
     0
 42
0.0000000001
 43
0.0000000001
 40
0.0
 40
0.0
 40
0.0
 40
0.0
 40
1.0
 40
1.0
 40
1.0
 40
2.0
 40
2.0
 40
2.0
 40
3.0
 40
3.0
 40
3.0
 40
4.0
 40
4.0
 40
4.0
 40
4.0
 10
6.084933071872579
 20
-4.517138999119386
 30
0.0
 10
5.964723704831964
 20
-4.517138999119386
 30
0.0
 10
5.866924700156088
 20
-4.419362908924529
 30
0.0
 10
5.866924700156088
 20
-4.299176456364805
 30
0.0
 10
5.866924700156088
 20
-4.178990003805049
 30
0.0
 10
5.964723704831964
 20
-4.081190999129205
 30
0.0
 10
6.084933071872579
 20
-4.081190999129205
 30
0.0
 10
6.205096609951348
 20
-4.081190999129205
 30
0.0
 10
6.302895614627224
 20
-4.178990003805049
 30
0.0
 10
6.302895614627224
 20
-4.299176456364805
 30
0.0
 10
6.302895614627224
 20
-4.419362908924529
 30
0.0
 10
6.205096609951348
 20
-4.517138999119386
 30
0.0
 10
6.084933071872579
 20
-4.517138999119386
 30
0.0
  0
SPLINE
  5
9B
330
79
100
AcDbEntity
  8
Camada 1
 62
   250
420
  1907995
370
    15
100
AcDbSpline
210
0.0
220
0.0
230
1.0
 70
     9
 71
     3
 72
    17
 73
    13
 74
     0
 42
0.0000000001
 43
0.0000000001
 40
0.0
 40
0.0
 40
0.0
 40
0.0
 40
1.0
 40
1.0
 40
1.0
 40
2.0
 40
2.0
 40
2.0
 40
3.0
 40
3.0
 40
3.0
 40
4.0
 40
4.0
 40
4.0
 40
4.0
 10
6.084933071872579
 20
-4.104655427617492
 30
0.0
 10
5.977647472085225
 20
-4.104655427617492
 30
0.0
 10
5.890389128644311
 20
-4.191913771058374
 30
0.0
 10
5.890389128644311
 20
-4.299176456364805
 30
0.0
 10
5.890389128644311
 20
-4.406416227190217
 30
0.0
 10
5.977647472085225
 20
-4.4936745706311
 30
0.0
 10
6.084933071872579
 20
-4.4936745706311
 30
0.0
 10
6.192172842697959
 20
-4.4936745706311
 30
0.0
 10
6.279431186138873
 20
-4.406416227190217
 30
0.0
 10
6.279431186138873
 20
-4.299176456364805
 30
0.0
 10
6.279431186138873
 20
-4.191913771058374
 30
0.0
 10
6.192172842697959
 20
-4.104655427617492
 30
0.0
 10
6.084933071872579
 20
-4.104655427617492
 30
0.0
  0
CIRCLE
  5
9C
330
79
100
AcDbEntity
  8
Camada 1
 62
   250
420
  1907995
370
    15
100
AcDbCircle
 10
6.084933071872579
 20
-4.299176456364789
 30
0.0
 40
0.183590821336204
  0
SPLINE
  5
9D
330
79
100
AcDbEntity
  8
Camada 1
 62
   250
420
  1907995
370
    15
100
AcDbSpline
210
0.0
220
0.0
230
1.0
 70
     9
 71
     3
 72
    29
 73
    25
 74
     0
 42
0.0000000001
 43
0.0000000001
 40
0.0
 40
0.0
 40
0.0
 40
0.0
 40
1.0
 40
1.0
 40
1.0
 40
2.0
 40
2.0
 40
2.0
 40
3.0
 40
3.0
 40
3.0
 40
4.0
 40
4.0
 40
4.0
 40
5.0
 40
5.0
 40
5.0
 40
6.0
 40
6.0
 40
6.0
 40
7.0
 40
7.0
 40
7.0
 40
8.0
 40
8.0
 40
8.0
 40
8.0
 10
6.084713536361312
 20
-5.333662155894558
 30
0.0
 10
5.965042659622964
 20
-5.333662155894558
 30
0.0
 10
5.86789671765397
 20
-5.430332622383855
 30
0.0
 10
5.866968681175756
 20
-5.549997770502003
 30
0.0
 10
5.866968681175756
 20
-5.549997770502003
 30
0.0
 10
5.866968681175756
 20
-5.555634732814701
 30
0.0
 10
5.866968681175756
 20
-5.555634732814701
 30
0.0
 10
5.866968681175756
 20
-5.557977738491224
 30
0.0
 10
5.866968681175756
 20
-5.559856725928705
 30
0.0
 10
5.867438428034998
 20
-5.561729984746115
 30
0.0
 10
5.8725941862478
 20
-5.677178868370202
 30
0.0
 10
5.967861140779313
 20
-5.769157594885869
 30
0.0
 10
6.084713536361312
 20
-5.769157594885869
 30
0.0
 10
6.201565931943568
 20
-5.769157594885869
 30
0.0
 10
6.297302633334323
 20
-5.677178868370202
 30
0.0
 10
6.302469848787394
 20
-5.561729984746115
 30
0.0
 10
6.302928138406366
 20
-5.559856725928705
 30
0.0
 10
6.302928138406366
 20
-5.557977738491224
 30
0.0
 10
6.302928138406366
 20
-5.555634732814701
 30
0.0
 10
6.302928138406366
 20
-5.555634732814701
 30
0.0
 10
6.302928138406366
 20
-5.549997770502003
 30
0.0
 10
6.302928138406366
 20
-5.549997770502003
 30
0.0
 10
6.301988644687498
 20
-5.430332622383855
 30
0.0
 10
6.204854159959158
 20
-5.333662155894558
 30
0.0
 10
6.084713536361312
 20
-5.333662155894558
 30
0.0
  0
SPLINE
  5
9E
330
79
100
AcDbEntity
  8
Camada 1
 62
   250
420
  1907995
370
    15
100
AcDbSpline
210
0.0
220
0.0
230
1.0
 70
     9
 71
     3
 72
    23
 73
    19
 74
     0
 42
0.0000000001
 43
0.0000000001
 40
0.0
 40
0.0
 40
0.0
 40
0.0
 40
1.0
 40
1.0
 40
1.0
 40
2.0
 40
2.0
 40
2.0
 40
3.0
 40
3.0
 40
3.0
 40
4.0
 40
4.0
 40
4.0
 40
5.0
 40
5.0
 40
5.0
 40
6.0
 40
6.0
 40
6.0
 40
6.0
 10
6.084713536361312
 20
-5.357126584382909
 30
0.0
 10
6.191712705136937
 20
-5.357126584382909
 30
0.0
 10
6.278524216199276
 20
-5.443004330346706
 30
0.0
 10
6.279463709918016
 20
-5.549997770502003
 30
0.0
 10
6.279463709918016
 20
-5.549997770502003
 30
0.0
 10
6.268670989392645
 20
-5.549997770502003
 30
0.0
 10
6.268670989392645
 20
-5.549997770502003
 30
0.0
 10
6.267731495673904
 20
-5.449105310898575
 30
0.0
 10
6.185605995964741
 20
-5.36791930490828
 30
0.0
 10
6.084713536361312
 20
-5.36791930490828
 30
0.0
 10
5.984290823617382
 20
-5.36791930490828
 30
0.0
 10
5.902165323908218
 20
-5.449105310898575
 30
0.0
 10
5.901225830189479
 20
-5.549997770502003
 30
0.0
 10
5.901225830189479
 20
-5.549997770502003
 30
0.0
 10
5.890433109664107
 20
-5.549997770502003
 30
0.0
 10
5.890433109664107
 20
-5.549997770502003
 30
0.0
 10
5.891361146142194
 20
-5.443004330346706
 30
0.0
 10
5.978184114445186
 20
-5.357126584382909
 30
0.0
 10
6.084713536361312
 20
-5.357126584382909
 30
0.0
  0
SPLINE
  5
9F
330
79
100
AcDbEntity
  8
Camada 1
 62
   250
420
  1907995
370
    15
100
AcDbSpline
210
0.0
220
0.0
230
1.0
 70
     9
 71
     3
 72
    23
 73
    19
 74
     0
 42
0.0000000001
 43
0.0000000001
 40
0.0
 40
0.0
 40
0.0
 40
0.0
 40
1.0
 40
1.0
 40
1.0
 40
2.0
 40
2.0
 40
2.0
 40
3.0
 40
3.0
 40
3.0
 40
4.0
 40
4.0
 40
4.0
 40
5.0
 40
5.0
 40
5.0
 40
6.0
 40
6.0
 40
6.0
 40
6.0
 10
6.084713536361312
 20
-5.745693166397518
 30
0.0
 10
5.981002595601406
 20
-5.745693166397518
 30
0.0
 10
5.89605861473615
 20
-5.664507160407351
 30
0.0
 10
5.890902856523349
 20
-5.561729984746115
 30
0.0
 10
5.890902856523349
 20
-5.561729984746115
 30
0.0
 10
5.90169557704872
 20
-5.561729984746115
 30
0.0
 10
5.90169557704872
 20
-5.561729984746115
 30
0.0
 10
5.906851335261522
 20
-5.658406179855739
 30
0.0
 10
5.987097847532949
 20
-5.734900445872146
 30
0.0
 10
6.084713536361312
 20
-5.734900445872146
 30
0.0
 10
6.182798972049175
 20
-5.734900445872146
 30
0.0
 10
6.263045484320601
 20
-5.658406179855739
 30
0.0
 10
6.268212699773672
 20
-5.561729984746115
 30
0.0
 10
6.268212699773672
 20
-5.561729984746115
 30
0.0
 10
6.279005420299043
 20
-5.561729984746115
 30
0.0
 10
6.279005420299043
 20
-5.561729984746115
 30
0.0
 10
6.273838204845972
 20
-5.664507160407351
 30
0.0
 10
6.188894223980716
 20
-5.745693166397518
 30
0.0
 10
6.084713536361312
 20
-5.745693166397518
 30
0.0
  0
SPLINE
  5
A0
330
79
100
AcDbEntity
  8
Camada 1
 62
   250
420
  1907995
370
    15
100
AcDbSpline
210
0.0
220
0.0
230
1.0
 70
     9
 71
     3
 72
    14
 73
    10
 74
     0
 42
0.0000000001
 43
0.0000000001
 40
0.0
 40
0.0
 40
0.0
 40
0.0
 40
1.0
 40
1.0
 40
1.0
 40
2.0
 40
2.0
 40
2.0
 40
3.0
 40
3.0
 40
3.0
 40
3.0
 10
5.867438428034998
 20
-5.561729984746115
 30
0.0
 10
5.867438428034998
 20
-5.561729984746115
 30
0.0
 10
5.866968681175756
 20
-5.561729984746115
 30
0.0
 10
5.866968681175756
 20
-5.561729984746115
 30
0.0
 10
5.866968681175756
 20
-5.561729984746115
 30
0.0
 10
5.866968681175756
 20
-5.555634732814701
 30
0.0
 10
5.866968681175756
 20
-5.555634732814701
 30
0.0
 10
5.866968681175756
 20
-5.557977738491224
 30
0.0
 10
5.866968681175756
 20
-5.559856725928705
 30
0.0
 10
5.867438428034998
 20
-5.561729984746115
 30
0.0
  0
SPLINE
  5
A1
330
79
100
AcDbEntity
  8
Camada 1
 62
   250
420
  1907995
370
    15
100
AcDbSpline
210
0.0
220
0.0
230
1.0
 70
     9
 71
     3
 72
    14
 73
    10
 74
     0
 42
0.0000000001
 43
0.0000000001
 40
0.0
 40
0.0
 40
0.0
 40
0.0
 40
1.0
 40
1.0
 40
1.0
 40
2.0
 40
2.0
 40
2.0
 40
3.0
 40
3.0
 40
3.0
 40
3.0
 10
6.302928138406366
 20
-5.555634732814701
 30
0.0
 10
6.302928138406366
 20
-5.555634732814701
 30
0.0
 10
6.302928138406366
 20
-5.561729984746115
 30
0.0
 10
6.302928138406366
 20
-5.561729984746115
 30
0.0
 10
6.302928138406366
 20
-5.561729984746115
 30
0.0
 10
6.302469848787394
 20
-5.561729984746115
 30
0.0
 10
6.302469848787394
 20
-5.561729984746115
 30
0.0
 10
6.302928138406366
 20
-5.559856725928705
 30
0.0
 10
6.302928138406366
 20
-5.557977738491224
 30
0.0
 10
6.302928138406366
 20
-5.555634732814701
 30
0.0
  0
ENDBLK
  5
7C
330
79
100
AcDbEntity
  8
0
100
AcDbBlockEnd
  0
BLOCK
  5
A4
330
A2
100
AcDbEntity
  8
0
100
AcDbBlockBegin
  2
Block_1
 70
     0
 10
0.0
 20
0.0
 30
0.0
  3
Block_1
  1

  0
SPLINE
  5
A6
330
A2
100
AcDbEntity
  8
Camada 1
 62
   250
420
  1907995
370
    15
100
AcDbSpline
210
0.0
220
0.0
230
1.0
 70
     9
 71
     3
 72
    17
 73
    13
 74
     0
 42
0.0000000001
 43
0.0000000001
 40
0.0
 40
0.0
 40
0.0
 40
0.0
 40
1.0
 40
1.0
 40
1.0
 40
2.0
 40
2.0
 40
2.0
 40
3.0
 40
3.0
 40
3.0
 40
4.0
 40
4.0
 40
4.0
 40
4.0
 10
3.428343550999308
 20
-4.771266321426291
 30
0.0
 10
3.293973034734309
 20
-4.771266321426291
 30
0.0
 10
3.184625131661834
 20
-4.661918418353848
 30
0.0
 10
3.184625131661834
 20
-4.527524987607861
 30
0.0
 10
3.184625131661834
 20
-4.393131556861875
 30
0.0
 10
3.293973034734309
 20
-4.283783653789432
 30
0.0
 10
3.428343550999308
 20
-4.283783653789432
 30
0.0
 10
3.562759896226282
 20
-4.283783653789432
 30
0.0
 10
3.672107799298629
 20
-4.393131556861875
 30
0.0
 10
3.672107799298629
 20
-4.527524987607861
 30
0.0
 10
3.672107799298629
 20
-4.661918418353848
 30
0.0
 10
3.562759896226282
 20
-4.771266321426291
 30
0.0
 10
3.428343550999308
 20
-4.771266321426291
 30
0.0
  0
SPLINE
  5
A7
330
A2
100
AcDbEntity
  8
Camada 1
 62
   250
420
  1907995
370
    15
100
AcDbSpline
210
0.0
220
0.0
230
1.0
 70
     9
 71
     3
 72
    17
 73
    13
 74
     0
 42
0.0000000001
 43
0.0000000001
 40
0.0
 40
0.0
 40
0.0
 40
0.0
 40
1.0
 40
1.0
 40
1.0
 40
2.0
 40
2.0
 40
2.0
 40
3.0
 40
3.0
 40
3.0
 40
4.0
 40
4.0
 40
4.0
 40
4.0
 10
3.428343550999308
 20
-4.307248082277718
 30
0.0
 10
3.30689680198757
 20
-4.307248082277718
 30
0.0
 10
3.208089560150056
 20
-4.406055324115199
 30
0.0
 10
3.208089560150056
 20
-4.527524987607861
 30
0.0
 10
3.208089560150056
 20
-4.648994651100523
 30
0.0
 10
3.30689680198757
 20
-4.747801892938036
 30
0.0
 10
3.428343550999308
 20
-4.747801892938036
 30
0.0
 10
3.549836128972893
 20
-4.747801892938036
 30
0.0
 10
3.648643370810407
 20
-4.648994651100523
 30
0.0
 10
3.648643370810407
 20
-4.527524987607861
 30
0.0
 10
3.648643370810407
 20
-4.406055324115199
 30
0.0
 10
3.549836128972893
 20
-4.307248082277718
 30
0.0
 10
3.428343550999308
 20
-4.307248082277718
 30
0.0
  0
SPLINE
  5
A8
330
A2
100
AcDbEntity
  8
Camada 1
 62
   250
420
  1907995
370
    15
100
AcDbSpline
210
0.0
220
0.0
230
1.0
 70
    11
 71
     3
 72
    17
 73
    13
 74
     0
 42
0.0000000001
 43
0.0000000001
 40
0.0
 40
0.0
 40
0.0
 40
0.0
 40
1.0
 40
1.0
 40
1.0
 40
2.0
 40
2.0
 40
2.0
 40
3.0
 40
3.0
 40
3.0
 40
4.0
 40
4.0
 40
4.0
 40
4.0
 10
3.428343550999308
 20
-4.727728807629654
 30
0.0
 10
3.31794158180335
 20
-4.727728807629654
 30
0.0
 10
3.228162645458471
 20
-4.637926956803787
 30
0.0
 10
3.228162645458471
 20
-4.527524987607861
 30
0.0
 10
3.228162645458471
 20
-4.417123018411967
 30
0.0
 10
3.31794158180335
 20
-4.327321167586068
 30
0.0
 10
3.428343550999308
 20
-4.327321167586068
 30
0.0
 10
3.538745520195267
 20
-4.327321167586068
 30
0.0
 10
3.628570285501992
 20
-4.417123018411967
 30
0.0
 10
3.628570285501992
 20
-4.527524987607861
 30
0.0
 10
3.628570285501992
 20
-4.637926956803787
 30
0.0
 10
3.538745520195267
 20
-4.727728807629654
 30
0.0
 10
3.428343550999308
 20
-4.727728807629654
 30
0.0
  0
SPLINE
  5
A9
330
A2
100
AcDbEntity
  8
Camada 1
 62
   250
420
  1907995
370
    15
100
AcDbSpline
210
0.0
220
0.0
230
1.0
 70
     9
 71
     3
 72
    17
 73
    13
 74
     0
 42
0.0000000001
 43
0.0000000001
 40
0.0
 40
0.0
 40
0.0
 40
0.0
 40
1.0
 40
1.0
 40
1.0
 40
2.0
 40
2.0
 40
2.0
 40
3.0
 40
3.0
 40
3.0
 40
4.0
 40
4.0
 40
4.0
 40
4.0
 10
3.428343550999308
 20
-4.350785596074387
 30
0.0
 10
3.330911178018585
 20
-4.350785596074387
 30
0.0
 10
3.251627073946822
 20
-4.430069700146183
 30
0.0
 10
3.251627073946822
 20
-4.527524987607861
 30
0.0
 10
3.251627073946822
 20
-4.62498027506954
 30
0.0
 10
3.330911178018585
 20
-4.704264379141335
 30
0.0
 10
3.428343550999308
 20
-4.704264379141335
 30
0.0
 10
3.525821752941878
 20
-4.704264379141335
 30
0.0
 10
3.60510585701377
 20
-4.62498027506954
 30
0.0
 10
3.60510585701377
 20
-4.527524987607861
 30
0.0
 10
3.60510585701377
 20
-4.430069700146183
 30
0.0
 10
3.525821752941878
 20
-4.350785596074387
 30
0.0
 10
3.428343550999308
 20
-4.350785596074387
 30
0.0
  0
SPLINE
  5
AA
330
A2
100
AcDbEntity
  8
Camada 1
 62
   250
420
  1907995
370
    15
100
AcDbSpline
210
0.0
220
0.0
230
1.0
 70
     9
 71
     3
 72
    17
 73
    13
 74
     0
 42
0.0000000001
 43
0.0000000001
 40
0.0
 40
0.0
 40
0.0
 40
0.0
 40
1.0
 40
1.0
 40
1.0
 40
2.0
 40
2.0
 40
2.0
 40
3.0
 40
3.0
 40
3.0
 40
4.0
 40
4.0
 40
4.0
 40
4.0
 10
4.164998284438635
 20
-4.771266321426291
 30
0.0
 10
4.030627768173636
 20
-4.771266321426291
 30
0.0
 10
3.921279865101161
 20
-4.661918418353848
 30
0.0
 10
3.921279865101161
 20
-4.527524987607861
 30
0.0
 10
3.921279865101161
 20
-4.393131556861875
 30
0.0
 10
4.030627768173636
 20
-4.283783653789432
 30
0.0
 10
4.164998284438635
 20
-4.283783653789432
 30
0.0
 10
4.299414629665609
 20
-4.283783653789432
 30
0.0
 10
4.408762532738053
 20
-4.393131556861875
 30
0.0
 10
4.408762532738053
 20
-4.527524987607861
 30
0.0
 10
4.408762532738053
 20
-4.661918418353848
 30
0.0
 10
4.299414629665609
 20
-4.771266321426291
 30
0.0
 10
4.164998284438635
 20
-4.771266321426291
 30
0.0
  0
SPLINE
  5
AB
330
A2
100
AcDbEntity
  8
Camada 1
 62
   250
420
  1907995
370
    15
100
AcDbSpline
210
0.0
220
0.0
230
1.0
 70
     9
 71
     3
 72
    17
 73
    13
 74
     0
 42
0.0000000001
 43
0.0000000001
 40
0.0
 40
0.0
 40
0.0
 40
0.0
 40
1.0
 40
1.0
 40
1.0
 40
2.0
 40
2.0
 40
2.0
 40
3.0
 40
3.0
 40
3.0
 40
4.0
 40
4.0
 40
4.0
 40
4.0
 10
4.164998284438635
 20
-4.307248082277718
 30
0.0
 10
4.043551535427025
 20
-4.307248082277718
 30
0.0
 10
3.944744293589511
 20
-4.406055324115199
 30
0.0
 10
3.944744293589511
 20
-4.527524987607861
 30
0.0
 10
3.944744293589511
 20
-4.648994651100523
 30
0.0
 10
4.043551535427025
 20
-4.747801892938036
 30
0.0
 10
4.164998284438635
 20
-4.747801892938036
 30
0.0
 10
4.286490862412349
 20
-4.747801892938036
 30
0.0
 10
4.385298104249733
 20
-4.648994651100523
 30
0.0
 10
4.385298104249733
 20
-4.527524987607861
 30
0.0
 10
4.385298104249733
 20
-4.406055324115199
 30
0.0
 10
4.286490862412349
 20
-4.307248082277718
 30
0.0
 10
4.164998284438635
 20
-4.307248082277718
 30
0.0
  0
SPLINE
  5
AC
330
A2
100
AcDbEntity
  8
Camada 1
 62
   250
420
  1907995
370
    15
100
AcDbSpline
210
0.0
220
0.0
230
1.0
 70
    11
 71
     3
 72
    17
 73
    13
 74
     0
 42
0.0000000001
 43
0.0000000001
 40
0.0
 40
0.0
 40
0.0
 40
0.0
 40
1.0
 40
1.0
 40
1.0
 40
2.0
 40
2.0
 40
2.0
 40
3.0
 40
3.0
 40
3.0
 40
4.0
 40
4.0
 40
4.0
 40
4.0
 10
4.164998284438635
 20
-4.727728807629654
 30
0.0
 10
4.054596315242806
 20
-4.727728807629654
 30
0.0
 10
3.964817378897926
 20
-4.637926956803787
 30
0.0
 10
3.964817378897926
 20
-4.527524987607861
 30
0.0
 10
3.964817378897926
 20
-4.417123018411967
 30
0.0
 10
4.054596315242806
 20
-4.327321167586068
 30
0.0
 10
4.164998284438635
 20
-4.327321167586068
 30
0.0
 10
4.275400253634594
 20
-4.327321167586068
 30
0.0
 10
4.365225018941448
 20
-4.417123018411967
 30
0.0
 10
4.365225018941448
 20
-4.527524987607861
 30
0.0
 10
4.365225018941448
 20
-4.637926956803787
 30
0.0
 10
4.275400253634594
 20
-4.727728807629654
 30
0.0
 10
4.164998284438635
 20
-4.727728807629654
 30
0.0
  0
SPLINE
  5
AD
330
A2
100
AcDbEntity
  8
Camada 1
 62
   250
420
  1907995
370
    15
100
AcDbSpline
210
0.0
220
0.0
230
1.0
 70
     9
 71
     3
 72
    17
 73
    13
 74
     0
 42
0.0000000001
 43
0.0000000001
 40
0.0
 40
0.0
 40
0.0
 40
0.0
 40
1.0
 40
1.0
 40
1.0
 40
2.0
 40
2.0
 40
2.0
 40
3.0
 40
3.0
 40
3.0
 40
4.0
 40
4.0
 40
4.0
 40
4.0
 10
4.164998284438635
 20
-4.350785596074387
 30
0.0
 10
4.067565911457912
 20
-4.350785596074387
 30
0.0
 10
3.988281807386148
 20
-4.430069700146183
 30
0.0
 10
3.988281807386148
 20
-4.527524987607861
 30
0.0
 10
3.988281807386148
 20
-4.62498027506954
 30
0.0
 10
4.067565911457912
 20
-4.704264379141335
 30
0.0
 10
4.164998284438635
 20
-4.704264379141335
 30
0.0
 10
4.262476486381333
 20
-4.704264379141335
 30
0.0
 10
4.341760590453096
 20
-4.62498027506954
 30
0.0
 10
4.341760590453096
 20
-4.527524987607861
 30
0.0
 10
4.341760590453096
 20
-4.430069700146183
 30
0.0
 10
4.262476486381333
 20
-4.350785596074387
 30
0.0
 10
4.164998284438635
 20
-4.350785596074387
 30
0.0
  0
SPLINE
  5
AE
330
A2
100
AcDbEntity
  8
Camada 1
 62
   250
420
  1907995
370
    15
100
AcDbSpline
210
0.0
220
0.0
230
1.0
 70
    11
 71
     3
 72
    44
 73
    40
 74
     0
 42
0.0000000001
 43
0.0000000001
 40
0.0
 40
0.0
 40
0.0
 40
0.0
 40
1.0
 40
1.0
 40
1.0
 40
2.0
 40
2.0
 40
2.0
 40
3.0
 40
3.0
 40
3.0
 40
4.0
 40
4.0
 40
4.0
 40
5.0
 40
5.0
 40
5.0
 40
6.0
 40
6.0
 40
6.0
 40
7.0
 40
7.0
 40
7.0
 40
8.0
 40
8.0
 40
8.0
 40
9.0
 40
9.0
 40
9.0
 40
10.0
 40
10.0
 40
10.0
 40
11.0
 40
11.0
 40
11.0
 40
12.0
 40
12.0
 40
12.0
 40
13.0
 40
13.0
 40
13.0
 40
13.0
 10
4.140605819471942
 20
-5.760816723821694
 30
0.0
 10
4.140605819471942
 20
-5.760816723821694
 30
0.0
 10
4.13825708517522
 20
-6.531390617681225
 30
0.0
 10
4.13825708517522
 20
-6.531390617681225
 30
0.0
 10
4.132161833243678
 20
-6.534203370216862
 30
0.0
 10
4.127464364649848
 20
-6.540779826248299
 30
0.0
 10
4.12652487093098
 20
-6.548284318758081
 30
0.0
 10
4.107757911036586
 20
-6.716293293051368
 30
0.0
 10
3.966031846387966
 20
-6.84299891543987
 30
0.0
 10
3.796613631516472
 20
-6.84299891543987
 30
0.0
 10
3.627206873885632
 20
-6.84299891543987
 30
0.0
 10
3.485480809237011
 20
-6.716293293051368
 30
0.0
 10
3.466702392102221
 20
-6.548284318758081
 30
0.0
 10
3.46576289838348
 20
-6.540779826248299
 30
0.0
 10
3.46107688702992
 20
-6.534673117076488
 30
0.0
 10
3.454970177858109
 20
-6.531390617681225
 30
0.0
 10
3.454970177858109
 20
-6.531390617681225
 30
0.0
 10
3.452632900801656
 20
-5.56794553770247
 30
0.0
 10
3.452632900801656
 20
-5.56794553770247
 30
0.0
 10
3.452632900801656
 20
-5.56794553770247
 30
0.0
 10
3.452632900801656
 20
-5.567475790843229
 30
0.0
 10
3.452632900801656
 20
-5.567475790843229
 30
0.0
 10
3.452632900801656
 20
-5.472678583171342
 30
0.0
 10
3.491106314309311
 20
-5.386795108587218
 30
0.0
 10
3.553525360405213
 20
-5.324381791111643
 30
0.0
 10
3.615944406500986
 20
-5.26243822049531
 30
0.0
 10
3.701827881085111
 20
-5.223953349747
 30
0.0
 10
3.796613631516472
 20
-5.223953349747
 30
0.0
 10
3.888603815272792
 20
-5.223953349747
 30
0.0
 10
3.974945579475889
 20
-5.25961973933909
 30
0.0
 10
4.039713359868384
 20
-5.324381791111643
 30
0.0
 10
4.10446968302074
 20
-5.389613589743438
 30
0.0
 10
4.140605819471942
 20
-5.475961082566734
 30
0.0
 10
4.140605819471942
 20
-5.567475790843229
 30
0.0
 10
4.140605819471942
 20
-5.568409555942027
 30
0.0
 10
4.140605819471942
 20
-5.568879302801269
 30
0.0
 10
4.14107556633144
 20
-5.569818796520008
 30
0.0
 10
4.14107556633144
 20
-5.569818796520008
 30
0.0
 10
4.140605819471942
 20
-5.760816723821694
 30
0.0
 10
4.140605819471942
 20
-5.760816723821694
 30
0.0
  0
SPLINE
  5
AF
330
A2
100
AcDbEntity
  8
Camada 1
 62
   250
420
  1907995
370
    15
100
AcDbSpline
210
0.0
220
0.0
230
1.0
 70
     9
 71
     3
 72
    38
 73
    34
 74
     0
 42
0.0000000001
 43
0.0000000001
 40
0.0
 40
0.0
 40
0.0
 40
0.0
 40
1.0
 40
1.0
 40
1.0
 40
2.0
 40
2.0
 40
2.0
 40
3.0
 40
3.0
 40
3.0
 40
4.0
 40
4.0
 40
4.0
 40
5.0
 40
5.0
 40
5.0
 40
6.0
 40
6.0
 40
6.0
 40
7.0
 40
7.0
 40
7.0
 40
8.0
 40
8.0
 40
8.0
 40
9.0
 40
9.0
 40
9.0
 40
10.0
 40
10.0
 40
10.0
 40
11.0
 40
11.0
 40
11.0
 40
11.0
 10
3.429638219172547
 20
-5.707792614913579
 30
0.0
 10
3.369567907373753
 20
-5.551985601724028
 30
0.0
 10
3.414617776912845
 20
-5.371774666327131
 30
0.0
 10
3.546020867895304
 20
-5.263371985594108
 30
0.0
 10
3.691493450178745
 20
-5.143237090616332
 30
0.0
 10
3.902203559713858
 20
-5.143237090616332
 30
0.0
 10
4.047217852378294
 20
-5.263371985594108
 30
0.0
 10
4.178620943360753
 20
-5.371774666327131
 30
0.0
 10
4.223670812899717
 20
-5.55151585486453
 30
0.0
 10
4.164070247960292
 20
-5.706853121194838
 30
0.0
 10
4.164070247960292
 20
-5.706853121194838
 30
0.0
 10
4.164539994819791
 20
-5.56794553770247
 30
0.0
 10
4.164539994819791
 20
-5.56794553770247
 30
0.0
 10
4.164539994819791
 20
-5.56700604398373
 30
0.0
 10
4.164539994819791
 20
-5.56606655026499
 30
0.0
 10
4.164070247960292
 20
-5.56512705654625
 30
0.0
 10
4.164070247960292
 20
-5.56512705654625
 30
0.0
 10
4.164070247960292
 20
-5.564657309687008
 30
0.0
 10
4.164070247960292
 20
-5.564657309687008
 30
0.0
 10
4.163130754241424
 20
-5.467511367717886
 30
0.0
 10
4.125115630352741
 20
-5.376941881780587
 30
0.0
 10
4.056131585466056
 20
-5.307957836893645
 30
0.0
 10
3.986677793720001
 20
-5.23850404514746
 30
0.0
 10
3.894699067204334
 20
-5.200488921258778
 30
0.0
 10
3.796613631516472
 20
-5.200488921258778
 30
0.0
 10
3.594358965450244
 20
-5.200488921258778
 30
0.0
 10
3.429168472313306
 20
-5.365209667536475
 30
0.0
 10
3.429168472313306
 20
-5.567475790843229
 30
0.0
 10
3.429168472313306
 20
-5.567475790843229
 30
0.0
 10
3.429168472313306
 20
-5.56794553770247
 30
0.0
 10
3.429168472313306
 20
-5.56794553770247
 30
0.0
 10
3.429168472313306
 20
-5.56794553770247
 30
0.0
 10
3.429638219172547
 20
-5.707792614913579
 30
0.0
 10
3.429638219172547
 20
-5.707792614913579
 30
0.0
  0
SPLINE
  5
B0
330
A2
100
AcDbEntity
  8
Camada 1
 62
   250
420
  1907995
370
    15
100
AcDbSpline
210
0.0
220
0.0
230
1.0
 70
     9
 71
     3
 72
    77
 73
    73
 74
     0
 42
0.0000000001
 43
0.0000000001
 40
0.0
 40
0.0
 40
0.0
 40
0.0
 40
1.0
 40
1.0
 40
1.0
 40
2.0
 40
2.0
 40
2.0
 40
3.0
 40
3.0
 40
3.0
 40
4.0
 40
4.0
 40
4.0
 40
5.0
 40
5.0
 40
5.0
 40
6.0
 40
6.0
 40
6.0
 40
7.0
 40
7.0
 40
7.0
 40
8.0
 40
8.0
 40
8.0
 40
9.0
 40
9.0
 40
9.0
 40
10.0
 40
10.0
 40
10.0
 40
11.0
 40
11.0
 40
11.0
 40
12.0
 40
12.0
 40
12.0
 40
13.0
 40
13.0
 40
13.0
 40
14.0
 40
14.0
 40
14.0
 40
15.0
 40
15.0
 40
15.0
 40
16.0
 40
16.0
 40
16.0
 40
17.0
 40
17.0
 40
17.0
 40
18.0
 40
18.0
 40
18.0
 40
19.0
 40
19.0
 40
19.0
 40
20.0
 40
20.0
 40
20.0
 40
21.0
 40
21.0
 40
21.0
 40
22.0
 40
22.0
 40
22.0
 40
23.0
 40
23.0
 40
23.0
 40
24.0
 40
24.0
 40
24.0
 40
24.0
 10
4.809811778248123
 20
-6.185525170908217
 30
0.0
 10
4.784468362322259
 20
-6.292524339683585
 30
0.0
 10
4.685454890156311
 20
-6.394356293005882
 30
0.0
 10
4.573288505927488
 20
-6.428143695160362
 30
0.0
 10
4.443294655523138
 20
-6.472259799600785
 30
0.0
 10
4.304856818890044
 20
-6.504643689797098
 30
0.0
 10
4.161721513663442
 20
-6.525289637129099
 30
0.0
 10
4.161721513663442
 20
-6.525289637129099
 30
0.0
 10
4.162661007382182
 20
-6.141884541947105
 30
0.0
 10
4.162661007382182
 20
-6.141884541947105
 30
0.0
 10
4.162661007382182
 20
-6.141884541947105
 30
0.0
 10
4.152807780575679
 20
-6.141884541947105
 30
0.0
 10
4.152807780575679
 20
-6.141884541947105
 30
0.0
 10
4.152807780575679
 20
-6.141884541947105
 30
0.0
 10
4.152807780575679
 20
-6.127803593406272
 30
0.0
 10
4.152807780575679
 20
-6.127803593406272
 30
0.0
 10
4.152807780575679
 20
-6.127803593406272
 30
0.0
 10
4.163130754241424
 20
-6.127803593406272
 30
0.0
 10
4.163130754241424
 20
-6.127803593406272
 30
0.0
 10
4.163130754241424
 20
-6.127803593406272
 30
0.0
 10
4.164070247960292
 20
-5.763635204978043
 30
0.0
 10
4.164070247960292
 20
-5.763635204978043
 30
0.0
 10
4.25792796191344
 20
-5.589061231894099
 30
0.0
 10
4.215226826671453
 20
-5.371774666327131
 30
0.0
 10
4.062238294637995
 20
-5.245069043938629
 30
0.0
 10
3.908310268886054
 20
-5.118363421549679
 30
0.0
 10
3.684928451387544
 20
-5.118363421549679
 30
0.0
 10
3.531000425635602
 20
-5.245069043938629
 30
0.0
 10
3.378011893602145
 20
-5.371774666327131
 30
0.0
 10
3.335310758360159
 20
-5.590000725612839
 30
0.0
 10
3.429638219172547
 20
-5.764574698696782
 30
0.0
 10
3.429638219172547
 20
-5.764574698696782
 30
0.0
 10
3.430566255651018
 20
-6.127803593406272
 30
0.0
 10
3.430566255651018
 20
-6.127803593406272
 30
0.0
 10
3.430566255651018
 20
-6.127803593406272
 30
0.0
 10
3.372844678149074
 20
-6.127803593406272
 30
0.0
 10
3.372844678149074
 20
-6.127803593406272
 30
0.0
 10
3.372844678149074
 20
-6.127803593406272
 30
0.0
 10
3.372844678149074
 20
-6.141884541947105
 30
0.0
 10
3.372844678149074
 20
-6.141884541947105
 30
0.0
 10
3.372844678149074
 20
-6.141884541947105
 30
0.0
 10
3.430566255651018
 20
-6.141884541947105
 30
0.0
 10
3.430566255651018
 20
-6.141884541947105
 30
0.0
 10
3.430566255651018
 20
-6.141884541947105
 30
0.0
 10
3.431505749369758
 20
-6.525289637129099
 30
0.0
 10
3.431505749369758
 20
-6.525289637129099
 30
0.0
 10
3.288381901383585
 20
-6.504643689797098
 30
0.0
 10
3.14993260751019
 20
-6.472259799600785
 30
0.0
 10
3.019010720627242
 20
-6.427673948300736
 30
0.0
 10
2.907783830117287
 20
-6.394356293005882
 30
0.0
 10
2.808758900711069
 20
-6.292524339683585
 30
0.0
 10
2.783426942025507
 20
-6.184585677189477
 30
0.0
 10
2.568958857615273
 20
-5.38914384288394
 30
0.0
 10
2.568958857615273
 20
-4.513449767687163
 30
0.0
 10
2.783426942025507
 20
-3.717068439662757
 30
0.0
 10
2.807830864232598
 20
-3.613351770282845
 30
0.0
 10
2.902158325045243
 20
-3.514338298116864
 30
0.0
 10
3.010085530299082
 20
-3.477732414806003
 30
0.0
 10
3.010085530299082
 20
-3.477732414806003
 30
0.0
 10
3.021817744543322
 20
-3.473974439930914
 30
0.0
 10
3.021817744543322
 20
-3.473974439930914
 30
0.0
 10
3.505187262850273
 20
-3.311132681091211
 30
0.0
 10
4.081944748251129
 20
-3.310193187372438
 30
0.0
 10
4.566723507136447
 20
-3.472565199353029
 30
0.0
 10
4.566723507136447
 20
-3.472565199353029
 30
0.0
 10
4.578455721380558
 20
-3.476323174228117
 30
0.0
 10
4.578455721380558
 20
-3.476323174228117
 30
0.0
 10
4.687792167212764
 20
-3.511050070100921
 30
0.0
 10
4.784938109181501
 20
-3.611478511465435
 30
0.0
 10
4.809811778248123
 20
-3.718002204761427
 30
0.0
 10
5.024279862658325
 20
-4.513449767687163
 30
0.0
 10
5.024279862658325
 20
-5.38914384288394
 30
0.0
 10
4.809811778248123
 20
-6.185525170908217
 30
0.0
  0
ENDBLK
  5
A5
330
A2
100
AcDbEntity
  8
0
100
AcDbBlockEnd
  0
ENDSEC
  0
SECTION
  2
ENTITIES
  0
INSERT
  5
7A
330
70
100
AcDbEntity
  8
Camada 1
100
AcDbBlockReference
  2
Block_0
 10
0.0
 20
0.0
 30
0.0
  0
INSERT
  5
A3
330
70
100
AcDbEntity
  8
Camada 1
100
AcDbBlockReference
  2
Block_1
 10
0.0
 20
0.0
 30
0.0
  0
ENDSEC
  0
SECTION
  2
OBJECTS
  0
DICTIONARY
  5
C
330
0
100
AcDbDictionary
281
     1
  3
ACAD_COLOR
350
63
  3
ACAD_DETAILVIEWSTYLE
350
6A
  3
ACAD_GROUP
350
D
  3
ACAD_LAYOUT
350
62
  3
ACAD_MATERIAL
350
10
  3
ACAD_MLEADERSTYLE
350
66
  3
ACAD_MLINESTYLE
350
5F
  3
ACAD_PLOTSETTINGS
350
61
  3
ACAD_PLOTSTYLENAME
350
E
  3
ACAD_SCALELIST
350
42
  3
ACAD_SECTIONVIEWSTYLE
350
68
  3
ACAD_TABLESTYLE
350
64
  3
ACAD_VISUALSTYLE
350
29
  3
ACDB_RECOMPOSE_DATA
350
B9
  3
AcDbVariableDictionary
350
B1
  0
DICTIONARY
  5
63
102
{ACAD_REACTORS
330
C
102
}
330
C
100
AcDbDictionary
281
     1
  0
DICTIONARY
  5
6A
102
{ACAD_REACTORS
330
C
102
}
330
C
100
AcDbDictionary
281
     1
  3
Imperial24
350
6B
  0
DICTIONARY
  5
D
102
{ACAD_REACTORS
330
C
102
}
330
C
100
AcDbDictionary
281
     1
  0
DICTIONARY
  5
62
102
{ACAD_REACTORS
330
C
102
}
330
C
100
AcDbDictionary
281
     1
  3
Layout1
350
6F
  3
Layout2
350
77
  3
Model
350
73
  0
DICTIONARY
  5
10
102
{ACAD_REACTORS
330
C
102
}
330
C
100
AcDbDictionary
281
     1
  3
ByBlock
350
19
  3
ByLayer
350
11
  3
Global
350
21
  0
DICTIONARY
  5
66
102
{ACAD_REACTORS
330
C
102
}
330
C
100
AcDbDictionary
281
     1
  3
Standard
350
67
  0
DICTIONARY
  5
5F
102
{ACAD_REACTORS
330
C
102
}
330
C
100
AcDbDictionary
281
     1
  3
Standard
350
60
  0
DICTIONARY
  5
61
102
{ACAD_REACTORS
330
C
102
}
330
C
100
AcDbDictionary
281
     1
  0
ACDBDICTIONARYWDFLT
  5
E
102
{ACAD_REACTORS
330
C
102
}
330
C
100
AcDbDictionary
281
     1
  3
Normal
350
F
100
AcDbDictionaryWithDefault
340
F
  0
DICTIONARY
  5
42
102
{ACAD_REACTORS
330
C
102
}
330
C
100
AcDbDictionary
281
     1
  3
A0
350
43
  3
A1
350
44
  3
A2
350
45
  3
A3
350
46
  3
A4
350
47
  3
A5
350
48
  3
A6
350
49
  3
A7
350
4A
  3
A8
350
4B
  3
A9
350
4C
  3
B0
350
4D
  3
B1
350
4E
  3
B2
350
4F
  3
B3
350
50
  3
B4
350
51
  3
B5
350
52
  3
B6
350
53
  0
DICTIONARY
  5
68
102
{ACAD_REACTORS
330
C
102
}
330
C
100
AcDbDictionary
281
     1
  3
Imperial24
350
69
  0
DICTIONARY
  5
64
102
{ACAD_REACTORS
330
C
102
}
330
C
100
AcDbDictionary
281
     1
  3
Standard
350
65
  0
DICTIONARY
  5
29
102
{ACAD_REACTORS
330
C
102
}
330
C
100
AcDbDictionary
281
     1
  3
2dWireframe
350
2F
  3
Basic
350
2E
  3
Brighten
350
35
  3
ColorChange
350
39
  3
Conceptual
350
32
  3
Dim
350
34
  3
EdgeColorOff
350
41
  3
Facepattern
350
38
  3
Flat
350
2A
  3
FlatWithEdges
350
2B
  3
Gouraud
350
2C
  3
GouraudWithEdges
350
2D
  3
Hidden
350
31
  3
JitterOff
350
3F
  3
Linepattern
350
37
  3
OverhangOff
350
40
  3
Realistic
350
33
  3
Shaded
350
3E
  3
Shaded with edges
350
3D
  3
Shades of Gray
350
3A
  3
Sketchy
350
3B
  3
Thicken
350
36
  3
Wireframe
350
30
  3
X-Ray
350
3C
  0
XRECORD
  5
B9
102
{ACAD_REACTORS
330
C
102
}
330
C
100
AcDbXrecord
280
     1
 90
        1
330
65
  0
DICTIONARY
  5
B1
102
{ACAD_REACTORS
330
C
102
}
330
C
100
AcDbDictionary
281
     1
  3
CANNOSCALE
350
B6
  3
CMLEADERSTYLE
350
B3
  3
CTABLESTYLE
350
B2
  3
CVIEWDETAILSTYLE
350
B4
  3
CVIEWSECTIONSTYLE
350
B5
  0
ACDBDETAILVIEWSTYLE
  5
6B
102
{ACAD_REACTORS
330
6A
102
}
330
6A
100
AcDbModelDocViewStyle
 70
     0
  3
Imperial24
290
     1
300
Imperial24
 90
        0
100
AcDbDetailViewStyle
 70
     0
 71
     0
 90
        3
 71
     1
340
55
 62
   256
 40
0.24
340
0
 62
   256
 40
0.24
300

 40
0.36
280
     3
 71
     2
340
5D
 90
       25
 62
   256
 71
     3
340
55
 62
   256
 40
0.24
 90
        1
 40
0.75
 90
        1
300
%<\AcVar ViewType \f "%tc1">% %<\AcVar ViewDetailId>%\PSCALE %<\AcVar ViewScale \f "%sn">%
 71
     4
340
5D
 90
       25
 62
   256
340
5D
 90
       25
 62
   256
280
     0
  0
LAYOUT
  5
6F
102
{ACAD_REACTORS
330
62
102
}
330
62
100
AcDbPlotSettings
  1

  2

  4

  6

 40
0.0
 41
0.0
 42
0.0
 43
0.0
 44
0.0
 45
0.0
 46
0.0
 47
0.0
 48
0.0
 49
0.0
140
0.0
141
0.0
142
1.0
143
1.0
 70
   688
 72
     0
 73
     0
 74
     5
  7

 75
    16
147
1.0
 76
     0
 77
     2
 78
   300
148
0.0
149
0.0
100
AcDbLayout
  1
Layout1
 70
     1
 71
     1
 10
0.0
 20
0.0
 11
12.0
 21
9.0
 12
0.0
 22
0.0
 32
0.0
 14
0.0
 24
0.0
 34
0.0
 15
0.0
 25
0.0
 35
0.0
146
0.0
 13
0.0
 23
0.0
 33
0.0
 16
1.0
 26
0.0
 36
0.0
 17
0.0
 27
1.0
 37
0.0
 76
     0
330
6C
  0
LAYOUT
  5
77
102
{ACAD_REACTORS
330
62
102
}
330
62
100
AcDbPlotSettings
  1

  2

  4

  6

 40
0.0
 41
0.0
 42
0.0
 43
0.0
 44
0.0
 45
0.0
 46
0.0
 47
0.0
 48
0.0
 49
0.0
140
0.0
141
0.0
142
1.0
143
1.0
 70
   688
 72
     0
 73
     0
 74
     5
  7

 75
    16
147
1.0
 76
     0
 77
     2
 78
   300
148
0.0
149
0.0
100
AcDbLayout
  1
Layout2
 70
     1
 71
     2
 10
0.0
 20
0.0
 11
12.0
 21
9.0
 12
0.0
 22
0.0
 32
0.0
 14
0.0
 24
0.0
 34
0.0
 15
0.0
 25
0.0
 35
0.0
146
0.0
 13
0.0
 23
0.0
 33
0.0
 16
1.0
 26
0.0
 36
0.0
 17
0.0
 27
1.0
 37
0.0
 76
     0
330
74
  0
LAYOUT
  5
73
102
{ACAD_REACTORS
330
62
102
}
330
62
100
AcDbPlotSettings
  1

  2

  4

  6

 40
0.0
 41
0.0
 42
0.0
 43
0.0
 44
0.0
 45
0.0
 46
0.0
 47
0.0
 48
0.0
 49
0.0
140
0.0
141
0.0
142
1.0
143
1.0
 70
  1712
 72
     0
 73
     0
 74
     0
  7

 75
     0
147
1.0
 76
     0
 77
     2
 78
   300
148
0.0
149
0.0
100
AcDbLayout
  1
Model
 70
     1
 71
     0
 10
0.0
 20
0.0
 11
12.0
 21
9.0
 12
0.0
 22
0.0
 32
0.0
 14
0.0
 24
0.0
 34
0.0
 15
0.0
 25
0.0
 35
0.0
146
0.0
 13
0.0
 23
0.0
 33
0.0
 16
1.0
 26
0.0
 36
0.0
 17
0.0
 27
1.0
 37
0.0
 76
     0
330
70
  0
MATERIAL
  5
19
102
{ACAD_XDICTIONARY
360
1A
102
}
102
{ACAD_REACTORS
330
10
102
}
330
10
100
AcDbMaterial
  1
ByBlock
 72
     0
 43
0.0208333333333333
 43
0.0
 43
0.0
 43
0.0
 43
0.0
 43
0.0208333333333333
 43
0.0
 43
0.0
 43
0.0
 43
0.0
 43
1.0
 43
0.0
 43
0.0
 43
0.0
 43
0.0
 43
1.0
 77
     0
 47
0.0208333333333333
 47
0.0
 47
0.0
 47
0.0
 47
0.0
 47
0.0208333333333333
 47
0.0
 47
0.0
 47
0.0
 47
0.0
 47
1.0
 47
0.0
 47
0.0
 47
0.0
 47
0.0
 47
1.0
171
     0
 49
0.0208333333333333
 49
0.0
 49
0.0
 49
0.0
 49
0.0
 49
0.0208333333333333
 49
0.0
 49
0.0
 49
0.0
 49
0.0
 49
1.0
 49
0.0
 49
0.0
 49
0.0
 49
0.0
 49
1.0
175
     0
142
0.0208333333333333
142
0.0
142
0.0
142
0.0
142
0.0
142
0.0208333333333333
142
0.0
142
0.0
142
0.0
142
0.0
142
1.0
142
0.0
142
0.0
142
0.0
142
0.0
142
1.0
179
     0
144
0.0208333333333333
144
0.0
144
0.0
144
0.0
144
0.0
144
0.0208333333333333
144
0.0
144
0.0
144
0.0
144
0.0
144
1.0
144
0.0
144
0.0
144
0.0
144
0.0
144
1.0
147
0.0208333333333333
147
0.0
147
0.0
147
0.0
147
0.0
147
0.0208333333333333
147
0.0
147
0.0
147
0.0
147
0.0
147
1.0
147
0.0
147
0.0
147
0.0
147
0.0
147
1.0
  0
MATERIAL
  5
11
102
{ACAD_XDICTIONARY
360
12
102
}
102
{ACAD_REACTORS
330
10
102
}
330
10
100
AcDbMaterial
  1
ByLayer
 72
     0
 43
0.0208333333333333
 43
0.0
 43
0.0
 43
0.0
 43
0.0
 43
0.0208333333333333
 43
0.0
 43
0.0
 43
0.0
 43
0.0
 43
1.0
 43
0.0
 43
0.0
 43
0.0
 43
0.0
 43
1.0
 77
     0
 47
0.0208333333333333
 47
0.0
 47
0.0
 47
0.0
 47
0.0
 47
0.0208333333333333
 47
0.0
 47
0.0
 47
0.0
 47
0.0
 47
1.0
 47
0.0
 47
0.0
 47
0.0
 47
0.0
 47
1.0
171
     0
 49
0.0208333333333333
 49
0.0
 49
0.0
 49
0.0
 49
0.0
 49
0.0208333333333333
 49
0.0
 49
0.0
 49
0.0
 49
0.0
 49
1.0
 49
0.0
 49
0.0
 49
0.0
 49
0.0
 49
1.0
175
     0
142
0.0208333333333333
142
0.0
142
0.0
142
0.0
142
0.0
142
0.0208333333333333
142
0.0
142
0.0
142
0.0
142
0.0
142
1.0
142
0.0
142
0.0
142
0.0
142
0.0
142
1.0
179
     0
144
0.0208333333333333
144
0.0
144
0.0
144
0.0
144
0.0
144
0.0208333333333333
144
0.0
144
0.0
144
0.0
144
0.0
144
1.0
144
0.0
144
0.0
144
0.0
144
0.0
144
1.0
147
0.0208333333333333
147
0.0
147
0.0
147
0.0
147
0.0
147
0.0208333333333333
147
0.0
147
0.0
147
0.0
147
0.0
147
1.0
147
0.0
147
0.0
147
0.0
147
0.0
147
1.0
  0
MATERIAL
  5
21
102
{ACAD_XDICTIONARY
360
22
102
}
102
{ACAD_REACTORS
330
10
102
}
330
10
100
AcDbMaterial
  1
Global
 72
     0
 43
0.0208333333333333
 43
0.0
 43
0.0
 43
0.0
 43
0.0
 43
0.0208333333333333
 43
0.0
 43
0.0
 43
0.0
 43
0.0
 43
1.0
 43
0.0
 43
0.0
 43
0.0
 43
0.0
 43
1.0
 77
     0
 47
0.0208333333333333
 47
0.0
 47
0.0
 47
0.0
 47
0.0
 47
0.0208333333333333
 47
0.0
 47
0.0
 47
0.0
 47
0.0
 47
1.0
 47
0.0
 47
0.0
 47
0.0
 47
0.0
 47
1.0
171
     0
 49
0.0208333333333333
 49
0.0
 49
0.0
 49
0.0
 49
0.0
 49
0.0208333333333333
 49
0.0
 49
0.0
 49
0.0
 49
0.0
 49
1.0
 49
0.0
 49
0.0
 49
0.0
 49
0.0
 49
1.0
175
     0
142
0.0208333333333333
142
0.0
142
0.0
142
0.0
142
0.0
142
0.0208333333333333
142
0.0
142
0.0
142
0.0
142
0.0
142
1.0
142
0.0
142
0.0
142
0.0
142
0.0
142
1.0
179
     0
144
0.0208333333333333
144
0.0
144
0.0
144
0.0
144
0.0
144
0.0208333333333333
144
0.0
144
0.0
144
0.0
144
0.0
144
1.0
144
0.0
144
0.0
144
0.0
144
0.0
144
1.0
147
0.0208333333333333
147
0.0
147
0.0
147
0.0
147
0.0
147
0.0208333333333333
147
0.0
147
0.0
147
0.0
147
0.0
147
1.0
147
0.0
147
0.0
147
0.0
147
0.0
147
1.0
  0
MLEADERSTYLE
  5
67
102
{ACAD_REACTORS
330
66
102
}
330
66
100
AcDbMLeaderStyle
179
     2
170
     2
171
     1
172
     0
 90
        2
 40
0.0
 41
0.0
173
     1
 91
-1056964608
340
5B
 92
       -2
290
     1
 42
0.09
291
     1
 43
0.36
  3
Standard
 44
0.18
300

342
55
174
     1
178
     6
175
     1
176
     0
 93
-1056964608
 45
0.18
292
     0
297
     0
 46
0.18
 94
-1056964608
 47
1.0
 49
1.0
140
1.0
293
     1
141
0.0
294
     1
177
     0
142
1.0
295
     1
296
     0
143
0.125
271
     0
272
     9
273
     9
298
     1
  0
MLINESTYLE
  5
60
102
{ACAD_REACTORS
330
5F
102
}
330
5F
100
AcDbMlineStyle
  2
STANDARD
 70
     0
  3

 62
   256
 51
90.0
 52
90.0
 71
     2
 49
0.5
 62
   256
  6
BYLAYER
 49
-0.5
 62
   256
  6
BYLAYER
  0
ACDBPLACEHOLDER
  5
F
102
{ACAD_REACTORS
330
E
102
}
330
E
  0
SCALE
  5
43
102
{ACAD_REACTORS
330
42
102
}
330
42
100
AcDbScale
 70
     0
300
1:1
140
1.0
141
1.0
290
     1
  0
SCALE
  5
44
102
{ACAD_REACTORS
330
42
102
}
330
42
100
AcDbScale
 70
     0
300
1/128" = 1'-0"
140
0.0078125
141
12.0
290
     0
  0
SCALE
  5
45
102
{ACAD_REACTORS
330
42
102
}
330
42
100
AcDbScale
 70
     0
300
1/64" = 1'-0"
140
0.015625
141
12.0
290
     0
  0
SCALE
  5
46
102
{ACAD_REACTORS
330
42
102
}
330
42
100
AcDbScale
 70
     0
300
1/32" = 1'-0"
140
0.03125
141
12.0
290
     0
  0
SCALE
  5
47
102
{ACAD_REACTORS
330
42
102
}
330
42
100
AcDbScale
 70
     0
300
1/16" = 1'-0"
140
0.0625
141
12.0
290
     0
  0
SCALE
  5
48
102
{ACAD_REACTORS
330
42
102
}
330
42
100
AcDbScale
 70
     0
300
3/32" = 1'-0"
140
0.09375
141
12.0
290
     0
  0
SCALE
  5
49
102
{ACAD_REACTORS
330
42
102
}
330
42
100
AcDbScale
 70
     0
300
1/8" = 1'-0"
140
0.125
141
12.0
290
     0
  0
SCALE
  5
4A
102
{ACAD_REACTORS
330
42
102
}
330
42
100
AcDbScale
 70
     0
300
3/16" = 1'-0"
140
0.1875
141
12.0
290
     0
  0
SCALE
  5
4B
102
{ACAD_REACTORS
330
42
102
}
330
42
100
AcDbScale
 70
     0
300
1/4" = 1'-0"
140
0.25
141
12.0
290
     0
  0
SCALE
  5
4C
102
{ACAD_REACTORS
330
42
102
}
330
42
100
AcDbScale
 70
     0
300
3/8" = 1'-0"
140
0.375
141
12.0
290
     0
  0
SCALE
  5
4D
102
{ACAD_REACTORS
330
42
102
}
330
42
100
AcDbScale
 70
     0
300
1/2" = 1'-0"
140
0.5
141
12.0
290
     0
  0
SCALE
  5
4E
102
{ACAD_REACTORS
330
42
102
}
330
42
100
AcDbScale
 70
     0
300
3/4" = 1'-0"
140
0.75
141
12.0
290
     0
  0
SCALE
  5
4F
102
{ACAD_REACTORS
330
42
102
}
330
42
100
AcDbScale
 70
     0
300
1" = 1'-0"
140
1.0
141
12.0
290
     0
  0
SCALE
  5
50
102
{ACAD_REACTORS
330
42
102
}
330
42
100
AcDbScale
 70
     0
300
1-1/2" = 1'-0"
140
1.5
141
12.0
290
     0
  0
SCALE
  5
51
102
{ACAD_REACTORS
330
42
102
}
330
42
100
AcDbScale
 70
     0
300
3" = 1'-0"
140
3.0
141
12.0
290
     0
  0
SCALE
  5
52
102
{ACAD_REACTORS
330
42
102
}
330
42
100
AcDbScale
 70
     0
300
6" = 1'-0"
140
6.0
141
12.0
290
     0
  0
SCALE
  5
53
102
{ACAD_REACTORS
330
42
102
}
330
42
100
AcDbScale
 70
     0
300
1'-0" = 1'-0"
140
12.0
141
12.0
290
     0
  0
ACDBSECTIONVIEWSTYLE
  5
69
102
{ACAD_REACTORS
330
68
102
}
330
68
100
AcDbModelDocViewStyle
 70
     0
  3
Imperial24
290
     1
300
Imperial24
 90
        0
100
AcDbSectionViewStyle
 70
     0
 71
     0
 90
       78
 71
     1
340
55
 62
   256
 40
0.24
340
0
340
0
 62
   256
 40
0.24
300
I, O, Q, S, X, Z
 40
0.48
 90
        3
 40
0.18
 90
        1
 71
     2
340
5D
 90
       25
 62
   256
340
5D
 90
       50
 62
   256
 40
0.24
 40
0.0
 40
0.24
 71
     3
340
55
 62
   256
 40
0.24
 90
        1
 40
0.75
 90
        1
300
%<\AcVar ViewType \f "%tc1">% %<\AcVar ViewSectionStartId>%-%<\AcVar ViewSectionEndId>%\PSCALE %<\AcVar ViewScale \f "%sn">%
 71
     4
 62
   256
 62
   257
300
ANSI31
 40
1.0
 90
        0
290
     0
290
     0
 90
        6
 40
0.0
 40
1.570796326794896
 40
0.2617993877991494
 40
1.308996938995747
 40
-0.2617993877991494
 40
1.832595714594046
  0
TABLESTYLE
  5
65
102
{ACAD_XDICTIONARY
360
B7
102
}
102
{ACAD_REACTORS
330
64
102
}
330
64
100
AcDbTableStyle
280
     0
  3
Standard
 70
     0
 71
     0
 40
0.06
 41
0.06
280
     0
281
     0
  7
Standard
140
0.18
170
     2
 62
     0
 63
     7
283
     0
 90
      512
 91
        0
  1

274
    -2
284
     1
 64
     0
275
    -2
285
     1
 65
     0
276
    -2
286
     1
 66
     0
277
    -2
287
     1
 67
     0
278
    -2
288
     1
 68
     0
279
    -2
289
     1
 69
     0
  7
Standard
140
0.25
170
     5
 62
     0
 63
     7
283
     0
 90
      512
 91
        0
  1

274
    -2
284
     1
 64
     0
275
    -2
285
     1
 65
     0
276
    -2
286
     1
 66
     0
277
    -2
287
     1
 67
     0
278
    -2
288
     1
 68
     0
279
    -2
289
     1
 69
     0
  7
Standard
140
0.18
170
     5
 62
     0
 63
     7
283
     0
 90
      512
 91
        0
  1

274
    -2
284
     1
 64
     0
275
    -2
285
     1
 65
     0
276
    -2
286
     1
 66
     0
277
    -2
287
     1
 67
     0
278
    -2
288
     1
 68
     0
279
    -2
289
     1
 69
     0
  0
VISUALSTYLE
  5
2F
102
{ACAD_REACTORS
330
29
102
}
330
29
100
AcDbVisualStyle
  2
2dWireframe
 70
     4
177
     3
291
     0
 70
    58
 90
        0
176
     1
 90
        2
176
     1
 90
        0
176
     1
 90
        0
176
     1
 40
0.6
176
     1
 40
30.0
176
     1
 62
     7
420
 16777215
176
     1
 90
        1
176
     1
 90
        4
176
     1
 62
     7
176
     1
 62
   257
176
     1
 90
        1
176
     1
 90
        1
176
     1
 40
1.0
176
     1
 90
        0
176
     1
 62
   257
176
     1
 40
1.0
176
     1
 90
        1
176
     1
 90
        6
176
     1
 90
        2
176
     1
 62
     7
176
     1
 90
        5
176
     1
 90
        0
176
     1
 90
        0
176
     1
290
     0
176
     1
 90
        1
176
     1
 40
0.0
176
     1
 90
        0
176
     1
290
     1
176
     1
290
     1
176
     1
290
     0
176
     1
290
     0
176
     1
290
     0
176
     1
290
     0
176
     1
290
     0
176
     1
290
     0
176
     1
290
     0
176
     1
 90
       50
176
     1
 40
0.0
176
     1
 40
1.0
176
     1
 90
        0
176
     1
 62
    18
420
        0
176
     1
 90
       50
176
     1
 90
        3
176
     1
 62
     5
420
      255
176
     1
290
     0
176
     1
 90
       50
176
     1
 90
       50
176
     1
 90
       50
176
     1
290
     0
176
     1
 90
       50
176
     1
 62
   256
176
     0
 40
1.0
176
     0
 90
        2
176
     1
  1
strokes_ogs.tif
176
     1
290
     0
176
     1
 40
1.0
176
     1
 40
1.0
176
     1
  0
VISUALSTYLE
  5
2E
102
{ACAD_REACTORS
330
29
102
}
330
29
100
AcDbVisualStyle
  2
Basic
 70
     7
177
     3
291
     1
 70
    58
 90
        1
176
     1
 90
        0
176
     1
 90
        1
176
     1
 90
        0
176
     1
 40
0.6
176
     1
 40
30.0
176
     1
 62
     7
420
 16777215
176
     1
 90
        0
176
     1
 90
        4
176
     1
 62
     7
176
     1
 62
   257
176
     1
 90
        1
176
     1
 90
        1
176
     1
 40
1.0
176
     1
 90
        8
176
     1
 62
     7
176
     1
 40
1.0
176
     1
 90
        1
176
     1
 90
        6
176
     1
 90
        2
176
     1
 62
     7
176
     1
 90
        5
176
     1
 90
        0
176
     1
 90
        0
176
     1
290
     0
176
     1
 90
        1
176
     1
 40
0.0
176
     1
 90
        0
176
     1
290
     0
176
     1
290
     1
176
     1
290
     1
176
     1
290
     0
176
     1
290
     0
176
     1
290
     0
176
     1
290
     0
176
     1
290
     0
176
     1
290
     0
176
     1
 90
       50
176
     1
 40
0.0
176
     1
 40
1.0
176
     1
 90
        0
176
     1
 62
    18
420
        0
176
     1
 90
       50
176
     1
 90
        3
176
     1
 62
     5
420
      255
176
     1
290
     0
176
     1
 90
       50
176
     1
 90
       50
176
     1
 90
       50
176
     1
290
     0
176
     1
 90
       50
176
     1
 62
   256
176
     0
 40
1.0
176
     0
 90
        2
176
     1
  1
strokes_ogs.tif
176
     1
290
     0
176
     1
 40
1.0
176
     1
 40
1.0
176
     1
  0
VISUALSTYLE
  5
35
102
{ACAD_REACTORS
330
29
102
}
330
29
100
AcDbVisualStyle
  2
Brighten
 70
    12
177
     3
291
     1
 70
    58
 90
        2
176
     1
 90
        2
176
     1
 90
        0
176
     1
 90
        0
176
     1
 40
0.6
176
     1
 40
30.0
176
     1
 62
     7
420
 16777215
176
     1
 90
        1
176
     1
 90
        4
176
     1
 62
     7
176
     1
 62
   257
176
     1
 90
        1
176
     1
 90
        1
176
     1
 40
1.0
176
     1
 90
        8
176
     1
 62
     7
176
     1
 40
1.0
176
     1
 90
        1
176
     1
 90
        6
176
     1
 90
        2
176
     1
 62
     7
176
     1
 90
        5
176
     1
 90
        0
176
     1
 90
        0
176
     1
290
     0
176
     1
 90
        1
176
     1
 40
50.0
176
     1
 90
        0
176
     1
290
     0
176
     1
290
     1
176
     1
290
     1
176
     1
290
     0
176
     1
290
     0
176
     1
290
     0
176
     1
290
     0
176
     1
290
     0
176
     1
290
     0
176
     1
 90
       50
176
     1
 40
0.0
176
     1
 40
1.0
176
     1
 90
        0
176
     1
 62
    18
420
        0
176
     1
 90
       50
176
     1
 90
        3
176
     1
 62
     5
420
      255
176
     1
290
     0
176
     1
 90
       50
176
     1
 90
       50
176
     1
 90
       50
176
     1
290
     0
176
     1
 90
       50
176
     1
 62
   256
176
     0
 40
1.0
176
     0
 90
        2
176
     1
  1
strokes_ogs.tif
176
     1
290
     0
176
     1
 40
1.0
176
     1
 40
1.0
176
     1
  0
VISUALSTYLE
  5
39
102
{ACAD_REACTORS
330
29
102
}
330
29
100
AcDbVisualStyle
  2
ColorChange
 70
    16
177
     3
291
     1
 70
    58
 90
        2
176
     1
 90
        2
176
     1
 90
        3
176
     1
 90
        0
176
     1
 40
0.6
176
     1
 40
30.0
176
     1
 62
     8
420
  8421504
176
     1
 90
        1
176
     1
 90
        4
176
     1
 62
     7
176
     1
 62
   257
176
     1
 90
        1
176
     1
 90
        1
176
     1
 40
1.0
176
     1
 90
        8
176
     1
 62
     8
420
  8421504
176
     1
 40
1.0
176
     1
 90
        1
176
     1
 90
        6
176
     1
 90
        2
176
     1
 62
     7
176
     1
 90
        5
176
     1
 90
        0
176
     1
 90
        0
176
     1
290
     0
176
     1
 90
        1
176
     1
 40
0.0
176
     1
 90
        0
176
     1
290
     0
176
     1
290
     1
176
     1
290
     1
176
     1
290
     0
176
     1
290
     0
176
     1
290
     0
176
     1
290
     0
176
     1
290
     0
176
     1
290
     0
176
     1
 90
       50
176
     1
 40
0.0
176
     1
 40
1.0
176
     1
 90
        0
176
     1
 62
    18
420
        0
176
     1
 90
       50
176
     1
 90
        3
176
     1
 62
     5
420
      255
176
     1
290
     0
176
     1
 90
       50
176
     1
 90
       50
176
     1
 90
       50
176
     1
290
     0
176
     1
 90
       50
176
     1
 62
   256
176
     0
 40
1.0
176
     0
 90
        2
176
     1
  1
strokes_ogs.tif
176
     1
290
     0
176
     1
 40
1.0
176
     1
 40
1.0
176
     1
  0
VISUALSTYLE
  5
32
102
{ACAD_REACTORS
330
29
102
}
330
29
100
AcDbVisualStyle
  2
Conceptual
 70
     9
177
     3
291
     0
 70
    58
 90
        3
176
     1
 90
        2
176
     1
 90
        0
176
     1
 90
        0
176
     1
 40
0.6
176
     1
 40
30.0
176
     1
 62
     7
420
 16777215
176
     1
 90
        2
176
     1
 90
        2
176
     1
 62
     7
176
     1
 62
   257
176
     1
 90
        1
176
     1
 90
        1
176
     1
 40
179.0
176
     1
 90
        8
176
     1
 62
     7
176
     1
 40
1.0
176
     1
 90
        1
176
     1
 90
        6
176
     1
 90
        2
176
     1
 62
     7
176
     1
 90
        3
176
     1
 90
        0
176
     1
 90
        0
176
     1
290
     0
176
     1
 90
        1
176
     1
 40
0.0
176
     1
 90
        0
176
     1
290
     0
176
     1
290
     1
176
     1
290
     1
176
     1
290
     0
176
     1
290
     0
176
     1
290
     0
176
     1
290
     0
176
     1
290
     0
176
     1
290
     0
176
     1
 90
       50
176
     1
 40
0.0
176
     1
 40
1.0
176
     1
 90
        0
176
     1
 62
    18
420
        0
176
     1
 90
       50
176
     1
 90
        3
176
     1
 62
     5
420
      255
176
     1
290
     0
176
     1
 90
       50
176
     1
 90
       50
176
     1
 90
       50
176
     1
290
     0
176
     1
 90
       50
176
     1
 62
   256
176
     0
 40
1.0
176
     0
 90
        2
176
     1
  1
strokes_ogs.tif
176
     1
290
     0
176
     1
 40
1.0
176
     1
 40
1.0
176
     1
  0
VISUALSTYLE
  5
34
102
{ACAD_REACTORS
330
29
102
}
330
29
100
AcDbVisualStyle
  2
Dim
 70
    11
177
     3
291
     1
 70
    58
 90
        2
176
     1
 90
        2
176
     1
 90
        0
176
     1
 90
        0
176
     1
 40
0.6
176
     1
 40
30.0
176
     1
 62
     7
420
 16777215
176
     1
 90
        1
176
     1
 90
        4
176
     1
 62
     7
176
     1
 62
   257
176
     1
 90
        1
176
     1
 90
        1
176
     1
 40
1.0
176
     1
 90
        8
176
     1
 62
     7
176
     1
 40
1.0
176
     1
 90
        1
176
     1
 90
        6
176
     1
 90
        2
176
     1
 62
     7
176
     1
 90
        5
176
     1
 90
        0
176
     1
 90
        0
176
     1
290
     0
176
     1
 90
        1
176
     1
 40
-50.0
176
     1
 90
        0
176
     1
290
     0
176
     1
290
     1
176
     1
290
     1
176
     1
290
     0
176
     1
290
     0
176
     1
290
     0
176
     1
290
     0
176
     1
290
     0
176
     1
290
     0
176
     1
 90
       50
176
     1
 40
0.0
176
     1
 40
1.0
176
     1
 90
        0
176
     1
 62
    18
420
        0
176
     1
 90
       50
176
     1
 90
        3
176
     1
 62
     5
420
      255
176
     1
290
     0
176
     1
 90
       50
176
     1
 90
       50
176
     1
 90
       50
176
     1
290
     0
176
     1
 90
       50
176
     1
 62
   256
176
     0
 40
1.0
176
     0
 90
        2
176
     1
  1
strokes_ogs.tif
176
     1
290
     0
176
     1
 40
1.0
176
     1
 40
1.0
176
     1
  0
VISUALSTYLE
  5
41
102
{ACAD_REACTORS
330
29
102
}
330
29
100
AcDbVisualStyle
  2
EdgeColorOff
 70
    22
177
     3
291
     1
 70
    58
 90
        2
176
     0
 90
        2
176
     0
 90
        0
176
     0
 90
        0
176
     0
 40
0.6
176
     0
 40
30.0
176
     0
 62
     7
420
 16777215
176
     0
 90
        1
176
     0
 90
        4
176
     0
 62
     7
176
     0
 62
   257
176
     0
 90
        1
176
     0
 90
        1
176
     0
 40
1.0
176
     0
 90
        8
176
     2
 62
     7
176
     0
 40
1.0
176
     0
 90
        1
176
     0
 90
        6
176
     0
 90
        2
176
     0
 62
     7
176
     0
 90
        5
176
     0
 90
        0
176
     0
 90
        0
176
     0
290
     0
176
     0
 90
        1
176
     0
 40
0.0
176
     0
 90
        0
176
     0
290
     0
176
     0
290
     1
176
     0
290
     1
176
     0
290
     0
176
     0
290
     0
176
     0
290
     0
176
     0
290
     0
176
     0
290
     0
176
     0
290
     0
176
     0
 90
       50
176
     0
 40
0.0
176
     0
 40
1.0
176
     0
 90
        0
176
     0
 62
    18
420
        0
176
     0
 90
       50
176
     0
 90
        3
176
     0
 62
     5
420
      255
176
     0
290
     0
176
     0
 90
       50
176
     0
 90
       50
176
     0
 90
       50
176
     0
290
     0
176
     0
 90
       50
176
     0
 62
   256
176
     0
 40
1.0
176
     0
 90
        2
176
     0
  1
strokes_ogs.tif
176
     0
290
     0
176
     0
 40
1.0
176
     0
 40
1.0
176
     0
  0
VISUALSTYLE
  5
38
102
{ACAD_REACTORS
330
29
102
}
330
29
100
AcDbVisualStyle
  2
Facepattern
 70
    15
177
     3
291
     1
 70
    58
 90
        2
176
     1
 90
        2
176
     1
 90
        0
176
     1
 90
        0
176
     1
 40
0.6
176
     1
 40
30.0
176
     1
 62
     7
420
 16777215
176
     1
 90
        1
176
     1
 90
        4
176
     1
 62
     7
176
     1
 62
   257
176
     1
 90
        1
176
     1
 90
        1
176
     1
 40
1.0
176
     1
 90
        8
176
     1
 62
     7
176
     1
 40
1.0
176
     1
 90
        1
176
     1
 90
        6
176
     1
 90
        2
176
     1
 62
     7
176
     1
 90
        5
176
     1
 90
        0
176
     1
 90
        0
176
     1
290
     0
176
     1
 90
        1
176
     1
 40
0.0
176
     1
 90
        0
176
     1
290
     0
176
     1
290
     1
176
     1
290
     1
176
     1
290
     0
176
     1
290
     0
176
     1
290
     0
176
     1
290
     0
176
     1
290
     0
176
     1
290
     0
176
     1
 90
       50
176
     1
 40
0.0
176
     1
 40
1.0
176
     1
 90
        0
176
     1
 62
    18
420
        0
176
     1
 90
       50
176
     1
 90
        3
176
     1
 62
     5
420
      255
176
     1
290
     0
176
     1
 90
       50
176
     1
 90
       50
176
     1
 90
       50
176
     1
290
     0
176
     1
 90
       50
176
     1
 62
   256
176
     0
 40
1.0
176
     0
 90
        2
176
     1
  1
strokes_ogs.tif
176
     1
290
     0
176
     1
 40
1.0
176
     1
 40
1.0
176
     1
  0
VISUALSTYLE
  5
2A
102
{ACAD_REACTORS
330
29
102
}
330
29
100
AcDbVisualStyle
  2
Flat
 70
     0
177
     3
291
     1
 70
    58
 90
        2
176
     1
 90
        1
176
     1
 90
        1
176
     1
 90
        2
176
     1
 40
0.6
176
     1
 40
30.0
176
     1
 62
     7
420
 16777215
176
     1
 90
        0
176
     1
 90
        0
176
     1
 62
     7
176
     1
 62
   257
176
     1
 90
        1
176
     1
 90
        1
176
     1
 40
1.0
176
     1
 90
        8
176
     1
 62
     7
176
     1
 40
1.0
176
     1
 90
        1
176
     1
 90
        6
176
     1
 90
        2
176
     1
 62
     7
176
     1
 90
        5
176
     1
 90
        0
176
     1
 90
        0
176
     1
290
     0
176
     1
 90
       13
176
     1
 40
0.0
176
     1
 90
        0
176
     1
290
     0
176
     1
290
     1
176
     1
290
     1
176
     1
290
     0
176
     1
290
     0
176
     1
290
     0
176
     1
290
     0
176
     1
290
     0
176
     1
290
     0
176
     1
 90
       50
176
     1
 40
0.0
176
     1
 40
1.0
176
     1
 90
        0
176
     1
 62
    18
420
        0
176
     1
 90
       50
176
     1
 90
        3
176
     1
 62
     5
420
      255
176
     1
290
     0
176
     1
 90
       50
176
     1
 90
       50
176
     1
 90
       50
176
     1
290
     0
176
     1
 90
       50
176
     1
 62
   256
176
     0
 40
1.0
176
     0
 90
        2
176
     1
  1
strokes_ogs.tif
176
     1
290
     0
176
     1
 40
1.0
176
     1
 40
1.0
176
     1
  0
VISUALSTYLE
  5
2B
102
{ACAD_REACTORS
330
29
102
}
330
29
100
AcDbVisualStyle
  2
FlatWithEdges
 70
     1
177
     3
291
     1
 70
    58
 90
        2
176
     1
 90
        1
176
     1
 90
        1
176
     1
 90
        2
176
     1
 40
0.6
176
     1
 40
30.0
176
     1
 62
     7
420
 16777215
176
     1
 90
        1
176
     1
 90
        0
176
     1
 62
     7
176
     1
 62
   257
176
     1
 90
        1
176
     1
 90
        1
176
     1
 40
1.0
176
     1
 90
        0
176
     1
 62
   257
176
     1
 40
1.0
176
     1
 90
        1
176
     1
 90
        6
176
     1
 90
        2
176
     1
 62
     7
176
     1
 90
        5
176
     1
 90
        0
176
     1
 90
        0
176
     1
290
     0
176
     1
 90
       13
176
     1
 40
0.0
176
     1
 90
        0
176
     1
290
     0
176
     1
290
     1
176
     1
290
     1
176
     1
290
     0
176
     1
290
     0
176
     1
290
     0
176
     1
290
     0
176
     1
290
     0
176
     1
290
     0
176
     1
 90
       50
176
     1
 40
0.0
176
     1
 40
1.0
176
     1
 90
        0
176
     1
 62
    18
420
        0
176
     1
 90
       50
176
     1
 90
        3
176
     1
 62
     5
420
      255
176
     1
290
     0
176
     1
 90
       50
176
     1
 90
       50
176
     1
 90
       50
176
     1
290
     0
176
     1
 90
       50
176
     1
 62
   256
176
     0
 40
1.0
176
     0
 90
        2
176
     1
  1
strokes_ogs.tif
176
     1
290
     0
176
     1
 40
1.0
176
     1
 40
1.0
176
     1
  0
VISUALSTYLE
  5
2C
102
{ACAD_REACTORS
330
29
102
}
330
29
100
AcDbVisualStyle
  2
Gouraud
 70
     2
177
     3
291
     1
 70
    58
 90
        2
176
     1
 90
        2
176
     1
 90
        1
176
     1
 90
        2
176
     1
 40
0.6
176
     1
 40
30.0
176
     1
 62
     7
420
 16777215
176
     1
 90
        0
176
     1
 90
        0
176
     1
 62
     7
176
     1
 62
   257
176
     1
 90
        1
176
     1
 90
        1
176
     1
 40
1.0
176
     1
 90
        0
176
     1
 62
     7
176
     1
 40
1.0
176
     1
 90
        1
176
     1
 90
        6
176
     1
 90
        2
176
     1
 62
     7
176
     1
 90
        5
176
     1
 90
        0
176
     1
 90
        0
176
     1
290
     0
176
     1
 90
       13
176
     1
 40
0.0
176
     1
 90
        0
176
     1
290
     0
176
     1
290
     1
176
     1
290
     1
176
     1
290
     0
176
     1
290
     0
176
     1
290
     0
176
     1
290
     0
176
     1
290
     0
176
     1
290
     0
176
     1
 90
       50
176
     1
 40
0.0
176
     1
 40
1.0
176
     1
 90
        0
176
     1
 62
    18
420
        0
176
     1
 90
       50
176
     1
 90
        3
176
     1
 62
     5
420
      255
176
     1
290
     0
176
     1
 90
       50
176
     1
 90
       50
176
     1
 90
       50
176
     1
290
     0
176
     1
 90
       50
176
     1
 62
   256
176
     0
 40
1.0
176
     0
 90
        2
176
     1
  1
strokes_ogs.tif
176
     1
290
     0
176
     1
 40
1.0
176
     1
 40
1.0
176
     1
  0
VISUALSTYLE
  5
2D
102
{ACAD_REACTORS
330
29
102
}
330
29
100
AcDbVisualStyle
  2
GouraudWithEdges
 70
     3
177
     3
291
     1
 70
    58
 90
        2
176
     1
 90
        2
176
     1
 90
        1
176
     1
 90
        2
176
     1
 40
0.6
176
     1
 40
30.0
176
     1
 62
     7
420
 16777215
176
     1
 90
        1
176
     1
 90
        0
176
     1
 62
     7
176
     1
 62
   257
176
     1
 90
        1
176
     1
 90
        1
176
     1
 40
1.0
176
     1
 90
        0
176
     1
 62
   257
176
     1
 40
1.0
176
     1
 90
        1
176
     1
 90
        6
176
     1
 90
        2
176
     1
 62
     7
176
     1
 90
        5
176
     1
 90
        0
176
     1
 90
        0
176
     1
290
     0
176
     1
 90
       13
176
     1
 40
0.0
176
     1
 90
        0
176
     1
290
     0
176
     1
290
     1
176
     1
290
     1
176
     1
290
     0
176
     1
290
     0
176
     1
290
     0
176
     1
290
     0
176
     1
290
     0
176
     1
290
     0
176
     1
 90
       50
176
     1
 40
0.0
176
     1
 40
1.0
176
     1
 90
        0
176
     1
 62
    18
420
        0
176
     1
 90
       50
176
     1
 90
        3
176
     1
 62
     5
420
      255
176
     1
290
     0
176
     1
 90
       50
176
     1
 90
       50
176
     1
 90
       50
176
     1
290
     0
176
     1
 90
       50
176
     1
 62
   256
176
     0
 40
1.0
176
     0
 90
        2
176
     1
  1
strokes_ogs.tif
176
     1
290
     0
176
     1
 40
1.0
176
     1
 40
1.0
176
     1
  0
VISUALSTYLE
  5
31
102
{ACAD_REACTORS
330
29
102
}
330
29
100
AcDbVisualStyle
  2
Hidden
 70
     6
177
     3
291
     0
 70
    58
 90
        1
176
     1
 90
        2
176
     1
 90
        2
176
     1
 90
        0
176
     1
 40
0.6
176
     1
 40
30.0
176
     1
 62
     7
420
 16777215
176
     1
 90
        2
176
     1
 90
        2
176
     1
 62
     7
176
     1
 62
   257
176
     1
 90
        2
176
     1
 90
        1
176
     1
 40
40.0
176
     1
 90
        0
176
     1
 62
   257
176
     1
 40
1.0
176
     1
 90
        1
176
     1
 90
        6
176
     1
 90
        2
176
     1
 62
     7
176
     1
 90
        3
176
     1
 90
        0
176
     1
 90
        0
176
     1
290
     0
176
     1
 90
        1
176
     1
 40
0.0
176
     1
 90
        0
176
     1
290
     0
176
     1
290
     1
176
     1
290
     1
176
     1
290
     0
176
     1
290
     0
176
     1
290
     0
176
     1
290
     0
176
     1
290
     0
176
     1
290
     0
176
     1
 90
       50
176
     1
 40
0.0
176
     1
 40
1.0
176
     1
 90
        0
176
     1
 62
    18
420
        0
176
     1
 90
       50
176
     1
 90
        3
176
     1
 62
     5
420
      255
176
     1
290
     0
176
     1
 90
       50
176
     1
 90
       50
176
     1
 90
       50
176
     1
290
     0
176
     1
 90
       50
176
     1
 62
   256
176
     0
 40
1.0
176
     0
 90
        2
176
     1
  1
strokes_ogs.tif
176
     1
290
     0
176
     1
 40
1.0
176
     1
 40
1.0
176
     1
  0
VISUALSTYLE
  5
3F
102
{ACAD_REACTORS
330
29
102
}
330
29
100
AcDbVisualStyle
  2
JitterOff
 70
    20
177
     3
291
     1
 70
    58
 90
        2
176
     0
 90
        2
176
     0
 90
        0
176
     0
 90
        0
176
     0
 40
0.6
176
     0
 40
30.0
176
     0
 62
     7
420
 16777215
176
     0
 90
        1
176
     0
 90
        4
176
     0
 62
     7
176
     0
 62
   257
176
     0
 90
        1
176
     0
 90
        1
176
     0
 40
1.0
176
     0
 90
       10
176
     2
 62
     7
176
     0
 40
1.0
176
     0
 90
        1
176
     0
 90
        6
176
     0
 90
        2
176
     0
 62
     7
176
     0
 90
        5
176
     0
 90
        0
176
     0
 90
        0
176
     0
290
     0
176
     0
 90
        1
176
     0
 40
0.0
176
     0
 90
        0
176
     0
290
     0
176
     0
290
     1
176
     0
290
     1
176
     0
290
     0
176
     0
290
     0
176
     0
290
     0
176
     0
290
     0
176
     0
290
     0
176
     0
290
     0
176
     0
 90
       50
176
     0
 40
0.0
176
     0
 40
1.0
176
     0
 90
        0
176
     0
 62
    18
420
        0
176
     0
 90
       50
176
     0
 90
        3
176
     0
 62
     5
420
      255
176
     0
290
     0
176
     0
 90
       50
176
     0
 90
       50
176
     0
 90
       50
176
     0
290
     0
176
     0
 90
       50
176
     0
 62
   256
176
     0
 40
1.0
176
     0
 90
        2
176
     0
  1
strokes_ogs.tif
176
     0
290
     0
176
     0
 40
1.0
176
     0
 40
1.0
176
     0
  0
VISUALSTYLE
  5
37
102
{ACAD_REACTORS
330
29
102
}
330
29
100
AcDbVisualStyle
  2
Linepattern
 70
    14
177
     3
291
     1
 70
    58
 90
        2
176
     1
 90
        2
176
     1
 90
        0
176
     1
 90
        0
176
     1
 40
0.6
176
     1
 40
30.0
176
     1
 62
     7
420
 16777215
176
     1
 90
        1
176
     1
 90
        4
176
     1
 62
     7
176
     1
 62
   257
176
     1
 90
        7
176
     1
 90
        7
176
     1
 40
1.0
176
     1
 90
        8
176
     1
 62
     7
176
     1
 40
1.0
176
     1
 90
        1
176
     1
 90
        6
176
     1
 90
        2
176
     1
 62
     7
176
     1
 90
        5
176
     1
 90
        0
176
     1
 90
        0
176
     1
290
     0
176
     1
 90
        1
176
     1
 40
0.0
176
     1
 90
        0
176
     1
290
     0
176
     1
290
     1
176
     1
290
     1
176
     1
290
     0
176
     1
290
     0
176
     1
290
     0
176
     1
290
     0
176
     1
290
     0
176
     1
290
     0
176
     1
 90
       50
176
     1
 40
0.0
176
     1
 40
1.0
176
     1
 90
        0
176
     1
 62
    18
420
        0
176
     1
 90
       50
176
     1
 90
        3
176
     1
 62
     5
420
      255
176
     1
290
     0
176
     1
 90
       50
176
     1
 90
       50
176
     1
 90
       50
176
     1
290
     0
176
     1
 90
       50
176
     1
 62
   256
176
     0
 40
1.0
176
     0
 90
        2
176
     1
  1
strokes_ogs.tif
176
     1
290
     0
176
     1
 40
1.0
176
     1
 40
1.0
176
     1
  0
VISUALSTYLE
  5
40
102
{ACAD_REACTORS
330
29
102
}
330
29
100
AcDbVisualStyle
  2
OverhangOff
 70
    21
177
     3
291
     1
 70
    58
 90
        2
176
     0
 90
        2
176
     0
 90
        0
176
     0
 90
        0
176
     0
 40
0.6
176
     0
 40
30.0
176
     0
 62
     7
420
 16777215
176
     0
 90
        1
176
     0
 90
        4
176
     0
 62
     7
176
     0
 62
   257
176
     0
 90
        1
176
     0
 90
        1
176
     0
 40
1.0
176
     0
 90
        9
176
     2
 62
     7
176
     0
 40
1.0
176
     0
 90
        1
176
     0
 90
        6
176
     0
 90
        2
176
     0
 62
     7
176
     0
 90
        5
176
     0
 90
        0
176
     0
 90
        0
176
     0
290
     0
176
     0
 90
        1
176
     0
 40
0.0
176
     0
 90
        0
176
     0
290
     0
176
     0
290
     1
176
     0
290
     1
176
     0
290
     0
176
     0
290
     0
176
     0
290
     0
176
     0
290
     0
176
     0
290
     0
176
     0
290
     0
176
     0
 90
       50
176
     0
 40
0.0
176
     0
 40
1.0
176
     0
 90
        0
176
     0
 62
    18
420
        0
176
     0
 90
       50
176
     0
 90
        3
176
     0
 62
     5
420
      255
176
     0
290
     0
176
     0
 90
       50
176
     0
 90
       50
176
     0
 90
       50
176
     0
290
     0
176
     0
 90
       50
176
     0
 62
   256
176
     0
 40
1.0
176
     0
 90
        2
176
     0
  1
strokes_ogs.tif
176
     0
290
     0
176
     0
 40
1.0
176
     0
 40
1.0
176
     0
  0
VISUALSTYLE
  5
33
102
{ACAD_REACTORS
330
29
102
}
330
29
100
AcDbVisualStyle
  2
Realistic
 70
     8
177
     3
291
     0
 70
    58
 90
        2
176
     1
 90
        3
176
     1
 90
        0
176
     1
 90
        2
176
     1
 40
0.6
176
     1
 40
30.0
176
     1
 62
     7
420
 16777215
176
     1
 90
        0
176
     1
 90
        0
176
     1
 62
     7
176
     1
 62
   257
176
     1
 90
        1
176
     1
 90
        1
176
     1
 40
1.0
176
     1
 90
        8
176
     1
 62
   257
176
     1
 40
1.0
176
     1
 90
        1
176
     1
 90
        6
176
     1
 90
        2
176
     1
 62
     7
176
     1
 90
        3
176
     1
 90
        0
176
     1
 90
        0
176
     1
290
     0
176
     1
 90
       13
176
     1
 40
0.0
176
     1
 90
        0
176
     1
290
     0
176
     1
290
     1
176
     1
290
     1
176
     1
290
     0
176
     1
290
     0
176
     1
290
     0
176
     1
290
     0
176
     1
290
     0
176
     1
290
     0
176
     1
 90
       50
176
     1
 40
0.0
176
     1
 40
1.0
176
     1
 90
        0
176
     1
 62
    18
420
        0
176
     1
 90
       50
176
     1
 90
        3
176
     1
 62
     5
420
      255
176
     1
290
     0
176
     1
 90
       50
176
     1
 90
       50
176
     1
 90
       50
176
     1
290
     0
176
     1
 90
       50
176
     1
 62
   256
176
     0
 40
1.0
176
     0
 90
        2
176
     1
  1
strokes_ogs.tif
176
     1
290
     0
176
     1
 40
1.0
176
     1
 40
1.0
176
     1
  0
VISUALSTYLE
  5
3E
102
{ACAD_REACTORS
330
29
102
}
330
29
100
AcDbVisualStyle
  2
Shaded
 70
    27
177
     3
291
     0
 70
    58
 90
        2
176
     1
 90
        2
176
     1
 90
        1
176
     1
 90
        2
176
     1
 40
0.6
176
     1
 40
30.0
176
     1
 62
     7
420
 16777215
176
     1
 90
        0
176
     1
 90
        4
176
     1
 62
     7
176
     1
 62
   257
176
     1
 90
        1
176
     1
 90
        1
176
     1
 40
1.0
176
     1
 90
        8
176
     1
 62
   257
176
     1
 40
1.0
176
     1
 90
        1
176
     1
 90
        6
176
     1
 90
        2
176
     1
 62
     8
420
  7895160
176
     1
 90
        3
176
     1
 90
        0
176
     1
 90
        0
176
     1
290
     0
176
     1
 90
        5
176
     1
 40
0.0
176
     1
 90
        0
176
     1
290
     0
176
     1
290
     1
176
     1
290
     1
176
     1
290
     0
176
     1
290
     0
176
     1
290
     0
176
     1
290
     0
176
     1
290
     0
176
     1
290
     0
176
     1
 90
       50
176
     1
 40
0.0
176
     1
 40
1.0
176
     1
 90
        0
176
     1
 62
    18
420
        0
176
     1
 90
       50
176
     1
 90
        3
176
     1
 62
     5
420
      255
176
     1
290
     0
176
     1
 90
       50
176
     1
 90
       50
176
     1
 90
       50
176
     1
290
     0
176
     1
 90
       50
176
     1
 62
   256
176
     0
 40
1.0
176
     0
 90
        2
176
     1
  1
strokes_ogs.tif
176
     1
290
     0
176
     1
 40
1.0
176
     1
 40
1.0
176
     1
  0
VISUALSTYLE
  5
3D
102
{ACAD_REACTORS
330
29
102
}
330
29
100
AcDbVisualStyle
  2
Shaded with edges
 70
    26
177
     3
291
     0
 70
    58
 90
        2
176
     1
 90
        2
176
     1
 90
        1
176
     1
 90
        2
176
     1
 40
0.6
176
     1
 40
30.0
176
     1
 62
     7
420
 16777215
176
     1
 90
        1
176
     1
 90
        2
176
     1
 62
     7
176
     1
 62
   257
176
     1
 90
        2
176
     1
 90
        1
176
     1
 40
1.0
176
     1
 90
        8
176
     1
 62
   257
176
     1
 40
1.0
176
     1
 90
        1
176
     1
 90
        6
176
     1
 90
        2
176
     1
 62
     7
176
     1
 90
        3
176
     1
 90
        0
176
     1
 90
        0
176
     1
290
     0
176
     1
 90
        5
176
     1
 40
0.0
176
     1
 90
        0
176
     1
290
     0
176
     1
290
     1
176
     1
290
     1
176
     1
290
     0
176
     1
290
     0
176
     1
290
     0
176
     1
290
     0
176
     1
290
     0
176
     1
290
     0
176
     1
 90
       50
176
     1
 40
0.0
176
     1
 40
1.0
176
     1
 90
        0
176
     1
 62
    18
420
        0
176
     1
 90
       50
176
     1
 90
        3
176
     1
 62
     5
420
      255
176
     1
290
     0
176
     1
 90
       50
176
     1
 90
       50
176
     1
 90
       50
176
     1
290
     0
176
     1
 90
       50
176
     1
 62
   256
176
     0
 40
1.0
176
     0
 90
        2
176
     1
  1
strokes_ogs.tif
176
     1
290
     0
176
     1
 40
1.0
176
     1
 40
1.0
176
     1
  0
VISUALSTYLE
  5
3A
102
{ACAD_REACTORS
330
29
102
}
330
29
100
AcDbVisualStyle
  2
Shades of Gray
 70
    23
177
     3
291
     0
 70
    58
 90
        2
176
     1
 90
        2
176
     1
 90
        3
176
     1
 90
        0
176
     1
 40
0.6
176
     1
 40
30.0
176
     1
 62
     7
420
 16777215
176
     1
 90
        2
176
     1
 90
        2
176
     1
 62
     7
176
     1
 62
     7
176
     1
 90
        1
176
     1
 90
        1
176
     1
 40
40.0
176
     1
 90
        8
176
     1
 62
     7
176
     1
 40
1.0
176
     1
 90
        1
176
     1
 90
        6
176
     1
 90
        2
176
     1
 62
     7
176
     1
 90
        3
176
     1
 90
        0
176
     1
 90
        0
176
     1
290
     0
176
     1
 90
        1
176
     1
 40
0.0
176
     1
 90
        0
176
     1
290
     0
176
     1
290
     1
176
     1
290
     1
176
     1
290
     0
176
     1
290
     0
176
     1
290
     0
176
     1
290
     0
176
     1
290
     0
176
     1
290
     0
176
     1
 90
       50
176
     1
 40
0.0
176
     1
 40
1.0
176
     1
 90
        0
176
     1
 62
    18
420
        0
176
     1
 90
       50
176
     1
 90
        3
176
     1
 62
     5
420
      255
176
     1
290
     0
176
     1
 90
       50
176
     1
 90
       50
176
     1
 90
       50
176
     1
290
     0
176
     1
 90
       50
176
     1
 62
   256
176
     0
 40
1.0
176
     0
 90
        2
176
     1
  1
strokes_ogs.tif
176
     1
290
     0
176
     1
 40
1.0
176
     1
 40
1.0
176
     1
  0
VISUALSTYLE
  5
3B
102
{ACAD_REACTORS
330
29
102
}
330
29
100
AcDbVisualStyle
  2
Sketchy
 70
    24
177
     3
291
     0
 70
    58
 90
        1
176
     1
 90
        2
176
     1
 90
        2
176
     1
 90
        0
176
     1
 40
0.6
176
     1
 40
30.0
176
     1
 62
     7
420
 16777215
176
     1
 90
        2
176
     1
 90
        2
176
     1
 62
     7
176
     1
 62
     7
176
     1
 90
        1
176
     1
 90
        1
176
     1
 40
40.0
176
     1
 90
       11
176
     1
 62
     7
176
     1
 40
1.0
176
     1
 90
        1
176
     1
 90
        6
176
     1
 90
        2
176
     1
 62
     7
176
     1
 90
        6
176
     1
 90
        0
176
     1
 90
        0
176
     1
290
     0
176
     1
 90
        1
176
     1
 40
0.0
176
     1
 90
        0
176
     1
290
     0
176
     1
290
     1
176
     1
290
     1
176
     1
290
     0
176
     1
290
     0
176
     1
290
     0
176
     1
290
     0
176
     1
290
     0
176
     1
290
     0
176
     1
 90
       50
176
     1
 40
0.0
176
     1
 40
1.0
176
     1
 90
        0
176
     1
 62
    18
420
        0
176
     1
 90
       50
176
     1
 90
        3
176
     1
 62
     5
420
      255
176
     1
290
     0
176
     1
 90
       50
176
     1
 90
       50
176
     1
 90
       50
176
     1
290
     0
176
     1
 90
       50
176
     1
 62
   256
176
     0
 40
1.0
176
     0
 90
        2
176
     1
  1
strokes_ogs.tif
176
     1
290
     0
176
     1
 40
1.0
176
     1
 40
1.0
176
     1
  0
VISUALSTYLE
  5
36
102
{ACAD_REACTORS
330
29
102
}
330
29
100
AcDbVisualStyle
  2
Thicken
 70
    13
177
     3
291
     1
 70
    58
 90
        2
176
     1
 90
        2
176
     1
 90
        0
176
     1
 90
        0
176
     1
 40
0.6
176
     1
 40
30.0
176
     1
 62
     7
420
 16777215
176
     1
 90
        1
176
     1
 90
        4
176
     1
 62
     7
176
     1
 62
   257
176
     1
 90
        1
176
     1
 90
        1
176
     1
 40
1.0
176
     1
 90
       12
176
     1
 62
     7
176
     1
 40
1.0
176
     1
 90
        1
176
     1
 90
        6
176
     1
 90
        2
176
     1
 62
     7
176
     1
 90
        5
176
     1
 90
        0
176
     1
 90
        0
176
     1
290
     0
176
     1
 90
        1
176
     1
 40
0.0
176
     1
 90
        0
176
     1
290
     0
176
     1
290
     1
176
     1
290
     1
176
     1
290
     0
176
     1
290
     0
176
     1
290
     0
176
     1
290
     0
176
     1
290
     0
176
     1
290
     0
176
     1
 90
       50
176
     1
 40
0.0
176
     1
 40
1.0
176
     1
 90
        0
176
     1
 62
    18
420
        0
176
     1
 90
       50
176
     1
 90
        3
176
     1
 62
     5
420
      255
176
     1
290
     0
176
     1
 90
       50
176
     1
 90
       50
176
     1
 90
       50
176
     1
290
     0
176
     1
 90
       50
176
     1
 62
   256
176
     0
 40
1.0
176
     0
 90
        2
176
     1
  1
strokes_ogs.tif
176
     1
290
     0
176
     1
 40
1.0
176
     1
 40
1.0
176
     1
  0
VISUALSTYLE
  5
30
102
{ACAD_REACTORS
330
29
102
}
330
29
100
AcDbVisualStyle
  2
Wireframe
 70
     5
177
     3
291
     0
 70
    58
 90
        0
176
     1
 90
        2
176
     1
 90
        0
176
     1
 90
        0
176
     1
 40
0.6
176
     1
 40
30.0
176
     1
 62
     7
420
 16777215
176
     1
 90
        1
176
     1
 90
        4
176
     1
 62
     7
176
     1
 62
   257
176
     1
 90
        1
176
     1
 90
        1
176
     1
 40
1.0
176
     1
 90
        0
176
     1
 62
   257
176
     1
 40
1.0
176
     1
 90
        1
176
     1
 90
        6
176
     1
 90
        2
176
     1
 62
     7
176
     1
 90
        3
176
     1
 90
        0
176
     1
 90
        0
176
     1
290
     0
176
     1
 90
        1
176
     1
 40
0.0
176
     1
 90
        0
176
     1
290
     0
176
     1
290
     1
176
     1
290
     1
176
     1
290
     0
176
     1
290
     0
176
     1
290
     0
176
     1
290
     0
176
     1
290
     0
176
     1
290
     0
176
     1
 90
       50
176
     1
 40
0.0
176
     1
 40
1.0
176
     1
 90
        0
176
     1
 62
    18
420
        0
176
     1
 90
       50
176
     1
 90
        3
176
     1
 62
     5
420
      255
176
     1
290
     0
176
     1
 90
       50
176
     1
 90
       50
176
     1
 90
       50
176
     1
290
     0
176
     1
 90
       50
176
     1
 62
   256
176
     0
 40
1.0
176
     0
 90
        2
176
     1
  1
strokes_ogs.tif
176
     1
290
     0
176
     1
 40
1.0
176
     1
 40
1.0
176
     1
  0
VISUALSTYLE
  5
3C
102
{ACAD_REACTORS
330
29
102
}
330
29
100
AcDbVisualStyle
  2
X-Ray
 70
    25
177
     3
291
     0
 70
    58
 90
        2
176
     1
 90
        2
176
     1
 90
        1
176
     1
 90
        1
176
     1
 40
0.5
176
     1
 40
30.0
176
     1
 62
     7
420
 16777215
176
     1
 90
        1
176
     1
 90
        0
176
     1
 62
     7
176
     1
 62
   257
176
     1
 90
        1
176
     1
 90
        1
176
     1
 40
1.0
176
     1
 90
        8
176
     1
 62
     7
176
     1
 40
1.0
176
     1
 90
        1
176
     1
 90
        6
176
     1
 90
        2
176
     1
 62
     7
176
     1
 90
        3
176
     1
 90
        0
176
     1
 90
        0
176
     1
290
     0
176
     1
 90
       13
176
     1
 40
0.0
176
     1
 90
        0
176
     1
290
     0
176
     1
290
     1
176
     1
290
     1
176
     1
290
     0
176
     1
290
     0
176
     1
290
     0
176
     1
290
     0
176
     1
290
     0
176
     1
290
     0
176
     1
 90
       50
176
     1
 40
0.0
176
     1
 40
1.0
176
     1
 90
        0
176
     1
 62
    18
420
        0
176
     1
 90
       50
176
     1
 90
        3
176
     1
 62
     5
420
      255
176
     1
290
     0
176
     1
 90
       50
176
     1
 90
       50
176
     1
 90
       50
176
     1
290
     0
176
     1
 90
       50
176
     1
 62
   256
176
     0
 40
1.0
176
     0
 90
        2
176
     1
  1
strokes_ogs.tif
176
     1
290
     0
176
     1
 40
1.0
176
     1
 40
1.0
176
     1
  0
DICTIONARYVAR
  5
B6
102
{ACAD_REACTORS
330
B1
102
}
330
B1
100
DictionaryVariables
280
     0
  1
1:1
  0
DICTIONARYVAR
  5
B3
102
{ACAD_REACTORS
330
B1
102
}
330
B1
100
DictionaryVariables
280
     0
  1
STANDARD
  0
DICTIONARYVAR
  5
B2
102
{ACAD_REACTORS
330
B1
102
}
330
B1
100
DictionaryVariables
280
     0
  1
STANDARD
  0
DICTIONARYVAR
  5
B4
102
{ACAD_REACTORS
330
B1
102
}
330
B1
100
DictionaryVariables
280
     0
  1
Imperial24
  0
DICTIONARYVAR
  5
B5
102
{ACAD_REACTORS
330
B1
102
}
330
B1
100
DictionaryVariables
280
     0
  1
Imperial24
  0
DICTIONARY
  5
1A
330
19
100
AcDbDictionary
280
     1
281
     1
  3
BUMPTILE
360
1C
  3
DIFFUSETILE
360
1B
  3
OPACITYTILE
360
1F
  3
REFLECTIONTILE
360
1E
  3
REFRACTIONTILE
360
20
  3
SPECULARTILE
360
1D
  0
DICTIONARY
  5
12
330
11
100
AcDbDictionary
280
     1
281
     1
  3
BUMPTILE
360
14
  3
DIFFUSETILE
360
13
  3
OPACITYTILE
360
17
  3
REFLECTIONTILE
360
16
  3
REFRACTIONTILE
360
18
  3
SPECULARTILE
360
15
  0
DICTIONARY
  5
22
330
21
100
AcDbDictionary
280
     1
281
     1
  3
BUMPTILE
360
24
  3
DIFFUSETILE
360
23
  3
OPACITYTILE
360
27
  3
REFLECTIONTILE
360
26
  3
REFRACTIONTILE
360
28
  3
SPECULARTILE
360
25
  0
DICTIONARY
  5
B7
330
65
100
AcDbDictionary
280
     1
281
     1
  3
ACAD_ROUNDTRIP_2008_TABLESTYLE_CELLSTYLEMAP
360
B8
  0
XRECORD
  5
1C
102
{ACAD_REACTORS
330
1A
102
}
330
1A
100
AcDbXrecord
280
     1
270
     1
271
     1
  0
XRECORD
  5
1B
102
{ACAD_REACTORS
330
1A
102
}
330
1A
100
AcDbXrecord
280
     1
270
     1
271
     1
  0
XRECORD
  5
1F
102
{ACAD_REACTORS
330
1A
102
}
330
1A
100
AcDbXrecord
280
     1
270
     1
271
     1
  0
XRECORD
  5
1E
102
{ACAD_REACTORS
330
1A
102
}
330
1A
100
AcDbXrecord
280
     1
270
     1
271
     1
  0
XRECORD
  5
20
102
{ACAD_REACTORS
330
1A
102
}
330
1A
100
AcDbXrecord
280
     1
270
     1
271
     1
  0
XRECORD
  5
1D
102
{ACAD_REACTORS
330
1A
102
}
330
1A
100
AcDbXrecord
280
     1
270
     1
271
     1
  0
XRECORD
  5
14
102
{ACAD_REACTORS
330
12
102
}
330
12
100
AcDbXrecord
280
     1
270
     1
271
     1
  0
XRECORD
  5
13
102
{ACAD_REACTORS
330
12
102
}
330
12
100
AcDbXrecord
280
     1
270
     1
271
     1
  0
XRECORD
  5
17
102
{ACAD_REACTORS
330
12
102
}
330
12
100
AcDbXrecord
280
     1
270
     1
271
     1
  0
XRECORD
  5
16
102
{ACAD_REACTORS
330
12
102
}
330
12
100
AcDbXrecord
280
     1
270
     1
271
     1
  0
XRECORD
  5
18
102
{ACAD_REACTORS
330
12
102
}
330
12
100
AcDbXrecord
280
     1
270
     1
271
     1
  0
XRECORD
  5
15
102
{ACAD_REACTORS
330
12
102
}
330
12
100
AcDbXrecord
280
     1
270
     1
271
     1
  0
XRECORD
  5
24
102
{ACAD_REACTORS
330
22
102
}
330
22
100
AcDbXrecord
280
     1
270
     1
271
     1
  0
XRECORD
  5
23
102
{ACAD_REACTORS
330
22
102
}
330
22
100
AcDbXrecord
280
     1
270
     1
271
     1
  0
XRECORD
  5
27
102
{ACAD_REACTORS
330
22
102
}
330
22
100
AcDbXrecord
280
     1
270
     1
271
     1
  0
XRECORD
  5
26
102
{ACAD_REACTORS
330
22
102
}
330
22
100
AcDbXrecord
280
     1
270
     1
271
     1
  0
XRECORD
  5
28
102
{ACAD_REACTORS
330
22
102
}
330
22
100
AcDbXrecord
280
     1
270
     1
271
     1
  0
XRECORD
  5
25
102
{ACAD_REACTORS
330
22
102
}
330
22
100
AcDbXrecord
280
     1
270
     1
271
     1
  0
CELLSTYLEMAP
  5
B8
102
{ACAD_REACTORS
330
B7
102
}
330
B7
100
AcDbCellStyleMap
 90
        3
300
CELLSTYLE
  1
TABLEFORMAT_BEGIN
 90
        5
170
     1
 91
        0
 92
    32768
 62
   257
 93
        1
300
CONTENTFORMAT
  1
CONTENTFORMAT_BEGIN
 90
        0
 91
        0
 92
      512
 93
        0
300

 40
0.0
140
1.0
 94
        5
 62
     0
340
55
144
0.25
309
CONTENTFORMAT_END
171
     0
 94
        0
309
TABLEFORMAT_END
  1
CELLSTYLE_BEGIN
 90
        1
 91
        1
300
_TITLE
309
CELLSTYLE_END
300
CELLSTYLE
  1
TABLEFORMAT_BEGIN
 90
        5
170
     1
 91
        0
 92
        0
 62
   257
 93
        1
300
CONTENTFORMAT
  1
CONTENTFORMAT_BEGIN
 90
        0
 91
        0
 92
      512
 93
        0
300

 40
0.0
140
1.0
 94
        5
 62
     0
340
55
144
0.18
309
CONTENTFORMAT_END
171
     0
 94
        0
309
TABLEFORMAT_END
  1
CELLSTYLE_BEGIN
 90
        2
 91
        1
300
_HEADER
309
CELLSTYLE_END
300
CELLSTYLE
  1
TABLEFORMAT_BEGIN
 90
        5
170
     1
 91
        0
 92
        0
 62
   257
 93
        1
300
CONTENTFORMAT
  1
CONTENTFORMAT_BEGIN
 90
        0
 91
        0
 92
      512
 93
        0
300

 40
0.0
140
1.0
 94
        2
 62
     0
340
55
144
0.18
309
CONTENTFORMAT_END
171
     0
 94
        0
309
TABLEFORMAT_END
  1
CELLSTYLE_BEGIN
 90
        3
 91
        2
300
_DATA
309
CELLSTYLE_END
  0
ENDSEC
  0
EOF
