  0
SECTION
  2
HEADER
  9
$ACADVER
  1
AC1032
  9
$ACADMAINTVER
 90
      327
  9
$DWGCODEPAGE
  3
ANSI_1252
  9
$REQUIREDVERSIONS
160
                 0
  9
$INSBASE
 10
0.0
 20
0.0
 30
0.0
  9
$EXTMIN
 10
1.000000000000000E+20
 20
1.000000000000000E+20
 30
1.000000000000000E+20
  9
$EXTMAX
 10
-1.000000000000000E+20
 20
-1.000000000000000E+20
 30
-1.000000000000000E+20
  9
$LIMMIN
 10
0.0
 20
0.0
  9
$LIMMAX
 10
12.0
 20
9.0
  9
$ORTHOMODE
 70
     0
  9
$REGENMODE
 70
     1
  9
$FILLMODE
 70
     1
  9
$QTEXTMODE
 70
     0
  9
$MIRRTEXT
 70
     0
  9
$LTSCALE
 40
1.0
  9
$ATTMODE
 70
     1
  9
$TEXTSIZE
 40
0.2
  9
$TRACEWID
 40
0.05
  9
$TEXTSTYLE
  7
Standard
  9
$CLAYER
  8
0
  9
$CELTYPE
  6
ByLayer
  9
$CECOLOR
 62
   256
  9
$CELTSCALE
 40
1.0
  9
$DISPSILH
 70
     0
  9
$DIMSCALE
 40
1.0
  9
$DIMASZ
 40
0.18
  9
$DIMEXO
 40
0.0625
  9
$DIMDLI
 40
0.38
  9
$DIMRND
 40
0.0
  9
$DIMDLE
 40
0.0
  9
$DIMEXE
 40
0.18
  9
$DIMTP
 40
0.0
  9
$DIMTM
 40
0.0
  9
$DIMTXT
 40
0.18
  9
$DIMCEN
 40
0.09
  9
$DIMTSZ
 40
0.0
  9
$DIMTOL
 70
     0
  9
$DIMLIM
 70
     0
  9
$DIMTIH
 70
     1
  9
$DIMTOH
 70
     1
  9
$DIMSE1
 70
     0
  9
$DIMSE2
 70
     0
  9
$DIMTAD
 70
     0
  9
$DIMZIN
 70
     0
  9
$DIMBLK
  1

  9
$DIMASO
 70
     1
  9
$DIMSHO
 70
     1
  9
$DIMPOST
  1

  9
$DIMAPOST
  1

  9
$DIMALT
 70
     0
  9
$DIMALTD
 70
     2
  9
$DIMALTF
 40
25.4
  9
$DIMLFAC
 40
1.0
  9
$DIMTOFL
 70
     0
  9
$DIMTVP
 40
0.0
  9
$DIMTIX
 70
     0
  9
$DIMSOXD
 70
     0
  9
$DIMSAH
 70
     0
  9
$DIMBLK1
  1

  9
$DIMBLK2
  1

  9
$DIMSTYLE
  2
Standard
  9
$DIMCLRD
 70
     0
  9
$DIMCLRE
 70
     0
  9
$DIMCLRT
 70
     0
  9
$DIMTFAC
 40
1.0
  9
$DIMGAP
 40
0.09
  9
$DIMJUST
 70
     0
  9
$DIMSD1
 70
     0
  9
$DIMSD2
 70
     0
  9
$DIMTOLJ
 70
     1
  9
$DIMTZIN
 70
     0
  9
$DIMALTZ
 70
     0
  9
$DIMALTTZ
 70
     0
  9
$DIMUPT
 70
     0
  9
$DIMDEC
 70
     4
  9
$DIMTDEC
 70
     4
  9
$DIMALTU
 70
     2
  9
$DIMALTTD
 70
     2
  9
$DIMTXSTY
  7
Standard
  9
$DIMAUNIT
 70
     0
  9
$DIMADEC
 70
     0
  9
$DIMALTRND
 40
0.0
  9
$DIMAZIN
 70
     0
  9
$DIMDSEP
 70
    46
  9
$DIMATFIT
 70
     3
  9
$DIMFRAC
 70
     0
  9
$DIMLDRBLK
  1

  9
$DIMLUNIT
 70
     2
  9
$DIMLWD
 70
    -2
  9
$DIMLWE
 70
    -2
  9
$DIMTMOVE
 70
     0
  9
$DIMFXL
 40
1.0
  9
$DIMFXLON
 70
     0
  9
$DIMJOGANG
 40
0.7853981633974483
  9
$DIMTFILL
 70
     0
  9
$DIMTFILLCLR
 70
     0
  9
$DIMARCSYM
 70
     0
  9
$DIMLTYPE
  6

  9
$DIMLTEX1
  6

  9
$DIMLTEX2
  6

  9
$DIMTXTDIRECTION
 70
     0
  9
$LUNITS
 70
     2
  9
$LUPREC
 70
     4
  9
$SKETCHINC
 40
0.1
  9
$FILLETRAD
 40
0.0
  9
$AUNITS
 70
     0
  9
$AUPREC
 70
     0
  9
$MENU
  1
.
  9
$ELEVATION
 40
0.0
  9
$PELEVATION
 40
0.0
  9
$THICKNESS
 40
0.0
  9
$LIMCHECK
 70
     0
  9
$CHAMFERA
 40
0.0
  9
$CHAMFERB
 40
0.0
  9
$CHAMFERC
 40
0.0
  9
$CHAMFERD
 40
0.0
  9
$SKPOLY
 70
     0
  9
$TDCREATE
 40
2460699.511712963
  9
$TDUCREATE
 40
2460699.511712963
  9
$TDUPDATE
 40
2460699.511712963
  9
$TDUUPDATE
 40
2460699.511712963
  9
$TDINDWG
 40
0.0000000000
  9
$TDUSRTIMER
 40
0.0000000000
  9
$USRTIMER
 70
     1
  9
$ANGBASE
 50
0.0
  9
$ANGDIR
 70
     0
  9
$PDMODE
 70
     0
  9
$PDSIZE
 40
0.0
  9
$PLINEWID
 40
0.0
  9
$SPLFRAME
 70
     0
  9
$SPLINETYPE
 70
     6
  9
$SPLINESEGS
 70
     8
  9
$HANDSEED
  5
DA
  9
$SURFTAB1
 70
     6
  9
$SURFTAB2
 70
     6
  9
$SURFTYPE
 70
     6
  9
$SURFU
 70
     6
  9
$SURFV
 70
     6
  9
$UCSBASE
  2

  9
$UCSNAME
  2

  9
$UCSORG
 10
0.0
 20
0.0
 30
0.0
  9
$UCSXDIR
 10
1.0
 20
0.0
 30
0.0
  9
$UCSYDIR
 10
0.0
 20
1.0
 30
0.0
  9
$UCSORTHOREF
  2

  9
$UCSORTHOVIEW
 70
     0
  9
$UCSORGTOP
 10
0.0
 20
0.0
 30
0.0
  9
$UCSORGBOTTOM
 10
0.0
 20
0.0
 30
0.0
  9
$UCSORGLEFT
 10
0.0
 20
0.0
 30
0.0
  9
$UCSORGRIGHT
 10
0.0
 20
0.0
 30
0.0
  9
$UCSORGFRONT
 10
0.0
 20
0.0
 30
0.0
  9
$UCSORGBACK
 10
0.0
 20
0.0
 30
0.0
  9
$PUCSBASE
  2

  9
$PUCSNAME
  2

  9
$PUCSORG
 10
0.0
 20
0.0
 30
0.0
  9
$PUCSXDIR
 10
1.0
 20
0.0
 30
0.0
  9
$PUCSYDIR
 10
0.0
 20
1.0
 30
0.0
  9
$PUCSORTHOREF
  2

  9
$PUCSORTHOVIEW
 70
     0
  9
$PUCSORGTOP
 10
0.0
 20
0.0
 30
0.0
  9
$PUCSORGBOTTOM
 10
0.0
 20
0.0
 30
0.0
  9
$PUCSORGLEFT
 10
0.0
 20
0.0
 30
0.0
  9
$PUCSORGRIGHT
 10
0.0
 20
0.0
 30
0.0
  9
$PUCSORGFRONT
 10
0.0
 20
0.0
 30
0.0
  9
$PUCSORGBACK
 10
0.0
 20
0.0
 30
0.0
  9
$USERI1
 70
     0
  9
$USERI2
 70
     0
  9
$USERI3
 70
     0
  9
$USERI4
 70
     0
  9
$USERI5
 70
     0
  9
$USERR1
 40
0.0
  9
$USERR2
 40
0.0
  9
$USERR3
 40
0.0
  9
$USERR4
 40
0.0
  9
$USERR5
 40
0.0
  9
$WORLDVIEW
 70
     1
  9
$SHADEDGE
 70
     3
  9
$SHADEDIF
 70
    70
  9
$TILEMODE
 70
     1
  9
$MAXACTVP
 70
    64
  9
$PINSBASE
 10
0.0
 20
0.0
 30
0.0
  9
$PLIMCHECK
 70
     0
  9
$PEXTMIN
 10
1.000000000000000E+20
 20
1.000000000000000E+20
 30
1.000000000000000E+20
  9
$PEXTMAX
 10
-1.000000000000000E+20
 20
-1.000000000000000E+20
 30
-1.000000000000000E+20
  9
$PLIMMIN
 10
0.0
 20
0.0
  9
$PLIMMAX
 10
12.0
 20
9.0
  9
$UNITMODE
 70
     0
  9
$VISRETAIN
 70
     1
  9
$PLINEGEN
 70
     0
  9
$PSLTSCALE
 70
     1
  9
$TREEDEPTH
 70
  3020
  9
$CMLSTYLE
  2
Standard
  9
$CMLJUST
 70
     0
  9
$CMLSCALE
 40
1.0
  9
$PROXYGRAPHICS
 70
     1
  9
$MEASUREMENT
 70
     0
  9
$CELWEIGHT
370
    -1
  9
$ENDCAPS
280
     0
  9
$JOINSTYLE
280
     0
  9
$LWDISPLAY
290
     1
  9
$INSUNITS
 70
     5
  9
$HYPERLINKBASE
  1

  9
$STYLESHEET
  1

  9
$XEDIT
290
     1
  9
$CEPSNTYPE
380
     0
  9
$PSTYLEMODE
290
     1
  9
$FINGERPRINTGUID
  2
{FD0A9F28-DBA9-8048-AADA-2C8CF009B65C}
  9
$VERSIONGUID
  2
{7B407AFE-9E28-304B-B3D0-8EA31E4AFB48}
  9
$EXTNAMES
290
     1
  9
$PSVPSCALE
 40
0.0
  9
$OLESTARTUP
290
     0
  9
$SORTENTS
280
   127
  9
$INDEXCTL
280
     0
  9
$HIDETEXT
280
     1
  9
$XCLIPFRAME
280
     2
  9
$HALOGAP
280
     0
  9
$OBSCOLOR
 70
   257
  9
$OBSLTYPE
280
     0
  9
$INTERSECTIONDISPLAY
280
     0
  9
$INTERSECTIONCOLOR
 70
   257
  9
$DIMASSOC
280
     2
  9
$PROJECTNAME
  1

  9
$CAMERADISPLAY
290
     0
  9
$LENSLENGTH
 40
50.0
  9
$CAMERAHEIGHT
 40
0.0
  9
$STEPSPERSEC
 40
2.0
  9
$STEPSIZE
 40
6.0
  9
$3DDWFPREC
 40
2.0
  9
$PSOLWIDTH
 40
0.25
  9
$PSOLHEIGHT
 40
4.0
  9
$LOFTANG1
 40
1.570796326794896
  9
$LOFTANG2
 40
1.570796326794896
  9
$LOFTMAG1
 40
0.0
  9
$LOFTMAG2
 40
0.0
  9
$LOFTPARAM
 70
     7
  9
$LOFTNORMALS
280
     1
  9
$LATITUDE
 40
37.795
  9
$LONGITUDE
 40
-122.394
  9
$NORTHDIRECTION
 40
0.0
  9
$TIMEZONE
 70
 -8000
  9
$LIGHTGLYPHDISPLAY
280
     1
  9
$TILEMODELIGHTSYNCH
280
     1
  9
$CMATERIAL
347
11
  9
$SOLIDHIST
280
     0
  9
$SHOWHIST
280
     1
  9
$DWFFRAME
280
     2
  9
$DGNFRAME
280
     0
  9
$REALWORLDSCALE
290
     1
  9
$INTERFERECOLOR
 62
     1
  9
$INTERFEREOBJVS
345
33
  9
$INTERFEREVPVS
346
30
  9
$CSHADOW
280
     0
  9
$SHADOWPLANELOCATION
 40
0.0
  0
ENDSEC
  0
SECTION
  2
CLASSES
  0
CLASS
  1
ACDBDICTIONARYWDFLT
  2
AcDbDictionaryWithDefault
  3
ObjectDBX Classes
 90
        0
 91
        1
280
     0
281
     0
  0
CLASS
  1
MATERIAL
  2
AcDbMaterial
  3
ObjectDBX Classes
 90
     1153
 91
        3
280
     0
281
     0
  0
CLASS
  1
VISUALSTYLE
  2
AcDbVisualStyle
  3
ObjectDBX Classes
 90
     4095
 91
       24
280
     0
281
     0
  0
CLASS
  1
SCALE
  2
AcDbScale
  3
ObjectDBX Classes
 90
     1153
 91
       17
280
     0
281
     0
  0
CLASS
  1
TABLESTYLE
  2
AcDbTableStyle
  3
ObjectDBX Classes
 90
     4095
 91
        1
280
     0
281
     0
  0
CLASS
  1
MLEADERSTYLE
  2
AcDbMLeaderStyle
  3
ACDB_MLEADERSTYLE_CLASS
 90
     4095
 91
        1
280
     0
281
     0
  0
CLASS
  1
ACDBSECTIONVIEWSTYLE
  2
AcDbSectionViewStyle
  3
ObjectDBX Classes
 90
     1025
 91
        1
280
     0
281
     0
  0
CLASS
  1
ACDBDETAILVIEWSTYLE
  2
AcDbDetailViewStyle
  3
ObjectDBX Classes
 90
     1025
 91
        1
280
     0
281
     0
  0
CLASS
  1
DICTIONARYVAR
  2
AcDbDictionaryVar
  3
ObjectDBX Classes
 90
        0
 91
        5
280
     0
281
     0
  0
CLASS
  1
CELLSTYLEMAP
  2
AcDbCellStyleMap
  3
ObjectDBX Classes
 90
     1152
 91
        1
280
     0
281
     0
  0
ENDSEC
  0
SECTION
  2
TABLES
  0
TABLE
  2
VPORT
  5
8
330
0
100
AcDbSymbolTable
 70
     1
  0
VPORT
  5
57
330
8
100
AcDbSymbolTableRecord
100
AcDbViewportTableRecord
  2
*Active
 70
     0
 10
0.0
 20
0.0
 11
1.0
 21
1.0
 12
0.0
 22
0.0
 13
0.0
 23
0.0
 14
1.0
 24
1.0
 15
0.0
 25
0.0
 16
0.0
 26
0.0
 36
1.0
 17
4.999999998749408
 27
-4.999999998749408
 37
0.0
 40
10.19999999744879
 41
1.0
 42
50.0
 43
0.0
 44
0.0
 50
0.0
 51
0.0
 71
     0
 72
   100
 73
     1
 74
     1
 75
     0
 76
     0
 77
     0
 78
     0
281
     0
 65
     1
110
0.0
120
0.0
130
0.0
111
1.0
121
0.0
131
0.0
112
0.0
122
1.0
132
0.0
 79
     0
146
0.0
 60
     3
 61
     5
292
     1
282
     1
141
0.0
142
0.0
 63
   250
421
  3355443
  0
ENDTAB
  0
TABLE
  2
LTYPE
  5
5
330
0
100
AcDbSymbolTable
 70
     1
  0
LTYPE
  5
5B
330
5
100
AcDbSymbolTableRecord
100
AcDbLinetypeTableRecord
  2
ByBlock
 70
     0
  3

 72
    65
 73
     0
 40
0.0
  0
LTYPE
  5
5C
330
5
100
AcDbSymbolTableRecord
100
AcDbLinetypeTableRecord
  2
ByLayer
 70
     0
  3

 72
    65
 73
     0
 40
0.0
  0
LTYPE
  5
5D
330
5
100
AcDbSymbolTableRecord
100
AcDbLinetypeTableRecord
  2
Continuous
 70
     0
  3
Solid line
 72
    65
 73
     0
 40
0.0
  0
ENDTAB
  0
TABLE
  2
LAYER
  5
2
330
0
100
AcDbSymbolTable
 70
     2
  0
LAYER
  5
54
330
2
100
AcDbSymbolTableRecord
100
AcDbLayerTableRecord
  2
0
 70
     0
 62
     7
  6
Continuous
370
    -3
390
F
347
21
348
0
  0
LAYER
  5
78
330
2
100
AcDbSymbolTableRecord
100
AcDbLayerTableRecord
  2
Camada 1
 70
     0
 62
     7
  6
Continuous
370
     0
390
F
347
21
348
0
  0
ENDTAB
  0
TABLE
  2
STYLE
  5
3
330
0
100
AcDbSymbolTable
 70
     2
  0
STYLE
  5
55
330
3
100
AcDbSymbolTableRecord
100
AcDbTextStyleTableRecord
  2
Standard
 70
     0
 40
0.0
 41
1.0
 50
0.0
 71
     0
 42
0.2
  3
txt
  4

  0
STYLE
  5
5A
330
3
100
AcDbSymbolTableRecord
100
AcDbTextStyleTableRecord
  2
Annotative
 70
     0
 40
0.0
 41
1.0
 50
0.0
 71
     0
 42
0.2
  3
txt
  4

1001
AcadAnnotative
1000
AnnotativeData
1002
{
1070
     1
1070
     1
1002
}
  0
ENDTAB
  0
TABLE
  2
VIEW
  5
6
330
0
100
AcDbSymbolTable
 70
     0
  0
ENDTAB
  0
TABLE
  2
UCS
  5
7
330
0
100
AcDbSymbolTable
 70
     0
  0
ENDTAB
  0
TABLE
  2
APPID
  5
9
330
0
100
AcDbSymbolTable
 70
     2
  0
APPID
  5
56
330
9
100
AcDbSymbolTableRecord
100
AcDbRegAppTableRecord
  2
ACAD
 70
     0
  0
APPID
  5
5E
330
9
100
AcDbSymbolTableRecord
100
AcDbRegAppTableRecord
  2
AcadAnnotative
 70
     0
  0
ENDTAB
  0
TABLE
  2
DIMSTYLE
  5
A
330
0
100
AcDbSymbolTable
 70
     2
100
AcDbDimStyleTable
 71
     0
  0
DIMSTYLE
105
58
330
A
100
AcDbSymbolTableRecord
100
AcDbDimStyleTableRecord
  2
Standard
 70
     0
340
55
  0
DIMSTYLE
105
59
330
A
100
AcDbSymbolTableRecord
100
AcDbDimStyleTableRecord
  2
Annotative
 70
     0
340
55
1001
AcadAnnotative
1000
AnnotativeData
1002
{
1070
     1
1070
     1
1002
}
  0
ENDTAB
  0
TABLE
  2
BLOCK_RECORD
  5
1
330
0
100
AcDbSymbolTable
 70
     3
  0
BLOCK_RECORD
  5
70
330
1
100
AcDbSymbolTableRecord
100
AcDbBlockTableRecord
  2
*Model_Space
340
73
 70
     0
280
     1
281
     0
  0
BLOCK_RECORD
  5
6C
330
1
100
AcDbSymbolTableRecord
100
AcDbBlockTableRecord
  2
*Paper_Space
340
6F
 70
     0
280
     1
281
     0
  0
BLOCK_RECORD
  5
74
330
1
100
AcDbSymbolTableRecord
100
AcDbBlockTableRecord
  2
*Paper_Space0
340
77
 70
     0
280
     1
281
     0
  0
BLOCK_RECORD
  5
79
330
1
100
AcDbSymbolTableRecord
100
AcDbBlockTableRecord
  2
Block_0
340
0
102
{BLKREFS
331
7A
102
}
 70
     0
280
     1
281
     0
  0
BLOCK_RECORD
  5
A3
330
1
100
AcDbSymbolTableRecord
100
AcDbBlockTableRecord
  2
Block_1
340
0
102
{BLKREFS
331
A4
102
}
 70
     0
280
     1
281
     0
  0
ENDTAB
  0
ENDSEC
  0
SECTION
  2
BLOCKS
  0
BLOCK
  5
71
330
70
100
AcDbEntity
  8
0
100
AcDbBlockBegin
  2
*Model_Space
 70
     0
 10
0.0
 20
0.0
 30
0.0
  3
*Model_Space
  1

  0
ENDBLK
  5
72
330
70
100
AcDbEntity
  8
0
100
AcDbBlockEnd
  0
BLOCK
  5
6D
330
6C
100
AcDbEntity
 67
     1
  8
0
100
AcDbBlockBegin
  2
*Paper_Space
 70
     0
 10
0.0
 20
0.0
 30
0.0
  3
*Paper_Space
  1

  0
ENDBLK
  5
6E
330
6C
100
AcDbEntity
 67
     1
  8
0
100
AcDbBlockEnd
  0
BLOCK
  5
75
330
74
100
AcDbEntity
 67
     1
  8
0
100
AcDbBlockBegin
  2
*Paper_Space0
 70
     0
 10
0.0
 20
0.0
 30
0.0
  3
*Paper_Space0
  1

  0
ENDBLK
  5
76
330
74
100
AcDbEntity
 67
     1
  8
0
100
AcDbBlockEnd
  0
BLOCK
  5
7B
330
79
100
AcDbEntity
  8
0
100
AcDbBlockBegin
  2
Block_0
 70
     0
 10
0.0
 20
0.0
 30
0.0
  3
Block_0
  1

  0
LWPOLYLINE
  5
7D
330
79
100
AcDbEntity
  8
Camada 1
 62
   250
420
  1907995
370
    15
100
AcDbPolyline
 90
        4
 70
     1
 43
0.0
 10
6.771535206126642
 20
-3.508060795150769
 10
6.849467625598333
 20
-3.508060795150769
 10
6.849467625598333
 20
-3.738998571390305
 10
6.771535206126642
 20
-3.738998571390305
  0
SPLINE
  5
7E
330
79
100
AcDbEntity
  8
Camada 1
 62
   250
420
  1907995
370
    15
100
AcDbSpline
210
0.0
220
0.0
230
1.0
 70
     9
 71
     3
 72
    32
 73
    28
 74
     0
 42
0.0000000001
 43
0.0000000001
 40
0.0
 40
0.0
 40
0.0
 40
0.0
 40
1.0
 40
1.0
 40
1.0
 40
2.0
 40
2.0
 40
2.0
 40
3.0
 40
3.0
 40
3.0
 40
4.0
 40
4.0
 40
4.0
 40
5.0
 40
5.0
 40
5.0
 40
6.0
 40
6.0
 40
6.0
 40
7.0
 40
7.0
 40
7.0
 40
8.0
 40
8.0
 40
8.0
 40
9.0
 40
9.0
 40
9.0
 40
9.0
 10
6.747921417832937
 20
-3.774419253831119
 30
0.0
 10
6.75641915317111
 20
-3.774419253831119
 30
0.0
 10
6.763982944733816
 20
-3.769697649189231
 30
0.0
 10
6.76822604731777
 20
-3.762612359684138
 30
0.0
 10
6.76822604731777
 20
-3.762612359684138
 30
0.0
 10
6.852765254237391
 20
-3.762612359684138
 30
0.0
 10
6.852765254237391
 20
-3.762612359684138
 30
0.0
 10
6.854656202127891
 20
-3.766394255465554
 30
0.0
 10
6.857492623963993
 20
-3.769224912216301
 30
0.0
 10
6.861274519745314
 20
-3.771588597079955
 30
0.0
 10
6.861274519745314
 20
-3.771588597079955
 30
0.0
 10
6.861274519745314
 20
-3.940188508860655
 30
0.0
 10
6.861274519745314
 20
-3.940188508860655
 30
0.0
 10
6.861274519745314
 20
-3.940188508860655
 30
0.0
 10
6.257231970361045
 20
-3.940188508860655
 30
0.0
 10
6.257231970361045
 20
-3.940188508860655
 30
0.0
 10
6.257231970361045
 20
-3.940188508860655
 30
0.0
 10
6.257231970361045
 20
-3.762612359684138
 30
0.0
 10
6.257231970361045
 20
-3.762612359684138
 30
0.0
 10
6.257231970361045
 20
-3.762612359684138
 30
0.0
 10
6.596795478786035
 20
-3.762612359684138
 30
0.0
 10
6.596795478786035
 20
-3.762612359684138
 30
0.0
 10
6.60057737456742
 20
-3.769697649189231
 30
0.0
 10
6.608129635960247
 20
-3.774419253831119
 30
0.0
 10
6.617100108271189
 20
-3.774419253831119
 30
0.0
 10
6.617100108271189
 20
-3.774419253831119
 30
0.0
 10
6.747921417832937
 20
-3.774419253831119
 30
0.0
 10
6.747921417832937
 20
-3.774419253831119
 30
0.0
  0
LWPOLYLINE
  5
7F
330
79
100
AcDbEntity
  8
Camada 1
 62
   250
420
  1907995
370
    15
100
AcDbPolyline
 90
        4
 70
     1
 43
0.0
 10
6.257231970361045
 20
-3.738998571390305
 10
6.257231970361045
 20
-3.641240024490719
 10
6.593486319977484
 20
-3.641240024490719
 10
6.593486319977484
 20
-3.738998571390305
  0
SPLINE
  5
80
330
79
100
AcDbEntity
  8
Camada 1
 62
   250
420
  1907995
370
    15
100
AcDbSpline
210
0.0
220
0.0
230
1.0
 70
     9
 71
     3
 72
    38
 73
    34
 74
     0
 42
0.0000000001
 43
0.0000000001
 40
0.0
 40
0.0
 40
0.0
 40
0.0
 40
1.0
 40
1.0
 40
1.0
 40
2.0
 40
2.0
 40
2.0
 40
3.0
 40
3.0
 40
3.0
 40
4.0
 40
4.0
 40
4.0
 40
5.0
 40
5.0
 40
5.0
 40
6.0
 40
6.0
 40
6.0
 40
7.0
 40
7.0
 40
7.0
 40
8.0
 40
8.0
 40
8.0
 40
9.0
 40
9.0
 40
9.0
 40
10.0
 40
10.0
 40
10.0
 40
11.0
 40
11.0
 40
11.0
 40
11.0
 10
6.049423715272824
 20
-3.554342897793153
 30
0.0
 10
6.049423715272824
 20
-3.554342897793153
 30
0.0
 10
6.049423715272824
 20
-3.489162846413853
 30
0.0
 10
6.049423715272824
 20
-3.489162846413853
 30
0.0
 10
6.049423715272824
 20
-3.489162846413853
 30
0.0
 10
6.724307629539297
 20
-3.489162846413853
 30
0.0
 10
6.724307629539297
 20
-3.489162846413853
 30
0.0
 10
6.724307629539297
 20
-3.489162846413853
 30
0.0
 10
6.724307629539297
 20
-3.727191677243324
 30
0.0
 10
6.724307629539297
 20
-3.727191677243324
 30
0.0
 10
6.724307629539297
 20
-3.727191677243324
 30
0.0
 10
6.640713896565214
 20
-3.727191677243324
 30
0.0
 10
6.640713896565214
 20
-3.727191677243324
 30
0.0
 10
6.640713896565214
 20
-3.727191677243324
 30
0.0
 10
6.640713896565214
 20
-3.617626236196822
 30
0.0
 10
6.640713896565214
 20
-3.617626236196822
 30
0.0
 10
6.640713896565214
 20
-3.604401131132111
 30
0.0
 10
6.630325213336285
 20
-3.594012447902925
 30
0.0
 10
6.617100108271189
 20
-3.594012447902925
 30
0.0
 10
6.617100108271189
 20
-3.594012447902925
 30
0.0
 10
6.269038864508026
 20
-3.594012447902925
 30
0.0
 10
6.269038864508026
 20
-3.594012447902925
 30
0.0
 10
6.269038864508026
 20
-3.594012447902925
 30
0.0
 10
6.269038864508026
 20
-3.576538475169223
 30
0.0
 10
6.269038864508026
 20
-3.576538475169223
 30
0.0
 10
6.269038864508026
 20
-3.563313370103999
 30
0.0
 10
6.258638651108897
 20
-3.552924686875358
 30
0.0
 10
6.245425076214001
 20
-3.552924686875358
 30
0.0
 10
6.245425076214001
 20
-3.552924686875358
 30
0.0
 10
6.056514769863079
 20
-3.552924686875358
 30
0.0
 10
6.056514769863079
 20
-3.552924686875358
 30
0.0
 10
6.05415108499981
 20
-3.552924686875358
 30
0.0
 10
6.051787400136157
 20
-3.553397423847807
 30
0.0
 10
6.049423715272824
 20
-3.554342897793153
 30
0.0
  0
SPLINE
  5
81
330
79
100
AcDbEntity
  8
Camada 1
 62
   250
420
  1907995
370
    15
100
AcDbSpline
210
0.0
220
0.0
230
1.0
 70
     9
 71
     3
 72
    23
 73
    19
 74
     0
 42
0.0000000001
 43
0.0000000001
 40
0.0
 40
0.0
 40
0.0
 40
0.0
 40
1.0
 40
1.0
 40
1.0
 40
2.0
 40
2.0
 40
2.0
 40
3.0
 40
3.0
 40
3.0
 40
4.0
 40
4.0
 40
4.0
 40
5.0
 40
5.0
 40
5.0
 40
6.0
 40
6.0
 40
6.0
 40
6.0
 10
6.23361818206702
 20
-3.638409367740005
 30
0.0
 10
6.23361818206702
 20
-3.638409367740005
 30
0.0
 10
6.23361818206702
 20
-3.934521430273421
 30
0.0
 10
6.23361818206702
 20
-3.934521430273421
 30
0.0
 10
6.23361818206702
 20
-3.934521430273421
 30
0.0
 10
6.080128558156784
 20
-3.934521430273421
 30
0.0
 10
6.080128558156784
 20
-3.934521430273421
 30
0.0
 10
6.080128558156784
 20
-3.934521430273421
 30
0.0
 10
6.080128558156784
 20
-3.600152263463089
 30
0.0
 10
6.080128558156784
 20
-3.600152263463089
 30
0.0
 10
6.080128558156784
 20
-3.600152263463089
 30
0.0
 10
6.221811287919975
 20
-3.600152263463089
 30
0.0
 10
6.221811287919975
 20
-3.600152263463089
 30
0.0
 10
6.221811287919975
 20
-3.600152263463089
 30
0.0
 10
6.221811287919975
 20
-3.617626236196822
 30
0.0
 10
6.221811287919975
 20
-3.617626236196822
 30
0.0
 10
6.221811287919975
 20
-3.626602473593024
 30
0.0
 10
6.226527127477084
 20
-3.634154734985594
 30
0.0
 10
6.23361818206702
 20
-3.638409367740005
 30
0.0
  0
SPLINE
  5
82
330
79
100
AcDbEntity
  8
Camada 1
 62
   250
420
  1907995
370
    15
100
AcDbSpline
210
0.0
220
0.0
230
1.0
 70
     9
 71
     3
 72
    23
 73
    19
 74
     0
 42
0.0000000001
 43
0.0000000001
 40
0.0
 40
0.0
 40
0.0
 40
0.0
 40
1.0
 40
1.0
 40
1.0
 40
2.0
 40
2.0
 40
2.0
 40
3.0
 40
3.0
 40
3.0
 40
4.0
 40
4.0
 40
4.0
 40
5.0
 40
5.0
 40
5.0
 40
6.0
 40
6.0
 40
6.0
 40
6.0
 10
6.23361818206702
 20
-6.153277821037457
 30
0.0
 10
6.226527127477084
 20
-6.15752092362154
 30
0.0
 10
6.221811287919975
 20
-6.165084715184438
 30
0.0
 10
6.221811287919975
 20
-6.173582450522483
 30
0.0
 10
6.221811287919975
 20
-6.173582450522483
 30
0.0
 10
6.221811287919975
 20
-6.324708389569321
 30
0.0
 10
6.221811287919975
 20
-6.324708389569321
 30
0.0
 10
6.221811287919975
 20
-6.324708389569321
 30
0.0
 10
6.080128558156784
 20
-6.324708389569321
 30
0.0
 10
6.080128558156784
 20
-6.324708389569321
 30
0.0
 10
6.080128558156784
 20
-6.324708389569321
 30
0.0
 10
6.080128558156784
 20
-5.990339222758763
 30
0.0
 10
6.080128558156784
 20
-5.990339222758763
 30
0.0
 10
6.080128558156784
 20
-5.990339222758763
 30
0.0
 10
6.23361818206702
 20
-5.990339222758763
 30
0.0
 10
6.23361818206702
 20
-5.990339222758763
 30
0.0
 10
6.23361818206702
 20
-5.990339222758763
 30
0.0
 10
6.23361818206702
 20
-6.153277821037457
 30
0.0
 10
6.23361818206702
 20
-6.153277821037457
 30
0.0
  0
LWPOLYLINE
  5
83
330
79
100
AcDbEntity
  8
Camada 1
 62
   250
420
  1907995
370
    15
100
AcDbPolyline
 90
        4
 70
     1
 43
0.0
 10
6.849467625598333
 20
-6.416799857881383
 10
6.771535206126642
 20
-6.416799857881383
 10
6.771535206126642
 20
-6.185389344669334
 10
6.849467625598333
 20
-6.185389344669334
  0
SPLINE
  5
84
330
79
100
AcDbEntity
  8
Camada 1
 62
   250
420
  1907995
370
    15
100
AcDbSpline
210
0.0
220
0.0
230
1.0
 70
    11
 71
     3
 72
    23
 73
    19
 74
     0
 42
0.0000000001
 43
0.0000000001
 40
0.0
 40
0.0
 40
0.0
 40
0.0
 40
1.0
 40
1.0
 40
1.0
 40
2.0
 40
2.0
 40
2.0
 40
3.0
 40
3.0
 40
3.0
 40
4.0
 40
4.0
 40
4.0
 40
5.0
 40
5.0
 40
5.0
 40
6.0
 40
6.0
 40
6.0
 40
6.0
 10
6.861274519745314
 20
-6.161775556375501
 30
0.0
 10
6.861274519745314
 20
-6.161775556375501
 30
0.0
 10
6.76822604731777
 20
-6.161775556375501
 30
0.0
 10
6.76822604731777
 20
-6.161775556375501
 30
0.0
 10
6.763982944733816
 20
-6.154690266870569
 30
0.0
 10
6.75641915317111
 20
-6.14996866222865
 30
0.0
 10
6.747921417832937
 20
-6.14996866222865
 30
0.0
 10
6.747921417832937
 20
-6.14996866222865
 30
0.0
 10
6.257231970361045
 20
-6.14996866222865
 30
0.0
 10
6.257231970361045
 20
-6.14996866222865
 30
0.0
 10
6.257231970361045
 20
-6.14996866222865
 30
0.0
 10
6.257231970361045
 20
-5.984199407198985
 30
0.0
 10
6.257231970361045
 20
-5.984199407198985
 30
0.0
 10
6.257231970361045
 20
-5.984199407198985
 30
0.0
 10
6.861274519745314
 20
-5.984199407198985
 30
0.0
 10
6.861274519745314
 20
-5.984199407198985
 30
0.0
 10
6.861274519745314
 20
-5.984199407198985
 30
0.0
 10
6.861274519745314
 20
-6.161775556375501
 30
0.0
 10
6.861274519745314
 20
-6.161775556375501
 30
0.0
  0
LWPOLYLINE
  5
85
330
79
100
AcDbEntity
  8
Camada 1
 62
   250
420
  1907995
370
    15
100
AcDbPolyline
 90
       14
 70
     0
 43
0.0
 10
6.861274519745314
 20
-5.604487846606194
 10
6.861274519745314
 20
-5.972392513052004
 10
6.257231970361045
 20
-5.972392513052004
 10
6.257231970361045
 20
-5.96672543446493
 10
6.080128558156784
 20
-5.96672543446493
 10
6.080128558156784
 20
-5.618185688643867
 10
6.080128558156784
 20
-5.567176216274688
 10
6.080128558156784
 20
-5.567176216274688
 10
6.080128558156784
 20
-3.958135218567254
 10
6.257231970361045
 20
-3.958135218567254
 10
6.257231970361045
 20
-3.951995403007603
 10
6.861274519745314
 20
-3.951995403007603
 10
6.861274519745314
 20
-5.580874058312361
 10
6.861274519745314
 20
-5.604487846606194
  0
LWPOLYLINE
  5
86
330
79
100
AcDbEntity
  8
Camada 1
 62
   250
420
  1907995
370
    15
100
AcDbPolyline
 90
        4
 70
     1
 43
0.0
 10
7.08984861112126
 20
-6.14996866222865
 10
6.884888308039403
 20
-6.14996866222865
 10
6.884888308039403
 20
-5.984199407198985
 10
7.08984861112126
 20
-5.984199407198985
  0
LWPOLYLINE
  5
87
330
79
100
AcDbEntity
  8
Camada 1
 62
   250
420
  1907995
370
    15
100
AcDbPolyline
 90
        7
 70
     0
 43
0.0
 10
6.884888308039403
 20
-5.604487846606194
 10
6.884888308039403
 20
-5.580874058312361
 10
6.884888308039403
 20
-3.951995403007603
 10
7.08984861112126
 20
-3.951995403007603
 10
7.08984861112126
 20
-5.972392513052004
 10
6.884888308039403
 20
-5.972392513052004
 10
6.884888308039403
 20
-5.604487846606194
  0
LWPOLYLINE
  5
88
330
79
100
AcDbEntity
  8
Camada 1
 62
   250
420
  1907995
370
    15
100
AcDbPolyline
 90
        4
 70
     1
 43
0.0
 10
7.08984861112126
 20
-3.940188508860655
 10
6.884888308039403
 20
-3.940188508860655
 10
6.884888308039403
 20
-3.774419253831119
 10
7.08984861112126
 20
-3.774419253831119
  0
LWPOLYLINE
  5
89
330
79
100
AcDbEntity
  8
Camada 1
 62
   250
420
  1907995
370
    15
100
AcDbPolyline
 90
        4
 70
     1
 43
0.0
 10
7.181006135658048
 20
-6.14996866222865
 10
7.113462399414965
 20
-6.14996866222865
 10
7.113462399414965
 20
-5.984199407198985
 10
7.181006135658048
 20
-5.984199407198985
  0
LWPOLYLINE
  5
8A
330
79
100
AcDbEntity
  8
Camada 1
 62
   250
420
  1907995
370
    15
100
AcDbPolyline
 90
        4
 70
     1
 43
0.0
 10
7.181006135658048
 20
-5.972392513052004
 10
7.113462399414965
 20
-5.972392513052004
 10
7.113462399414965
 20
-3.951995403007603
 10
7.181006135658048
 20
-3.951995403007603
  0
LWPOLYLINE
  5
8B
330
79
100
AcDbEntity
  8
Camada 1
 62
   250
420
  1907995
370
    15
100
AcDbPolyline
 90
        4
 70
     1
 43
0.0
 10
7.181006135658048
 20
-3.940188508860655
 10
7.113462399414965
 20
-3.940188508860655
 10
7.113462399414965
 20
-3.774419253831119
 10
7.181006135658048
 20
-3.774419253831119
  0
LWPOLYLINE
  5
8C
330
79
100
AcDbEntity
  8
Camada 1
 62
   250
420
  1907995
370
    15
100
AcDbPolyline
 90
        4
 70
     1
 43
0.0
 10
7.269315708188854
 20
-6.14996866222865
 10
7.192813029805028
 20
-6.14996866222865
 10
7.192813029805028
 20
-5.984199407198985
 10
7.269315708188854
 20
-5.984199407198985
  0
LWPOLYLINE
  5
8D
330
79
100
AcDbEntity
  8
Camada 1
 62
   250
420
  1907995
370
    15
100
AcDbPolyline
 90
        4
 70
     1
 43
0.0
 10
7.269315708188854
 20
-5.972392513052004
 10
7.192813029805028
 20
-5.972392513052004
 10
7.192813029805028
 20
-3.951995403007603
 10
7.269315708188854
 20
-3.951995403007603
  0
LWPOLYLINE
  5
8E
330
79
100
AcDbEntity
  8
Camada 1
 62
   250
420
  1907995
370
    15
100
AcDbPolyline
 90
        4
 70
     1
 43
0.0
 10
7.269315708188854
 20
-3.940188508860655
 10
7.192813029805028
 20
-3.940188508860655
 10
7.192813029805028
 20
-3.774419253831119
 10
7.269315708188854
 20
-3.774419253831119
  0
LWPOLYLINE
  5
8F
330
79
100
AcDbEntity
  8
Camada 1
 62
   250
420
  1907995
370
    15
100
AcDbPolyline
 90
        4
 70
     1
 43
0.0
 10
7.354327652080603
 20
-6.14996866222865
 10
7.281122602335835
 20
-6.14996866222865
 10
7.281122602335835
 20
-5.984199407198985
 10
7.354327652080603
 20
-5.984199407198985
  0
LWPOLYLINE
  5
90
330
79
100
AcDbEntity
  8
Camada 1
 62
   250
420
  1907995
370
    15
100
AcDbPolyline
 90
        4
 70
     1
 43
0.0
 10
7.354327652080603
 20
-5.972392513052004
 10
7.281122602335835
 20
-5.972392513052004
 10
7.281122602335835
 20
-3.951995403007603
 10
7.354327652080603
 20
-3.951995403007603
  0
LWPOLYLINE
  5
91
330
79
100
AcDbEntity
  8
Camada 1
 62
   250
420
  1907995
370
    15
100
AcDbPolyline
 90
        4
 70
     1
 43
0.0
 10
7.354327652080603
 20
-3.940188508860655
 10
7.281122602335835
 20
-3.940188508860655
 10
7.281122602335835
 20
-3.774419253831119
 10
7.354327652080603
 20
-3.774419253831119
  0
LWPOLYLINE
  5
92
330
79
100
AcDbEntity
  8
Camada 1
 62
   250
420
  1907995
370
    15
100
AcDbPolyline
 90
        4
 70
     1
 43
0.0
 10
7.42705996485318
 20
-6.14996866222865
 10
7.366134546227584
 20
-6.14996866222865
 10
7.366134546227584
 20
-5.984199407198985
 10
7.42705996485318
 20
-5.984199407198985
  0
LWPOLYLINE
  5
93
330
79
100
AcDbEntity
  8
Camada 1
 62
   250
420
  1907995
370
    15
100
AcDbPolyline
 90
        4
 70
     1
 43
0.0
 10
7.42705996485318
 20
-5.972392513052004
 10
7.366134546227584
 20
-5.972392513052004
 10
7.366134546227584
 20
-3.951995403007603
 10
7.42705996485318
 20
-3.951995403007603
  0
LWPOLYLINE
  5
94
330
79
100
AcDbEntity
  8
Camada 1
 62
   250
420
  1907995
370
    15
100
AcDbPolyline
 90
        4
 70
     1
 43
0.0
 10
7.42705996485318
 20
-3.940188508860655
 10
7.366134546227584
 20
-3.940188508860655
 10
7.366134546227584
 20
-3.774419253831119
 10
7.42705996485318
 20
-3.774419253831119
  0
SPLINE
  5
95
330
79
100
AcDbEntity
  8
Camada 1
 62
   250
420
  1907995
370
    15
100
AcDbSpline
210
0.0
220
0.0
230
1.0
 70
    11
 71
     3
 72
    56
 73
    52
 74
     0
 42
0.0000000001
 43
0.0000000001
 40
0.0
 40
0.0
 40
0.0
 40
0.0
 40
1.0
 40
1.0
 40
1.0
 40
2.0
 40
2.0
 40
2.0
 40
3.0
 40
3.0
 40
3.0
 40
4.0
 40
4.0
 40
4.0
 40
5.0
 40
5.0
 40
5.0
 40
6.0
 40
6.0
 40
6.0
 40
7.0
 40
7.0
 40
7.0
 40
8.0
 40
8.0
 40
8.0
 40
9.0
 40
9.0
 40
9.0
 40
10.0
 40
10.0
 40
10.0
 40
11.0
 40
11.0
 40
11.0
 40
12.0
 40
12.0
 40
12.0
 40
13.0
 40
13.0
 40
13.0
 40
14.0
 40
14.0
 40
14.0
 40
15.0
 40
15.0
 40
15.0
 40
16.0
 40
16.0
 40
16.0
 40
17.0
 40
17.0
 40
17.0
 40
17.0
 10
7.494119433953294
 20
-4.352011593085612
 30
0.0
 10
7.494119433953294
 20
-4.352011593085612
 30
0.0
 10
7.493646696980846
 20
-4.704800206575409
 30
0.0
 10
7.493646696980846
 20
-4.704800206575409
 30
0.0
 10
7.486555642390204
 20
-4.708582102356889
 30
0.0
 10
7.481839802833801
 20
-4.71614012883488
 30
0.0
 10
7.481839802833801
 20
-4.725116366230601
 30
0.0
 10
7.481839802833801
 20
-4.725116366230601
 30
0.0
 10
7.481839802833801
 20
-5.229030918767493
 30
0.0
 10
7.481839802833801
 20
-5.229030918767493
 30
0.0
 10
7.481839802833801
 20
-5.235643471300106
 30
0.0
 10
7.484203487697134
 20
-5.241310549887307
 30
0.0
 10
7.488446590281089
 20
-5.246032154528713
 30
0.0
 10
7.48986480119914
 20
-5.247450365447086
 30
0.0
 10
7.491755749089961
 20
-5.248862811279941
 30
0.0
 10
7.493646696980846
 20
-5.248862811279941
 30
0.0
 10
7.493646696980846
 20
-5.248862811279941
 30
0.0
 10
7.493646696980846
 20
-5.918079646958764
 30
0.0
 10
7.493646696980846
 20
-5.918079646958764
 30
0.0
 10
7.486555642390204
 20
-5.921855777655402
 30
0.0
 10
7.481839802833801
 20
-5.929419569218171
 30
0.0
 10
7.481839802833801
 20
-5.938390041529049
 30
0.0
 10
7.481839802833801
 20
-5.938390041529049
 30
0.0
 10
7.483258013751467
 20
-6.545735984637122
 30
0.0
 10
7.483258013751467
 20
-6.545735984637122
 30
0.0
 10
7.483258013751467
 20
-6.545735984637122
 30
0.0
 10
7.450673753146884
 20
-6.545735984637122
 30
0.0
 10
7.450673753146884
 20
-6.545735984637122
 30
0.0
 10
7.450673753146884
 20
-6.545735984637122
 30
0.0
 10
7.450673753146884
 20
-3.771588597079955
 30
0.0
 10
7.450673753146884
 20
-3.771588597079955
 30
0.0
 10
7.457753277566942
 20
-3.767339729410933
 30
0.0
 10
7.462480647293929
 20
-3.759781702933007
 30
0.0
 10
7.462480647293929
 20
-3.750805465537254
 30
0.0
 10
7.462480647293929
 20
-3.750805465537254
 30
0.0
 10
7.462480647293929
 20
-3.379130433479809
 30
0.0
 10
7.462480647293929
 20
-3.379130433479809
 30
0.0
 10
7.462480647293929
 20
-3.379130433479809
 30
0.0
 10
7.483258013751467
 20
-3.379130433479809
 30
0.0
 10
7.483258013751467
 20
-3.379130433479809
 30
0.0
 10
7.483258013751467
 20
-3.379130433479809
 30
0.0
 10
7.482312539806249
 20
-3.987888822421283
 30
0.0
 10
7.482312539806249
 20
-3.987888822421283
 30
0.0
 10
7.482312539806249
 20
-3.994028637980997
 30
0.0
 10
7.484676224669903
 20
-4.000168453540648
 30
0.0
 10
7.489392064226307
 20
-4.004423086295027
 30
0.0
 10
7.490810275144743
 20
-4.00583553212801
 30
0.0
 10
7.492228486062409
 20
-4.00725374304574
 30
0.0
 10
7.494119433953294
 20
-4.008193451906116
 30
0.0
 10
7.494119433953294
 20
-4.008193451906116
 30
0.0
 10
7.494119433953294
 20
-4.352011593085612
 30
0.0
 10
7.494119433953294
 20
-4.352011593085612
 30
0.0
  0
LWPOLYLINE
  5
96
330
79
100
AcDbEntity
  8
Camada 1
 62
   250
420
  1907995
370
    15
100
AcDbPolyline
 90
        4
 70
     1
 43
0.0
 10
7.517733222246935
 20
-4.01150261071518
 10
7.633438478853151
 20
-4.01150261071518
 10
7.633438478853151
 20
-4.34020469893876
 10
7.517733222246935
 20
-4.34020469893876
  0
LWPOLYLINE
  5
97
330
79
100
AcDbEntity
  8
Camada 1
 62
   250
420
  1907995
370
    15
100
AcDbPolyline
 90
        4
 70
     1
 43
0.0
 10
7.517733222246935
 20
-4.363818487232561
 10
7.633438478853151
 20
-4.363818487232561
 10
7.633438478853151
 20
-4.701502577936736
 10
7.517260485274486
 20
-4.701502577936736
  0
SPLINE
  5
98
330
79
100
AcDbEntity
  8
Camada 1
 62
   250
420
  1907995
370
    15
100
AcDbSpline
210
0.0
220
0.0
230
1.0
 70
    11
 71
     3
 72
    68
 73
    64
 74
     0
 42
0.0000000001
 43
0.0000000001
 40
0.0
 40
0.0
 40
0.0
 40
0.0
 40
1.0
 40
1.0
 40
1.0
 40
2.0
 40
2.0
 40
2.0
 40
3.0
 40
3.0
 40
3.0
 40
4.0
 40
4.0
 40
4.0
 40
5.0
 40
5.0
 40
5.0
 40
6.0
 40
6.0
 40
6.0
 40
7.0
 40
7.0
 40
7.0
 40
8.0
 40
8.0
 40
8.0
 40
9.0
 40
9.0
 40
9.0
 40
10.0
 40
10.0
 40
10.0
 40
11.0
 40
11.0
 40
11.0
 40
12.0
 40
12.0
 40
12.0
 40
13.0
 40
13.0
 40
13.0
 40
14.0
 40
14.0
 40
14.0
 40
15.0
 40
15.0
 40
15.0
 40
16.0
 40
16.0
 40
16.0
 40
17.0
 40
17.0
 40
17.0
 40
18.0
 40
18.0
 40
18.0
 40
19.0
 40
19.0
 40
19.0
 40
20.0
 40
20.0
 40
20.0
 40
21.0
 40
21.0
 40
21.0
 40
21.0
 10
7.671695583129939
 20
-5.555842059100284
 30
0.0
 10
7.671695583129939
 20
-5.555842059100284
 30
0.0
 10
7.670750109184722
 20
-5.55820574396381
 30
0.0
 10
7.670750109184722
 20
-5.55820574396381
 30
0.0
 10
7.670750109184722
 20
-5.55820574396381
 30
0.0
 10
7.668859161293837
 20
-5.562460376717771
 30
0.0
 10
7.668859161293837
 20
-5.562460376717771
 30
0.0
 10
7.668859161293837
 20
-5.562460376717771
 30
0.0
 10
7.667913687348619
 20
-5.570485375083367
 30
0.0
 10
7.667913687348619
 20
-5.570485375083367
 30
0.0
 10
7.667913687348619
 20
-5.570485375083367
 30
0.0
 10
7.667440950375786
 20
-5.57237632297406
 30
0.0
 10
7.667440950375786
 20
-5.57237632297406
 30
0.0
 10
7.667440950375786
 20
-5.57237632297406
 30
0.0
 10
7.667440950375786
 20
-5.878882833821825
 30
0.0
 10
7.667440950375786
 20
-5.878882833821825
 30
0.0
 10
7.664143321737113
 20
-5.880773781712646
 30
0.0
 10
7.660834162928561
 20
-5.883604438463232
 30
0.0
 10
7.658943215037677
 20
-5.886907832187421
 30
0.0
 10
7.640990740245658
 20
-5.891162464941383
 30
0.0
 10
7.621631584706107
 20
-5.894465858664931
 30
0.0
 10
7.603217903111838
 20
-5.89729651541603
 30
0.0
 10
7.603217903111838
 20
-5.89729651541603
 30
0.0
 10
7.602745166139389
 20
-5.580874058312361
 30
0.0
 10
7.602745166139389
 20
-5.580874058312361
 30
0.0
 10
7.602745166139389
 20
-5.580874058312361
 30
0.0
 10
7.602745166139389
 20
-5.288538126474973
 30
0.0
 10
7.602745166139389
 20
-5.288538126474973
 30
0.0
 10
7.602745166139389
 20
-5.288538126474973
 30
0.0
 10
7.579131377845364
 20
-5.288538126474973
 30
0.0
 10
7.579131377845364
 20
-5.288538126474973
 30
0.0
 10
7.579131377845364
 20
-5.288538126474973
 30
0.0
 10
7.579131377845364
 20
-5.580874058312361
 30
0.0
 10
7.579131377845364
 20
-5.580874058312361
 30
0.0
 10
7.579131377845364
 20
-5.580874058312361
 30
0.0
 10
7.579604114817812
 20
-5.909103409563011
 30
0.0
 10
7.579604114817812
 20
-5.909103409563011
 30
0.0
 10
7.579604114817812
 20
-5.909103409563011
 30
0.0
 10
7.517260485274486
 20
-5.909103409563011
 30
0.0
 10
7.517260485274486
 20
-5.909103409563011
 30
0.0
 10
7.517260485274486
 20
-5.909103409563011
 30
0.0
 10
7.517260485274486
 20
-5.252644707061326
 30
0.0
 10
7.517260485274486
 20
-5.252644707061326
 30
0.0
 10
7.517260485274486
 20
-5.252644707061326
 30
0.0
 10
7.568269957643601
 20
-5.252644707061326
 30
0.0
 10
7.568269957643601
 20
-5.252644707061326
 30
0.0
 10
7.569203901419005
 20
-5.259724231481512
 30
0.0
 10
7.573458534173159
 20
-5.265869812126551
 30
0.0
 10
7.579131377845364
 20
-5.269173205850226
 30
0.0
 10
7.579131377845364
 20
-5.269173205850226
 30
0.0
 10
7.579131377845364
 20
-5.28806538950214
 30
0.0
 10
7.579131377845364
 20
-5.28806538950214
 30
0.0
 10
7.579131377845364
 20
-5.28806538950214
 30
0.0
 10
7.602745166139389
 20
-5.288538126474973
 30
0.0
 10
7.602745166139389
 20
-5.288538126474973
 30
0.0
 10
7.602745166139389
 20
-5.288538126474973
 30
0.0
 10
7.602745166139389
 20
-5.274367547464595
 30
0.0
 10
7.602745166139389
 20
-5.274367547464595
 30
0.0
 10
7.663659054594465
 20
-5.282871047887899
 30
0.0
 10
7.72505721019251
 20
-5.301763231539813
 30
0.0
 10
7.777957630452445
 20
-5.327267967724466
 30
0.0
 10
7.777957630452445
 20
-5.327267967724466
 30
0.0
 10
7.671695583129939
 20
-5.555842059100284
 30
0.0
 10
7.671695583129939
 20
-5.555842059100284
 30
0.0
  0
SPLINE
  5
99
330
79
100
AcDbEntity
  8
Camada 1
 62
   250
420
  1907995
370
    15
100
AcDbSpline
210
0.0
220
0.0
230
1.0
 70
    11
 71
     3
 72
    71
 73
    67
 74
     0
 42
0.0000000001
 43
0.0000000001
 40
0.0
 40
0.0
 40
0.0
 40
0.0
 40
1.0
 40
1.0
 40
1.0
 40
2.0
 40
2.0
 40
2.0
 40
3.0
 40
3.0
 40
3.0
 40
4.0
 40
4.0
 40
4.0
 40
5.0
 40
5.0
 40
5.0
 40
6.0
 40
6.0
 40
6.0
 40
7.0
 40
7.0
 40
7.0
 40
8.0
 40
8.0
 40
8.0
 40
9.0
 40
9.0
 40
9.0
 40
10.0
 40
10.0
 40
10.0
 40
11.0
 40
11.0
 40
11.0
 40
12.0
 40
12.0
 40
12.0
 40
13.0
 40
13.0
 40
13.0
 40
14.0
 40
14.0
 40
14.0
 40
15.0
 40
15.0
 40
15.0
 40
16.0
 40
16.0
 40
16.0
 40
17.0
 40
17.0
 40
17.0
 40
18.0
 40
18.0
 40
18.0
 40
19.0
 40
19.0
 40
19.0
 40
20.0
 40
20.0
 40
20.0
 40
21.0
 40
21.0
 40
21.0
 40
22.0
 40
22.0
 40
22.0
 40
22.0
 10
8.121775771631652
 20
-6.962280673503967
 30
0.0
 10
8.121775771631652
 20
-6.962280673503967
 30
0.0
 10
8.092489139665742
 20
-6.962280673503967
 30
0.0
 10
8.092489139665742
 20
-6.962280673503967
 30
0.0
 10
8.092489139665742
 20
-6.962280673503967
 30
0.0
 10
8.092489139665742
 20
-5.987035829034959
 30
0.0
 10
8.092489139665742
 20
-5.987035829034959
 30
0.0
 10
8.093907350583794
 20
-5.97191977607917
 30
0.0
 10
8.087773300108954
 20
-5.956330986150805
 30
0.0
 10
8.075493668989141
 20
-5.944057120116379
 30
0.0
 10
8.063214037869647
 20
-5.931777488996437
 30
0.0
 10
8.047625247941281
 20
-5.925637673436786
 30
0.0
 10
8.034872879849018
 20
-5.927528621327478
 30
0.0
 10
8.034872879849018
 20
-5.927528621327478
 30
0.0
 10
7.702861632816535
 20
-5.927528621327478
 30
0.0
 10
7.702861632816535
 20
-5.927528621327478
 30
0.0
 10
7.702861632816535
 20
-5.927528621327478
 30
0.0
 10
7.702861632816535
 20
-5.899187463306851
 30
0.0
 10
7.702861632816535
 20
-5.899187463306851
 30
0.0
 10
7.702861632816535
 20
-5.890216990995972
 30
0.0
 10
7.698145793260132
 20
-5.88265896451795
 30
0.0
 10
7.691054738669875
 20
-5.878882833821825
 30
0.0
 10
7.691054738669875
 20
-5.878882833821825
 30
0.0
 10
7.691054738669875
 20
-5.574740007837585
 30
0.0
 10
7.691054738669875
 20
-5.574740007837585
 30
0.0
 10
7.691054738669875
 20
-5.574740007837585
 30
0.0
 10
7.691527475642645
 20
-5.573794533892175
 30
0.0
 10
7.691527475642645
 20
-5.573794533892175
 30
0.0
 10
7.691527475642645
 20
-5.573794533892175
 30
0.0
 10
7.692945686560375
 20
-5.565763770441319
 30
0.0
 10
7.692945686560375
 20
-5.565763770441319
 30
0.0
 10
7.692945686560375
 20
-5.565763770441319
 30
0.0
 10
7.693418423533144
 20
-5.564818296496037
 30
0.0
 10
7.693418423533144
 20
-5.564818296496037
 30
0.0
 10
7.693418423533144
 20
-5.564818296496037
 30
0.0
 10
7.693891160505978
 20
-5.563405850663182
 30
0.0
 10
7.693891160505978
 20
-5.563405850663182
 30
0.0
 10
7.693891160505978
 20
-5.563405850663182
 30
0.0
 10
7.801098681773701
 20
-5.333402018199242
 30
0.0
 10
7.801098681773701
 20
-5.333402018199242
 30
0.0
 10
7.808650943166528
 20
-5.332456544253831
 30
0.0
 10
7.815269260784015
 20
-5.328207676585002
 30
0.0
 10
7.818578419592566
 20
-5.321122387079813
 30
0.0
 10
7.818578419592566
 20
-5.321122387079813
 30
0.0
 10
7.818578419592566
 20
-5.320649650106851
 30
0.0
 10
7.818578419592566
 20
-5.320649650106851
 30
0.0
 10
7.818578419592566
 20
-5.320649650106851
 30
0.0
 10
7.819039626395136
 20
-5.320649650106851
 30
0.0
 10
7.819039626395136
 20
-5.320649650106851
 30
0.0
 10
7.819039626395136
 20
-5.320649650106851
 30
0.0
 10
7.849744469279483
 20
-5.257839048675695
 30
0.0
 10
7.849744469279483
 20
-5.257839048675695
 30
0.0
 10
7.849744469279483
 20
-5.257839048675695
 30
0.0
 10
7.838883049078041
 20
-5.252644707061326
 30
0.0
 10
7.838883049078041
 20
-5.252644707061326
 30
0.0
 10
7.838883049078041
 20
-5.252644707061326
 30
0.0
 10
7.849744469279483
 20
-5.257366311703374
 30
0.0
 10
7.849744469279483
 20
-5.257366311703374
 30
0.0
 10
7.849744469279483
 20
-5.257366311703374
 30
0.0
 10
7.85493304580904
 20
-5.245559417556393
 30
0.0
 10
7.85493304580904
 20
-5.245559417556393
 30
0.0
 10
7.85493304580904
 20
-5.245559417556393
 30
0.0
 10
8.121775771631652
 20
-5.245559417556393
 30
0.0
 10
8.121775771631652
 20
-5.245559417556393
 30
0.0
 10
8.121775771631652
 20
-5.245559417556393
 30
0.0
 10
8.121775771631652
 20
-6.962280673503967
 30
0.0
 10
8.121775771631652
 20
-6.962280673503967
 30
0.0
  0
SPLINE
  5
9A
330
79
100
AcDbEntity
  8
Camada 1
 62
   250
420
  1907995
370
    15
100
AcDbSpline
210
0.0
220
0.0
230
1.0
 70
     9
 71
     3
 72
    17
 73
    13
 74
     0
 42
0.0000000001
 43
0.0000000001
 40
0.0
 40
0.0
 40
0.0
 40
0.0
 40
1.0
 40
1.0
 40
1.0
 40
2.0
 40
2.0
 40
2.0
 40
3.0
 40
3.0
 40
3.0
 40
4.0
 40
4.0
 40
4.0
 40
4.0
 10
6.394362142653407
 20
-4.551385528770601
 30
0.0
 10
6.273433719007805
 20
-4.551385528770601
 30
0.0
 10
6.175012187329766
 20
-4.452963997092593
 30
0.0
 10
6.175012187329766
 20
-4.332012513106882
 30
0.0
 10
6.175012187329766
 20
-4.211061029121172
 30
0.0
 10
6.273433719007805
 20
-4.112662557783337
 30
0.0
 10
6.394362142653407
 20
-4.112662557783337
 30
0.0
 10
6.515336686979099
 20
-4.112662557783337
 30
0.0
 10
6.613758218657203
 20
-4.211061029121172
 30
0.0
 10
6.613758218657203
 20
-4.332012513106882
 30
0.0
 10
6.613758218657203
 20
-4.452963997092593
 30
0.0
 10
6.515336686979099
 20
-4.551385528770601
 30
0.0
 10
6.394362142653407
 20
-4.551385528770601
 30
0.0
  0
SPLINE
  5
9B
330
79
100
AcDbEntity
  8
Camada 1
 62
   250
420
  1907995
370
    15
100
AcDbSpline
210
0.0
220
0.0
230
1.0
 70
     9
 71
     3
 72
    17
 73
    13
 74
     0
 42
0.0000000001
 43
0.0000000001
 40
0.0
 40
0.0
 40
0.0
 40
0.0
 40
1.0
 40
1.0
 40
1.0
 40
2.0
 40
2.0
 40
2.0
 40
3.0
 40
3.0
 40
3.0
 40
4.0
 40
4.0
 40
4.0
 40
4.0
 10
6.394362142653407
 20
-4.136276346077202
 30
0.0
 10
6.286439750841431
 20
-4.136276346077202
 30
0.0
 10
6.198625975623406
 20
-4.224090121295066
 30
0.0
 10
6.198625975623406
 20
-4.332012513106882
 30
0.0
 10
6.198625975623406
 20
-4.439957965258872
 30
0.0
 10
6.286439750841431
 20
-4.527771740476704
 30
0.0
 10
6.394362142653407
 20
-4.527771740476704
 30
0.0
 10
6.502330655145538
 20
-4.527771740476704
 30
0.0
 10
6.590144430363113
 20
-4.439957965258872
 30
0.0
 10
6.590144430363113
 20
-4.332012513106882
 30
0.0
 10
6.590144430363113
 20
-4.224090121295066
 30
0.0
 10
6.502330655145538
 20
-4.136276346077202
 30
0.0
 10
6.394362142653407
 20
-4.136276346077202
 30
0.0
  0
SPLINE
  5
9C
330
79
100
AcDbEntity
  8
Camada 1
 62
   250
420
  1907995
370
    15
100
AcDbSpline
210
0.0
220
0.0
230
1.0
 70
    11
 71
     3
 72
    17
 73
    13
 74
     0
 42
0.0000000001
 43
0.0000000001
 40
0.0
 40
0.0
 40
0.0
 40
0.0
 40
1.0
 40
1.0
 40
1.0
 40
2.0
 40
2.0
 40
2.0
 40
3.0
 40
3.0
 40
3.0
 40
4.0
 40
4.0
 40
4.0
 40
4.0
 10
6.394362142653407
 20
-4.516771958234381
 30
0.0
 10
6.292481559955769
 20
-4.516771958234381
 30
0.0
 10
6.209602697526004
 20
-4.433893095804488
 30
0.0
 10
6.209602697526004
 20
-4.332012513106882
 30
0.0
 10
6.209602697526004
 20
-4.230154990749482
 30
0.0
 10
6.292481559955769
 20
-4.147276128319556
 30
0.0
 10
6.394362142653407
 20
-4.147276128319556
 30
0.0
 10
6.49624272535111
 20
-4.147276128319556
 30
0.0
 10
6.57912158778081
 20
-4.230154990749482
 30
0.0
 10
6.57912158778081
 20
-4.332012513106882
 30
0.0
 10
6.57912158778081
 20
-4.433893095804488
 30
0.0
 10
6.49624272535111
 20
-4.516771958234381
 30
0.0
 10
6.394362142653407
 20
-4.516771958234381
 30
0.0
  0
SPLINE
  5
9D
330
79
100
AcDbEntity
  8
Camada 1
 62
   250
420
  1907995
370
    15
100
AcDbSpline
210
0.0
220
0.0
230
1.0
 70
    11
 71
     3
 72
    17
 73
    13
 74
     0
 42
0.0000000001
 43
0.0000000001
 40
0.0
 40
0.0
 40
0.0
 40
0.0
 40
1.0
 40
1.0
 40
1.0
 40
2.0
 40
2.0
 40
2.0
 40
3.0
 40
3.0
 40
3.0
 40
4.0
 40
4.0
 40
4.0
 40
4.0
 10
6.394362142653407
 20
-4.170889916613454
 30
0.0
 10
6.305487591789394
 20
-4.170889916613454
 30
0.0
 10
6.233216485819709
 20
-4.243161022583171
 30
0.0
 10
6.233216485819709
 20
-4.332012513106882
 30
0.0
 10
6.233216485819709
 20
-4.420864003630658
 30
0.0
 10
6.305487591789394
 20
-4.493158169940516
 30
0.0
 10
6.394362142653407
 20
-4.493158169940516
 30
0.0
 10
6.483236693517164
 20
-4.493158169940516
 30
0.0
 10
6.555507799486785
 20
-4.420864003630658
 30
0.0
 10
6.555507799486785
 20
-4.332012513106882
 30
0.0
 10
6.555507799486785
 20
-4.243161022583171
 30
0.0
 10
6.483236693517164
 20
-4.170889916613454
 30
0.0
 10
6.394362142653407
 20
-4.170889916613454
 30
0.0
  0
SPLINE
  5
9E
330
79
100
AcDbEntity
  8
Camada 1
 62
   250
420
  1907995
370
    15
100
AcDbSpline
210
0.0
220
0.0
230
1.0
 70
     9
 71
     3
 72
    29
 73
    25
 74
     0
 42
0.0000000001
 43
0.0000000001
 40
0.0
 40
0.0
 40
0.0
 40
0.0
 40
1.0
 40
1.0
 40
1.0
 40
2.0
 40
2.0
 40
2.0
 40
3.0
 40
3.0
 40
3.0
 40
4.0
 40
4.0
 40
4.0
 40
5.0
 40
5.0
 40
5.0
 40
6.0
 40
6.0
 40
6.0
 40
7.0
 40
7.0
 40
7.0
 40
8.0
 40
8.0
 40
8.0
 40
8.0
 10
6.394187330397248
 20
-5.373077333394274
 30
0.0
 10
6.275172914982545
 20
-5.373077333394274
 30
0.0
 10
6.177881339970982
 20
-5.468477960515144
 30
0.0
 10
6.175056448305399
 20
-5.587019638957015
 30
0.0
 10
6.175056448305399
 20
-5.587019638957015
 30
0.0
 10
6.175056448305399
 20
-5.592680952459342
 30
0.0
 10
6.175056448305399
 20
-5.592680952459342
 30
0.0
 10
6.175056448305399
 20
-5.594571900350034
 30
0.0
 10
6.175056448305399
 20
-5.596935585213303
 30
0.0
 10
6.175529185277848
 20
-5.598826533103995
 30
0.0
 10
6.178826813916585
 20
-5.716895474573289
 30
0.0
 10
6.2756456519557
 20
-5.811817599636323
 30
0.0
 10
6.394187330397248
 20
-5.811817599636323
 30
0.0
 10
6.513201745812017
 20
-5.811817599636323
 30
0.0
 10
6.610459125665044
 20
-5.712642163996049
 30
0.0
 10
6.613768284473596
 20
-5.594573222526756
 30
0.0
 10
6.614229491276614
 20
-5.592682274636064
 30
0.0
 10
6.613768284473596
 20
-5.596464170417448
 30
0.0
 10
6.613768284473596
 20
-5.594573222526756
 30
0.0
 10
6.613768284473596
 20
-5.594573222526756
 30
0.0
 10
6.613790949462317
 20
-5.587019638957015
 30
0.0
 10
6.613790949462317
 20
-5.587019638957015
 30
0.0
 10
6.610966057796349
 20
-5.468477960515144
 30
0.0
 10
6.513674482784786
 20
-5.373077333394274
 30
0.0
 10
6.394187330397248
 20
-5.373077333394274
 30
0.0
  0
SPLINE
  5
9F
330
79
100
AcDbEntity
  8
Camada 1
 62
   250
420
  1907995
370
    15
100
AcDbSpline
210
0.0
220
0.0
230
1.0
 70
     9
 71
     3
 72
    23
 73
    19
 74
     0
 42
0.0000000001
 43
0.0000000001
 40
0.0
 40
0.0
 40
0.0
 40
0.0
 40
1.0
 40
1.0
 40
1.0
 40
2.0
 40
2.0
 40
2.0
 40
3.0
 40
3.0
 40
3.0
 40
4.0
 40
4.0
 40
4.0
 40
5.0
 40
5.0
 40
5.0
 40
6.0
 40
6.0
 40
6.0
 40
6.0
 10
6.394187330397248
 20
-5.396691121688235
 30
0.0
 10
6.500449377719754
 20
-5.396691121688235
 30
0.0
 10
6.587352269502709
 20
-5.481224563522147
 30
0.0
 10
6.589715954365978
 20
-5.587019638957015
 30
0.0
 10
6.589715954365978
 20
-5.587019638957015
 30
0.0
 10
6.578854534164214
 20
-5.587019638957015
 30
0.0
 10
6.578854534164214
 20
-5.587019638957015
 30
0.0
 10
6.576490849300945
 20
-5.487364379082311
 30
0.0
 10
6.494315327244915
 20
-5.407552541889805
 30
0.0
 10
6.394187330397248
 20
-5.407552541889805
 30
0.0
 10
6.294543600692615
 20
-5.407552541889805
 30
0.0
 10
6.212356548466385
 20
-5.487364379082311
 30
0.0
 10
6.21000439377293
 20
-5.587019638957015
 30
0.0
 10
6.21000439377293
 20
-5.587019638957015
 30
0.0
 10
6.199142973571552
 20
-5.587019638957015
 30
0.0
 10
6.199142973571552
 20
-5.587019638957015
 30
0.0
 10
6.201495128265007
 20
-5.481224563522147
 30
0.0
 10
6.288398020047962
 20
-5.396691121688235
 30
0.0
 10
6.394187330397248
 20
-5.396691121688235
 30
0.0
  0
SPLINE
  5
A0
330
79
100
AcDbEntity
  8
Camada 1
 62
   250
420
  1907995
370
    15
100
AcDbSpline
210
0.0
220
0.0
230
1.0
 70
     8
 71
     3
 72
    11
 73
     7
 74
     0
 42
0.0000000001
 43
0.0000000001
 40
0.0
 40
0.0
 40
0.0
 40
0.0
 40
1.0
 40
1.0
 40
1.0
 40
2.0
 40
2.0
 40
2.0
 40
2.0
 10
6.23361818206702
 20
-5.587019638957015
 30
0.0
 10
6.235970336760475
 20
-5.500589484147022
 30
0.0
 10
6.307295968784878
 20
-5.431166330183638
 30
0.0
 10
6.394187330397248
 20
-5.431166330183638
 30
0.0
 10
6.481562959152651
 20
-5.431166330183638
 30
0.0
 10
6.552877061007241
 20
-5.500589484147022
 30
0.0
 10
6.55524074587051
 20
-5.587019638957015
 30
0.0
  0
SPLINE
  5
A1
330
79
100
AcDbEntity
  8
Camada 1
 62
   250
420
  1907995
370
    15
100
AcDbSpline
210
0.0
220
0.0
230
1.0
 70
     8
 71
     3
 72
    11
 73
     7
 74
     0
 42
0.0000000001
 43
0.0000000001
 40
0.0
 40
0.0
 40
0.0
 40
0.0
 40
1.0
 40
1.0
 40
1.0
 40
2.0
 40
2.0
 40
2.0
 40
2.0
 10
6.55524074587051
 20
-5.598826533103995
 30
0.0
 10
6.551931587061959
 20
-5.684772420771277
 30
0.0
 10
6.481090222180204
 20
-5.753255865874637
 30
0.0
 10
6.394187330397248
 20
-5.753255865874637
 30
0.0
 10
6.307757175587513
 20
-5.753255865874637
 30
0.0
 10
6.236915810705693
 20
-5.684772420771277
 30
0.0
 10
6.23361818206702
 20
-5.598826533103995
 30
0.0
  0
SPLINE
  5
A2
330
79
100
AcDbEntity
  8
Camada 1
 62
   250
420
  1907995
370
    15
100
AcDbSpline
210
0.0
220
0.0
230
1.0
 70
     9
 71
     3
 72
    23
 73
    19
 74
     0
 42
0.0000000001
 43
0.0000000001
 40
0.0
 40
0.0
 40
0.0
 40
0.0
 40
1.0
 40
1.0
 40
1.0
 40
2.0
 40
2.0
 40
2.0
 40
3.0
 40
3.0
 40
3.0
 40
4.0
 40
4.0
 40
4.0
 40
5.0
 40
5.0
 40
5.0
 40
6.0
 40
6.0
 40
6.0
 40
6.0
 10
6.394187330397248
 20
-5.788203811342361
 30
0.0
 10
6.28887075702041
 20
-5.788203811342361
 30
0.0
 10
6.202440602210225
 20
-5.704143106481026
 30
0.0
 10
6.199142973571552
 20
-5.598826533103995
 30
0.0
 10
6.199142973571552
 20
-5.598826533103995
 30
0.0
 10
6.21000439377293
 20
-5.598826533103995
 30
0.0
 10
6.21000439377293
 20
-5.598826533103995
 30
0.0
 10
6.213302022412052
 20
-5.697997525836372
 30
0.0
 10
6.295004807495186
 20
-5.77686965416847
 30
0.0
 10
6.394187330397248
 20
-5.77686965416847
 30
0.0
 10
6.493842590272466
 20
-5.77686965416847
 30
0.0
 10
6.575545375355663
 20
-5.697997525836372
 30
0.0
 10
6.578854534164214
 20
-5.598826533103995
 30
0.0
 10
6.578854534164214
 20
-5.598826533103995
 30
0.0
 10
6.589715954365978
 20
-5.598826533103995
 30
0.0
 10
6.589715954365978
 20
-5.598826533103995
 30
0.0
 10
6.586406795557105
 20
-5.704143106481026
 30
0.0
 10
6.499976640747306
 20
-5.788203811342361
 30
0.0
 10
6.394187330397248
 20
-5.788203811342361
 30
0.0
  0
ENDBLK
  5
7C
330
79
100
AcDbEntity
  8
0
100
AcDbBlockEnd
  0
BLOCK
  5
A5
330
A3
100
AcDbEntity
  8
0
100
AcDbBlockBegin
  2
Block_1
 70
     0
 10
0.0
 20
0.0
 30
0.0
  3
Block_1
  1

  0
SPLINE
  5
A7
330
A3
100
AcDbEntity
  8
Camada 1
 62
   250
420
  1907995
370
    15
100
AcDbSpline
210
0.0
220
0.0
230
1.0
 70
     9
 71
     3
 72
    17
 73
    13
 74
     0
 42
0.0000000001
 43
0.0000000001
 40
0.0
 40
0.0
 40
0.0
 40
0.0
 40
1.0
 40
1.0
 40
1.0
 40
2.0
 40
2.0
 40
2.0
 40
3.0
 40
3.0
 40
3.0
 40
4.0
 40
4.0
 40
4.0
 40
4.0
 10
3.441903434948374
 20
-4.811509047987977
 30
0.0
 10
3.306677600421809
 20
-4.811509047987977
 30
0.0
 10
3.196633657317983
 20
-4.701465104884118
 30
0.0
 10
3.196633657317983
 20
-4.566216210017349
 30
0.0
 10
3.196633657317983
 20
-4.430967315150547
 30
0.0
 10
3.306677600421809
 20
-4.320923372046721
 30
0.0
 10
3.441903434948374
 20
-4.320923372046721
 30
0.0
 10
3.577175390155093
 20
-4.320923372046721
 30
0.0
 10
3.687219333259239
 20
-4.430967315150547
 30
0.0
 10
3.687219333259239
 20
-4.566216210017349
 30
0.0
 10
3.687219333259239
 20
-4.701465104884118
 30
0.0
 10
3.577175390155093
 20
-4.811509047987977
 30
0.0
 10
3.441903434948374
 20
-4.811509047987977
 30
0.0
  0
SPLINE
  5
A8
330
A3
100
AcDbEntity
  8
Camada 1
 62
   250
420
  1907995
370
    15
100
AcDbSpline
210
0.0
220
0.0
230
1.0
 70
     9
 71
     3
 72
    17
 73
    13
 74
     0
 42
0.0000000001
 43
0.0000000001
 40
0.0
 40
0.0
 40
0.0
 40
0.0
 40
1.0
 40
1.0
 40
1.0
 40
2.0
 40
2.0
 40
2.0
 40
3.0
 40
3.0
 40
3.0
 40
4.0
 40
4.0
 40
4.0
 40
4.0
 10
3.441903434948374
 20
-4.344537160340522
 30
0.0
 10
3.31968363225537
 20
-4.344537160340522
 30
0.0
 10
3.220247445611624
 20
-4.4439733469843
 30
0.0
 10
3.220247445611624
 20
-4.566216210017349
 30
0.0
 10
3.220247445611624
 20
-4.688459073050365
 30
0.0
 10
3.31968363225537
 20
-4.787895259694112
 30
0.0
 10
3.441903434948374
 20
-4.787895259694112
 30
0.0
 10
3.564169358321468
 20
-4.787895259694112
 30
0.0
 10
3.663605544965214
 20
-4.688459073050365
 30
0.0
 10
3.663605544965214
 20
-4.566216210017349
 30
0.0
 10
3.663605544965214
 20
-4.4439733469843
 30
0.0
 10
3.564169358321468
 20
-4.344537160340522
 30
0.0
 10
3.441903434948374
 20
-4.344537160340522
 30
0.0
  0
SPLINE
  5
A9
330
A3
100
AcDbEntity
  8
Camada 1
 62
   250
420
  1907995
370
    15
100
AcDbSpline
210
0.0
220
0.0
230
1.0
 70
    11
 71
     3
 72
    17
 73
    13
 74
     0
 42
0.0000000001
 43
0.0000000001
 40
0.0
 40
0.0
 40
0.0
 40
0.0
 40
1.0
 40
1.0
 40
1.0
 40
2.0
 40
2.0
 40
2.0
 40
3.0
 40
3.0
 40
3.0
 40
4.0
 40
4.0
 40
4.0
 40
4.0
 10
3.441903434948374
 20
-4.767694401739594
 30
0.0
 10
3.330798716198495
 20
-4.767694401739594
 30
0.0
 10
3.240448303566141
 20
-4.677320928767227
 30
0.0
 10
3.240448303566141
 20
-4.566216210017349
 30
0.0
 10
3.240448303566141
 20
-4.45511149126747
 30
0.0
 10
3.330798716198495
 20
-4.364738018295104
 30
0.0
 10
3.441903434948374
 20
-4.364738018295104
 30
0.0
 10
3.553008153698316
 20
-4.364738018295104
 30
0.0
 10
3.643404687010696
 20
-4.45511149126747
 30
0.0
 10
3.643404687010696
 20
-4.566216210017349
 30
0.0
 10
3.643404687010696
 20
-4.677320928767227
 30
0.0
 10
3.553008153698316
 20
-4.767694401739594
 30
0.0
 10
3.441903434948374
 20
-4.767694401739594
 30
0.0
  0
SPLINE
  5
AA
330
A3
100
AcDbEntity
  8
Camada 1
 62
   250
420
  1907995
370
    15
100
AcDbSpline
210
0.0
220
0.0
230
1.0
 70
     9
 71
     3
 72
    17
 73
    13
 74
     0
 42
0.0000000001
 43
0.0000000001
 40
0.0
 40
0.0
 40
0.0
 40
0.0
 40
1.0
 40
1.0
 40
1.0
 40
2.0
 40
2.0
 40
2.0
 40
3.0
 40
3.0
 40
3.0
 40
4.0
 40
4.0
 40
4.0
 40
4.0
 10
3.441903434948374
 20
-4.388351806588969
 30
0.0
 10
3.343850868712531
 20
-4.388351806588969
 30
0.0
 10
3.264062091860167
 20
-4.4681405834413
 30
0.0
 10
3.264062091860167
 20
-4.566216210017349
 30
0.0
 10
3.264062091860167
 20
-4.664291836593332
 30
0.0
 10
3.343850868712531
 20
-4.744080613445697
 30
0.0
 10
3.441903434948374
 20
-4.744080613445697
 30
0.0
 10
3.540002121864403
 20
-4.744080613445697
 30
0.0
 10
3.61979089871667
 20
-4.664291836593332
 30
0.0
 10
3.61979089871667
 20
-4.566216210017349
 30
0.0
 10
3.61979089871667
 20
-4.4681405834413
 30
0.0
 10
3.540002121864403
 20
-4.388351806588969
 30
0.0
 10
3.441903434948374
 20
-4.388351806588969
 30
0.0
  0
SPLINE
  5
AB
330
A3
100
AcDbEntity
  8
Camada 1
 62
   250
420
  1907995
370
    15
100
AcDbSpline
210
0.0
220
0.0
230
1.0
 70
     9
 71
     3
 72
    17
 73
    13
 74
     0
 42
0.0000000001
 43
0.0000000001
 40
0.0
 40
0.0
 40
0.0
 40
0.0
 40
1.0
 40
1.0
 40
1.0
 40
2.0
 40
2.0
 40
2.0
 40
3.0
 40
3.0
 40
3.0
 40
4.0
 40
4.0
 40
4.0
 40
4.0
 10
4.183247249471062
 20
-4.811509047987977
 30
0.0
 10
4.048021414944465
 20
-4.811509047987977
 30
0.0
 10
3.937977471840639
 20
-4.701465104884118
 30
0.0
 10
3.937977471840639
 20
-4.566216210017349
 30
0.0
 10
3.937977471840639
 20
-4.430967315150547
 30
0.0
 10
4.048021414944465
 20
-4.320923372046721
 30
0.0
 10
4.183247249471062
 20
-4.320923372046721
 30
0.0
 10
4.318519204678134
 20
-4.320923372046721
 30
0.0
 10
4.42856314778196
 20
-4.430967315150547
 30
0.0
 10
4.42856314778196
 20
-4.566216210017349
 30
0.0
 10
4.42856314778196
 20
-4.701465104884118
 30
0.0
 10
4.318519204678134
 20
-4.811509047987977
 30
0.0
 10
4.183247249471062
 20
-4.811509047987977
 30
0.0
  0
SPLINE
  5
AC
330
A3
100
AcDbEntity
  8
Camada 1
 62
   250
420
  1907995
370
    15
100
AcDbSpline
210
0.0
220
0.0
230
1.0
 70
     9
 71
     3
 72
    17
 73
    13
 74
     0
 42
0.0000000001
 43
0.0000000001
 40
0.0
 40
0.0
 40
0.0
 40
0.0
 40
1.0
 40
1.0
 40
1.0
 40
2.0
 40
2.0
 40
2.0
 40
3.0
 40
3.0
 40
3.0
 40
4.0
 40
4.0
 40
4.0
 40
4.0
 10
4.183247249471062
 20
-4.344537160340522
 30
0.0
 10
4.061027446778411
 20
-4.344537160340522
 30
0.0
 10
3.961591260134665
 20
-4.4439733469843
 30
0.0
 10
3.961591260134665
 20
-4.566216210017349
 30
0.0
 10
3.961591260134665
 20
-4.688459073050365
 30
0.0
 10
4.061027446778411
 20
-4.787895259694112
 30
0.0
 10
4.183247249471062
 20
-4.787895259694112
 30
0.0
 10
4.305513172844124
 20
-4.787895259694112
 30
0.0
 10
4.404949359488255
 20
-4.688459073050365
 30
0.0
 10
4.404949359488255
 20
-4.566216210017349
 30
0.0
 10
4.404949359488255
 20
-4.4439733469843
 30
0.0
 10
4.305513172844124
 20
-4.344537160340522
 30
0.0
 10
4.183247249471062
 20
-4.344537160340522
 30
0.0
  0
SPLINE
  5
AD
330
A3
100
AcDbEntity
  8
Camada 1
 62
   250
420
  1907995
370
    15
100
AcDbSpline
210
0.0
220
0.0
230
1.0
 70
    11
 71
     3
 72
    17
 73
    13
 74
     0
 42
0.0000000001
 43
0.0000000001
 40
0.0
 40
0.0
 40
0.0
 40
0.0
 40
1.0
 40
1.0
 40
1.0
 40
2.0
 40
2.0
 40
2.0
 40
3.0
 40
3.0
 40
3.0
 40
4.0
 40
4.0
 40
4.0
 40
4.0
 10
4.183247249471062
 20
-4.767694401739594
 30
0.0
 10
4.072142530721151
 20
-4.767694401739594
 30
0.0
 10
3.981792118089183
 20
-4.677320928767227
 30
0.0
 10
3.981792118089183
 20
-4.566216210017349
 30
0.0
 10
3.981792118089183
 20
-4.45511149126747
 30
0.0
 10
4.072142530721151
 20
-4.364738018295104
 30
0.0
 10
4.183247249471062
 20
-4.364738018295104
 30
0.0
 10
4.294351968220973
 20
-4.364738018295104
 30
0.0
 10
4.384748501533416
 20
-4.45511149126747
 30
0.0
 10
4.384748501533416
 20
-4.566216210017349
 30
0.0
 10
4.384748501533416
 20
-4.677320928767227
 30
0.0
 10
4.294351968220973
 20
-4.767694401739594
 30
0.0
 10
4.183247249471062
 20
-4.767694401739594
 30
0.0
  0
SPLINE
  5
AE
330
A3
100
AcDbEntity
  8
Camada 1
 62
   250
420
  1907995
370
    15
100
AcDbSpline
210
0.0
220
0.0
230
1.0
 70
     9
 71
     3
 72
    17
 73
    13
 74
     0
 42
0.0000000001
 43
0.0000000001
 40
0.0
 40
0.0
 40
0.0
 40
0.0
 40
1.0
 40
1.0
 40
1.0
 40
2.0
 40
2.0
 40
2.0
 40
3.0
 40
3.0
 40
3.0
 40
4.0
 40
4.0
 40
4.0
 40
4.0
 10
4.183247249471062
 20
-4.388351806588969
 30
0.0
 10
4.085194683235155
 20
-4.388351806588969
 30
0.0
 10
4.005405906382887
 20
-4.4681405834413
 30
0.0
 10
4.005405906382887
 20
-4.566216210017349
 30
0.0
 10
4.005405906382887
 20
-4.664291836593332
 30
0.0
 10
4.085194683235155
 20
-4.744080613445697
 30
0.0
 10
4.183247249471062
 20
-4.744080613445697
 30
0.0
 10
4.281345936387412
 20
-4.744080613445697
 30
0.0
 10
4.361134713239712
 20
-4.664291836593332
 30
0.0
 10
4.361134713239712
 20
-4.566216210017349
 30
0.0
 10
4.361134713239712
 20
-4.4681405834413
 30
0.0
 10
4.281345936387412
 20
-4.388351806588969
 30
0.0
 10
4.183247249471062
 20
-4.388351806588969
 30
0.0
  0
SPLINE
  5
AF
330
A3
100
AcDbEntity
  8
Camada 1
 62
   250
420
  1907995
370
    15
100
AcDbSpline
210
0.0
220
0.0
230
1.0
 70
    11
 71
     3
 72
    35
 73
    31
 74
     0
 42
0.0000000001
 43
0.0000000001
 40
0.0
 40
0.0
 40
0.0
 40
0.0
 40
1.0
 40
1.0
 40
1.0
 40
2.0
 40
2.0
 40
2.0
 40
3.0
 40
3.0
 40
3.0
 40
4.0
 40
4.0
 40
4.0
 40
5.0
 40
5.0
 40
5.0
 40
6.0
 40
6.0
 40
6.0
 40
7.0
 40
7.0
 40
7.0
 40
8.0
 40
8.0
 40
8.0
 40
9.0
 40
9.0
 40
9.0
 40
10.0
 40
10.0
 40
10.0
 40
10.0
 10
4.158641866551761
 20
-5.807681151125441
 30
0.0
 10
4.158641866551761
 20
-5.807681151125441
 30
0.0
 10
4.156278181688428
 20
-6.582681532069253
 30
0.0
 10
4.156278181688428
 20
-6.582681532069253
 30
0.0
 10
4.150144131213652
 20
-6.585517953905355
 30
0.0
 10
4.14541676148705
 20
-6.592130506437968
 30
0.0
 10
4.144471287541446
 20
-6.599688532915477
 30
0.0
 10
4.125584868974344
 20
-6.768761181669203
 30
0.0
 10
3.982956665265872
 20
-6.896279097507083
 30
0.0
 10
3.812460040508899
 20
-6.896279097507083
 30
0.0
 10
3.641974945922413
 20
-6.896279097507083
 30
0.0
 10
3.499346742214037
 20
-6.768761181669203
 30
0.0
 10
3.480448793477121
 20
-6.599688532915477
 30
0.0
 10
3.479514849701332
 20
-6.592130506437968
 30
0.0
 10
3.47478747997473
 20
-6.585517953905355
 30
0.0
 10
3.468641899330076
 20
-6.582681532069253
 30
0.0
 10
3.468641899330076
 20
-6.582681532069253
 30
0.0
 10
3.46676248160907
 20
-5.613103766187575
 30
0.0
 10
3.46676248160907
 20
-5.613103766187575
 30
0.0
 10
3.46676248160907
 20
-5.422302511945962
 30
0.0
 10
3.621658786267478
 20
-5.266927705229909
 30
0.0
 10
3.812460040508899
 20
-5.266927705229909
 30
0.0
 10
4.003261294750704
 20
-5.266927705229909
 30
0.0
 10
4.158641866551761
 20
-5.422302511945962
 30
0.0
 10
4.158641866551761
 20
-5.613103766187575
 30
0.0
 10
4.158641866551761
 20
-5.613576503160152
 30
0.0
 10
4.158641866551761
 20
-5.614516212020431
 30
0.0
 10
4.15911460352453
 20
-5.614988948992879
 30
0.0
 10
4.15911460352453
 20
-5.614988948992879
 30
0.0
 10
4.158641866551761
 20
-5.807681151125441
 30
0.0
 10
4.158641866551761
 20
-5.807681151125441
 30
0.0
  0
SPLINE
  5
B0
330
A3
100
AcDbEntity
  8
Camada 1
 62
   250
420
  1907995
370
    15
100
AcDbSpline
210
0.0
220
0.0
230
1.0
 70
     9
 71
     3
 72
    32
 73
    28
 74
     0
 42
0.0000000001
 43
0.0000000001
 40
0.0
 40
0.0
 40
0.0
 40
0.0
 40
1.0
 40
1.0
 40
1.0
 40
2.0
 40
2.0
 40
2.0
 40
3.0
 40
3.0
 40
3.0
 40
4.0
 40
4.0
 40
4.0
 40
5.0
 40
5.0
 40
5.0
 40
6.0
 40
6.0
 40
6.0
 40
7.0
 40
7.0
 40
7.0
 40
8.0
 40
8.0
 40
8.0
 40
9.0
 40
9.0
 40
9.0
 40
9.0
 10
3.443609900118
 20
-5.755726204810852
 30
0.0
 10
3.382223274689769
 20
-5.598466215289495
 30
0.0
 10
3.427559903386999
 20
-5.416162696385798
 30
0.0
 10
3.560272160839312
 20
-5.306597255339809
 30
0.0
 10
3.706670730159612
 20
-5.186164629007119
 30
0.0
 10
3.918722087831725
 20
-5.186164629007119
 30
0.0
 10
4.064659450349069
 20
-5.306597255339809
 30
0.0
 10
4.196898970828549
 20
-5.415689959413222
 30
0.0
 10
4.242235599525458
 20
-5.596575267398675
 30
0.0
 10
4.182255654845401
 20
-5.753368285032586
 30
0.0
 10
4.182255654845401
 20
-5.753368285032586
 30
0.0
 10
4.182728391818234
 20
-5.613576503160152
 30
0.0
 10
4.182728391818234
 20
-5.613576503160152
 30
0.0
 10
4.182728391818234
 20
-5.612631029214742
 30
0.0
 10
4.182728391818234
 20
-5.611685555269331
 30
0.0
 10
4.182255654845401
 20
-5.610745846408924
 30
0.0
 10
4.180837443927734
 20
-5.407664961047753
 30
0.0
 10
4.015068188897685
 20
-5.243313916935948
 30
0.0
 10
3.812460040508899
 20
-5.243313916935948
 30
0.0
 10
3.608906418175215
 20
-5.243313916935948
 30
0.0
 10
3.443148693315365
 20
-5.409083171965613
 30
0.0
 10
3.443148693315365
 20
-5.613103766187575
 30
0.0
 10
3.443148693315365
 20
-5.613103766187575
 30
0.0
 10
3.443148693315365
 20
-5.613576503160152
 30
0.0
 10
3.443148693315365
 20
-5.613576503160152
 30
0.0
 10
3.443148693315365
 20
-5.613576503160152
 30
0.0
 10
3.443609900118
 20
-5.755726204810852
 30
0.0
 10
3.443609900118
 20
-5.755726204810852
 30
0.0
  0
SPLINE
  5
B1
330
A3
100
AcDbEntity
  8
Camada 1
 62
   250
420
  1907995
370
    15
100
AcDbSpline
210
0.0
220
0.0
230
1.0
 70
     9
 71
     3
 72
    77
 73
    73
 74
     0
 42
0.0000000001
 43
0.0000000001
 40
0.0
 40
0.0
 40
0.0
 40
0.0
 40
1.0
 40
1.0
 40
1.0
 40
2.0
 40
2.0
 40
2.0
 40
3.0
 40
3.0
 40
3.0
 40
4.0
 40
4.0
 40
4.0
 40
5.0
 40
5.0
 40
5.0
 40
6.0
 40
6.0
 40
6.0
 40
7.0
 40
7.0
 40
7.0
 40
8.0
 40
8.0
 40
8.0
 40
9.0
 40
9.0
 40
9.0
 40
10.0
 40
10.0
 40
10.0
 40
11.0
 40
11.0
 40
11.0
 40
12.0
 40
12.0
 40
12.0
 40
13.0
 40
13.0
 40
13.0
 40
14.0
 40
14.0
 40
14.0
 40
15.0
 40
15.0
 40
15.0
 40
16.0
 40
16.0
 40
16.0
 40
17.0
 40
17.0
 40
17.0
 40
18.0
 40
18.0
 40
18.0
 40
19.0
 40
19.0
 40
19.0
 40
20.0
 40
20.0
 40
20.0
 40
21.0
 40
21.0
 40
21.0
 40
22.0
 40
22.0
 40
22.0
 40
23.0
 40
23.0
 40
23.0
 40
24.0
 40
24.0
 40
24.0
 40
24.0
 10
4.832107569900118
 20
-6.234620288305898
 30
0.0
 10
4.806602833715176
 20
-6.342300546546455
 30
0.0
 10
4.706947573839991
 20
-6.444780698087511
 30
0.0
 10
4.594078739070647
 20
-6.478783169610081
 30
0.0
 10
4.462784692536065
 20
-6.523174324361773
 30
0.0
 10
4.323465647636208
 20
-6.556237087024321
 30
0.0
 10
4.179891969982517
 20
-6.577020218566926
 30
0.0
 10
4.179891969982517
 20
-6.577020218566926
 30
0.0
 10
4.180837443927734
 20
-6.190696105442165
 30
0.0
 10
4.180837443927734
 20
-6.190696105442165
 30
0.0
 10
4.180837443927734
 20
-6.190696105442165
 30
0.0
 10
4.241762862553009
 20
-6.190696105442165
 30
0.0
 10
4.241762862553009
 20
-6.190696105442165
 30
0.0
 10
4.241762862553009
 20
-6.190696105442165
 30
0.0
 10
4.241762862553009
 20
-6.176531291516533
 30
0.0
 10
4.241762862553009
 20
-6.176531291516533
 30
0.0
 10
4.241762862553009
 20
-6.176531291516533
 30
0.0
 10
4.181310180900183
 20
-6.176531291516533
 30
0.0
 10
4.181310180900183
 20
-6.176531291516533
 30
0.0
 10
4.181310180900183
 20
-6.176531291516533
 30
0.0
 10
4.182255654845401
 20
-5.810990309934249
 30
0.0
 10
4.182255654845401
 20
-5.810990309934249
 30
0.0
 10
4.276710808021246
 20
-5.634826606590716
 30
0.0
 10
4.234210601160119
 20
-5.415689959413222
 30
0.0
 10
4.079775503304666
 20
-5.28865054563305
 30
0.0
 10
3.924867668476379
 20
-5.160665657907404
 30
0.0
 10
3.700063942712003
 20
-5.160665657907404
 30
0.0
 10
3.545156107883716
 20
-5.28865054563305
 30
0.0
 10
3.391193747000711
 20
-5.416162696385798
 30
0.0
 10
3.347748066194302
 20
-5.635772080536126
 30
0.0
 10
3.443609900118
 20
-5.812402755767362
 30
0.0
 10
3.443609900118
 20
-5.812402755767362
 30
0.0
 10
3.444094167260647
 20
-6.176531291516533
 30
0.0
 10
3.444094167260647
 20
-6.176531291516533
 30
0.0
 10
3.444094167260647
 20
-6.176531291516533
 30
0.0
 10
3.385993640301661
 20
-6.176531291516533
 30
0.0
 10
3.385993640301661
 20
-6.176531291516533
 30
0.0
 10
3.385993640301661
 20
-6.176531291516533
 30
0.0
 10
3.385993640301661
 20
-6.190696105442165
 30
0.0
 10
3.385993640301661
 20
-6.190696105442165
 30
0.0
 10
3.385993640301661
 20
-6.190696105442165
 30
0.0
 10
3.444094167260647
 20
-6.190696105442165
 30
0.0
 10
3.444094167260647
 20
-6.190696105442165
 30
0.0
 10
3.444094167260647
 20
-6.190696105442165
 30
0.0
 10
3.445028111036051
 20
-6.577020218566926
 30
0.0
 10
3.445028111036051
 20
-6.577020218566926
 30
0.0
 10
3.301465963552238
 20
-6.556237087024321
 30
0.0
 10
3.162135388482118
 20
-6.523174324361773
 30
0.0
 10
3.029907398172517
 20
-6.478783169610081
 30
0.0
 10
2.917972507177807
 20
-6.444780698087511
 30
0.0
 10
2.818328777473109
 20
-6.342300546546455
 30
0.0
 10
2.792824041288584
 20
-6.233674814360488
 30
0.0
 10
2.576990787835086
 20
-5.433642434204855
 30
0.0
 10
2.576990787835086
 20
-4.551895738796148
 30
0.0
 10
2.792824041288584
 20
-3.75091788469517
 30
0.0
 10
2.81738330352757
 20
-3.646546785263453
 30
0.0
 10
2.912299663505986
 20
-3.546424553500759
 30
0.0
 10
3.020925395691761
 20
-3.510058397114599
 30
0.0
 10
3.020925395691761
 20
-3.510058397114599
 30
0.0
 10
3.032732289838741
 20
-3.506282266417993
 30
0.0
 10
3.032732289838741
 20
-3.506282266417993
 30
0.0
 10
3.519178634726357
 20
-3.341931222306283
 30
0.0
 10
4.099607395816986
 20
-3.340985748360873
 30
0.0
 10
4.587471951623038
 20
-3.504391318527269
 30
0.0
 10
4.587471951623038
 20
-3.504391318527269
 30
0.0
 10
4.599278845769698
 20
-3.508173214308717
 30
0.0
 10
4.599278845769698
 20
-3.508173214308717
 30
0.0
 10
4.709311258703645
 20
-3.543121159777115
 30
0.0
 10
4.807075570688041
 20
-3.644655837372729
 30
0.0
 10
4.832107569900118
 20
-3.751390621667618
 30
0.0
 10
5.047940823353295
 20
-4.551895738796148
 30
0.0
 10
5.047940823353295
 20
-5.433642434204855
 30
0.0
 10
4.832107569900118
 20
-6.234620288305898
 30
0.0
  0
LWPOLYLINE
  5
B2
330
A3
100
AcDbEntity
  8
Camada 1
 62
   250
420
  1907995
370
    15
100
AcDbPolyline
 90
        4
 70
     1
 43
0.0
 10
4.429070475264941
 20
-6.190817172227618
 10
4.335491615014339
 20
-6.190817172227618
 10
4.335491615014339
 20
-6.176658123387375
 10
4.429070475264941
 20
-6.176658123387375
  0
LWPOLYLINE
  5
B3
330
A3
100
AcDbEntity
  8
Camada 1
 62
   250
420
  1907995
370
    15
100
AcDbPolyline
 90
        6
 70
     1
 43
0.0
 10
4.600547164477023
 20
-6.190817172227618
 10
4.522603214835196
 20
-6.190817172227618
 10
4.522603214835196
 20
-6.176658123387375
 10
4.586341994956497
 20
-6.176658123387375
 10
4.586341994956497
 20
-6.112896282925805
 10
4.600547164477023
 20
-6.112896282925805
  0
LWPOLYLINE
  5
B4
330
A3
100
AcDbEntity
  8
Camada 1
 62
   250
420
  1907995
370
    15
100
AcDbPolyline
 90
        4
 70
     1
 43
0.0
 10
4.600547164477023
 20
-5.977854931120307
 10
4.586341994956497
 20
-5.977854931120307
 10
4.586341994956497
 20
-5.842836639654822
 10
4.600547164477023
 20
-5.842836639654822
  0
LWPOLYLINE
  5
B5
330
A3
100
AcDbEntity
  8
Camada 1
 62
   250
420
  1907995
370
    15
100
AcDbPolyline
 90
        4
 70
     1
 43
0.0
 10
4.600547164477023
 20
-5.707818348189337
 10
4.586341994956497
 20
-5.707818348189337
 10
4.586341994956497
 20
-5.572800056723981
 10
4.600547164477023
 20
-5.572800056723981
  0
LWPOLYLINE
  5
B6
330
A3
100
AcDbEntity
  8
Camada 1
 62
   250
420
  1907995
370
    15
100
AcDbPolyline
 90
        4
 70
     1
 43
0.0
 10
4.600547164477023
 20
-5.437781765258495
 10
4.586341994956497
 20
-5.437781765258495
 10
4.586341994956497
 20
-5.302740413452869
 10
4.600547164477023
 20
-5.302740413452869
  0
LWPOLYLINE
  5
B7
330
A3
100
AcDbEntity
  8
Camada 1
 62
   250
420
  1907995
370
    15
100
AcDbPolyline
 90
        4
 70
     1
 43
0.0
 10
4.600547164477023
 20
-5.167722121987385
 10
4.586341994956497
 20
-5.167722121987385
 10
4.586341994956497
 20
-5.032703830521995
 10
4.600547164477023
 20
-5.032703830521995
  0
LWPOLYLINE
  5
B8
330
A3
100
AcDbEntity
  8
Camada 1
 62
   250
420
  1907995
370
    15
100
AcDbPolyline
 90
        4
 70
     1
 43
0.0
 10
4.600547164477023
 20
-4.897685539056543
 10
4.586341994956497
 20
-4.897685539056543
 10
4.586341994956497
 20
-4.76266724759109
 10
4.600547164477023
 20
-4.76266724759109
  0
LWPOLYLINE
  5
B9
330
A3
100
AcDbEntity
  8
Camada 1
 62
   250
420
  1907995
370
    15
100
AcDbPolyline
 90
        4
 70
     1
 43
0.0
 10
4.600547164477023
 20
-4.627648956125605
 10
4.586341994956497
 20
-4.627648956125605
 10
4.586341994956497
 20
-4.492630664660152
 10
4.600547164477023
 20
-4.492630664660152
  0
LWPOLYLINE
  5
BA
330
A3
100
AcDbEntity
  8
Camada 1
 62
   250
420
  1907995
370
    15
100
AcDbPolyline
 90
        4
 70
     1
 43
0.0
 10
4.600547164477023
 20
-4.357612373194699
 10
4.586341994956497
 20
-4.357612373194699
 10
4.586341994956497
 20
-4.222594081729246
 10
4.600547164477023
 20
-4.222594081729246
  0
LWPOLYLINE
  5
BB
330
A3
100
AcDbEntity
  8
Camada 1
 62
   250
420
  1907995
370
    15
100
AcDbPolyline
 90
        4
 70
     1
 43
0.0
 10
4.600547164477023
 20
-4.087552729923652
 10
4.586341994956497
 20
-4.087552729923652
 10
4.586341994956497
 20
-3.952534438458199
 10
4.600547164477023
 20
-3.952534438458199
  0
LWPOLYLINE
  5
BC
330
A3
100
AcDbEntity
  8
Camada 1
 62
   250
420
  1907995
370
    15
100
AcDbPolyline
 90
        4
 70
     1
 43
0.0
 10
4.393096344660799
 20
-3.753777366871382
 10
4.26354335380644
 20
-3.753777366871382
 10
4.26354335380644
 20
-3.739618318031106
 10
4.393096344660799
 20
-3.739618318031106
  0
LWPOLYLINE
  5
BD
330
A3
100
AcDbEntity
  8
Camada 1
 62
   250
420
  1907995
370
    15
100
AcDbPolyline
 90
        4
 70
     1
 43
0.0
 10
4.133990362952016
 20
-3.753777366871382
 10
4.004483492777619
 20
-3.753777366871382
 10
4.004483492777619
 20
-3.739618318031106
 10
4.133990362952016
 20
-3.739618318031106
  0
LWPOLYLINE
  5
BE
330
A3
100
AcDbEntity
  8
Camada 1
 62
   250
420
  1907995
370
    15
100
AcDbPolyline
 90
        4
 70
     1
 43
0.0
 10
3.874930501923259
 20
-3.753777366871382
 10
3.745377511068868
 20
-3.753777366871382
 10
3.745377511068868
 20
-3.739618318031106
 10
3.874930501923259
 20
-3.739618318031106
  0
LWPOLYLINE
  5
BF
330
A3
100
AcDbEntity
  8
Camada 1
 62
   250
420
  1907995
370
    15
100
AcDbPolyline
 90
        4
 70
     1
 43
0.0
 10
3.615824520214091
 20
-3.753777366871382
 10
3.486271529359667
 20
-3.753777366871382
 10
3.486271529359667
 20
-3.739618318031106
 10
3.615824520214091
 20
-3.739618318031106
  0
LWPOLYLINE
  5
C0
330
A3
100
AcDbEntity
  8
Camada 1
 62
   250
420
  1907995
370
    15
100
AcDbPolyline
 90
        4
 70
     1
 43
0.0
 10
3.356764659185655
 20
-3.753777366871382
 10
3.227211668331231
 20
-3.753777366871382
 10
3.227211668331231
 20
-3.739618318031106
 10
3.356764659185655
 20
-3.739618318031106
  0
LWPOLYLINE
  5
C1
330
A3
100
AcDbEntity
  8
Camada 1
 62
   250
420
  1907995
370
    15
100
AcDbPolyline
 90
        4
 70
     1
 43
0.0
 10
3.033919897355508
 20
-5.977877991460449
 10
3.019714727834597
 20
-5.977877991460449
 10
3.019714727834597
 20
-5.842859699994964
 10
3.033919897355508
 20
-5.842859699994964
  0
LWPOLYLINE
  5
C2
330
A3
100
AcDbEntity
  8
Camada 1
 62
   250
420
  1907995
370
    15
100
AcDbPolyline
 90
        4
 70
     1
 43
0.0
 10
3.033919897355508
 20
-5.707818348189337
 10
3.019714727834597
 20
-5.707818348189337
 10
3.019714727834597
 20
-5.572800056723981
 10
3.033919897355508
 20
-5.572800056723981
  0
LWPOLYLINE
  5
C3
330
A3
100
AcDbEntity
  8
Camada 1
 62
   250
420
  1907995
370
    15
100
AcDbPolyline
 90
        4
 70
     1
 43
0.0
 10
3.033919897355508
 20
-5.437781765258495
 10
3.019714727834597
 20
-5.437781765258495
 10
3.019714727834597
 20
-5.30276347379301
 10
3.033919897355508
 20
-5.30276347379301
  0
LWPOLYLINE
  5
C4
330
A3
100
AcDbEntity
  8
Camada 1
 62
   250
420
  1907995
370
    15
100
AcDbPolyline
 90
        4
 70
     1
 43
0.0
 10
3.033919897355508
 20
-5.167745182327526
 10
3.019714727834597
 20
-5.167745182327526
 10
3.019714727834597
 20
-5.032726890862169
 10
3.033919897355508
 20
-5.032726890862169
  0
LWPOLYLINE
  5
C5
330
A3
100
AcDbEntity
  8
Camada 1
 62
   250
420
  1907995
370
    15
100
AcDbPolyline
 90
        4
 70
     1
 43
0.0
 10
3.033919897355508
 20
-4.897708599396652
 10
3.019714727834597
 20
-4.897708599396652
 10
3.019714727834597
 20
-4.762690307931199
 10
3.033919897355508
 20
-4.762690307931199
  0
LWPOLYLINE
  5
C6
330
A3
100
AcDbEntity
  8
Camada 1
 62
   250
420
  1907995
370
    15
100
AcDbPolyline
 90
        4
 70
     1
 43
0.0
 10
3.033919897355508
 20
-4.627672016465746
 10
3.019714727834597
 20
-4.627672016465746
 10
3.019714727834597
 20
-4.492630664660152
 10
3.033919897355508
 20
-4.492630664660152
  0
LWPOLYLINE
  5
C7
330
A3
100
AcDbEntity
  8
Camada 1
 62
   250
420
  1907995
370
    15
100
AcDbPolyline
 90
        4
 70
     1
 43
0.0
 10
3.033919897355508
 20
-4.357612373194699
 10
3.019714727834597
 20
-4.357612373194699
 10
3.019714727834597
 20
-4.222594081729246
 10
3.033919897355508
 20
-4.222594081729246
  0
LWPOLYLINE
  5
C8
330
A3
100
AcDbEntity
  8
Camada 1
 62
   250
420
  1907995
370
    15
100
AcDbPolyline
 90
        4
 70
     1
 43
0.0
 10
3.033919897355508
 20
-4.087575790263761
 10
3.019714727834597
 20
-4.087575790263761
 10
3.019714727834597
 20
-3.952557498798308
 10
3.033919897355508
 20
-3.952557498798308
  0
LWPOLYLINE
  5
C9
330
A3
100
AcDbEntity
  8
Camada 1
 62
   250
420
  1907995
370
    15
100
AcDbPolyline
 90
        6
 70
     1
 43
0.0
 10
3.097658677476808
 20
-6.190817172227618
 10
3.019714727834597
 20
-6.190817172227618
 10
3.019714727834597
 20
-6.112896282925805
 10
3.033919897355508
 20
-6.112896282925805
 10
3.033919897355508
 20
-6.176658123387375
 10
3.097658677476808
 20
-6.176658123387375
  0
LWPOLYLINE
  5
CA
330
A3
100
AcDbEntity
  8
Camada 1
 62
   250
420
  1907995
370
    15
100
AcDbPolyline
 90
        4
 70
     1
 43
0.0
 10
3.289981914166916
 20
-6.190817172227618
 10
3.193820295821894
 20
-6.190817172227618
 10
3.193820295821894
 20
-6.176658123387375
 10
3.289981914166916
 20
-6.176658123387375
  0
SPLINE
  5
CB
330
A3
100
AcDbEntity
  8
Camada 1
 62
   250
420
  1907995
370
    15
100
AcDbSpline
210
0.0
220
0.0
230
1.0
 70
     9
 71
     3
 72
    17
 73
    13
 74
     0
 42
0.0000000001
 43
0.0000000001
 40
0.0
 40
0.0
 40
0.0
 40
0.0
 40
1.0
 40
1.0
 40
1.0
 40
2.0
 40
2.0
 40
2.0
 40
3.0
 40
3.0
 40
3.0
 40
4.0
 40
4.0
 40
4.0
 40
4.0
 10
3.810038704795405
 20
-4.441759554331725
 30
0.0
 10
3.674812870268776
 20
-4.441759554331725
 30
0.0
 10
3.56476892716495
 20
-4.331715611227899
 30
0.0
 10
3.56476892716495
 20
-4.196466716361129
 30
0.0
 10
3.56476892716495
 20
-4.061217821494391
 30
0.0
 10
3.674812870268776
 20
-3.951173878390501
 30
0.0
 10
3.810038704795405
 20
-3.951173878390501
 30
0.0
 10
3.94531066000238
 20
-3.951173878390501
 30
0.0
 10
4.055354603106206
 20
-4.061217821494391
 30
0.0
 10
4.055354603106206
 20
-4.196466716361129
 30
0.0
 10
4.055354603106206
 20
-4.331715611227899
 30
0.0
 10
3.94531066000238
 20
-4.441759554331725
 30
0.0
 10
3.810038704795405
 20
-4.441759554331725
 30
0.0
  0
SPLINE
  5
CC
330
A3
100
AcDbEntity
  8
Camada 1
 62
   250
420
  1907995
370
    15
100
AcDbSpline
210
0.0
220
0.0
230
1.0
 70
     9
 71
     3
 72
    17
 73
    13
 74
     0
 42
0.0000000001
 43
0.0000000001
 40
0.0
 40
0.0
 40
0.0
 40
0.0
 40
1.0
 40
1.0
 40
1.0
 40
2.0
 40
2.0
 40
2.0
 40
3.0
 40
3.0
 40
3.0
 40
4.0
 40
4.0
 40
4.0
 40
4.0
 10
3.810038704795405
 20
-3.974787666684366
 30
0.0
 10
3.687818902102401
 20
-3.974787666684366
 30
0.0
 10
3.588382715458591
 20
-4.074223853328081
 30
0.0
 10
3.588382715458591
 20
-4.196466716361129
 30
0.0
 10
3.588382715458591
 20
-4.318709579394146
 30
0.0
 10
3.687818902102401
 20
-4.418145766037859
 30
0.0
 10
3.810038704795405
 20
-4.418145766037859
 30
0.0
 10
3.932304628168434
 20
-4.418145766037859
 30
0.0
 10
4.031740814812181
 20
-4.318709579394146
 30
0.0
 10
4.031740814812181
 20
-4.196466716361129
 30
0.0
 10
4.031740814812181
 20
-4.074223853328081
 30
0.0
 10
3.932304628168434
 20
-3.974787666684366
 30
0.0
 10
3.810038704795405
 20
-3.974787666684366
 30
0.0
  0
SPLINE
  5
CD
330
A3
100
AcDbEntity
  8
Camada 1
 62
   250
420
  1907995
370
    15
100
AcDbSpline
210
0.0
220
0.0
230
1.0
 70
    11
 71
     3
 72
    17
 73
    13
 74
     0
 42
0.0000000001
 43
0.0000000001
 40
0.0
 40
0.0
 40
0.0
 40
0.0
 40
1.0
 40
1.0
 40
1.0
 40
2.0
 40
2.0
 40
2.0
 40
3.0
 40
3.0
 40
3.0
 40
4.0
 40
4.0
 40
4.0
 40
4.0
 10
3.810038704795405
 20
-4.397944908083374
 30
0.0
 10
3.698933986045462
 20
-4.397944908083374
 30
0.0
 10
3.608583573413108
 20
-4.307571435111007
 30
0.0
 10
3.608583573413108
 20
-4.196466716361129
 30
0.0
 10
3.608583573413108
 20
-4.085361997611251
 30
0.0
 10
3.698933986045462
 20
-3.994988524638884
 30
0.0
 10
3.810038704795405
 20
-3.994988524638884
 30
0.0
 10
3.921143423545283
 20
-3.994988524638884
 30
0.0
 10
4.011539956857663
 20
-4.085361997611251
 30
0.0
 10
4.011539956857663
 20
-4.196466716361129
 30
0.0
 10
4.011539956857663
 20
-4.307571435111007
 30
0.0
 10
3.921143423545283
 20
-4.397944908083374
 30
0.0
 10
3.810038704795405
 20
-4.397944908083374
 30
0.0
  0
SPLINE
  5
CE
330
A3
100
AcDbEntity
  8
Camada 1
 62
   250
420
  1907995
370
    15
100
AcDbSpline
210
0.0
220
0.0
230
1.0
 70
     9
 71
     3
 72
    17
 73
    13
 74
     0
 42
0.0000000001
 43
0.0000000001
 40
0.0
 40
0.0
 40
0.0
 40
0.0
 40
1.0
 40
1.0
 40
1.0
 40
2.0
 40
2.0
 40
2.0
 40
3.0
 40
3.0
 40
3.0
 40
4.0
 40
4.0
 40
4.0
 40
4.0
 10
3.810038704795405
 20
-4.018602312932749
 30
0.0
 10
3.711986138559498
 20
-4.018602312932749
 30
0.0
 10
3.632197361707166
 20
-4.098391089785081
 30
0.0
 10
3.632197361707166
 20
-4.196466716361129
 30
0.0
 10
3.632197361707166
 20
-4.294542342937145
 30
0.0
 10
3.711986138559498
 20
-4.374331119789477
 30
0.0
 10
3.810038704795405
 20
-4.374331119789477
 30
0.0
 10
3.908137391711722
 20
-4.374331119789477
 30
0.0
 10
3.987926168564023
 20
-4.294542342937145
 30
0.0
 10
3.987926168564023
 20
-4.196466716361129
 30
0.0
 10
3.987926168564023
 20
-4.098391089785081
 30
0.0
 10
3.908137391711722
 20
-4.018602312932749
 30
0.0
 10
3.810038704795405
 20
-4.018602312932749
 30
0.0
  0
LWPOLYLINE
  5
CF
330
A3
100
AcDbEntity
  8
Camada 1
 62
   250
420
  1907995
370
    15
100
AcDbPolyline
 90
        6
 70
     1
 43
0.0
 10
3.019714727836714
 20
-3.825679546255736
 10
3.019714727847302
 20
-3.747735596613877
 10
3.09763561714918
 20
-3.747735596624337
 10
3.097635617147062
 20
-3.761940766144863
 10
3.033873776685684
 20
-3.761940766136296
 10
3.033873776676893
 20
-3.825679546257628
  0
LWPOLYLINE
  5
D0
330
A3
100
AcDbEntity
  8
Camada 1
 62
   250
420
  1907995
370
    15
100
AcDbPolyline
 90
        6
 70
     1
 43
0.0
 10
4.515500630074742
 20
-3.739618318031106
 10
4.593444579716631
 20
-3.739618318038133
 10
4.593444579709573
 20
-3.817539207339946
 10
4.579239410188983
 20
-3.817539207338631
 10
4.579239410195015
 20
-3.753777366877125
 10
4.515500630073618
 20
-3.753777366871382
  0
ENDBLK
  5
A6
330
A3
100
AcDbEntity
  8
0
100
AcDbBlockEnd
  0
ENDSEC
  0
SECTION
  2
ENTITIES
  0
INSERT
  5
7A
330
70
100
AcDbEntity
  8
Camada 1
100
AcDbBlockReference
  2
Block_0
 10
0.0
 20
0.0
 30
0.0
  0
INSERT
  5
A4
330
70
100
AcDbEntity
  8
Camada 1
100
AcDbBlockReference
  2
Block_1
 10
0.0
 20
0.0
 30
0.0
  0
ENDSEC
  0
SECTION
  2
OBJECTS
  0
DICTIONARY
  5
C
330
0
100
AcDbDictionary
281
     1
  3
ACAD_COLOR
350
63
  3
ACAD_DETAILVIEWSTYLE
350
6A
  3
ACAD_GROUP
350
D
  3
ACAD_LAYOUT
350
62
  3
ACAD_MATERIAL
350
10
  3
ACAD_MLEADERSTYLE
350
66
  3
ACAD_MLINESTYLE
350
5F
  3
ACAD_PLOTSETTINGS
350
61
  3
ACAD_PLOTSTYLENAME
350
E
  3
ACAD_SCALELIST
350
42
  3
ACAD_SECTIONVIEWSTYLE
350
68
  3
ACAD_TABLESTYLE
350
64
  3
ACAD_VISUALSTYLE
350
29
  3
ACDB_RECOMPOSE_DATA
350
D9
  3
AcDbVariableDictionary
350
D1
  0
DICTIONARY
  5
63
102
{ACAD_REACTORS
330
C
102
}
330
C
100
AcDbDictionary
281
     1
  0
DICTIONARY
  5
6A
102
{ACAD_REACTORS
330
C
102
}
330
C
100
AcDbDictionary
281
     1
  3
Imperial24
350
6B
  0
DICTIONARY
  5
D
102
{ACAD_REACTORS
330
C
102
}
330
C
100
AcDbDictionary
281
     1
  0
DICTIONARY
  5
62
102
{ACAD_REACTORS
330
C
102
}
330
C
100
AcDbDictionary
281
     1
  3
Layout1
350
6F
  3
Layout2
350
77
  3
Model
350
73
  0
DICTIONARY
  5
10
102
{ACAD_REACTORS
330
C
102
}
330
C
100
AcDbDictionary
281
     1
  3
ByBlock
350
19
  3
ByLayer
350
11
  3
Global
350
21
  0
DICTIONARY
  5
66
102
{ACAD_REACTORS
330
C
102
}
330
C
100
AcDbDictionary
281
     1
  3
Standard
350
67
  0
DICTIONARY
  5
5F
102
{ACAD_REACTORS
330
C
102
}
330
C
100
AcDbDictionary
281
     1
  3
Standard
350
60
  0
DICTIONARY
  5
61
102
{ACAD_REACTORS
330
C
102
}
330
C
100
AcDbDictionary
281
     1
  0
ACDBDICTIONARYWDFLT
  5
E
102
{ACAD_REACTORS
330
C
102
}
330
C
100
AcDbDictionary
281
     1
  3
Normal
350
F
100
AcDbDictionaryWithDefault
340
F
  0
DICTIONARY
  5
42
102
{ACAD_REACTORS
330
C
102
}
330
C
100
AcDbDictionary
281
     1
  3
A0
350
43
  3
A1
350
44
  3
A2
350
45
  3
A3
350
46
  3
A4
350
47
  3
A5
350
48
  3
A6
350
49
  3
A7
350
4A
  3
A8
350
4B
  3
A9
350
4C
  3
B0
350
4D
  3
B1
350
4E
  3
B2
350
4F
  3
B3
350
50
  3
B4
350
51
  3
B5
350
52
  3
B6
350
53
  0
DICTIONARY
  5
68
102
{ACAD_REACTORS
330
C
102
}
330
C
100
AcDbDictionary
281
     1
  3
Imperial24
350
69
  0
DICTIONARY
  5
64
102
{ACAD_REACTORS
330
C
102
}
330
C
100
AcDbDictionary
281
     1
  3
Standard
350
65
  0
DICTIONARY
  5
29
102
{ACAD_REACTORS
330
C
102
}
330
C
100
AcDbDictionary
281
     1
  3
2dWireframe
350
2F
  3
Basic
350
2E
  3
Brighten
350
35
  3
ColorChange
350
39
  3
Conceptual
350
32
  3
Dim
350
34
  3
EdgeColorOff
350
41
  3
Facepattern
350
38
  3
Flat
350
2A
  3
FlatWithEdges
350
2B
  3
Gouraud
350
2C
  3
GouraudWithEdges
350
2D
  3
Hidden
350
31
  3
JitterOff
350
3F
  3
Linepattern
350
37
  3
OverhangOff
350
40
  3
Realistic
350
33
  3
Shaded
350
3E
  3
Shaded with edges
350
3D
  3
Shades of Gray
350
3A
  3
Sketchy
350
3B
  3
Thicken
350
36
  3
Wireframe
350
30
  3
X-Ray
350
3C
  0
XRECORD
  5
D9
102
{ACAD_REACTORS
330
C
102
}
330
C
100
AcDbXrecord
280
     1
 90
        1
330
65
  0
DICTIONARY
  5
D1
102
{ACAD_REACTORS
330
C
102
}
330
C
100
AcDbDictionary
281
     1
  3
CANNOSCALE
350
D6
  3
CMLEADERSTYLE
350
D3
  3
CTABLESTYLE
350
D2
  3
CVIEWDETAILSTYLE
350
D4
  3
CVIEWSECTIONSTYLE
350
D5
  0
ACDBDETAILVIEWSTYLE
  5
6B
102
{ACAD_REACTORS
330
6A
102
}
330
6A
100
AcDbModelDocViewStyle
 70
     0
  3
Imperial24
290
     1
300
Imperial24
 90
        0
100
AcDbDetailViewStyle
 70
     0
 71
     0
 90
        3
 71
     1
340
55
 62
   256
 40
0.24
340
0
 62
   256
 40
0.24
300

 40
0.36
280
     3
 71
     2
340
5D
 90
       25
 62
   256
 71
     3
340
55
 62
   256
 40
0.24
 90
        1
 40
0.75
 90
        1
300
%<\AcVar ViewType \f "%tc1">% %<\AcVar ViewDetailId>%\PSCALE %<\AcVar ViewScale \f "%sn">%
 71
     4
340
5D
 90
       25
 62
   256
340
5D
 90
       25
 62
   256
280
     0
  0
LAYOUT
  5
6F
102
{ACAD_REACTORS
330
62
102
}
330
62
100
AcDbPlotSettings
  1

  2

  4

  6

 40
0.0
 41
0.0
 42
0.0
 43
0.0
 44
0.0
 45
0.0
 46
0.0
 47
0.0
 48
0.0
 49
0.0
140
0.0
141
0.0
142
1.0
143
1.0
 70
   688
 72
     0
 73
     0
 74
     5
  7

 75
    16
147
1.0
 76
     0
 77
     2
 78
   300
148
0.0
149
0.0
100
AcDbLayout
  1
Layout1
 70
     1
 71
     1
 10
0.0
 20
0.0
 11
12.0
 21
9.0
 12
0.0
 22
0.0
 32
0.0
 14
0.0
 24
0.0
 34
0.0
 15
0.0
 25
0.0
 35
0.0
146
0.0
 13
0.0
 23
0.0
 33
0.0
 16
1.0
 26
0.0
 36
0.0
 17
0.0
 27
1.0
 37
0.0
 76
     0
330
6C
  0
LAYOUT
  5
77
102
{ACAD_REACTORS
330
62
102
}
330
62
100
AcDbPlotSettings
  1

  2

  4

  6

 40
0.0
 41
0.0
 42
0.0
 43
0.0
 44
0.0
 45
0.0
 46
0.0
 47
0.0
 48
0.0
 49
0.0
140
0.0
141
0.0
142
1.0
143
1.0
 70
   688
 72
     0
 73
     0
 74
     5
  7

 75
    16
147
1.0
 76
     0
 77
     2
 78
   300
148
0.0
149
0.0
100
AcDbLayout
  1
Layout2
 70
     1
 71
     2
 10
0.0
 20
0.0
 11
12.0
 21
9.0
 12
0.0
 22
0.0
 32
0.0
 14
0.0
 24
0.0
 34
0.0
 15
0.0
 25
0.0
 35
0.0
146
0.0
 13
0.0
 23
0.0
 33
0.0
 16
1.0
 26
0.0
 36
0.0
 17
0.0
 27
1.0
 37
0.0
 76
     0
330
74
  0
LAYOUT
  5
73
102
{ACAD_REACTORS
330
62
102
}
330
62
100
AcDbPlotSettings
  1

  2

  4

  6

 40
0.0
 41
0.0
 42
0.0
 43
0.0
 44
0.0
 45
0.0
 46
0.0
 47
0.0
 48
0.0
 49
0.0
140
0.0
141
0.0
142
1.0
143
1.0
 70
  1712
 72
     0
 73
     0
 74
     0
  7

 75
     0
147
1.0
 76
     0
 77
     2
 78
   300
148
0.0
149
0.0
100
AcDbLayout
  1
Model
 70
     1
 71
     0
 10
0.0
 20
0.0
 11
12.0
 21
9.0
 12
0.0
 22
0.0
 32
0.0
 14
0.0
 24
0.0
 34
0.0
 15
0.0
 25
0.0
 35
0.0
146
0.0
 13
0.0
 23
0.0
 33
0.0
 16
1.0
 26
0.0
 36
0.0
 17
0.0
 27
1.0
 37
0.0
 76
     0
330
70
  0
MATERIAL
  5
19
102
{ACAD_XDICTIONARY
360
1A
102
}
102
{ACAD_REACTORS
330
10
102
}
330
10
100
AcDbMaterial
  1
ByBlock
 72
     0
 43
0.0208333333333333
 43
0.0
 43
0.0
 43
0.0
 43
0.0
 43
0.0208333333333333
 43
0.0
 43
0.0
 43
0.0
 43
0.0
 43
1.0
 43
0.0
 43
0.0
 43
0.0
 43
0.0
 43
1.0
 77
     0
 47
0.0208333333333333
 47
0.0
 47
0.0
 47
0.0
 47
0.0
 47
0.0208333333333333
 47
0.0
 47
0.0
 47
0.0
 47
0.0
 47
1.0
 47
0.0
 47
0.0
 47
0.0
 47
0.0
 47
1.0
171
     0
 49
0.0208333333333333
 49
0.0
 49
0.0
 49
0.0
 49
0.0
 49
0.0208333333333333
 49
0.0
 49
0.0
 49
0.0
 49
0.0
 49
1.0
 49
0.0
 49
0.0
 49
0.0
 49
0.0
 49
1.0
175
     0
142
0.0208333333333333
142
0.0
142
0.0
142
0.0
142
0.0
142
0.0208333333333333
142
0.0
142
0.0
142
0.0
142
0.0
142
1.0
142
0.0
142
0.0
142
0.0
142
0.0
142
1.0
179
     0
144
0.0208333333333333
144
0.0
144
0.0
144
0.0
144
0.0
144
0.0208333333333333
144
0.0
144
0.0
144
0.0
144
0.0
144
1.0
144
0.0
144
0.0
144
0.0
144
0.0
144
1.0
147
0.0208333333333333
147
0.0
147
0.0
147
0.0
147
0.0
147
0.0208333333333333
147
0.0
147
0.0
147
0.0
147
0.0
147
1.0
147
0.0
147
0.0
147
0.0
147
0.0
147
1.0
  0
MATERIAL
  5
11
102
{ACAD_XDICTIONARY
360
12
102
}
102
{ACAD_REACTORS
330
10
102
}
330
10
100
AcDbMaterial
  1
ByLayer
 72
     0
 43
0.0208333333333333
 43
0.0
 43
0.0
 43
0.0
 43
0.0
 43
0.0208333333333333
 43
0.0
 43
0.0
 43
0.0
 43
0.0
 43
1.0
 43
0.0
 43
0.0
 43
0.0
 43
0.0
 43
1.0
 77
     0
 47
0.0208333333333333
 47
0.0
 47
0.0
 47
0.0
 47
0.0
 47
0.0208333333333333
 47
0.0
 47
0.0
 47
0.0
 47
0.0
 47
1.0
 47
0.0
 47
0.0
 47
0.0
 47
0.0
 47
1.0
171
     0
 49
0.0208333333333333
 49
0.0
 49
0.0
 49
0.0
 49
0.0
 49
0.0208333333333333
 49
0.0
 49
0.0
 49
0.0
 49
0.0
 49
1.0
 49
0.0
 49
0.0
 49
0.0
 49
0.0
 49
1.0
175
     0
142
0.0208333333333333
142
0.0
142
0.0
142
0.0
142
0.0
142
0.0208333333333333
142
0.0
142
0.0
142
0.0
142
0.0
142
1.0
142
0.0
142
0.0
142
0.0
142
0.0
142
1.0
179
     0
144
0.0208333333333333
144
0.0
144
0.0
144
0.0
144
0.0
144
0.0208333333333333
144
0.0
144
0.0
144
0.0
144
0.0
144
1.0
144
0.0
144
0.0
144
0.0
144
0.0
144
1.0
147
0.0208333333333333
147
0.0
147
0.0
147
0.0
147
0.0
147
0.0208333333333333
147
0.0
147
0.0
147
0.0
147
0.0
147
1.0
147
0.0
147
0.0
147
0.0
147
0.0
147
1.0
  0
MATERIAL
  5
21
102
{ACAD_XDICTIONARY
360
22
102
}
102
{ACAD_REACTORS
330
10
102
}
330
10
100
AcDbMaterial
  1
Global
 72
     0
 43
0.0208333333333333
 43
0.0
 43
0.0
 43
0.0
 43
0.0
 43
0.0208333333333333
 43
0.0
 43
0.0
 43
0.0
 43
0.0
 43
1.0
 43
0.0
 43
0.0
 43
0.0
 43
0.0
 43
1.0
 77
     0
 47
0.0208333333333333
 47
0.0
 47
0.0
 47
0.0
 47
0.0
 47
0.0208333333333333
 47
0.0
 47
0.0
 47
0.0
 47
0.0
 47
1.0
 47
0.0
 47
0.0
 47
0.0
 47
0.0
 47
1.0
171
     0
 49
0.0208333333333333
 49
0.0
 49
0.0
 49
0.0
 49
0.0
 49
0.0208333333333333
 49
0.0
 49
0.0
 49
0.0
 49
0.0
 49
1.0
 49
0.0
 49
0.0
 49
0.0
 49
0.0
 49
1.0
175
     0
142
0.0208333333333333
142
0.0
142
0.0
142
0.0
142
0.0
142
0.0208333333333333
142
0.0
142
0.0
142
0.0
142
0.0
142
1.0
142
0.0
142
0.0
142
0.0
142
0.0
142
1.0
179
     0
144
0.0208333333333333
144
0.0
144
0.0
144
0.0
144
0.0
144
0.0208333333333333
144
0.0
144
0.0
144
0.0
144
0.0
144
1.0
144
0.0
144
0.0
144
0.0
144
0.0
144
1.0
147
0.0208333333333333
147
0.0
147
0.0
147
0.0
147
0.0
147
0.0208333333333333
147
0.0
147
0.0
147
0.0
147
0.0
147
1.0
147
0.0
147
0.0
147
0.0
147
0.0
147
1.0
  0
MLEADERSTYLE
  5
67
102
{ACAD_REACTORS
330
66
102
}
330
66
100
AcDbMLeaderStyle
179
     2
170
     2
171
     1
172
     0
 90
        2
 40
0.0
 41
0.0
173
     1
 91
-1056964608
340
5B
 92
       -2
290
     1
 42
0.09
291
     1
 43
0.36
  3
Standard
 44
0.18
300

342
55
174
     1
178
     6
175
     1
176
     0
 93
-1056964608
 45
0.18
292
     0
297
     0
 46
0.18
 94
-1056964608
 47
1.0
 49
1.0
140
1.0
293
     1
141
0.0
294
     1
177
     0
142
1.0
295
     1
296
     0
143
0.125
271
     0
272
     9
273
     9
298
     1
  0
MLINESTYLE
  5
60
102
{ACAD_REACTORS
330
5F
102
}
330
5F
100
AcDbMlineStyle
  2
STANDARD
 70
     0
  3

 62
   256
 51
90.0
 52
90.0
 71
     2
 49
0.5
 62
   256
  6
BYLAYER
 49
-0.5
 62
   256
  6
BYLAYER
  0
ACDBPLACEHOLDER
  5
F
102
{ACAD_REACTORS
330
E
102
}
330
E
  0
SCALE
  5
43
102
{ACAD_REACTORS
330
42
102
}
330
42
100
AcDbScale
 70
     0
300
1:1
140
1.0
141
1.0
290
     1
  0
SCALE
  5
44
102
{ACAD_REACTORS
330
42
102
}
330
42
100
AcDbScale
 70
     0
300
1/128" = 1'-0"
140
0.0078125
141
12.0
290
     0
  0
SCALE
  5
45
102
{ACAD_REACTORS
330
42
102
}
330
42
100
AcDbScale
 70
     0
300
1/64" = 1'-0"
140
0.015625
141
12.0
290
     0
  0
SCALE
  5
46
102
{ACAD_REACTORS
330
42
102
}
330
42
100
AcDbScale
 70
     0
300
1/32" = 1'-0"
140
0.03125
141
12.0
290
     0
  0
SCALE
  5
47
102
{ACAD_REACTORS
330
42
102
}
330
42
100
AcDbScale
 70
     0
300
1/16" = 1'-0"
140
0.0625
141
12.0
290
     0
  0
SCALE
  5
48
102
{ACAD_REACTORS
330
42
102
}
330
42
100
AcDbScale
 70
     0
300
3/32" = 1'-0"
140
0.09375
141
12.0
290
     0
  0
SCALE
  5
49
102
{ACAD_REACTORS
330
42
102
}
330
42
100
AcDbScale
 70
     0
300
1/8" = 1'-0"
140
0.125
141
12.0
290
     0
  0
SCALE
  5
4A
102
{ACAD_REACTORS
330
42
102
}
330
42
100
AcDbScale
 70
     0
300
3/16" = 1'-0"
140
0.1875
141
12.0
290
     0
  0
SCALE
  5
4B
102
{ACAD_REACTORS
330
42
102
}
330
42
100
AcDbScale
 70
     0
300
1/4" = 1'-0"
140
0.25
141
12.0
290
     0
  0
SCALE
  5
4C
102
{ACAD_REACTORS
330
42
102
}
330
42
100
AcDbScale
 70
     0
300
3/8" = 1'-0"
140
0.375
141
12.0
290
     0
  0
SCALE
  5
4D
102
{ACAD_REACTORS
330
42
102
}
330
42
100
AcDbScale
 70
     0
300
1/2" = 1'-0"
140
0.5
141
12.0
290
     0
  0
SCALE
  5
4E
102
{ACAD_REACTORS
330
42
102
}
330
42
100
AcDbScale
 70
     0
300
3/4" = 1'-0"
140
0.75
141
12.0
290
     0
  0
SCALE
  5
4F
102
{ACAD_REACTORS
330
42
102
}
330
42
100
AcDbScale
 70
     0
300
1" = 1'-0"
140
1.0
141
12.0
290
     0
  0
SCALE
  5
50
102
{ACAD_REACTORS
330
42
102
}
330
42
100
AcDbScale
 70
     0
300
1-1/2" = 1'-0"
140
1.5
141
12.0
290
     0
  0
SCALE
  5
51
102
{ACAD_REACTORS
330
42
102
}
330
42
100
AcDbScale
 70
     0
300
3" = 1'-0"
140
3.0
141
12.0
290
     0
  0
SCALE
  5
52
102
{ACAD_REACTORS
330
42
102
}
330
42
100
AcDbScale
 70
     0
300
6" = 1'-0"
140
6.0
141
12.0
290
     0
  0
SCALE
  5
53
102
{ACAD_REACTORS
330
42
102
}
330
42
100
AcDbScale
 70
     0
300
1'-0" = 1'-0"
140
12.0
141
12.0
290
     0
  0
ACDBSECTIONVIEWSTYLE
  5
69
102
{ACAD_REACTORS
330
68
102
}
330
68
100
AcDbModelDocViewStyle
 70
     0
  3
Imperial24
290
     1
300
Imperial24
 90
        0
100
AcDbSectionViewStyle
 70
     0
 71
     0
 90
       78
 71
     1
340
55
 62
   256
 40
0.24
340
0
340
0
 62
   256
 40
0.24
300
I, O, Q, S, X, Z
 40
0.48
 90
        3
 40
0.18
 90
        1
 71
     2
340
5D
 90
       25
 62
   256
340
5D
 90
       50
 62
   256
 40
0.24
 40
0.0
 40
0.24
 71
     3
340
55
 62
   256
 40
0.24
 90
        1
 40
0.75
 90
        1
300
%<\AcVar ViewType \f "%tc1">% %<\AcVar ViewSectionStartId>%-%<\AcVar ViewSectionEndId>%\PSCALE %<\AcVar ViewScale \f "%sn">%
 71
     4
 62
   256
 62
   257
300
ANSI31
 40
1.0
 90
        0
290
     0
290
     0
 90
        6
 40
0.0
 40
1.570796326794896
 40
0.2617993877991494
 40
1.308996938995747
 40
-0.2617993877991494
 40
1.832595714594046
  0
TABLESTYLE
  5
65
102
{ACAD_XDICTIONARY
360
D7
102
}
102
{ACAD_REACTORS
330
64
102
}
330
64
100
AcDbTableStyle
280
     0
  3
Standard
 70
     0
 71
     0
 40
0.06
 41
0.06
280
     0
281
     0
  7
Standard
140
0.18
170
     2
 62
     0
 63
     7
283
     0
 90
      512
 91
        0
  1

274
    -2
284
     1
 64
     0
275
    -2
285
     1
 65
     0
276
    -2
286
     1
 66
     0
277
    -2
287
     1
 67
     0
278
    -2
288
     1
 68
     0
279
    -2
289
     1
 69
     0
  7
Standard
140
0.25
170
     5
 62
     0
 63
     7
283
     0
 90
      512
 91
        0
  1

274
    -2
284
     1
 64
     0
275
    -2
285
     1
 65
     0
276
    -2
286
     1
 66
     0
277
    -2
287
     1
 67
     0
278
    -2
288
     1
 68
     0
279
    -2
289
     1
 69
     0
  7
Standard
140
0.18
170
     5
 62
     0
 63
     7
283
     0
 90
      512
 91
        0
  1

274
    -2
284
     1
 64
     0
275
    -2
285
     1
 65
     0
276
    -2
286
     1
 66
     0
277
    -2
287
     1
 67
     0
278
    -2
288
     1
 68
     0
279
    -2
289
     1
 69
     0
  0
VISUALSTYLE
  5
2F
102
{ACAD_REACTORS
330
29
102
}
330
29
100
AcDbVisualStyle
  2
2dWireframe
 70
     4
177
     3
291
     0
 70
    58
 90
        0
176
     1
 90
        2
176
     1
 90
        0
176
     1
 90
        0
176
     1
 40
0.6
176
     1
 40
30.0
176
     1
 62
     7
420
 16777215
176
     1
 90
        1
176
     1
 90
        4
176
     1
 62
     7
176
     1
 62
   257
176
     1
 90
        1
176
     1
 90
        1
176
     1
 40
1.0
176
     1
 90
        0
176
     1
 62
   257
176
     1
 40
1.0
176
     1
 90
        1
176
     1
 90
        6
176
     1
 90
        2
176
     1
 62
     7
176
     1
 90
        5
176
     1
 90
        0
176
     1
 90
        0
176
     1
290
     0
176
     1
 90
        1
176
     1
 40
0.0
176
     1
 90
        0
176
     1
290
     1
176
     1
290
     1
176
     1
290
     0
176
     1
290
     0
176
     1
290
     0
176
     1
290
     0
176
     1
290
     0
176
     1
290
     0
176
     1
290
     0
176
     1
 90
       50
176
     1
 40
0.0
176
     1
 40
1.0
176
     1
 90
        0
176
     1
 62
    18
420
        0
176
     1
 90
       50
176
     1
 90
        3
176
     1
 62
     5
420
      255
176
     1
290
     0
176
     1
 90
       50
176
     1
 90
       50
176
     1
 90
       50
176
     1
290
     0
176
     1
 90
       50
176
     1
 62
   256
176
     0
 40
1.0
176
     0
 90
        2
176
     1
  1
strokes_ogs.tif
176
     1
290
     0
176
     1
 40
1.0
176
     1
 40
1.0
176
     1
  0
VISUALSTYLE
  5
2E
102
{ACAD_REACTORS
330
29
102
}
330
29
100
AcDbVisualStyle
  2
Basic
 70
     7
177
     3
291
     1
 70
    58
 90
        1
176
     1
 90
        0
176
     1
 90
        1
176
     1
 90
        0
176
     1
 40
0.6
176
     1
 40
30.0
176
     1
 62
     7
420
 16777215
176
     1
 90
        0
176
     1
 90
        4
176
     1
 62
     7
176
     1
 62
   257
176
     1
 90
        1
176
     1
 90
        1
176
     1
 40
1.0
176
     1
 90
        8
176
     1
 62
     7
176
     1
 40
1.0
176
     1
 90
        1
176
     1
 90
        6
176
     1
 90
        2
176
     1
 62
     7
176
     1
 90
        5
176
     1
 90
        0
176
     1
 90
        0
176
     1
290
     0
176
     1
 90
        1
176
     1
 40
0.0
176
     1
 90
        0
176
     1
290
     0
176
     1
290
     1
176
     1
290
     1
176
     1
290
     0
176
     1
290
     0
176
     1
290
     0
176
     1
290
     0
176
     1
290
     0
176
     1
290
     0
176
     1
 90
       50
176
     1
 40
0.0
176
     1
 40
1.0
176
     1
 90
        0
176
     1
 62
    18
420
        0
176
     1
 90
       50
176
     1
 90
        3
176
     1
 62
     5
420
      255
176
     1
290
     0
176
     1
 90
       50
176
     1
 90
       50
176
     1
 90
       50
176
     1
290
     0
176
     1
 90
       50
176
     1
 62
   256
176
     0
 40
1.0
176
     0
 90
        2
176
     1
  1
strokes_ogs.tif
176
     1
290
     0
176
     1
 40
1.0
176
     1
 40
1.0
176
     1
  0
VISUALSTYLE
  5
35
102
{ACAD_REACTORS
330
29
102
}
330
29
100
AcDbVisualStyle
  2
Brighten
 70
    12
177
     3
291
     1
 70
    58
 90
        2
176
     1
 90
        2
176
     1
 90
        0
176
     1
 90
        0
176
     1
 40
0.6
176
     1
 40
30.0
176
     1
 62
     7
420
 16777215
176
     1
 90
        1
176
     1
 90
        4
176
     1
 62
     7
176
     1
 62
   257
176
     1
 90
        1
176
     1
 90
        1
176
     1
 40
1.0
176
     1
 90
        8
176
     1
 62
     7
176
     1
 40
1.0
176
     1
 90
        1
176
     1
 90
        6
176
     1
 90
        2
176
     1
 62
     7
176
     1
 90
        5
176
     1
 90
        0
176
     1
 90
        0
176
     1
290
     0
176
     1
 90
        1
176
     1
 40
50.0
176
     1
 90
        0
176
     1
290
     0
176
     1
290
     1
176
     1
290
     1
176
     1
290
     0
176
     1
290
     0
176
     1
290
     0
176
     1
290
     0
176
     1
290
     0
176
     1
290
     0
176
     1
 90
       50
176
     1
 40
0.0
176
     1
 40
1.0
176
     1
 90
        0
176
     1
 62
    18
420
        0
176
     1
 90
       50
176
     1
 90
        3
176
     1
 62
     5
420
      255
176
     1
290
     0
176
     1
 90
       50
176
     1
 90
       50
176
     1
 90
       50
176
     1
290
     0
176
     1
 90
       50
176
     1
 62
   256
176
     0
 40
1.0
176
     0
 90
        2
176
     1
  1
strokes_ogs.tif
176
     1
290
     0
176
     1
 40
1.0
176
     1
 40
1.0
176
     1
  0
VISUALSTYLE
  5
39
102
{ACAD_REACTORS
330
29
102
}
330
29
100
AcDbVisualStyle
  2
ColorChange
 70
    16
177
     3
291
     1
 70
    58
 90
        2
176
     1
 90
        2
176
     1
 90
        3
176
     1
 90
        0
176
     1
 40
0.6
176
     1
 40
30.0
176
     1
 62
     8
420
  8421504
176
     1
 90
        1
176
     1
 90
        4
176
     1
 62
     7
176
     1
 62
   257
176
     1
 90
        1
176
     1
 90
        1
176
     1
 40
1.0
176
     1
 90
        8
176
     1
 62
     8
420
  8421504
176
     1
 40
1.0
176
     1
 90
        1
176
     1
 90
        6
176
     1
 90
        2
176
     1
 62
     7
176
     1
 90
        5
176
     1
 90
        0
176
     1
 90
        0
176
     1
290
     0
176
     1
 90
        1
176
     1
 40
0.0
176
     1
 90
        0
176
     1
290
     0
176
     1
290
     1
176
     1
290
     1
176
     1
290
     0
176
     1
290
     0
176
     1
290
     0
176
     1
290
     0
176
     1
290
     0
176
     1
290
     0
176
     1
 90
       50
176
     1
 40
0.0
176
     1
 40
1.0
176
     1
 90
        0
176
     1
 62
    18
420
        0
176
     1
 90
       50
176
     1
 90
        3
176
     1
 62
     5
420
      255
176
     1
290
     0
176
     1
 90
       50
176
     1
 90
       50
176
     1
 90
       50
176
     1
290
     0
176
     1
 90
       50
176
     1
 62
   256
176
     0
 40
1.0
176
     0
 90
        2
176
     1
  1
strokes_ogs.tif
176
     1
290
     0
176
     1
 40
1.0
176
     1
 40
1.0
176
     1
  0
VISUALSTYLE
  5
32
102
{ACAD_REACTORS
330
29
102
}
330
29
100
AcDbVisualStyle
  2
Conceptual
 70
     9
177
     3
291
     0
 70
    58
 90
        3
176
     1
 90
        2
176
     1
 90
        0
176
     1
 90
        0
176
     1
 40
0.6
176
     1
 40
30.0
176
     1
 62
     7
420
 16777215
176
     1
 90
        2
176
     1
 90
        2
176
     1
 62
     7
176
     1
 62
   257
176
     1
 90
        1
176
     1
 90
        1
176
     1
 40
179.0
176
     1
 90
        8
176
     1
 62
     7
176
     1
 40
1.0
176
     1
 90
        1
176
     1
 90
        6
176
     1
 90
        2
176
     1
 62
     7
176
     1
 90
        3
176
     1
 90
        0
176
     1
 90
        0
176
     1
290
     0
176
     1
 90
        1
176
     1
 40
0.0
176
     1
 90
        0
176
     1
290
     0
176
     1
290
     1
176
     1
290
     1
176
     1
290
     0
176
     1
290
     0
176
     1
290
     0
176
     1
290
     0
176
     1
290
     0
176
     1
290
     0
176
     1
 90
       50
176
     1
 40
0.0
176
     1
 40
1.0
176
     1
 90
        0
176
     1
 62
    18
420
        0
176
     1
 90
       50
176
     1
 90
        3
176
     1
 62
     5
420
      255
176
     1
290
     0
176
     1
 90
       50
176
     1
 90
       50
176
     1
 90
       50
176
     1
290
     0
176
     1
 90
       50
176
     1
 62
   256
176
     0
 40
1.0
176
     0
 90
        2
176
     1
  1
strokes_ogs.tif
176
     1
290
     0
176
     1
 40
1.0
176
     1
 40
1.0
176
     1
  0
VISUALSTYLE
  5
34
102
{ACAD_REACTORS
330
29
102
}
330
29
100
AcDbVisualStyle
  2
Dim
 70
    11
177
     3
291
     1
 70
    58
 90
        2
176
     1
 90
        2
176
     1
 90
        0
176
     1
 90
        0
176
     1
 40
0.6
176
     1
 40
30.0
176
     1
 62
     7
420
 16777215
176
     1
 90
        1
176
     1
 90
        4
176
     1
 62
     7
176
     1
 62
   257
176
     1
 90
        1
176
     1
 90
        1
176
     1
 40
1.0
176
     1
 90
        8
176
     1
 62
     7
176
     1
 40
1.0
176
     1
 90
        1
176
     1
 90
        6
176
     1
 90
        2
176
     1
 62
     7
176
     1
 90
        5
176
     1
 90
        0
176
     1
 90
        0
176
     1
290
     0
176
     1
 90
        1
176
     1
 40
-50.0
176
     1
 90
        0
176
     1
290
     0
176
     1
290
     1
176
     1
290
     1
176
     1
290
     0
176
     1
290
     0
176
     1
290
     0
176
     1
290
     0
176
     1
290
     0
176
     1
290
     0
176
     1
 90
       50
176
     1
 40
0.0
176
     1
 40
1.0
176
     1
 90
        0
176
     1
 62
    18
420
        0
176
     1
 90
       50
176
     1
 90
        3
176
     1
 62
     5
420
      255
176
     1
290
     0
176
     1
 90
       50
176
     1
 90
       50
176
     1
 90
       50
176
     1
290
     0
176
     1
 90
       50
176
     1
 62
   256
176
     0
 40
1.0
176
     0
 90
        2
176
     1
  1
strokes_ogs.tif
176
     1
290
     0
176
     1
 40
1.0
176
     1
 40
1.0
176
     1
  0
VISUALSTYLE
  5
41
102
{ACAD_REACTORS
330
29
102
}
330
29
100
AcDbVisualStyle
  2
EdgeColorOff
 70
    22
177
     3
291
     1
 70
    58
 90
        2
176
     0
 90
        2
176
     0
 90
        0
176
     0
 90
        0
176
     0
 40
0.6
176
     0
 40
30.0
176
     0
 62
     7
420
 16777215
176
     0
 90
        1
176
     0
 90
        4
176
     0
 62
     7
176
     0
 62
   257
176
     0
 90
        1
176
     0
 90
        1
176
     0
 40
1.0
176
     0
 90
        8
176
     2
 62
     7
176
     0
 40
1.0
176
     0
 90
        1
176
     0
 90
        6
176
     0
 90
        2
176
     0
 62
     7
176
     0
 90
        5
176
     0
 90
        0
176
     0
 90
        0
176
     0
290
     0
176
     0
 90
        1
176
     0
 40
0.0
176
     0
 90
        0
176
     0
290
     0
176
     0
290
     1
176
     0
290
     1
176
     0
290
     0
176
     0
290
     0
176
     0
290
     0
176
     0
290
     0
176
     0
290
     0
176
     0
290
     0
176
     0
 90
       50
176
     0
 40
0.0
176
     0
 40
1.0
176
     0
 90
        0
176
     0
 62
    18
420
        0
176
     0
 90
       50
176
     0
 90
        3
176
     0
 62
     5
420
      255
176
     0
290
     0
176
     0
 90
       50
176
     0
 90
       50
176
     0
 90
       50
176
     0
290
     0
176
     0
 90
       50
176
     0
 62
   256
176
     0
 40
1.0
176
     0
 90
        2
176
     0
  1
strokes_ogs.tif
176
     0
290
     0
176
     0
 40
1.0
176
     0
 40
1.0
176
     0
  0
VISUALSTYLE
  5
38
102
{ACAD_REACTORS
330
29
102
}
330
29
100
AcDbVisualStyle
  2
Facepattern
 70
    15
177
     3
291
     1
 70
    58
 90
        2
176
     1
 90
        2
176
     1
 90
        0
176
     1
 90
        0
176
     1
 40
0.6
176
     1
 40
30.0
176
     1
 62
     7
420
 16777215
176
     1
 90
        1
176
     1
 90
        4
176
     1
 62
     7
176
     1
 62
   257
176
     1
 90
        1
176
     1
 90
        1
176
     1
 40
1.0
176
     1
 90
        8
176
     1
 62
     7
176
     1
 40
1.0
176
     1
 90
        1
176
     1
 90
        6
176
     1
 90
        2
176
     1
 62
     7
176
     1
 90
        5
176
     1
 90
        0
176
     1
 90
        0
176
     1
290
     0
176
     1
 90
        1
176
     1
 40
0.0
176
     1
 90
        0
176
     1
290
     0
176
     1
290
     1
176
     1
290
     1
176
     1
290
     0
176
     1
290
     0
176
     1
290
     0
176
     1
290
     0
176
     1
290
     0
176
     1
290
     0
176
     1
 90
       50
176
     1
 40
0.0
176
     1
 40
1.0
176
     1
 90
        0
176
     1
 62
    18
420
        0
176
     1
 90
       50
176
     1
 90
        3
176
     1
 62
     5
420
      255
176
     1
290
     0
176
     1
 90
       50
176
     1
 90
       50
176
     1
 90
       50
176
     1
290
     0
176
     1
 90
       50
176
     1
 62
   256
176
     0
 40
1.0
176
     0
 90
        2
176
     1
  1
strokes_ogs.tif
176
     1
290
     0
176
     1
 40
1.0
176
     1
 40
1.0
176
     1
  0
VISUALSTYLE
  5
2A
102
{ACAD_REACTORS
330
29
102
}
330
29
100
AcDbVisualStyle
  2
Flat
 70
     0
177
     3
291
     1
 70
    58
 90
        2
176
     1
 90
        1
176
     1
 90
        1
176
     1
 90
        2
176
     1
 40
0.6
176
     1
 40
30.0
176
     1
 62
     7
420
 16777215
176
     1
 90
        0
176
     1
 90
        0
176
     1
 62
     7
176
     1
 62
   257
176
     1
 90
        1
176
     1
 90
        1
176
     1
 40
1.0
176
     1
 90
        8
176
     1
 62
     7
176
     1
 40
1.0
176
     1
 90
        1
176
     1
 90
        6
176
     1
 90
        2
176
     1
 62
     7
176
     1
 90
        5
176
     1
 90
        0
176
     1
 90
        0
176
     1
290
     0
176
     1
 90
       13
176
     1
 40
0.0
176
     1
 90
        0
176
     1
290
     0
176
     1
290
     1
176
     1
290
     1
176
     1
290
     0
176
     1
290
     0
176
     1
290
     0
176
     1
290
     0
176
     1
290
     0
176
     1
290
     0
176
     1
 90
       50
176
     1
 40
0.0
176
     1
 40
1.0
176
     1
 90
        0
176
     1
 62
    18
420
        0
176
     1
 90
       50
176
     1
 90
        3
176
     1
 62
     5
420
      255
176
     1
290
     0
176
     1
 90
       50
176
     1
 90
       50
176
     1
 90
       50
176
     1
290
     0
176
     1
 90
       50
176
     1
 62
   256
176
     0
 40
1.0
176
     0
 90
        2
176
     1
  1
strokes_ogs.tif
176
     1
290
     0
176
     1
 40
1.0
176
     1
 40
1.0
176
     1
  0
VISUALSTYLE
  5
2B
102
{ACAD_REACTORS
330
29
102
}
330
29
100
AcDbVisualStyle
  2
FlatWithEdges
 70
     1
177
     3
291
     1
 70
    58
 90
        2
176
     1
 90
        1
176
     1
 90
        1
176
     1
 90
        2
176
     1
 40
0.6
176
     1
 40
30.0
176
     1
 62
     7
420
 16777215
176
     1
 90
        1
176
     1
 90
        0
176
     1
 62
     7
176
     1
 62
   257
176
     1
 90
        1
176
     1
 90
        1
176
     1
 40
1.0
176
     1
 90
        0
176
     1
 62
   257
176
     1
 40
1.0
176
     1
 90
        1
176
     1
 90
        6
176
     1
 90
        2
176
     1
 62
     7
176
     1
 90
        5
176
     1
 90
        0
176
     1
 90
        0
176
     1
290
     0
176
     1
 90
       13
176
     1
 40
0.0
176
     1
 90
        0
176
     1
290
     0
176
     1
290
     1
176
     1
290
     1
176
     1
290
     0
176
     1
290
     0
176
     1
290
     0
176
     1
290
     0
176
     1
290
     0
176
     1
290
     0
176
     1
 90
       50
176
     1
 40
0.0
176
     1
 40
1.0
176
     1
 90
        0
176
     1
 62
    18
420
        0
176
     1
 90
       50
176
     1
 90
        3
176
     1
 62
     5
420
      255
176
     1
290
     0
176
     1
 90
       50
176
     1
 90
       50
176
     1
 90
       50
176
     1
290
     0
176
     1
 90
       50
176
     1
 62
   256
176
     0
 40
1.0
176
     0
 90
        2
176
     1
  1
strokes_ogs.tif
176
     1
290
     0
176
     1
 40
1.0
176
     1
 40
1.0
176
     1
  0
VISUALSTYLE
  5
2C
102
{ACAD_REACTORS
330
29
102
}
330
29
100
AcDbVisualStyle
  2
Gouraud
 70
     2
177
     3
291
     1
 70
    58
 90
        2
176
     1
 90
        2
176
     1
 90
        1
176
     1
 90
        2
176
     1
 40
0.6
176
     1
 40
30.0
176
     1
 62
     7
420
 16777215
176
     1
 90
        0
176
     1
 90
        0
176
     1
 62
     7
176
     1
 62
   257
176
     1
 90
        1
176
     1
 90
        1
176
     1
 40
1.0
176
     1
 90
        0
176
     1
 62
     7
176
     1
 40
1.0
176
     1
 90
        1
176
     1
 90
        6
176
     1
 90
        2
176
     1
 62
     7
176
     1
 90
        5
176
     1
 90
        0
176
     1
 90
        0
176
     1
290
     0
176
     1
 90
       13
176
     1
 40
0.0
176
     1
 90
        0
176
     1
290
     0
176
     1
290
     1
176
     1
290
     1
176
     1
290
     0
176
     1
290
     0
176
     1
290
     0
176
     1
290
     0
176
     1
290
     0
176
     1
290
     0
176
     1
 90
       50
176
     1
 40
0.0
176
     1
 40
1.0
176
     1
 90
        0
176
     1
 62
    18
420
        0
176
     1
 90
       50
176
     1
 90
        3
176
     1
 62
     5
420
      255
176
     1
290
     0
176
     1
 90
       50
176
     1
 90
       50
176
     1
 90
       50
176
     1
290
     0
176
     1
 90
       50
176
     1
 62
   256
176
     0
 40
1.0
176
     0
 90
        2
176
     1
  1
strokes_ogs.tif
176
     1
290
     0
176
     1
 40
1.0
176
     1
 40
1.0
176
     1
  0
VISUALSTYLE
  5
2D
102
{ACAD_REACTORS
330
29
102
}
330
29
100
AcDbVisualStyle
  2
GouraudWithEdges
 70
     3
177
     3
291
     1
 70
    58
 90
        2
176
     1
 90
        2
176
     1
 90
        1
176
     1
 90
        2
176
     1
 40
0.6
176
     1
 40
30.0
176
     1
 62
     7
420
 16777215
176
     1
 90
        1
176
     1
 90
        0
176
     1
 62
     7
176
     1
 62
   257
176
     1
 90
        1
176
     1
 90
        1
176
     1
 40
1.0
176
     1
 90
        0
176
     1
 62
   257
176
     1
 40
1.0
176
     1
 90
        1
176
     1
 90
        6
176
     1
 90
        2
176
     1
 62
     7
176
     1
 90
        5
176
     1
 90
        0
176
     1
 90
        0
176
     1
290
     0
176
     1
 90
       13
176
     1
 40
0.0
176
     1
 90
        0
176
     1
290
     0
176
     1
290
     1
176
     1
290
     1
176
     1
290
     0
176
     1
290
     0
176
     1
290
     0
176
     1
290
     0
176
     1
290
     0
176
     1
290
     0
176
     1
 90
       50
176
     1
 40
0.0
176
     1
 40
1.0
176
     1
 90
        0
176
     1
 62
    18
420
        0
176
     1
 90
       50
176
     1
 90
        3
176
     1
 62
     5
420
      255
176
     1
290
     0
176
     1
 90
       50
176
     1
 90
       50
176
     1
 90
       50
176
     1
290
     0
176
     1
 90
       50
176
     1
 62
   256
176
     0
 40
1.0
176
     0
 90
        2
176
     1
  1
strokes_ogs.tif
176
     1
290
     0
176
     1
 40
1.0
176
     1
 40
1.0
176
     1
  0
VISUALSTYLE
  5
31
102
{ACAD_REACTORS
330
29
102
}
330
29
100
AcDbVisualStyle
  2
Hidden
 70
     6
177
     3
291
     0
 70
    58
 90
        1
176
     1
 90
        2
176
     1
 90
        2
176
     1
 90
        0
176
     1
 40
0.6
176
     1
 40
30.0
176
     1
 62
     7
420
 16777215
176
     1
 90
        2
176
     1
 90
        2
176
     1
 62
     7
176
     1
 62
   257
176
     1
 90
        2
176
     1
 90
        1
176
     1
 40
40.0
176
     1
 90
        0
176
     1
 62
   257
176
     1
 40
1.0
176
     1
 90
        1
176
     1
 90
        6
176
     1
 90
        2
176
     1
 62
     7
176
     1
 90
        3
176
     1
 90
        0
176
     1
 90
        0
176
     1
290
     0
176
     1
 90
        1
176
     1
 40
0.0
176
     1
 90
        0
176
     1
290
     0
176
     1
290
     1
176
     1
290
     1
176
     1
290
     0
176
     1
290
     0
176
     1
290
     0
176
     1
290
     0
176
     1
290
     0
176
     1
290
     0
176
     1
 90
       50
176
     1
 40
0.0
176
     1
 40
1.0
176
     1
 90
        0
176
     1
 62
    18
420
        0
176
     1
 90
       50
176
     1
 90
        3
176
     1
 62
     5
420
      255
176
     1
290
     0
176
     1
 90
       50
176
     1
 90
       50
176
     1
 90
       50
176
     1
290
     0
176
     1
 90
       50
176
     1
 62
   256
176
     0
 40
1.0
176
     0
 90
        2
176
     1
  1
strokes_ogs.tif
176
     1
290
     0
176
     1
 40
1.0
176
     1
 40
1.0
176
     1
  0
VISUALSTYLE
  5
3F
102
{ACAD_REACTORS
330
29
102
}
330
29
100
AcDbVisualStyle
  2
JitterOff
 70
    20
177
     3
291
     1
 70
    58
 90
        2
176
     0
 90
        2
176
     0
 90
        0
176
     0
 90
        0
176
     0
 40
0.6
176
     0
 40
30.0
176
     0
 62
     7
420
 16777215
176
     0
 90
        1
176
     0
 90
        4
176
     0
 62
     7
176
     0
 62
   257
176
     0
 90
        1
176
     0
 90
        1
176
     0
 40
1.0
176
     0
 90
       10
176
     2
 62
     7
176
     0
 40
1.0
176
     0
 90
        1
176
     0
 90
        6
176
     0
 90
        2
176
     0
 62
     7
176
     0
 90
        5
176
     0
 90
        0
176
     0
 90
        0
176
     0
290
     0
176
     0
 90
        1
176
     0
 40
0.0
176
     0
 90
        0
176
     0
290
     0
176
     0
290
     1
176
     0
290
     1
176
     0
290
     0
176
     0
290
     0
176
     0
290
     0
176
     0
290
     0
176
     0
290
     0
176
     0
290
     0
176
     0
 90
       50
176
     0
 40
0.0
176
     0
 40
1.0
176
     0
 90
        0
176
     0
 62
    18
420
        0
176
     0
 90
       50
176
     0
 90
        3
176
     0
 62
     5
420
      255
176
     0
290
     0
176
     0
 90
       50
176
     0
 90
       50
176
     0
 90
       50
176
     0
290
     0
176
     0
 90
       50
176
     0
 62
   256
176
     0
 40
1.0
176
     0
 90
        2
176
     0
  1
strokes_ogs.tif
176
     0
290
     0
176
     0
 40
1.0
176
     0
 40
1.0
176
     0
  0
VISUALSTYLE
  5
37
102
{ACAD_REACTORS
330
29
102
}
330
29
100
AcDbVisualStyle
  2
Linepattern
 70
    14
177
     3
291
     1
 70
    58
 90
        2
176
     1
 90
        2
176
     1
 90
        0
176
     1
 90
        0
176
     1
 40
0.6
176
     1
 40
30.0
176
     1
 62
     7
420
 16777215
176
     1
 90
        1
176
     1
 90
        4
176
     1
 62
     7
176
     1
 62
   257
176
     1
 90
        7
176
     1
 90
        7
176
     1
 40
1.0
176
     1
 90
        8
176
     1
 62
     7
176
     1
 40
1.0
176
     1
 90
        1
176
     1
 90
        6
176
     1
 90
        2
176
     1
 62
     7
176
     1
 90
        5
176
     1
 90
        0
176
     1
 90
        0
176
     1
290
     0
176
     1
 90
        1
176
     1
 40
0.0
176
     1
 90
        0
176
     1
290
     0
176
     1
290
     1
176
     1
290
     1
176
     1
290
     0
176
     1
290
     0
176
     1
290
     0
176
     1
290
     0
176
     1
290
     0
176
     1
290
     0
176
     1
 90
       50
176
     1
 40
0.0
176
     1
 40
1.0
176
     1
 90
        0
176
     1
 62
    18
420
        0
176
     1
 90
       50
176
     1
 90
        3
176
     1
 62
     5
420
      255
176
     1
290
     0
176
     1
 90
       50
176
     1
 90
       50
176
     1
 90
       50
176
     1
290
     0
176
     1
 90
       50
176
     1
 62
   256
176
     0
 40
1.0
176
     0
 90
        2
176
     1
  1
strokes_ogs.tif
176
     1
290
     0
176
     1
 40
1.0
176
     1
 40
1.0
176
     1
  0
VISUALSTYLE
  5
40
102
{ACAD_REACTORS
330
29
102
}
330
29
100
AcDbVisualStyle
  2
OverhangOff
 70
    21
177
     3
291
     1
 70
    58
 90
        2
176
     0
 90
        2
176
     0
 90
        0
176
     0
 90
        0
176
     0
 40
0.6
176
     0
 40
30.0
176
     0
 62
     7
420
 16777215
176
     0
 90
        1
176
     0
 90
        4
176
     0
 62
     7
176
     0
 62
   257
176
     0
 90
        1
176
     0
 90
        1
176
     0
 40
1.0
176
     0
 90
        9
176
     2
 62
     7
176
     0
 40
1.0
176
     0
 90
        1
176
     0
 90
        6
176
     0
 90
        2
176
     0
 62
     7
176
     0
 90
        5
176
     0
 90
        0
176
     0
 90
        0
176
     0
290
     0
176
     0
 90
        1
176
     0
 40
0.0
176
     0
 90
        0
176
     0
290
     0
176
     0
290
     1
176
     0
290
     1
176
     0
290
     0
176
     0
290
     0
176
     0
290
     0
176
     0
290
     0
176
     0
290
     0
176
     0
290
     0
176
     0
 90
       50
176
     0
 40
0.0
176
     0
 40
1.0
176
     0
 90
        0
176
     0
 62
    18
420
        0
176
     0
 90
       50
176
     0
 90
        3
176
     0
 62
     5
420
      255
176
     0
290
     0
176
     0
 90
       50
176
     0
 90
       50
176
     0
 90
       50
176
     0
290
     0
176
     0
 90
       50
176
     0
 62
   256
176
     0
 40
1.0
176
     0
 90
        2
176
     0
  1
strokes_ogs.tif
176
     0
290
     0
176
     0
 40
1.0
176
     0
 40
1.0
176
     0
  0
VISUALSTYLE
  5
33
102
{ACAD_REACTORS
330
29
102
}
330
29
100
AcDbVisualStyle
  2
Realistic
 70
     8
177
     3
291
     0
 70
    58
 90
        2
176
     1
 90
        3
176
     1
 90
        0
176
     1
 90
        2
176
     1
 40
0.6
176
     1
 40
30.0
176
     1
 62
     7
420
 16777215
176
     1
 90
        0
176
     1
 90
        0
176
     1
 62
     7
176
     1
 62
   257
176
     1
 90
        1
176
     1
 90
        1
176
     1
 40
1.0
176
     1
 90
        8
176
     1
 62
   257
176
     1
 40
1.0
176
     1
 90
        1
176
     1
 90
        6
176
     1
 90
        2
176
     1
 62
     7
176
     1
 90
        3
176
     1
 90
        0
176
     1
 90
        0
176
     1
290
     0
176
     1
 90
       13
176
     1
 40
0.0
176
     1
 90
        0
176
     1
290
     0
176
     1
290
     1
176
     1
290
     1
176
     1
290
     0
176
     1
290
     0
176
     1
290
     0
176
     1
290
     0
176
     1
290
     0
176
     1
290
     0
176
     1
 90
       50
176
     1
 40
0.0
176
     1
 40
1.0
176
     1
 90
        0
176
     1
 62
    18
420
        0
176
     1
 90
       50
176
     1
 90
        3
176
     1
 62
     5
420
      255
176
     1
290
     0
176
     1
 90
       50
176
     1
 90
       50
176
     1
 90
       50
176
     1
290
     0
176
     1
 90
       50
176
     1
 62
   256
176
     0
 40
1.0
176
     0
 90
        2
176
     1
  1
strokes_ogs.tif
176
     1
290
     0
176
     1
 40
1.0
176
     1
 40
1.0
176
     1
  0
VISUALSTYLE
  5
3E
102
{ACAD_REACTORS
330
29
102
}
330
29
100
AcDbVisualStyle
  2
Shaded
 70
    27
177
     3
291
     0
 70
    58
 90
        2
176
     1
 90
        2
176
     1
 90
        1
176
     1
 90
        2
176
     1
 40
0.6
176
     1
 40
30.0
176
     1
 62
     7
420
 16777215
176
     1
 90
        0
176
     1
 90
        4
176
     1
 62
     7
176
     1
 62
   257
176
     1
 90
        1
176
     1
 90
        1
176
     1
 40
1.0
176
     1
 90
        8
176
     1
 62
   257
176
     1
 40
1.0
176
     1
 90
        1
176
     1
 90
        6
176
     1
 90
        2
176
     1
 62
     8
420
  7895160
176
     1
 90
        3
176
     1
 90
        0
176
     1
 90
        0
176
     1
290
     0
176
     1
 90
        5
176
     1
 40
0.0
176
     1
 90
        0
176
     1
290
     0
176
     1
290
     1
176
     1
290
     1
176
     1
290
     0
176
     1
290
     0
176
     1
290
     0
176
     1
290
     0
176
     1
290
     0
176
     1
290
     0
176
     1
 90
       50
176
     1
 40
0.0
176
     1
 40
1.0
176
     1
 90
        0
176
     1
 62
    18
420
        0
176
     1
 90
       50
176
     1
 90
        3
176
     1
 62
     5
420
      255
176
     1
290
     0
176
     1
 90
       50
176
     1
 90
       50
176
     1
 90
       50
176
     1
290
     0
176
     1
 90
       50
176
     1
 62
   256
176
     0
 40
1.0
176
     0
 90
        2
176
     1
  1
strokes_ogs.tif
176
     1
290
     0
176
     1
 40
1.0
176
     1
 40
1.0
176
     1
  0
VISUALSTYLE
  5
3D
102
{ACAD_REACTORS
330
29
102
}
330
29
100
AcDbVisualStyle
  2
Shaded with edges
 70
    26
177
     3
291
     0
 70
    58
 90
        2
176
     1
 90
        2
176
     1
 90
        1
176
     1
 90
        2
176
     1
 40
0.6
176
     1
 40
30.0
176
     1
 62
     7
420
 16777215
176
     1
 90
        1
176
     1
 90
        2
176
     1
 62
     7
176
     1
 62
   257
176
     1
 90
        2
176
     1
 90
        1
176
     1
 40
1.0
176
     1
 90
        8
176
     1
 62
   257
176
     1
 40
1.0
176
     1
 90
        1
176
     1
 90
        6
176
     1
 90
        2
176
     1
 62
     7
176
     1
 90
        3
176
     1
 90
        0
176
     1
 90
        0
176
     1
290
     0
176
     1
 90
        5
176
     1
 40
0.0
176
     1
 90
        0
176
     1
290
     0
176
     1
290
     1
176
     1
290
     1
176
     1
290
     0
176
     1
290
     0
176
     1
290
     0
176
     1
290
     0
176
     1
290
     0
176
     1
290
     0
176
     1
 90
       50
176
     1
 40
0.0
176
     1
 40
1.0
176
     1
 90
        0
176
     1
 62
    18
420
        0
176
     1
 90
       50
176
     1
 90
        3
176
     1
 62
     5
420
      255
176
     1
290
     0
176
     1
 90
       50
176
     1
 90
       50
176
     1
 90
       50
176
     1
290
     0
176
     1
 90
       50
176
     1
 62
   256
176
     0
 40
1.0
176
     0
 90
        2
176
     1
  1
strokes_ogs.tif
176
     1
290
     0
176
     1
 40
1.0
176
     1
 40
1.0
176
     1
  0
VISUALSTYLE
  5
3A
102
{ACAD_REACTORS
330
29
102
}
330
29
100
AcDbVisualStyle
  2
Shades of Gray
 70
    23
177
     3
291
     0
 70
    58
 90
        2
176
     1
 90
        2
176
     1
 90
        3
176
     1
 90
        0
176
     1
 40
0.6
176
     1
 40
30.0
176
     1
 62
     7
420
 16777215
176
     1
 90
        2
176
     1
 90
        2
176
     1
 62
     7
176
     1
 62
     7
176
     1
 90
        1
176
     1
 90
        1
176
     1
 40
40.0
176
     1
 90
        8
176
     1
 62
     7
176
     1
 40
1.0
176
     1
 90
        1
176
     1
 90
        6
176
     1
 90
        2
176
     1
 62
     7
176
     1
 90
        3
176
     1
 90
        0
176
     1
 90
        0
176
     1
290
     0
176
     1
 90
        1
176
     1
 40
0.0
176
     1
 90
        0
176
     1
290
     0
176
     1
290
     1
176
     1
290
     1
176
     1
290
     0
176
     1
290
     0
176
     1
290
     0
176
     1
290
     0
176
     1
290
     0
176
     1
290
     0
176
     1
 90
       50
176
     1
 40
0.0
176
     1
 40
1.0
176
     1
 90
        0
176
     1
 62
    18
420
        0
176
     1
 90
       50
176
     1
 90
        3
176
     1
 62
     5
420
      255
176
     1
290
     0
176
     1
 90
       50
176
     1
 90
       50
176
     1
 90
       50
176
     1
290
     0
176
     1
 90
       50
176
     1
 62
   256
176
     0
 40
1.0
176
     0
 90
        2
176
     1
  1
strokes_ogs.tif
176
     1
290
     0
176
     1
 40
1.0
176
     1
 40
1.0
176
     1
  0
VISUALSTYLE
  5
3B
102
{ACAD_REACTORS
330
29
102
}
330
29
100
AcDbVisualStyle
  2
Sketchy
 70
    24
177
     3
291
     0
 70
    58
 90
        1
176
     1
 90
        2
176
     1
 90
        2
176
     1
 90
        0
176
     1
 40
0.6
176
     1
 40
30.0
176
     1
 62
     7
420
 16777215
176
     1
 90
        2
176
     1
 90
        2
176
     1
 62
     7
176
     1
 62
     7
176
     1
 90
        1
176
     1
 90
        1
176
     1
 40
40.0
176
     1
 90
       11
176
     1
 62
     7
176
     1
 40
1.0
176
     1
 90
        1
176
     1
 90
        6
176
     1
 90
        2
176
     1
 62
     7
176
     1
 90
        6
176
     1
 90
        0
176
     1
 90
        0
176
     1
290
     0
176
     1
 90
        1
176
     1
 40
0.0
176
     1
 90
        0
176
     1
290
     0
176
     1
290
     1
176
     1
290
     1
176
     1
290
     0
176
     1
290
     0
176
     1
290
     0
176
     1
290
     0
176
     1
290
     0
176
     1
290
     0
176
     1
 90
       50
176
     1
 40
0.0
176
     1
 40
1.0
176
     1
 90
        0
176
     1
 62
    18
420
        0
176
     1
 90
       50
176
     1
 90
        3
176
     1
 62
     5
420
      255
176
     1
290
     0
176
     1
 90
       50
176
     1
 90
       50
176
     1
 90
       50
176
     1
290
     0
176
     1
 90
       50
176
     1
 62
   256
176
     0
 40
1.0
176
     0
 90
        2
176
     1
  1
strokes_ogs.tif
176
     1
290
     0
176
     1
 40
1.0
176
     1
 40
1.0
176
     1
  0
VISUALSTYLE
  5
36
102
{ACAD_REACTORS
330
29
102
}
330
29
100
AcDbVisualStyle
  2
Thicken
 70
    13
177
     3
291
     1
 70
    58
 90
        2
176
     1
 90
        2
176
     1
 90
        0
176
     1
 90
        0
176
     1
 40
0.6
176
     1
 40
30.0
176
     1
 62
     7
420
 16777215
176
     1
 90
        1
176
     1
 90
        4
176
     1
 62
     7
176
     1
 62
   257
176
     1
 90
        1
176
     1
 90
        1
176
     1
 40
1.0
176
     1
 90
       12
176
     1
 62
     7
176
     1
 40
1.0
176
     1
 90
        1
176
     1
 90
        6
176
     1
 90
        2
176
     1
 62
     7
176
     1
 90
        5
176
     1
 90
        0
176
     1
 90
        0
176
     1
290
     0
176
     1
 90
        1
176
     1
 40
0.0
176
     1
 90
        0
176
     1
290
     0
176
     1
290
     1
176
     1
290
     1
176
     1
290
     0
176
     1
290
     0
176
     1
290
     0
176
     1
290
     0
176
     1
290
     0
176
     1
290
     0
176
     1
 90
       50
176
     1
 40
0.0
176
     1
 40
1.0
176
     1
 90
        0
176
     1
 62
    18
420
        0
176
     1
 90
       50
176
     1
 90
        3
176
     1
 62
     5
420
      255
176
     1
290
     0
176
     1
 90
       50
176
     1
 90
       50
176
     1
 90
       50
176
     1
290
     0
176
     1
 90
       50
176
     1
 62
   256
176
     0
 40
1.0
176
     0
 90
        2
176
     1
  1
strokes_ogs.tif
176
     1
290
     0
176
     1
 40
1.0
176
     1
 40
1.0
176
     1
  0
VISUALSTYLE
  5
30
102
{ACAD_REACTORS
330
29
102
}
330
29
100
AcDbVisualStyle
  2
Wireframe
 70
     5
177
     3
291
     0
 70
    58
 90
        0
176
     1
 90
        2
176
     1
 90
        0
176
     1
 90
        0
176
     1
 40
0.6
176
     1
 40
30.0
176
     1
 62
     7
420
 16777215
176
     1
 90
        1
176
     1
 90
        4
176
     1
 62
     7
176
     1
 62
   257
176
     1
 90
        1
176
     1
 90
        1
176
     1
 40
1.0
176
     1
 90
        0
176
     1
 62
   257
176
     1
 40
1.0
176
     1
 90
        1
176
     1
 90
        6
176
     1
 90
        2
176
     1
 62
     7
176
     1
 90
        3
176
     1
 90
        0
176
     1
 90
        0
176
     1
290
     0
176
     1
 90
        1
176
     1
 40
0.0
176
     1
 90
        0
176
     1
290
     0
176
     1
290
     1
176
     1
290
     1
176
     1
290
     0
176
     1
290
     0
176
     1
290
     0
176
     1
290
     0
176
     1
290
     0
176
     1
290
     0
176
     1
 90
       50
176
     1
 40
0.0
176
     1
 40
1.0
176
     1
 90
        0
176
     1
 62
    18
420
        0
176
     1
 90
       50
176
     1
 90
        3
176
     1
 62
     5
420
      255
176
     1
290
     0
176
     1
 90
       50
176
     1
 90
       50
176
     1
 90
       50
176
     1
290
     0
176
     1
 90
       50
176
     1
 62
   256
176
     0
 40
1.0
176
     0
 90
        2
176
     1
  1
strokes_ogs.tif
176
     1
290
     0
176
     1
 40
1.0
176
     1
 40
1.0
176
     1
  0
VISUALSTYLE
  5
3C
102
{ACAD_REACTORS
330
29
102
}
330
29
100
AcDbVisualStyle
  2
X-Ray
 70
    25
177
     3
291
     0
 70
    58
 90
        2
176
     1
 90
        2
176
     1
 90
        1
176
     1
 90
        1
176
     1
 40
0.5
176
     1
 40
30.0
176
     1
 62
     7
420
 16777215
176
     1
 90
        1
176
     1
 90
        0
176
     1
 62
     7
176
     1
 62
   257
176
     1
 90
        1
176
     1
 90
        1
176
     1
 40
1.0
176
     1
 90
        8
176
     1
 62
     7
176
     1
 40
1.0
176
     1
 90
        1
176
     1
 90
        6
176
     1
 90
        2
176
     1
 62
     7
176
     1
 90
        3
176
     1
 90
        0
176
     1
 90
        0
176
     1
290
     0
176
     1
 90
       13
176
     1
 40
0.0
176
     1
 90
        0
176
     1
290
     0
176
     1
290
     1
176
     1
290
     1
176
     1
290
     0
176
     1
290
     0
176
     1
290
     0
176
     1
290
     0
176
     1
290
     0
176
     1
290
     0
176
     1
 90
       50
176
     1
 40
0.0
176
     1
 40
1.0
176
     1
 90
        0
176
     1
 62
    18
420
        0
176
     1
 90
       50
176
     1
 90
        3
176
     1
 62
     5
420
      255
176
     1
290
     0
176
     1
 90
       50
176
     1
 90
       50
176
     1
 90
       50
176
     1
290
     0
176
     1
 90
       50
176
     1
 62
   256
176
     0
 40
1.0
176
     0
 90
        2
176
     1
  1
strokes_ogs.tif
176
     1
290
     0
176
     1
 40
1.0
176
     1
 40
1.0
176
     1
  0
DICTIONARYVAR
  5
D6
102
{ACAD_REACTORS
330
D1
102
}
330
D1
100
DictionaryVariables
280
     0
  1
1:1
  0
DICTIONARYVAR
  5
D3
102
{ACAD_REACTORS
330
D1
102
}
330
D1
100
DictionaryVariables
280
     0
  1
STANDARD
  0
DICTIONARYVAR
  5
D2
102
{ACAD_REACTORS
330
D1
102
}
330
D1
100
DictionaryVariables
280
     0
  1
STANDARD
  0
DICTIONARYVAR
  5
D4
102
{ACAD_REACTORS
330
D1
102
}
330
D1
100
DictionaryVariables
280
     0
  1
Imperial24
  0
DICTIONARYVAR
  5
D5
102
{ACAD_REACTORS
330
D1
102
}
330
D1
100
DictionaryVariables
280
     0
  1
Imperial24
  0
DICTIONARY
  5
1A
330
19
100
AcDbDictionary
280
     1
281
     1
  3
BUMPTILE
360
1C
  3
DIFFUSETILE
360
1B
  3
OPACITYTILE
360
1F
  3
REFLECTIONTILE
360
1E
  3
REFRACTIONTILE
360
20
  3
SPECULARTILE
360
1D
  0
DICTIONARY
  5
12
330
11
100
AcDbDictionary
280
     1
281
     1
  3
BUMPTILE
360
14
  3
DIFFUSETILE
360
13
  3
OPACITYTILE
360
17
  3
REFLECTIONTILE
360
16
  3
REFRACTIONTILE
360
18
  3
SPECULARTILE
360
15
  0
DICTIONARY
  5
22
330
21
100
AcDbDictionary
280
     1
281
     1
  3
BUMPTILE
360
24
  3
DIFFUSETILE
360
23
  3
OPACITYTILE
360
27
  3
REFLECTIONTILE
360
26
  3
REFRACTIONTILE
360
28
  3
SPECULARTILE
360
25
  0
DICTIONARY
  5
D7
330
65
100
AcDbDictionary
280
     1
281
     1
  3
ACAD_ROUNDTRIP_2008_TABLESTYLE_CELLSTYLEMAP
360
D8
  0
XRECORD
  5
1C
102
{ACAD_REACTORS
330
1A
102
}
330
1A
100
AcDbXrecord
280
     1
270
     1
271
     1
  0
XRECORD
  5
1B
102
{ACAD_REACTORS
330
1A
102
}
330
1A
100
AcDbXrecord
280
     1
270
     1
271
     1
  0
XRECORD
  5
1F
102
{ACAD_REACTORS
330
1A
102
}
330
1A
100
AcDbXrecord
280
     1
270
     1
271
     1
  0
XRECORD
  5
1E
102
{ACAD_REACTORS
330
1A
102
}
330
1A
100
AcDbXrecord
280
     1
270
     1
271
     1
  0
XRECORD
  5
20
102
{ACAD_REACTORS
330
1A
102
}
330
1A
100
AcDbXrecord
280
     1
270
     1
271
     1
  0
XRECORD
  5
1D
102
{ACAD_REACTORS
330
1A
102
}
330
1A
100
AcDbXrecord
280
     1
270
     1
271
     1
  0
XRECORD
  5
14
102
{ACAD_REACTORS
330
12
102
}
330
12
100
AcDbXrecord
280
     1
270
     1
271
     1
  0
XRECORD
  5
13
102
{ACAD_REACTORS
330
12
102
}
330
12
100
AcDbXrecord
280
     1
270
     1
271
     1
  0
XRECORD
  5
17
102
{ACAD_REACTORS
330
12
102
}
330
12
100
AcDbXrecord
280
     1
270
     1
271
     1
  0
XRECORD
  5
16
102
{ACAD_REACTORS
330
12
102
}
330
12
100
AcDbXrecord
280
     1
270
     1
271
     1
  0
XRECORD
  5
18
102
{ACAD_REACTORS
330
12
102
}
330
12
100
AcDbXrecord
280
     1
270
     1
271
     1
  0
XRECORD
  5
15
102
{ACAD_REACTORS
330
12
102
}
330
12
100
AcDbXrecord
280
     1
270
     1
271
     1
  0
XRECORD
  5
24
102
{ACAD_REACTORS
330
22
102
}
330
22
100
AcDbXrecord
280
     1
270
     1
271
     1
  0
XRECORD
  5
23
102
{ACAD_REACTORS
330
22
102
}
330
22
100
AcDbXrecord
280
     1
270
     1
271
     1
  0
XRECORD
  5
27
102
{ACAD_REACTORS
330
22
102
}
330
22
100
AcDbXrecord
280
     1
270
     1
271
     1
  0
XRECORD
  5
26
102
{ACAD_REACTORS
330
22
102
}
330
22
100
AcDbXrecord
280
     1
270
     1
271
     1
  0
XRECORD
  5
28
102
{ACAD_REACTORS
330
22
102
}
330
22
100
AcDbXrecord
280
     1
270
     1
271
     1
  0
XRECORD
  5
25
102
{ACAD_REACTORS
330
22
102
}
330
22
100
AcDbXrecord
280
     1
270
     1
271
     1
  0
CELLSTYLEMAP
  5
D8
102
{ACAD_REACTORS
330
D7
102
}
330
D7
100
AcDbCellStyleMap
 90
        3
300
CELLSTYLE
  1
TABLEFORMAT_BEGIN
 90
        5
170
     1
 91
        0
 92
    32768
 62
   257
 93
        1
300
CONTENTFORMAT
  1
CONTENTFORMAT_BEGIN
 90
        0
 91
        0
 92
      512
 93
        0
300

 40
0.0
140
1.0
 94
        5
 62
     0
340
55
144
0.25
309
CONTENTFORMAT_END
171
     0
 94
        0
309
TABLEFORMAT_END
  1
CELLSTYLE_BEGIN
 90
        1
 91
        1
300
_TITLE
309
CELLSTYLE_END
300
CELLSTYLE
  1
TABLEFORMAT_BEGIN
 90
        5
170
     1
 91
        0
 92
        0
 62
   257
 93
        1
300
CONTENTFORMAT
  1
CONTENTFORMAT_BEGIN
 90
        0
 91
        0
 92
      512
 93
        0
300

 40
0.0
140
1.0
 94
        5
 62
     0
340
55
144
0.18
309
CONTENTFORMAT_END
171
     0
 94
        0
309
TABLEFORMAT_END
  1
CELLSTYLE_BEGIN
 90
        2
 91
        1
300
_HEADER
309
CELLSTYLE_END
300
CELLSTYLE
  1
TABLEFORMAT_BEGIN
 90
        5
170
     1
 91
        0
 92
        0
 62
   257
 93
        1
300
CONTENTFORMAT
  1
CONTENTFORMAT_BEGIN
 90
        0
 91
        0
 92
      512
 93
        0
300

 40
0.0
140
1.0
 94
        2
 62
     0
340
55
144
0.18
309
CONTENTFORMAT_END
171
     0
 94
        0
309
TABLEFORMAT_END
  1
CELLSTYLE_BEGIN
 90
        3
 91
        2
300
_DATA
309
CELLSTYLE_END
  0
ENDSEC
  0
EOF
