  0
SECTION
  2
HEADER
  9
$ACADVER
  1
AC1032
  9
$ACADMAINTVER
 90
      228
  9
$DWGCODEPAGE
  3
ANSI_1252
  9
$REQUIREDVERSIONS
160
                 0
  9
$INSBASE
 10
0.0
 20
0.0
 30
0.0
  9
$EXTMIN
 10
1.000000000000000E+20
 20
1.000000000000000E+20
 30
1.000000000000000E+20
  9
$EXTMAX
 10
-1.000000000000000E+20
 20
-1.000000000000000E+20
 30
-1.000000000000000E+20
  9
$LIMMIN
 10
0.0
 20
0.0
  9
$LIMMAX
 10
12.0
 20
9.0
  9
$ORTHOMODE
 70
     0
  9
$REGENMODE
 70
     1
  9
$FILLMODE
 70
     1
  9
$QTEXTMODE
 70
     0
  9
$MIRRTEXT
 70
     0
  9
$LTSCALE
 40
1.0
  9
$ATTMODE
 70
     1
  9
$TEXTSIZE
 40
0.2
  9
$TRACEWID
 40
0.05
  9
$TEXTSTYLE
  7
Standard
  9
$CLAYER
  8
0
  9
$CELTYPE
  6
ByLayer
  9
$CECOLOR
 62
   256
  9
$CELTSCALE
 40
1.0
  9
$DISPSILH
 70
     0
  9
$DIMSCALE
 40
1.0
  9
$DIMASZ
 40
0.18
  9
$DIMEXO
 40
0.0625
  9
$DIMDLI
 40
0.38
  9
$DIMRND
 40
0.0
  9
$DIMDLE
 40
0.0
  9
$DIMEXE
 40
0.18
  9
$DIMTP
 40
0.0
  9
$DIMTM
 40
0.0
  9
$DIMTXT
 40
0.18
  9
$DIMCEN
 40
0.09
  9
$DIMTSZ
 40
0.0
  9
$DIMTOL
 70
     0
  9
$DIMLIM
 70
     0
  9
$DIMTIH
 70
     1
  9
$DIMTOH
 70
     1
  9
$DIMSE1
 70
     0
  9
$DIMSE2
 70
     0
  9
$DIMTAD
 70
     0
  9
$DIMZIN
 70
     0
  9
$DIMBLK
  1

  9
$DIMASO
 70
     1
  9
$DIMSHO
 70
     1
  9
$DIMPOST
  1

  9
$DIMAPOST
  1

  9
$DIMALT
 70
     0
  9
$DIMALTD
 70
     2
  9
$DIMALTF
 40
25.4
  9
$DIMLFAC
 40
1.0
  9
$DIMTOFL
 70
     0
  9
$DIMTVP
 40
0.0
  9
$DIMTIX
 70
     0
  9
$DIMSOXD
 70
     0
  9
$DIMSAH
 70
     0
  9
$DIMBLK1
  1

  9
$DIMBLK2
  1

  9
$DIMSTYLE
  2
Standard
  9
$DIMCLRD
 70
     0
  9
$DIMCLRE
 70
     0
  9
$DIMCLRT
 70
     0
  9
$DIMTFAC
 40
1.0
  9
$DIMGAP
 40
0.09
  9
$DIMJUST
 70
     0
  9
$DIMSD1
 70
     0
  9
$DIMSD2
 70
     0
  9
$DIMTOLJ
 70
     1
  9
$DIMTZIN
 70
     0
  9
$DIMALTZ
 70
     0
  9
$DIMALTTZ
 70
     0
  9
$DIMUPT
 70
     0
  9
$DIMDEC
 70
     4
  9
$DIMTDEC
 70
     4
  9
$DIMALTU
 70
     2
  9
$DIMALTTD
 70
     2
  9
$DIMTXSTY
  7
Standard
  9
$DIMAUNIT
 70
     0
  9
$DIMADEC
 70
     0
  9
$DIMALTRND
 40
0.0
  9
$DIMAZIN
 70
     0
  9
$DIMDSEP
 70
    46
  9
$DIMATFIT
 70
     3
  9
$DIMFRAC
 70
     0
  9
$DIMLDRBLK
  1

  9
$DIMLUNIT
 70
     2
  9
$DIMLWD
 70
    -2
  9
$DIMLWE
 70
    -2
  9
$DIMTMOVE
 70
     0
  9
$DIMFXL
 40
1.0
  9
$DIMFXLON
 70
     0
  9
$DIMJOGANG
 40
0.7853981633974483
  9
$DIMTFILL
 70
     0
  9
$DIMTFILLCLR
 70
     0
  9
$DIMARCSYM
 70
     0
  9
$DIMLTYPE
  6

  9
$DIMLTEX1
  6

  9
$DIMLTEX2
  6

  9
$DIMTXTDIRECTION
 70
     0
  9
$LUNITS
 70
     2
  9
$LUPREC
 70
     4
  9
$SKETCHINC
 40
0.1
  9
$FILLETRAD
 40
0.0
  9
$AUNITS
 70
     0
  9
$AUPREC
 70
     0
  9
$MENU
  1
.
  9
$ELEVATION
 40
0.0
  9
$PELEVATION
 40
0.0
  9
$THICKNESS
 40
0.0
  9
$LIMCHECK
 70
     0
  9
$CHAMFERA
 40
0.0
  9
$CHAMFERB
 40
0.0
  9
$CHAMFERC
 40
0.0
  9
$CHAMFERD
 40
0.0
  9
$SKPOLY
 70
     0
  9
$TDCREATE
 40
2460185.526087963
  9
$TDUCREATE
 40
2460185.484421296
  9
$TDUPDATE
 40
2460185.526087963
  9
$TDUUPDATE
 40
2460185.484421296
  9
$TDINDWG
 40
0.0000000000
  9
$TDUSRTIMER
 40
0.0000000000
  9
$USRTIMER
 70
     1
  9
$ANGBASE
 50
0.0
  9
$ANGDIR
 70
     0
  9
$PDMODE
 70
     0
  9
$PDSIZE
 40
0.0
  9
$PLINEWID
 40
0.0
  9
$SPLFRAME
 70
     0
  9
$SPLINETYPE
 70
     6
  9
$SPLINESEGS
 70
     8
  9
$HANDSEED
  5
276
  9
$SURFTAB1
 70
     6
  9
$SURFTAB2
 70
     6
  9
$SURFTYPE
 70
     6
  9
$SURFU
 70
     6
  9
$SURFV
 70
     6
  9
$UCSBASE
  2

  9
$UCSNAME
  2

  9
$UCSORG
 10
0.0
 20
0.0
 30
0.0
  9
$UCSXDIR
 10
1.0
 20
0.0
 30
0.0
  9
$UCSYDIR
 10
0.0
 20
1.0
 30
0.0
  9
$UCSORTHOREF
  2

  9
$UCSORTHOVIEW
 70
     0
  9
$UCSORGTOP
 10
0.0
 20
0.0
 30
0.0
  9
$UCSORGBOTTOM
 10
0.0
 20
0.0
 30
0.0
  9
$UCSORGLEFT
 10
0.0
 20
0.0
 30
0.0
  9
$UCSORGRIGHT
 10
0.0
 20
0.0
 30
0.0
  9
$UCSORGFRONT
 10
0.0
 20
0.0
 30
0.0
  9
$UCSORGBACK
 10
0.0
 20
0.0
 30
0.0
  9
$PUCSBASE
  2

  9
$PUCSNAME
  2

  9
$PUCSORG
 10
0.0
 20
0.0
 30
0.0
  9
$PUCSXDIR
 10
1.0
 20
0.0
 30
0.0
  9
$PUCSYDIR
 10
0.0
 20
1.0
 30
0.0
  9
$PUCSORTHOREF
  2

  9
$PUCSORTHOVIEW
 70
     0
  9
$PUCSORGTOP
 10
0.0
 20
0.0
 30
0.0
  9
$PUCSORGBOTTOM
 10
0.0
 20
0.0
 30
0.0
  9
$PUCSORGLEFT
 10
0.0
 20
0.0
 30
0.0
  9
$PUCSORGRIGHT
 10
0.0
 20
0.0
 30
0.0
  9
$PUCSORGFRONT
 10
0.0
 20
0.0
 30
0.0
  9
$PUCSORGBACK
 10
0.0
 20
0.0
 30
0.0
  9
$USERI1
 70
     0
  9
$USERI2
 70
     0
  9
$USERI3
 70
     0
  9
$USERI4
 70
     0
  9
$USERI5
 70
     0
  9
$USERR1
 40
0.0
  9
$USERR2
 40
0.0
  9
$USERR3
 40
0.0
  9
$USERR4
 40
0.0
  9
$USERR5
 40
0.0
  9
$WORLDVIEW
 70
     1
  9
$SHADEDGE
 70
     3
  9
$SHADEDIF
 70
    70
  9
$TILEMODE
 70
     1
  9
$MAXACTVP
 70
    64
  9
$PINSBASE
 10
0.0
 20
0.0
 30
0.0
  9
$PLIMCHECK
 70
     0
  9
$PEXTMIN
 10
1.000000000000000E+20
 20
1.000000000000000E+20
 30
1.000000000000000E+20
  9
$PEXTMAX
 10
-1.000000000000000E+20
 20
-1.000000000000000E+20
 30
-1.000000000000000E+20
  9
$PLIMMIN
 10
0.0
 20
0.0
  9
$PLIMMAX
 10
12.0
 20
9.0
  9
$UNITMODE
 70
     0
  9
$VISRETAIN
 70
     1
  9
$PLINEGEN
 70
     0
  9
$PSLTSCALE
 70
     1
  9
$TREEDEPTH
 70
  3020
  9
$CMLSTYLE
  2
Standard
  9
$CMLJUST
 70
     0
  9
$CMLSCALE
 40
1.0
  9
$PROXYGRAPHICS
 70
     1
  9
$MEASUREMENT
 70
     0
  9
$CELWEIGHT
370
    -1
  9
$ENDCAPS
280
     0
  9
$JOINSTYLE
280
     0
  9
$LWDISPLAY
290
     1
  9
$INSUNITS
 70
     4
  9
$HYPERLINKBASE
  1

  9
$STYLESHEET
  1

  9
$XEDIT
290
     1
  9
$CEPSNTYPE
380
     0
  9
$PSTYLEMODE
290
     1
  9
$FINGERPRINTGUID
  2
{184CC760-A49F-6D44-A398-7F110919AB73}
  9
$VERSIONGUID
  2
{53DD3751-8933-804D-86ED-395A97093E2C}
  9
$EXTNAMES
290
     1
  9
$PSVPSCALE
 40
0.0
  9
$OLESTARTUP
290
     0
  9
$SORTENTS
280
   127
  9
$INDEXCTL
280
     0
  9
$HIDETEXT
280
     1
  9
$XCLIPFRAME
280
     2
  9
$HALOGAP
280
     0
  9
$OBSCOLOR
 70
   257
  9
$OBSLTYPE
280
     0
  9
$INTERSECTIONDISPLAY
280
     0
  9
$INTERSECTIONCOLOR
 70
   257
  9
$DIMASSOC
280
     2
  9
$PROJECTNAME
  1

  9
$CAMERADISPLAY
290
     0
  9
$LENSLENGTH
 40
50.0
  9
$CAMERAHEIGHT
 40
0.0
  9
$STEPSPERSEC
 40
2.0
  9
$STEPSIZE
 40
6.0
  9
$3DDWFPREC
 40
2.0
  9
$PSOLWIDTH
 40
0.25
  9
$PSOLHEIGHT
 40
4.0
  9
$LOFTANG1
 40
1.570796326794896
  9
$LOFTANG2
 40
1.570796326794896
  9
$LOFTMAG1
 40
0.0
  9
$LOFTMAG2
 40
0.0
  9
$LOFTPARAM
 70
     7
  9
$LOFTNORMALS
280
     1
  9
$LATITUDE
 40
37.795
  9
$LONGITUDE
 40
-122.394
  9
$NORTHDIRECTION
 40
0.0
  9
$TIMEZONE
 70
 -8000
  9
$LIGHTGLYPHDISPLAY
280
     1
  9
$TILEMODELIGHTSYNCH
280
     1
  9
$CMATERIAL
347
11
  9
$SOLIDHIST
280
     0
  9
$SHOWHIST
280
     1
  9
$DWFFRAME
280
     2
  9
$DGNFRAME
280
     0
  9
$REALWORLDSCALE
290
     1
  9
$INTERFERECOLOR
 62
     1
  9
$INTERFEREOBJVS
345
33
  9
$INTERFEREVPVS
346
30
  9
$CSHADOW
280
     0
  9
$SHADOWPLANELOCATION
 40
0.0
  0
ENDSEC
  0
SECTION
  2
CLASSES
  0
CLASS
  1
ACDBDICTIONARYWDFLT
  2
AcDbDictionaryWithDefault
  3
ObjectDBX Classes
 90
        0
 91
        1
280
     0
281
     0
  0
CLASS
  1
MATERIAL
  2
AcDbMaterial
  3
ObjectDBX Classes
 90
     1153
 91
        3
280
     0
281
     0
  0
CLASS
  1
VISUALSTYLE
  2
AcDbVisualStyle
  3
ObjectDBX Classes
 90
     4095
 91
       24
280
     0
281
     0
  0
CLASS
  1
SCALE
  2
AcDbScale
  3
ObjectDBX Classes
 90
     1153
 91
       17
280
     0
281
     0
  0
CLASS
  1
TABLESTYLE
  2
AcDbTableStyle
  3
ObjectDBX Classes
 90
     4095
 91
        1
280
     0
281
     0
  0
CLASS
  1
MLEADERSTYLE
  2
AcDbMLeaderStyle
  3
ACDB_MLEADERSTYLE_CLASS
 90
     4095
 91
        1
280
     0
281
     0
  0
CLASS
  1
ACDBSECTIONVIEWSTYLE
  2
AcDbSectionViewStyle
  3
ObjectDBX Classes
 90
     1025
 91
        1
280
     0
281
     0
  0
CLASS
  1
ACDBDETAILVIEWSTYLE
  2
AcDbDetailViewStyle
  3
ObjectDBX Classes
 90
     1025
 91
        1
280
     0
281
     0
  0
CLASS
  1
DICTIONARYVAR
  2
AcDbDictionaryVar
  3
ObjectDBX Classes
 90
        0
 91
        5
280
     0
281
     0
  0
CLASS
  1
CELLSTYLEMAP
  2
AcDbCellStyleMap
  3
ObjectDBX Classes
 90
     1152
 91
        1
280
     0
281
     0
  0
ENDSEC
  0
SECTION
  2
TABLES
  0
TABLE
  2
VPORT
  5
8
330
0
100
AcDbSymbolTable
 70
     1
  0
VPORT
  5
57
330
8
100
AcDbSymbolTableRecord
100
AcDbViewportTableRecord
  2
*Active
 70
     0
 10
0.0
 20
0.0
 11
1.0
 21
1.0
 12
0.0
 22
0.0
 13
0.0
 23
0.0
 14
1.0
 24
1.0
 15
0.0
 25
0.0
 16
0.0
 26
0.0
 36
1.0
 17
49.99999998749409
 27
-49.99999998749409
 37
0.0
 40
101.9999999744879
 41
1.0
 42
50.0
 43
0.0
 44
0.0
 50
0.0
 51
0.0
 71
     0
 72
   100
 73
     1
 74
     1
 75
     0
 76
     0
 77
     0
 78
     0
281
     0
 65
     1
110
0.0
120
0.0
130
0.0
111
1.0
121
0.0
131
0.0
112
0.0
122
1.0
132
0.0
 79
     0
146
0.0
 60
     3
 61
     5
292
     1
282
     1
141
0.0
142
0.0
 63
   250
421
  3355443
  0
ENDTAB
  0
TABLE
  2
LTYPE
  5
5
330
0
100
AcDbSymbolTable
 70
     1
  0
LTYPE
  5
5B
330
5
100
AcDbSymbolTableRecord
100
AcDbLinetypeTableRecord
  2
ByBlock
 70
     0
  3

 72
    65
 73
     0
 40
0.0
  0
LTYPE
  5
5C
330
5
100
AcDbSymbolTableRecord
100
AcDbLinetypeTableRecord
  2
ByLayer
 70
     0
  3

 72
    65
 73
     0
 40
0.0
  0
LTYPE
  5
5D
330
5
100
AcDbSymbolTableRecord
100
AcDbLinetypeTableRecord
  2
Continuous
 70
     0
  3
Solid line
 72
    65
 73
     0
 40
0.0
  0
ENDTAB
  0
TABLE
  2
LAYER
  5
2
330
0
100
AcDbSymbolTable
 70
     2
  0
LAYER
  5
54
330
2
100
AcDbSymbolTableRecord
100
AcDbLayerTableRecord
  2
0
 70
     0
 62
     7
  6
Continuous
370
    -3
390
F
347
21
348
0
  0
LAYER
  5
78
330
2
100
AcDbSymbolTableRecord
100
AcDbLayerTableRecord
  2
Camada 1
 70
     0
 62
     7
  6
Continuous
370
     0
390
F
347
21
348
0
  0
ENDTAB
  0
TABLE
  2
STYLE
  5
3
330
0
100
AcDbSymbolTable
 70
     2
  0
STYLE
  5
55
330
3
100
AcDbSymbolTableRecord
100
AcDbTextStyleTableRecord
  2
Standard
 70
     0
 40
0.0
 41
1.0
 50
0.0
 71
     0
 42
0.2
  3
txt
  4

  0
STYLE
  5
5A
330
3
100
AcDbSymbolTableRecord
100
AcDbTextStyleTableRecord
  2
Annotative
 70
     0
 40
0.0
 41
1.0
 50
0.0
 71
     0
 42
0.2
  3
txt
  4

1001
AcadAnnotative
1000
AnnotativeData
1002
{
1070
     1
1070
     1
1002
}
  0
ENDTAB
  0
TABLE
  2
VIEW
  5
6
330
0
100
AcDbSymbolTable
 70
     0
  0
ENDTAB
  0
TABLE
  2
UCS
  5
7
330
0
100
AcDbSymbolTable
 70
     0
  0
ENDTAB
  0
TABLE
  2
APPID
  5
9
330
0
100
AcDbSymbolTable
 70
     2
  0
APPID
  5
56
330
9
100
AcDbSymbolTableRecord
100
AcDbRegAppTableRecord
  2
ACAD
 70
     0
  0
APPID
  5
5E
330
9
100
AcDbSymbolTableRecord
100
AcDbRegAppTableRecord
  2
AcadAnnotative
 70
     0
  0
ENDTAB
  0
TABLE
  2
DIMSTYLE
  5
A
330
0
100
AcDbSymbolTable
 70
     2
100
AcDbDimStyleTable
 71
     0
  0
DIMSTYLE
105
58
330
A
100
AcDbSymbolTableRecord
100
AcDbDimStyleTableRecord
  2
Standard
 70
     0
340
55
  0
DIMSTYLE
105
59
330
A
100
AcDbSymbolTableRecord
100
AcDbDimStyleTableRecord
  2
Annotative
 70
     0
340
55
1001
AcadAnnotative
1000
AnnotativeData
1002
{
1070
     1
1070
     1
1002
}
  0
ENDTAB
  0
TABLE
  2
BLOCK_RECORD
  5
1
330
0
100
AcDbSymbolTable
 70
     2
  0
BLOCK_RECORD
  5
70
330
1
100
AcDbSymbolTableRecord
100
AcDbBlockTableRecord
  2
*Model_Space
340
73
 70
     0
280
     1
281
     0
  0
BLOCK_RECORD
  5
6C
330
1
100
AcDbSymbolTableRecord
100
AcDbBlockTableRecord
  2
*Paper_Space
340
6F
 70
     0
280
     1
281
     0
  0
BLOCK_RECORD
  5
74
330
1
100
AcDbSymbolTableRecord
100
AcDbBlockTableRecord
  2
*Paper_Space0
340
77
 70
     0
280
     1
281
     0
  0
BLOCK_RECORD
  5
79
330
1
100
AcDbSymbolTableRecord
100
AcDbBlockTableRecord
  2
Block_0
340
0
102
{BLKREFS
331
7A
102
}
 70
     0
280
     1
281
     0
  0
ENDTAB
  0
ENDSEC
  0
SECTION
  2
BLOCKS
  0
BLOCK
  5
71
330
70
100
AcDbEntity
  8
0
100
AcDbBlockBegin
  2
*Model_Space
 70
     0
 10
0.0
 20
0.0
 30
0.0
  3
*Model_Space
  1

  0
ENDBLK
  5
72
330
70
100
AcDbEntity
  8
0
100
AcDbBlockEnd
  0
BLOCK
  5
6D
330
6C
100
AcDbEntity
 67
     1
  8
0
100
AcDbBlockBegin
  2
*Paper_Space
 70
     0
 10
0.0
 20
0.0
 30
0.0
  3
*Paper_Space
  1

  0
ENDBLK
  5
6E
330
6C
100
AcDbEntity
 67
     1
  8
0
100
AcDbBlockEnd
  0
BLOCK
  5
75
330
74
100
AcDbEntity
 67
     1
  8
0
100
AcDbBlockBegin
  2
*Paper_Space0
 70
     0
 10
0.0
 20
0.0
 30
0.0
  3
*Paper_Space0
  1

  0
ENDBLK
  5
76
330
74
100
AcDbEntity
 67
     1
  8
0
100
AcDbBlockEnd
  0
BLOCK
  5
7B
330
79
100
AcDbEntity
  8
0
100
AcDbBlockBegin
  2
Block_0
 70
     0
 10
0.0
 20
0.0
 30
0.0
  3
Block_0
  1

  0
CIRCLE
  5
7D
330
79
100
AcDbEntity
  8
Camada 1
 62
   250
420
  1907995
370
     9
100
AcDbCircle
 10
49.99999998786218
 20
-62.05987119934397
 30
0.0
 40
13.94082614997536
  0
CIRCLE
  5
7E
330
79
100
AcDbEntity
  8
Camada 1
 62
   250
420
  1907995
370
     9
100
AcDbCircle
 10
49.99999998786218
 20
-62.05987119934445
 30
0.0
 40
13.463634056822
  0
CIRCLE
  5
7F
330
79
100
AcDbEntity
  8
Camada 1
 62
   250
420
  1907995
370
     9
100
AcDbCircle
 10
49.99999998786234
 20
-62.05987119934462
 30
0.0
 40
13.22503802119354
  0
CIRCLE
  5
80
330
79
100
AcDbEntity
  8
Camada 1
 62
   250
420
  1907995
370
     9
100
AcDbCircle
 10
57.95978843713162
 20
-53.21963053219141
 30
0.0
 40
0.2726811960877993
  0
CIRCLE
  5
81
330
79
100
AcDbEntity
  8
Camada 1
 62
   250
420
  1907995
370
     9
100
AcDbCircle
 10
59.62383734620631
 20
-55.06774407590089
 30
0.0
 40
0.2726811960874786
  0
CIRCLE
  5
82
330
79
100
AcDbEntity
  8
Camada 1
 62
   250
420
  1907995
370
     9
100
AcDbCircle
 10
57.9597884371313
 20
-53.21963053219141
 30
0.0
 40
0.1493510783005195
  0
CIRCLE
  5
83
330
79
100
AcDbEntity
  8
Camada 1
 62
   250
420
  1907995
370
     9
100
AcDbCircle
 10
59.62383734620631
 20
-55.06774407590089
 30
0.0
 40
0.1493510783003591
  0
CIRCLE
  5
84
330
79
100
AcDbEntity
  8
Camada 1
 62
   250
420
  1907995
370
     9
100
AcDbCircle
 10
57.9597884371313
 20
-53.21963053219141
 30
0.0
 40
0.0852919513516474
  0
CIRCLE
  5
85
330
79
100
AcDbEntity
  8
Camada 1
 62
   250
420
  1907995
370
     9
100
AcDbCircle
 10
59.62383734620631
 20
-55.06774407590089
 30
0.0
 40
0.0852919513508453
  0
CIRCLE
  5
86
330
79
100
AcDbEntity
  8
Camada 1
 62
   250
420
  1907995
370
     9
100
AcDbCircle
 10
57.95978843713162
 20
-53.21963053219141
 30
0.0
 40
0.0545362392176882
  0
CIRCLE
  5
87
330
79
100
AcDbEntity
  8
Camada 1
 62
   250
420
  1907995
370
     9
100
AcDbCircle
 10
59.62383734620599
 20
-55.06774407590089
 30
0.0
 40
0.0545362392178487
  0
CIRCLE
  5
88
330
79
100
AcDbEntity
  8
Camada 1
 62
   250
420
  1907995
370
     9
100
AcDbCircle
 10
60.86727838242746
 20
-57.22144712684422
 30
0.0
 40
0.2726811960873181
  0
CIRCLE
  5
89
330
79
100
AcDbEntity
  8
Camada 1
 62
   250
420
  1907995
370
     9
100
AcDbCircle
 10
60.86727838242746
 20
-57.22144712684422
 30
0.0
 40
0.1493510783001986
  0
CIRCLE
  5
8A
330
79
100
AcDbEntity
  8
Camada 1
 62
   250
420
  1907995
370
     9
100
AcDbCircle
 10
60.86727838242746
 20
-57.2214471268439
 30
0.0
 40
0.0852919513518078
  0
CIRCLE
  5
8B
330
79
100
AcDbEntity
  8
Camada 1
 62
   250
420
  1907995
370
     9
100
AcDbCircle
 10
60.86727838242746
 20
-57.22144712684422
 30
0.0
 40
0.054536239217207
  0
CIRCLE
  5
8C
330
79
100
AcDbEntity
  8
Camada 1
 62
   250
420
  1907995
370
     9
100
AcDbCircle
 10
61.63576720581764
 20
-59.58661252710803
 30
0.0
 40
0.2726811960877993
  0
CIRCLE
  5
8D
330
79
100
AcDbEntity
  8
Camada 1
 62
   250
420
  1907995
370
     9
100
AcDbCircle
 10
59.64017613123163
 20
-59.58469465947349
 30
0.0
 40
0.2726811960879598
  0
CIRCLE
  5
8E
330
79
100
AcDbEntity
  8
Camada 1
 62
   250
420
  1907995
370
     9
100
AcDbCircle
 10
61.63576720581796
 20
-59.58661252710835
 30
0.0
 40
0.1493510782997174
  0
CIRCLE
  5
8F
330
79
100
AcDbEntity
  8
Camada 1
 62
   250
420
  1907995
370
     9
100
AcDbCircle
 10
59.6401761312313
 20
-59.58469465947349
 30
0.0
 40
0.1493510783006799
  0
CIRCLE
  5
90
330
79
100
AcDbEntity
  8
Camada 1
 62
   250
420
  1907995
370
     9
100
AcDbCircle
 10
61.63576720581796
 20
-59.58661252710835
 30
0.0
 40
0.085291951351487
  0
CIRCLE
  5
91
330
79
100
AcDbEntity
  8
Camada 1
 62
   250
420
  1907995
370
     9
100
AcDbCircle
 10
59.64017613123163
 20
-59.58469465947413
 30
0.0
 40
0.0852919513510057
  0
CIRCLE
  5
92
330
79
100
AcDbEntity
  8
Camada 1
 62
   250
420
  1907995
370
     9
100
AcDbCircle
 10
61.63576720581796
 20
-59.58661252710803
 30
0.0
 40
0.054536239217207
  0
CIRCLE
  5
93
330
79
100
AcDbEntity
  8
Camada 1
 62
   250
420
  1907995
370
     9
100
AcDbCircle
 10
59.64017613123163
 20
-59.58469465947349
 30
0.0
 40
0.0545362392178487
  0
CIRCLE
  5
94
330
79
100
AcDbEntity
  8
Camada 1
 62
   250
420
  1907995
370
     9
100
AcDbCircle
 10
56.48023431224668
 20
-57.35170537123326
 30
0.0
 40
0.2726811960873181
  0
CIRCLE
  5
95
330
79
100
AcDbEntity
  8
Camada 1
 62
   250
420
  1907995
370
     9
100
AcDbCircle
 10
58.72176089622737
 20
-57.26504256466025
 30
0.0
 40
0.2726811960869973
  0
CIRCLE
  5
96
330
79
100
AcDbEntity
  8
Camada 1
 62
   250
420
  1907995
370
     9
100
AcDbCircle
 10
57.25532534696524
 20
-55.24666718710701
 30
0.0
 40
0.272681196087639
  0
CIRCLE
  5
97
330
79
100
AcDbEntity
  8
Camada 1
 62
   250
420
  1907995
370
     9
100
AcDbCircle
 10
56.48023431224668
 20
-57.35170537123293
 30
0.0
 40
0.1493510783006799
  0
CIRCLE
  5
98
330
79
100
AcDbEntity
  8
Camada 1
 62
   250
420
  1907995
370
     9
100
AcDbCircle
 10
58.72176089622705
 20
-57.26504256465993
 30
0.0
 40
0.1493510783001986
  0
CIRCLE
  5
99
330
79
100
AcDbEntity
  8
Camada 1
 62
   250
420
  1907995
370
     9
100
AcDbCircle
 10
57.25532534696491
 20
-55.24666718710701
 30
0.0
 40
0.1493510782997174
  0
CIRCLE
  5
9A
330
79
100
AcDbEntity
  8
Camada 1
 62
   250
420
  1907995
370
     9
100
AcDbCircle
 10
56.48023431224668
 20
-57.35170537123358
 30
0.0
 40
0.085291951351487
  0
CIRCLE
  5
9B
330
79
100
AcDbEntity
  8
Camada 1
 62
   250
420
  1907995
370
     9
100
AcDbCircle
 10
58.72176089622705
 20
-57.26504256466057
 30
0.0
 40
0.0852919513510057
  0
CIRCLE
  5
9C
330
79
100
AcDbEntity
  8
Camada 1
 62
   250
420
  1907995
370
     9
100
AcDbCircle
 10
57.25532534696524
 20
-55.24666718710701
 30
0.0
 40
0.0852919513510057
  0
CIRCLE
  5
9D
330
79
100
AcDbEntity
  8
Camada 1
 62
   250
420
  1907995
370
     9
100
AcDbCircle
 10
56.480234312247
 20
-57.35170537123293
 30
0.0
 40
0.0545362392178487
  0
CIRCLE
  5
9E
330
79
100
AcDbEntity
  8
Camada 1
 62
   250
420
  1907995
370
     9
100
AcDbCircle
 10
58.72176089622737
 20
-57.26504256465993
 30
0.0
 40
0.0545362392173674
  0
CIRCLE
  5
9F
330
79
100
AcDbEntity
  8
Camada 1
 62
   250
420
  1907995
370
     9
100
AcDbCircle
 10
57.25532534696491
 20
-55.24666718710701
 30
0.0
 40
0.0545362392167257
  0
CIRCLE
  5
A0
330
79
100
AcDbEntity
  8
Camada 1
 62
   250
420
  1907995
370
     9
100
AcDbCircle
 10
57.61797232240616
 20
-59.58464194249497
 30
0.0
 40
0.2726811960873181
  0
CIRCLE
  5
A1
330
79
100
AcDbEntity
  8
Camada 1
 62
   250
420
  1907995
370
     9
100
AcDbCircle
 10
57.6179723224068
 20
-59.58464194249497
 30
0.0
 40
0.1493510782998778
  0
CIRCLE
  5
A2
330
79
100
AcDbEntity
  8
Camada 1
 62
   250
420
  1907995
370
     9
100
AcDbCircle
 10
57.6179723224068
 20
-59.58464194249497
 30
0.0
 40
0.0852919513516474
  0
CIRCLE
  5
A3
330
79
100
AcDbEntity
  8
Camada 1
 62
   250
420
  1907995
370
     9
100
AcDbCircle
 10
57.6179723224068
 20
-59.58464194249497
 30
0.0
 40
0.0545362392168861
  0
CIRCLE
  5
A4
330
79
100
AcDbEntity
  8
Camada 1
 62
   250
420
  1907995
370
     9
100
AcDbCircle
 10
53.67597875654748
 20
-50.74637185994335
 30
0.0
 40
0.2726811960877993
  0
CIRCLE
  5
A5
330
79
100
AcDbEntity
  8
Camada 1
 62
   250
420
  1907995
370
     9
100
AcDbCircle
 10
55.94785857752094
 20
-51.75787792581786
 30
0.0
 40
0.2726811960869973
  0
CIRCLE
  5
A6
330
79
100
AcDbEntity
  8
Camada 1
 62
   250
420
  1907995
370
     9
100
AcDbCircle
 10
53.6759787565478
 20
-50.74637185994303
 30
0.0
 40
0.1493510783000382
  0
CIRCLE
  5
A7
330
79
100
AcDbEntity
  8
Camada 1
 62
   250
420
  1907995
370
     9
100
AcDbCircle
 10
55.94785857752094
 20
-51.75787792581786
 30
0.0
 40
0.1493510782998778
  0
CIRCLE
  5
A8
330
79
100
AcDbEntity
  8
Camada 1
 62
   250
420
  1907995
370
     9
100
AcDbCircle
 10
53.67597875654748
 20
-50.74637185994303
 30
0.0
 40
0.0852919513516474
  0
CIRCLE
  5
A9
330
79
100
AcDbEntity
  8
Camada 1
 62
   250
420
  1907995
370
     9
100
AcDbCircle
 10
55.94785857752094
 20
-51.75787792581818
 30
0.0
 40
0.0852919513511661
  0
CIRCLE
  5
AA
330
79
100
AcDbEntity
  8
Camada 1
 62
   250
420
  1907995
370
     9
100
AcDbCircle
 10
53.67597875654748
 20
-50.74637185994335
 30
0.0
 40
0.0545362392176882
  0
CIRCLE
  5
AB
330
79
100
AcDbEntity
  8
Camada 1
 62
   250
420
  1907995
370
     9
100
AcDbCircle
 10
55.94785857752094
 20
-51.75787792581786
 30
0.0
 40
0.0545362392168861
  0
CIRCLE
  5
AC
330
79
100
AcDbEntity
  8
Camada 1
 62
   250
420
  1907995
370
     9
100
AcDbCircle
 10
55.33301102216473
 20
-53.65639047486739
 30
0.0
 40
0.2726811960873181
  0
CIRCLE
  5
AD
330
79
100
AcDbEntity
  8
Camada 1
 62
   250
420
  1907995
370
     9
100
AcDbCircle
 10
55.33301102216473
 20
-53.65639047486707
 30
0.0
 40
0.1493510783000382
  0
CIRCLE
  5
AE
330
79
100
AcDbEntity
  8
Camada 1
 62
   250
420
  1907995
370
     9
100
AcDbCircle
 10
55.33301102216473
 20
-53.65639047486707
 30
0.0
 40
0.0852919513518078
  0
CIRCLE
  5
AF
330
79
100
AcDbEntity
  8
Camada 1
 62
   250
420
  1907995
370
     9
100
AcDbCircle
 10
55.33301102216473
 20
-53.65639047486707
 30
0.0
 40
0.0545362392176882
  0
CIRCLE
  5
B0
330
79
100
AcDbEntity
  8
Camada 1
 62
   250
420
  1907995
370
     9
100
AcDbCircle
 10
51.24344102408229
 20
-50.22932000340114
 30
0.0
 40
0.2726811960872779
  0
CIRCLE
  5
B1
330
79
100
AcDbEntity
  8
Camada 1
 62
   250
420
  1907995
370
     9
100
AcDbCircle
 10
50.62494546769582
 20
-52.12664724505594
 30
0.0
 40
0.2726811960877593
  0
CIRCLE
  5
B2
330
79
100
AcDbEntity
  8
Camada 1
 62
   250
420
  1907995
370
     9
100
AcDbCircle
 10
51.24344102408229
 20
-50.22932000340123
 30
0.0
 40
0.1493510783001986
  0
CIRCLE
  5
B3
330
79
100
AcDbEntity
  8
Camada 1
 62
   250
420
  1907995
370
     9
100
AcDbCircle
 10
50.62494546769591
 20
-52.12664724505594
 30
0.0
 40
0.1493510783005195
  0
CIRCLE
  5
B4
330
79
100
AcDbEntity
  8
Camada 1
 62
   250
420
  1907995
370
     9
100
AcDbCircle
 10
51.24344102408229
 20
-50.2293200034009
 30
0.0
 40
0.0852919513518078
  0
CIRCLE
  5
B5
330
79
100
AcDbEntity
  8
Camada 1
 62
   250
420
  1907995
370
     9
100
AcDbCircle
 10
50.62494546769591
 20
-52.12664724505627
 30
0.0
 40
0.0852919513518078
  0
CIRCLE
  5
B6
330
79
100
AcDbEntity
  8
Camada 1
 62
   250
420
  1907995
370
     9
100
AcDbCircle
 10
51.24344102408229
 20
-50.22932000340106
 30
0.0
 40
0.0545362392174476
  0
CIRCLE
  5
B7
330
79
100
AcDbEntity
  8
Camada 1
 62
   250
420
  1907995
370
     9
100
AcDbCircle
 10
50.62494546769591
 20
-52.12664724505594
 30
0.0
 40
0.0545362392175278
  0
CIRCLE
  5
B8
330
79
100
AcDbEntity
  8
Camada 1
 62
   250
420
  1907995
370
     9
100
AcDbCircle
 10
52.47522924471006
 20
-54.44189886480016
 30
0.0
 40
0.2726811960873181
  0
CIRCLE
  5
B9
330
79
100
AcDbEntity
  8
Camada 1
 62
   250
420
  1907995
370
     9
100
AcDbCircle
 10
53.07560400063567
 20
-52.59413536237786
 30
0.0
 40
0.2726811960873181
  0
CIRCLE
  5
BA
330
79
100
AcDbEntity
  8
Camada 1
 62
   250
420
  1907995
370
     9
100
AcDbCircle
 10
52.47522924471071
 20
-54.44189886479984
 30
0.0
 40
0.1493510782997174
  0
CIRCLE
  5
BB
330
79
100
AcDbEntity
  8
Camada 1
 62
   250
420
  1907995
370
     9
100
AcDbCircle
 10
53.07560400063567
 20
-52.59413536237786
 30
0.0
 40
0.1493510783001986
  0
CIRCLE
  5
BC
330
79
100
AcDbEntity
  8
Camada 1
 62
   250
420
  1907995
370
     9
100
AcDbCircle
 10
52.47522924471071
 20
-54.44189886479984
 30
0.0
 40
0.085291951351487
  0
CIRCLE
  5
BD
330
79
100
AcDbEntity
  8
Camada 1
 62
   250
420
  1907995
370
     9
100
AcDbCircle
 10
53.07560400063567
 20
-52.59413536237818
 30
0.0
 40
0.085291951351487
  0
CIRCLE
  5
BE
330
79
100
AcDbEntity
  8
Camada 1
 62
   250
420
  1907995
370
     9
100
AcDbCircle
 10
52.47522924471038
 20
-54.44189886480016
 30
0.0
 40
0.0545362392173674
  0
CIRCLE
  5
BF
330
79
100
AcDbEntity
  8
Camada 1
 62
   250
420
  1907995
370
     9
100
AcDbCircle
 10
53.07560400063599
 20
-52.59413536237786
 30
0.0
 40
0.0545362392173674
  0
CIRCLE
  5
C0
330
79
100
AcDbEntity
  8
Camada 1
 62
   250
420
  1907995
370
     9
100
AcDbCircle
 10
54.05972017116247
 20
-57.55109515707796
 30
0.0
 40
0.2726811960877993
  0
CIRCLE
  5
C1
330
79
100
AcDbEntity
  8
Camada 1
 62
   250
420
  1907995
370
     9
100
AcDbCircle
 10
54.7081658159721
 20
-55.57963687495931
 30
0.0
 40
0.2726811960879598
  0
CIRCLE
  5
C2
330
79
100
AcDbEntity
  8
Camada 1
 62
   250
420
  1907995
370
     9
100
AcDbCircle
 10
54.05972017116247
 20
-57.55109515707764
 30
0.0
 40
0.1493510783005195
  0
CIRCLE
  5
C3
330
79
100
AcDbEntity
  8
Camada 1
 62
   250
420
  1907995
370
     9
100
AcDbCircle
 10
54.70816581597242
 20
-55.57963687495996
 30
0.0
 40
0.1493510782993965
  0
CIRCLE
  5
C4
330
79
100
AcDbEntity
  8
Camada 1
 62
   250
420
  1907995
370
     9
100
AcDbCircle
 10
54.05972017116247
 20
-57.55109515707796
 30
0.0
 40
0.0852919513518078
  0
CIRCLE
  5
C5
330
79
100
AcDbEntity
  8
Camada 1
 62
   250
420
  1907995
370
     9
100
AcDbCircle
 10
54.70816581597242
 20
-55.57963687495996
 30
0.0
 40
0.0852919513511661
  0
CIRCLE
  5
C6
330
79
100
AcDbEntity
  8
Camada 1
 62
   250
420
  1907995
370
     9
100
AcDbCircle
 10
54.05972017116247
 20
-57.55109515707731
 30
0.0
 40
0.0545362392180091
  0
CIRCLE
  5
C7
330
79
100
AcDbEntity
  8
Camada 1
 62
   250
420
  1907995
370
     9
100
AcDbCircle
 10
54.7081658159721
 20
-55.57963687495931
 30
0.0
 40
0.0545362392178487
  0
CIRCLE
  5
C8
330
79
100
AcDbEntity
  8
Camada 1
 62
   250
420
  1907995
370
     9
100
AcDbCircle
 10
53.33663127828576
 20
-59.63566666658038
 30
0.0
 40
0.2726811960874786
  0
CIRCLE
  5
C9
330
79
100
AcDbEntity
  8
Camada 1
 62
   250
420
  1907995
370
     9
100
AcDbCircle
 10
55.54262335242751
 20
-59.59213628557497
 30
0.0
 40
0.2726811960868368
  0
CIRCLE
  5
CA
330
79
100
AcDbEntity
  8
Camada 1
 62
   250
420
  1907995
370
     9
100
AcDbCircle
 10
53.33663127828543
 20
-59.63566666658038
 30
0.0
 40
0.1493510783001986
  0
CIRCLE
  5
CB
330
79
100
AcDbEntity
  8
Camada 1
 62
   250
420
  1907995
370
     9
100
AcDbCircle
 10
55.54262335242751
 20
-59.59213628557497
 30
0.0
 40
0.1493510782997174
  0
CIRCLE
  5
CC
330
79
100
AcDbEntity
  8
Camada 1
 62
   250
420
  1907995
370
     9
100
AcDbCircle
 10
53.33663127828543
 20
-59.63566666657973
 30
0.0
 40
0.0852919513516474
  0
CIRCLE
  5
CD
330
79
100
AcDbEntity
  8
Camada 1
 62
   250
420
  1907995
370
     9
100
AcDbCircle
 10
55.54262335242751
 20
-59.59213628557465
 30
0.0
 40
0.0852919513513266
  0
CIRCLE
  5
CE
330
79
100
AcDbEntity
  8
Camada 1
 62
   250
420
  1907995
370
     9
100
AcDbCircle
 10
53.33663127828576
 20
-59.63566666658038
 30
0.0
 40
0.0545362392173674
  0
CIRCLE
  5
CF
330
79
100
AcDbEntity
  8
Camada 1
 62
   250
420
  1907995
370
     9
100
AcDbCircle
 10
55.54262335242718
 20
-59.59213628557497
 30
0.0
 40
0.054536239217207
  0
CIRCLE
  5
D0
330
79
100
AcDbEntity
  8
Camada 1
 62
   250
420
  1907995
370
     9
100
AcDbCircle
 10
51.8748544887989
 20
-56.28966236722183
 30
0.0
 40
0.2726811960877993
  0
CIRCLE
  5
D1
330
79
100
AcDbEntity
  8
Camada 1
 62
   250
420
  1907995
370
     9
100
AcDbCircle
 10
51.8748544887989
 20
-56.28966236722183
 30
0.0
 40
0.1493510783000382
  0
CIRCLE
  5
D2
330
79
100
AcDbEntity
  8
Camada 1
 62
   250
420
  1907995
370
     9
100
AcDbCircle
 10
51.8748544887989
 20
-56.28966236722215
 30
0.0
 40
0.0852919513513266
  0
CIRCLE
  5
D3
330
79
100
AcDbEntity
  8
Camada 1
 62
   250
420
  1907995
370
     9
100
AcDbCircle
 10
51.87485448879858
 20
-56.28966236722183
 30
0.0
 40
0.0545362392175278
  0
CIRCLE
  5
D4
330
79
100
AcDbEntity
  8
Camada 1
 62
   250
420
  1907995
370
     9
100
AcDbCircle
 10
50.67410497696268
 20
-59.9851893720658
 30
0.0
 40
0.2726811960874384
  0
CIRCLE
  5
D5
330
79
100
AcDbEntity
  8
Camada 1
 62
   250
420
  1907995
370
     9
100
AcDbCircle
 10
51.27447973287361
 20
-58.13742586964446
 30
0.0
 40
0.2726811960874786
  0
CIRCLE
  5
D6
330
79
100
AcDbEntity
  8
Camada 1
 62
   250
420
  1907995
370
     9
100
AcDbCircle
 10
50.67410497696308
 20
-59.98518937206548
 30
0.0
 40
0.1493510783001986
  0
CIRCLE
  5
D7
330
79
100
AcDbEntity
  8
Camada 1
 62
   250
420
  1907995
370
     9
100
AcDbCircle
 10
51.27447973287361
 20
-58.13742586964381
 30
0.0
 40
0.1493510783000382
  0
CIRCLE
  5
D8
330
79
100
AcDbEntity
  8
Camada 1
 62
   250
420
  1907995
370
     9
100
AcDbCircle
 10
50.67410497696308
 20
-59.98518937206548
 30
0.0
 40
0.0852919513519683
  0
CIRCLE
  5
D9
330
79
100
AcDbEntity
  8
Camada 1
 62
   250
420
  1907995
370
     9
100
AcDbCircle
 10
51.27447973287329
 20
-58.13742586964381
 30
0.0
 40
0.0852919513516474
  0
CIRCLE
  5
DA
330
79
100
AcDbEntity
  8
Camada 1
 62
   250
420
  1907995
370
     9
100
AcDbCircle
 10
50.67410497696276
 20
-59.98518937206548
 30
0.0
 40
0.0545362392176882
  0
CIRCLE
  5
DB
330
79
100
AcDbEntity
  8
Camada 1
 62
   250
420
  1907995
370
     9
100
AcDbCircle
 10
51.27447973287361
 20
-58.13742586964446
 30
0.0
 40
0.0545362392173674
  0
CIRCLE
  5
DC
330
79
100
AcDbEntity
  8
Camada 1
 62
   250
420
  1907995
370
     9
100
AcDbCircle
 10
61.89571716718042
 20
-62.05987119934453
 30
0.0
 40
0.2726811960868368
  0
CIRCLE
  5
DD
330
79
100
AcDbEntity
  8
Camada 1
 62
   250
420
  1907995
370
     9
100
AcDbCircle
 10
59.95286364505755
 20
-62.05987119934453
 30
0.0
 40
0.2726811960869973
  0
CIRCLE
  5
DE
330
79
100
AcDbEntity
  8
Camada 1
 62
   250
420
  1907995
370
     9
100
AcDbCircle
 10
61.89571716718074
 20
-62.05987119934421
 30
0.0
 40
0.1493510783003591
  0
CIRCLE
  5
DF
330
79
100
AcDbEntity
  8
Camada 1
 62
   250
420
  1907995
370
     9
100
AcDbCircle
 10
59.95286364505691
 20
-62.05987119934421
 30
0.0
 40
0.1493510783006799
  0
CIRCLE
  5
E0
330
79
100
AcDbEntity
  8
Camada 1
 62
   250
420
  1907995
370
     9
100
AcDbCircle
 10
61.89571716718074
 20
-62.05987119934453
 30
0.0
 40
0.0852919513510057
  0
CIRCLE
  5
E1
330
79
100
AcDbEntity
  8
Camada 1
 62
   250
420
  1907995
370
     9
100
AcDbCircle
 10
59.95286364505723
 20
-62.05987119934453
 30
0.0
 40
0.0852919513508453
  0
CIRCLE
  5
E2
330
79
100
AcDbEntity
  8
Camada 1
 62
   250
420
  1907995
370
     9
100
AcDbCircle
 10
61.89571716718074
 20
-62.05987119934421
 30
0.0
 40
0.0545362392173674
  0
CIRCLE
  5
E3
330
79
100
AcDbEntity
  8
Camada 1
 62
   250
420
  1907995
370
     9
100
AcDbCircle
 10
59.95286364505723
 20
-62.05987119934421
 30
0.0
 40
0.0545362392178487
  0
CIRCLE
  5
E4
330
79
100
AcDbEntity
  8
Camada 1
 62
   250
420
  1907995
370
     9
100
AcDbCircle
 10
61.63576720581764
 20
-64.53312987157976
 30
0.0
 40
0.2726811960877993
  0
CIRCLE
  5
E5
330
79
100
AcDbEntity
  8
Camada 1
 62
   250
420
  1907995
370
     9
100
AcDbCircle
 10
60.86727838242746
 20
-66.89829527184453
 30
0.0
 40
0.2726811960877993
  0
CIRCLE
  5
E6
330
79
100
AcDbEntity
  8
Camada 1
 62
   250
420
  1907995
370
     9
100
AcDbCircle
 10
59.64017613123163
 20
-64.5350477392143
 30
0.0
 40
0.2726811960882806
  0
CIRCLE
  5
E7
330
79
100
AcDbEntity
  8
Camada 1
 62
   250
420
  1907995
370
     9
100
AcDbCircle
 10
61.63576720581796
 20
-64.53312987157912
 30
0.0
 40
0.1493510783005195
  0
CIRCLE
  5
E8
330
79
100
AcDbEntity
  8
Camada 1
 62
   250
420
  1907995
370
     9
100
AcDbCircle
 10
60.86727838242746
 20
-66.89829527184453
 30
0.0
 40
0.1493510783006799
  0
CIRCLE
  5
E9
330
79
100
AcDbEntity
  8
Camada 1
 62
   250
420
  1907995
370
     9
100
AcDbCircle
 10
59.6401761312313
 20
-64.53504773921494
 30
0.0
 40
0.1493510783000382
  0
CIRCLE
  5
EA
330
79
100
AcDbEntity
  8
Camada 1
 62
   250
420
  1907995
370
     9
100
AcDbCircle
 10
61.63576720581796
 20
-64.53312987157943
 30
0.0
 40
0.0852919513518078
  0
CIRCLE
  5
EB
330
79
100
AcDbEntity
  8
Camada 1
 62
   250
420
  1907995
370
     9
100
AcDbCircle
 10
60.86727838242746
 20
-66.89829527184453
 30
0.0
 40
0.0852919513524495
  0
CIRCLE
  5
EC
330
79
100
AcDbEntity
  8
Camada 1
 62
   250
420
  1907995
370
     9
100
AcDbCircle
 10
59.64017613123163
 20
-64.53504773921494
 30
0.0
 40
0.0852919513513266
  0
CIRCLE
  5
ED
330
79
100
AcDbEntity
  8
Camada 1
 62
   250
420
  1907995
370
     9
100
AcDbCircle
 10
61.63576720581796
 20
-64.53312987158007
 30
0.0
 40
0.0545362392173674
  0
CIRCLE
  5
EE
330
79
100
AcDbEntity
  8
Camada 1
 62
   250
420
  1907995
370
     9
100
AcDbCircle
 10
60.86727838242746
 20
-66.89829527184453
 30
0.0
 40
0.0545362392176882
  0
CIRCLE
  5
EF
330
79
100
AcDbEntity
  8
Camada 1
 62
   250
420
  1907995
370
     9
100
AcDbCircle
 10
59.64017613123163
 20
-64.5350477392143
 30
0.0
 40
0.0545362392181695
  0
CIRCLE
  5
F0
330
79
100
AcDbEntity
  8
Camada 1
 62
   250
420
  1907995
370
     9
100
AcDbCircle
 10
58.01001012293308
 20
-62.05987119934453
 30
0.0
 40
0.2726811960869973
  0
CIRCLE
  5
F1
330
79
100
AcDbEntity
  8
Camada 1
 62
   250
420
  1907995
370
     9
100
AcDbCircle
 10
58.01001012293308
 20
-62.05987119934421
 30
0.0
 40
0.1493510783003591
  0
CIRCLE
  5
F2
330
79
100
AcDbEntity
  8
Camada 1
 62
   250
420
  1907995
370
     9
100
AcDbCircle
 10
58.01001012293276
 20
-62.05987119934453
 30
0.0
 40
0.0852919513508453
  0
CIRCLE
  5
F3
330
79
100
AcDbEntity
  8
Camada 1
 62
   250
420
  1907995
370
     9
100
AcDbCircle
 10
58.01001012293308
 20
-62.05987119934421
 30
0.0
 40
0.0545362392173674
  0
CIRCLE
  5
F4
330
79
100
AcDbEntity
  8
Camada 1
 62
   250
420
  1907995
370
     9
100
AcDbCircle
 10
58.72176089622737
 20
-66.85469983402722
 30
0.0
 40
0.2726811960874786
  0
CIRCLE
  5
F5
330
79
100
AcDbEntity
  8
Camada 1
 62
   250
420
  1907995
370
     9
100
AcDbCircle
 10
56.48023431224668
 20
-66.76803702745454
 30
0.0
 40
0.2726811960879598
  0
CIRCLE
  5
F6
330
79
100
AcDbEntity
  8
Camada 1
 62
   250
420
  1907995
370
     9
100
AcDbCircle
 10
57.61797232240616
 20
-64.53510045619282
 30
0.0
 40
0.2726811960879598
  0
CIRCLE
  5
F7
330
79
100
AcDbEntity
  8
Camada 1
 62
   250
420
  1907995
370
     9
100
AcDbCircle
 10
58.72176089622705
 20
-66.85469983402754
 30
0.0
 40
0.1493510782997174
  0
CIRCLE
  5
F8
330
79
100
AcDbEntity
  8
Camada 1
 62
   250
420
  1907995
370
     9
100
AcDbCircle
 10
56.48023431224668
 20
-66.76803702745454
 30
0.0
 40
0.1493510783001986
  0
CIRCLE
  5
F9
330
79
100
AcDbEntity
  8
Camada 1
 62
   250
420
  1907995
370
     9
100
AcDbCircle
 10
57.6179723224068
 20
-64.53510045619315
 30
0.0
 40
0.1493510783000382
  0
CIRCLE
  5
FA
330
79
100
AcDbEntity
  8
Camada 1
 62
   250
420
  1907995
370
     9
100
AcDbCircle
 10
58.72176089622705
 20
-66.85469983402754
 30
0.0
 40
0.085291951351487
  0
CIRCLE
  5
FB
330
79
100
AcDbEntity
  8
Camada 1
 62
   250
420
  1907995
370
     9
100
AcDbCircle
 10
56.48023431224668
 20
-66.76803702745485
 30
0.0
 40
0.085291951351487
  0
CIRCLE
  5
FC
330
79
100
AcDbEntity
  8
Camada 1
 62
   250
420
  1907995
370
     9
100
AcDbCircle
 10
57.6179723224068
 20
-64.5351004561925
 30
0.0
 40
0.085291951351487
  0
CIRCLE
  5
FD
330
79
100
AcDbEntity
  8
Camada 1
 62
   250
420
  1907995
370
     9
100
AcDbCircle
 10
58.72176089622737
 20
-66.85469983402722
 30
0.0
 40
0.0545362392173674
  0
CIRCLE
  5
FE
330
79
100
AcDbEntity
  8
Camada 1
 62
   250
420
  1907995
370
     9
100
AcDbCircle
 10
56.480234312247
 20
-66.76803702745421
 30
0.0
 40
0.0545362392178487
  0
CIRCLE
  5
FF
330
79
100
AcDbEntity
  8
Camada 1
 62
   250
420
  1907995
370
     9
100
AcDbCircle
 10
57.6179723224068
 20
-64.53510045619282
 30
0.0
 40
0.0545362392175278
  0
CIRCLE
  5
100
330
79
100
AcDbEntity
  8
Camada 1
 62
   250
420
  1907995
370
     9
100
AcDbCircle
 10
59.62383734620631
 20
-69.05199832278785
 30
0.0
 40
0.2726811960869973
  0
CIRCLE
  5
101
330
79
100
AcDbEntity
  8
Camada 1
 62
   250
420
  1907995
370
     9
100
AcDbCircle
 10
57.95978843713162
 20
-70.90011186649767
 30
0.0
 40
0.2726811960877993
  0
CIRCLE
  5
102
330
79
100
AcDbEntity
  8
Camada 1
 62
   250
420
  1907995
370
     9
100
AcDbCircle
 10
57.25532534696524
 20
-68.87307521158046
 30
0.0
 40
0.2726811960877993
  0
CIRCLE
  5
103
330
79
100
AcDbEntity
  8
Camada 1
 62
   250
420
  1907995
370
     9
100
AcDbCircle
 10
59.62383734620631
 20
-69.05199832278754
 30
0.0
 40
0.1493510782997174
  0
CIRCLE
  5
104
330
79
100
AcDbEntity
  8
Camada 1
 62
   250
420
  1907995
370
     9
100
AcDbCircle
 10
57.9597884371313
 20
-70.90011186649767
 30
0.0
 40
0.1493510783005195
  0
CIRCLE
  5
105
330
79
100
AcDbEntity
  8
Camada 1
 62
   250
420
  1907995
370
     9
100
AcDbCircle
 10
57.25532534696491
 20
-68.87307521158046
 30
0.0
 40
0.1493510783005195
  0
CIRCLE
  5
106
330
79
100
AcDbEntity
  8
Camada 1
 62
   250
420
  1907995
370
     9
100
AcDbCircle
 10
59.62383734620631
 20
-69.05199832278754
 30
0.0
 40
0.085291951351487
  0
CIRCLE
  5
107
330
79
100
AcDbEntity
  8
Camada 1
 62
   250
420
  1907995
370
     9
100
AcDbCircle
 10
57.9597884371313
 20
-70.90011186649734
 30
0.0
 40
0.0852919513521287
  0
CIRCLE
  5
108
330
79
100
AcDbEntity
  8
Camada 1
 62
   250
420
  1907995
370
     9
100
AcDbCircle
 10
57.25532534696524
 20
-68.87307521158078
 30
0.0
 40
0.0852919513513266
  0
CIRCLE
  5
109
330
79
100
AcDbEntity
  8
Camada 1
 62
   250
420
  1907995
370
     9
100
AcDbCircle
 10
59.62383734620599
 20
-69.05199832278754
 30
0.0
 40
0.0545362392178487
  0
CIRCLE
  5
10A
330
79
100
AcDbEntity
  8
Camada 1
 62
   250
420
  1907995
370
     9
100
AcDbCircle
 10
57.95978843713162
 20
-70.90011186649767
 30
0.0
 40
0.0545362392176882
  0
CIRCLE
  5
10B
330
79
100
AcDbEntity
  8
Camada 1
 62
   250
420
  1907995
370
     9
100
AcDbCircle
 10
57.25532534696491
 20
-68.8730752115811
 30
0.0
 40
0.0545362392178487
  0
CIRCLE
  5
10C
330
79
100
AcDbEntity
  8
Camada 1
 62
   250
420
  1907995
370
     9
100
AcDbCircle
 10
54.12430307868575
 20
-62.05987119934453
 30
0.0
 40
0.2726811960871577
  0
CIRCLE
  5
10D
330
79
100
AcDbEntity
  8
Camada 1
 62
   250
420
  1907995
370
     9
100
AcDbCircle
 10
56.06715660081054
 20
-62.05987119934453
 30
0.0
 40
0.2726811960873181
  0
CIRCLE
  5
10E
330
79
100
AcDbEntity
  8
Camada 1
 62
   250
420
  1907995
370
     9
100
AcDbCircle
 10
55.54262335242751
 20
-64.52760611311346
 30
0.0
 40
0.2726811960871577
  0
CIRCLE
  5
10F
330
79
100
AcDbEntity
  8
Camada 1
 62
   250
420
  1907995
370
     9
100
AcDbCircle
 10
54.12430307868543
 20
-62.05987119934421
 30
0.0
 40
0.1493510783003591
  0
CIRCLE
  5
110
330
79
100
AcDbEntity
  8
Camada 1
 62
   250
420
  1907995
370
     9
100
AcDbCircle
 10
56.06715660081054
 20
-62.05987119934421
 30
0.0
 40
0.1493510783006799
  0
CIRCLE
  5
111
330
79
100
AcDbEntity
  8
Camada 1
 62
   250
420
  1907995
370
     9
100
AcDbCircle
 10
55.54262335242751
 20
-64.52760611311378
 30
0.0
 40
0.1493510783001986
  0
CIRCLE
  5
112
330
79
100
AcDbEntity
  8
Camada 1
 62
   250
420
  1907995
370
     9
100
AcDbCircle
 10
54.12430307868543
 20
-62.05987119934453
 30
0.0
 40
0.0852919513510057
  0
CIRCLE
  5
113
330
79
100
AcDbEntity
  8
Camada 1
 62
   250
420
  1907995
370
     9
100
AcDbCircle
 10
56.06715660081022
 20
-62.05987119934453
 30
0.0
 40
0.0852919513511661
  0
CIRCLE
  5
114
330
79
100
AcDbEntity
  8
Camada 1
 62
   250
420
  1907995
370
     9
100
AcDbCircle
 10
55.54262335242751
 20
-64.52760611311314
 30
0.0
 40
0.0852919513516474
  0
CIRCLE
  5
115
330
79
100
AcDbEntity
  8
Camada 1
 62
   250
420
  1907995
370
     9
100
AcDbCircle
 10
54.12430307868543
 20
-62.05987119934421
 30
0.0
 40
0.0545362392173674
  0
CIRCLE
  5
116
330
79
100
AcDbEntity
  8
Camada 1
 62
   250
420
  1907995
370
     9
100
AcDbCircle
 10
56.06715660081022
 20
-62.05987119934421
 30
0.0
 40
0.0545362392181695
  0
CIRCLE
  5
117
330
79
100
AcDbEntity
  8
Camada 1
 62
   250
420
  1907995
370
     9
100
AcDbCircle
 10
55.54262335242718
 20
-64.52760611311378
 30
0.0
 40
0.0545362392176882
  0
CIRCLE
  5
118
330
79
100
AcDbEntity
  8
Camada 1
 62
   250
420
  1907995
370
     9
100
AcDbCircle
 10
54.05972017116247
 20
-66.56864724161079
 30
0.0
 40
0.2726811960879598
  0
CIRCLE
  5
119
330
79
100
AcDbEntity
  8
Camada 1
 62
   250
420
  1907995
370
     9
100
AcDbCircle
 10
54.05972017116247
 20
-66.56864724161079
 30
0.0
 40
0.1493510783001986
  0
CIRCLE
  5
11A
330
79
100
AcDbEntity
  8
Camada 1
 62
   250
420
  1907995
370
     9
100
AcDbCircle
 10
54.05972017116247
 20
-66.56864724161079
 30
0.0
 40
0.0852919513519683
  0
CIRCLE
  5
11B
330
79
100
AcDbEntity
  8
Camada 1
 62
   250
420
  1907995
370
     9
100
AcDbCircle
 10
54.05972017116247
 20
-66.56864724161079
 30
0.0
 40
0.0545362392178487
  0
CIRCLE
  5
11C
330
79
100
AcDbEntity
  8
Camada 1
 62
   250
420
  1907995
370
     9
100
AcDbCircle
 10
52.18144955656192
 20
-62.05987119934453
 30
0.0
 40
0.2726811960874786
  0
CIRCLE
  5
11D
330
79
100
AcDbEntity
  8
Camada 1
 62
   250
420
  1907995
370
     9
100
AcDbCircle
 10
50.67410497696268
 20
-64.13455302662327
 30
0.0
 40
0.2726811960874384
  0
CIRCLE
  5
11E
330
79
100
AcDbEntity
  8
Camada 1
 62
   250
420
  1907995
370
     9
100
AcDbCircle
 10
53.33663127828576
 20
-64.48407573210838
 30
0.0
 40
0.2726811960869973
  0
CIRCLE
  5
11F
330
79
100
AcDbEntity
  8
Camada 1
 62
   250
420
  1907995
370
     9
100
AcDbCircle
 10
52.18144955656192
 20
-62.05987119934421
 30
0.0
 40
0.1493510783008403
  0
CIRCLE
  5
120
330
79
100
AcDbEntity
  8
Camada 1
 62
   250
420
  1907995
370
     9
100
AcDbCircle
 10
50.67410497696308
 20
-64.13455302662327
 30
0.0
 40
0.1493510782997174
  0
CIRCLE
  5
121
330
79
100
AcDbEntity
  8
Camada 1
 62
   250
420
  1907995
370
     9
100
AcDbCircle
 10
53.33663127828543
 20
-64.48407573210838
 30
0.0
 40
0.1493510782997174
  0
CIRCLE
  5
122
330
79
100
AcDbEntity
  8
Camada 1
 62
   250
420
  1907995
370
     9
100
AcDbCircle
 10
52.18144955656192
 20
-62.05987119934453
 30
0.0
 40
0.0852919513508453
  0
CIRCLE
  5
123
330
79
100
AcDbEntity
  8
Camada 1
 62
   250
420
  1907995
370
     9
100
AcDbCircle
 10
50.67410497696308
 20
-64.13455302662296
 30
0.0
 40
0.0852919513513266
  0
CIRCLE
  5
124
330
79
100
AcDbEntity
  8
Camada 1
 62
   250
420
  1907995
370
     9
100
AcDbCircle
 10
53.33663127828543
 20
-64.48407573210838
 30
0.0
 40
0.0852919513508453
  0
CIRCLE
  5
125
330
79
100
AcDbEntity
  8
Camada 1
 62
   250
420
  1907995
370
     9
100
AcDbCircle
 10
52.18144955656192
 20
-62.05987119934421
 30
0.0
 40
0.0545362392178487
  0
CIRCLE
  5
126
330
79
100
AcDbEntity
  8
Camada 1
 62
   250
420
  1907995
370
     9
100
AcDbCircle
 10
50.67410497696276
 20
-64.13455302662296
 30
0.0
 40
0.0545362392176882
  0
CIRCLE
  5
127
330
79
100
AcDbEntity
  8
Camada 1
 62
   250
420
  1907995
370
     9
100
AcDbCircle
 10
53.33663127828576
 20
-64.48407573210838
 30
0.0
 40
0.0545362392168861
  0
CIRCLE
  5
128
330
79
100
AcDbEntity
  8
Camada 1
 62
   250
420
  1907995
370
     9
100
AcDbCircle
 10
51.27447973287361
 20
-65.9823165290443
 30
0.0
 40
0.2726811960869973
  0
CIRCLE
  5
129
330
79
100
AcDbEntity
  8
Camada 1
 62
   250
420
  1907995
370
     9
100
AcDbCircle
 10
51.8748544887989
 20
-67.83008003146692
 30
0.0
 40
0.2726811960882806
  0
CIRCLE
  5
12A
330
79
100
AcDbEntity
  8
Camada 1
 62
   250
420
  1907995
370
     9
100
AcDbCircle
 10
51.27447973287361
 20
-65.9823165290443
 30
0.0
 40
0.1493510782998778
  0
CIRCLE
  5
12B
330
79
100
AcDbEntity
  8
Camada 1
 62
   250
420
  1907995
370
     9
100
AcDbCircle
 10
51.8748544887989
 20
-67.83008003146725
 30
0.0
 40
0.1493510783000382
  0
CIRCLE
  5
12C
330
79
100
AcDbEntity
  8
Camada 1
 62
   250
420
  1907995
370
     9
100
AcDbCircle
 10
51.27447973287329
 20
-65.98231652904461
 30
0.0
 40
0.0852919513510057
  0
CIRCLE
  5
12D
330
79
100
AcDbEntity
  8
Camada 1
 62
   250
420
  1907995
370
     9
100
AcDbCircle
 10
51.8748544887989
 20
-67.83008003146692
 30
0.0
 40
0.0852919513516474
  0
CIRCLE
  5
12E
330
79
100
AcDbEntity
  8
Camada 1
 62
   250
420
  1907995
370
     9
100
AcDbCircle
 10
51.27447973287361
 20
-65.9823165290443
 30
0.0
 40
0.0545362392168861
  0
CIRCLE
  5
12F
330
79
100
AcDbEntity
  8
Camada 1
 62
   250
420
  1907995
370
     9
100
AcDbCircle
 10
51.87485448879858
 20
-67.83008003146725
 30
0.0
 40
0.0545362392175278
  0
CIRCLE
  5
130
330
79
100
AcDbEntity
  8
Camada 1
 62
   250
420
  1907995
370
     9
100
AcDbCircle
 10
55.33301102216473
 20
-70.46335192382167
 30
0.0
 40
0.2726811960879598
  0
CIRCLE
  5
131
330
79
100
AcDbEntity
  8
Camada 1
 62
   250
420
  1907995
370
     9
100
AcDbCircle
 10
54.7081658159721
 20
-68.5401055237288
 30
0.0
 40
0.272681196088441
  0
CIRCLE
  5
132
330
79
100
AcDbEntity
  8
Camada 1
 62
   250
420
  1907995
370
     9
100
AcDbCircle
 10
55.33301102216473
 20
-70.46335192382136
 30
0.0
 40
0.1493510783006799
  0
CIRCLE
  5
133
330
79
100
AcDbEntity
  8
Camada 1
 62
   250
420
  1907995
370
     9
100
AcDbCircle
 10
54.70816581597242
 20
-68.54010552372911
 30
0.0
 40
0.1493510782997174
  0
CIRCLE
  5
134
330
79
100
AcDbEntity
  8
Camada 1
 62
   250
420
  1907995
370
     9
100
AcDbCircle
 10
55.33301102216473
 20
-70.463351923822
 30
0.0
 40
0.085291951351487
  0
CIRCLE
  5
135
330
79
100
AcDbEntity
  8
Camada 1
 62
   250
420
  1907995
370
     9
100
AcDbCircle
 10
54.70816581597242
 20
-68.54010552372911
 30
0.0
 40
0.085291951351487
  0
CIRCLE
  5
136
330
79
100
AcDbEntity
  8
Camada 1
 62
   250
420
  1907995
370
     9
100
AcDbCircle
 10
55.33301102216473
 20
-70.46335192382167
 30
0.0
 40
0.0545362392178487
  0
CIRCLE
  5
137
330
79
100
AcDbEntity
  8
Camada 1
 62
   250
420
  1907995
370
     9
100
AcDbCircle
 10
54.7081658159721
 20
-68.54010552372847
 30
0.0
 40
0.0545362392181695
  0
CIRCLE
  5
138
330
79
100
AcDbEntity
  8
Camada 1
 62
   250
420
  1907995
370
     9
100
AcDbCircle
 10
55.94785857752094
 20
-72.36186447287058
 30
0.0
 40
0.2726811960879598
  0
CIRCLE
  5
139
330
79
100
AcDbEntity
  8
Camada 1
 62
   250
420
  1907995
370
     9
100
AcDbCircle
 10
53.67597875654748
 20
-73.37337053874572
 30
0.0
 40
0.2726811960877993
  0
CIRCLE
  5
13A
330
79
100
AcDbEntity
  8
Camada 1
 62
   250
420
  1907995
370
     9
100
AcDbCircle
 10
55.94785857752094
 20
-72.36186447287025
 30
0.0
 40
0.1493510783000382
  0
CIRCLE
  5
13B
330
79
100
AcDbEntity
  8
Camada 1
 62
   250
420
  1907995
370
     9
100
AcDbCircle
 10
53.6759787565478
 20
-73.37337053874572
 30
0.0
 40
0.1493510783001986
  0
CIRCLE
  5
13C
330
79
100
AcDbEntity
  8
Camada 1
 62
   250
420
  1907995
370
     9
100
AcDbCircle
 10
55.94785857752094
 20
-72.36186447287025
 30
0.0
 40
0.0852919513518078
  0
CIRCLE
  5
13D
330
79
100
AcDbEntity
  8
Camada 1
 62
   250
420
  1907995
370
     9
100
AcDbCircle
 10
53.67597875654748
 20
-73.37337053874541
 30
0.0
 40
0.0852919513516474
  0
CIRCLE
  5
13E
330
79
100
AcDbEntity
  8
Camada 1
 62
   250
420
  1907995
370
     9
100
AcDbCircle
 10
55.94785857752094
 20
-72.36186447287025
 30
0.0
 40
0.0545362392176882
  0
CIRCLE
  5
13F
330
79
100
AcDbEntity
  8
Camada 1
 62
   250
420
  1907995
370
     9
100
AcDbCircle
 10
53.67597875654748
 20
-73.37337053874604
 30
0.0
 40
0.0545362392178487
  0
CIRCLE
  5
140
330
79
100
AcDbEntity
  8
Camada 1
 62
   250
420
  1907995
370
     9
100
AcDbCircle
 10
52.47522924471006
 20
-69.67784353388826
 30
0.0
 40
0.272681196087639
  0
CIRCLE
  5
141
330
79
100
AcDbEntity
  8
Camada 1
 62
   250
420
  1907995
370
     9
100
AcDbCircle
 10
52.47522924471071
 20
-69.67784353388826
 30
0.0
 40
0.1493510783001986
  0
CIRCLE
  5
142
330
79
100
AcDbEntity
  8
Camada 1
 62
   250
420
  1907995
370
     9
100
AcDbCircle
 10
52.47522924471071
 20
-69.67784353388859
 30
0.0
 40
0.085291951351487
  0
CIRCLE
  5
143
330
79
100
AcDbEntity
  8
Camada 1
 62
   250
420
  1907995
370
     9
100
AcDbCircle
 10
52.47522924471038
 20
-69.67784353388826
 30
0.0
 40
0.0545362392176882
  0
CIRCLE
  5
144
330
79
100
AcDbEntity
  8
Camada 1
 62
   250
420
  1907995
370
     9
100
AcDbCircle
 10
51.24344102408229
 20
-73.89042239528784
 30
0.0
 40
0.2726811960877993
  0
CIRCLE
  5
145
330
79
100
AcDbEntity
  8
Camada 1
 62
   250
420
  1907995
370
     9
100
AcDbCircle
 10
53.07560400063567
 20
-71.52560703630993
 30
0.0
 40
0.2726811960879598
  0
CIRCLE
  5
146
330
79
100
AcDbEntity
  8
Camada 1
 62
   250
420
  1907995
370
     9
100
AcDbCircle
 10
50.62494546769582
 20
-71.99309515363153
 30
0.0
 40
0.2726811960875988
  0
CIRCLE
  5
147
330
79
100
AcDbEntity
  8
Camada 1
 62
   250
420
  1907995
370
     9
100
AcDbCircle
 10
51.24344102408229
 20
-73.89042239528784
 30
0.0
 40
0.1493510783006799
  0
CIRCLE
  5
148
330
79
100
AcDbEntity
  8
Camada 1
 62
   250
420
  1907995
370
     9
100
AcDbCircle
 10
53.07560400063567
 20
-71.52560703631026
 30
0.0
 40
0.1493510783003591
  0
CIRCLE
  5
149
330
79
100
AcDbEntity
  8
Camada 1
 62
   250
420
  1907995
370
     9
100
AcDbCircle
 10
50.62494546769591
 20
-71.99309515363153
 30
0.0
 40
0.1493510783003591
  0
CIRCLE
  5
14A
330
79
100
AcDbEntity
  8
Camada 1
 62
   250
420
  1907995
370
     9
100
AcDbCircle
 10
51.24344102408229
 20
-73.89042239528849
 30
0.0
 40
0.085291951351487
  0
CIRCLE
  5
14B
330
79
100
AcDbEntity
  8
Camada 1
 62
   250
420
  1907995
370
     9
100
AcDbCircle
 10
53.07560400063567
 20
-71.52560703630993
 30
0.0
 40
0.0852919513519683
  0
CIRCLE
  5
14C
330
79
100
AcDbEntity
  8
Camada 1
 62
   250
420
  1907995
370
     9
100
AcDbCircle
 10
50.62494546769591
 20
-71.99309515363153
 30
0.0
 40
0.085291951351487
  0
CIRCLE
  5
14D
330
79
100
AcDbEntity
  8
Camada 1
 62
   250
420
  1907995
370
     9
100
AcDbCircle
 10
51.24344102408229
 20
-73.89042239528784
 30
0.0
 40
0.0545362392176882
  0
CIRCLE
  5
14E
330
79
100
AcDbEntity
  8
Camada 1
 62
   250
420
  1907995
370
     9
100
AcDbCircle
 10
53.07560400063599
 20
-71.52560703630993
 30
0.0
 40
0.0545362392180091
  0
CIRCLE
  5
14F
330
79
100
AcDbEntity
  8
Camada 1
 62
   250
420
  1907995
370
     9
100
AcDbCircle
 10
50.62494546769591
 20
-71.99309515363184
 30
0.0
 40
0.0545362392168861
  0
CIRCLE
  5
150
330
79
100
AcDbEntity
  8
Camada 1
 62
   250
420
  1907995
370
     9
100
AcDbCircle
 10
48.75655895164111
 20
-50.22932000340114
 30
0.0
 40
0.2726811960873582
  0
CIRCLE
  5
151
330
79
100
AcDbEntity
  8
Camada 1
 62
   250
420
  1907995
370
     9
100
AcDbCircle
 10
48.13501931187857
 20
-52.28330012064095
 30
0.0
 40
0.2726811960874786
  0
CIRCLE
  5
152
330
79
100
AcDbEntity
  8
Camada 1
 62
   250
420
  1907995
370
     9
100
AcDbCircle
 10
48.75655895164143
 20
-50.22932000340123
 30
0.0
 40
0.1493510782997976
  0
CIRCLE
  5
153
330
79
100
AcDbEntity
  8
Camada 1
 62
   250
420
  1907995
370
     9
100
AcDbCircle
 10
48.13501931187825
 20
-52.28330012064062
 30
0.0
 40
0.1493510783003591
  0
CIRCLE
  5
154
330
79
100
AcDbEntity
  8
Camada 1
 62
   250
420
  1907995
370
     9
100
AcDbCircle
 10
48.7565589516416
 20
-50.2293200034009
 30
0.0
 40
0.085291951351487
  0
CIRCLE
  5
155
330
79
100
AcDbEntity
  8
Camada 1
 62
   250
420
  1907995
370
     9
100
AcDbCircle
 10
48.13501931187825
 20
-52.28330012064062
 30
0.0
 40
0.0852919513521287
  0
CIRCLE
  5
156
330
79
100
AcDbEntity
  8
Camada 1
 62
   250
420
  1907995
370
     9
100
AcDbCircle
 10
48.75655895164111
 20
-50.22932000340106
 30
0.0
 40
0.0545362392175278
  0
CIRCLE
  5
157
330
79
100
AcDbEntity
  8
Camada 1
 62
   250
420
  1907995
370
     9
100
AcDbCircle
 10
48.13501931187841
 20
-52.28330012064062
 30
0.0
 40
0.0545362392180893
  0
CIRCLE
  5
158
330
79
100
AcDbEntity
  8
Camada 1
 62
   250
420
  1907995
370
     9
100
AcDbCircle
 10
49.9999999878621
 20
-54.04986106427259
 30
0.0
 40
0.2726811960873181
  0
CIRCLE
  5
159
330
79
100
AcDbEntity
  8
Camada 1
 62
   250
420
  1907995
370
     9
100
AcDbCircle
 10
49.99999998786226
 20
-54.04986106427259
 30
0.0
 40
0.149351078299958
  0
CIRCLE
  5
15A
330
79
100
AcDbEntity
  8
Camada 1
 62
   250
420
  1907995
370
     9
100
AcDbCircle
 10
49.99999998786226
 20
-54.04986106427227
 30
0.0
 40
0.0852919513515672
  0
CIRCLE
  5
15B
330
79
100
AcDbEntity
  8
Camada 1
 62
   250
420
  1907995
370
     9
100
AcDbCircle
 10
49.99999998786194
 20
-54.04986106427259
 30
0.0
 40
0.0545362392174476
  0
CIRCLE
  5
15C
330
79
100
AcDbEntity
  8
Camada 1
 62
   250
420
  1907995
370
     9
100
AcDbCircle
 10
46.32402121917624
 20
-50.74637185994335
 30
0.0
 40
0.2726811960873983
  0
CIRCLE
  5
15D
330
79
100
AcDbEntity
  8
Camada 1
 62
   250
420
  1907995
370
     9
100
AcDbCircle
 10
46.32402121917624
 20
-50.74637185994303
 30
0.0
 40
0.1493510783001184
  0
CIRCLE
  5
15E
330
79
100
AcDbEntity
  8
Camada 1
 62
   250
420
  1907995
370
     9
100
AcDbCircle
 10
46.32402121917624
 20
-50.74637185994303
 30
0.0
 40
0.0852919513518881
  0
CIRCLE
  5
15F
330
79
100
AcDbEntity
  8
Camada 1
 62
   250
420
  1907995
370
     9
100
AcDbCircle
 10
46.32402121917672
 20
-50.74637185994335
 30
0.0
 40
0.0545362392175278
  0
CIRCLE
  5
160
330
79
100
AcDbEntity
  8
Camada 1
 62
   250
420
  1907995
370
     9
100
AcDbCircle
 10
47.52477073101301
 20
-54.44189886480016
 30
0.0
 40
0.2726811960872379
  0
CIRCLE
  5
161
330
79
100
AcDbEntity
  8
Camada 1
 62
   250
420
  1907995
370
     9
100
AcDbCircle
 10
45.76227675085063
 20
-53.05425091281062
 30
0.0
 40
0.2726811960877993
  0
CIRCLE
  5
162
330
79
100
AcDbEntity
  8
Camada 1
 62
   250
420
  1907995
370
     9
100
AcDbCircle
 10
47.52477073101301
 20
-54.44189886479984
 30
0.0
 40
0.149351078299958
  0
CIRCLE
  5
163
330
79
100
AcDbEntity
  8
Camada 1
 62
   250
420
  1907995
370
     9
100
AcDbCircle
 10
45.76227675085063
 20
-53.05425091281062
 30
0.0
 40
0.1493510783006799
  0
CIRCLE
  5
164
330
79
100
AcDbEntity
  8
Camada 1
 62
   250
420
  1907995
370
     9
100
AcDbCircle
 10
47.52477073101285
 20
-54.44189886479984
 30
0.0
 40
0.0852919513513266
  0
CIRCLE
  5
165
330
79
100
AcDbEntity
  8
Camada 1
 62
   250
420
  1907995
370
     9
100
AcDbCircle
 10
45.76227675085063
 20
-53.05425091281126
 30
0.0
 40
0.085291951351487
  0
CIRCLE
  5
166
330
79
100
AcDbEntity
  8
Camada 1
 62
   250
420
  1907995
370
     9
100
AcDbCircle
 10
47.52477073101301
 20
-54.44189886480016
 30
0.0
 40
0.0545362392171267
  0
CIRCLE
  5
167
330
79
100
AcDbEntity
  8
Camada 1
 62
   250
420
  1907995
370
     9
100
AcDbCircle
 10
45.7622767508508
 20
-53.05425091281062
 30
0.0
 40
0.0545362392177684
  0
CIRCLE
  5
168
330
79
100
AcDbEntity
  8
Camada 1
 62
   250
420
  1907995
370
     9
100
AcDbCircle
 10
48.72552024284979
 20
-58.13742586964446
 30
0.0
 40
0.2726811960878796
  0
CIRCLE
  5
169
330
79
100
AcDbEntity
  8
Camada 1
 62
   250
420
  1907995
370
     9
100
AcDbCircle
 10
49.36580943070803
 20
-56.02595110513741
 30
0.0
 40
0.2726811960877191
  0
CIRCLE
  5
16A
330
79
100
AcDbEntity
  8
Camada 1
 62
   250
420
  1907995
370
     9
100
AcDbCircle
 10
48.72552024284963
 20
-58.13742586964381
 30
0.0
 40
0.1493510783003591
  0
CIRCLE
  5
16B
330
79
100
AcDbEntity
  8
Camada 1
 62
   250
420
  1907995
370
     9
100
AcDbCircle
 10
49.36580943070803
 20
-56.02595110513741
 30
0.0
 40
0.1493510783005997
  0
CIRCLE
  5
16C
330
79
100
AcDbEntity
  8
Camada 1
 62
   250
420
  1907995
370
     9
100
AcDbCircle
 10
48.72552024284995
 20
-58.13742586964381
 30
0.0
 40
0.0852919513516474
  0
CIRCLE
  5
16D
330
79
100
AcDbEntity
  8
Camada 1
 62
   250
420
  1907995
370
     9
100
AcDbCircle
 10
49.36580943070803
 20
-56.02595110513773
 30
0.0
 40
0.0852919513515672
  0
CIRCLE
  5
16E
330
79
100
AcDbEntity
  8
Camada 1
 62
   250
420
  1907995
370
     9
100
AcDbCircle
 10
48.72552024284979
 20
-58.13742586964446
 30
0.0
 40
0.0545362392177684
  0
CIRCLE
  5
16F
330
79
100
AcDbEntity
  8
Camada 1
 62
   250
420
  1907995
370
     9
100
AcDbCircle
 10
49.36580943070803
 20
-56.02595110513773
 30
0.0
 40
0.0545362392177684
  0
CIRCLE
  5
170
330
79
100
AcDbEntity
  8
Camada 1
 62
   250
420
  1907995
370
     9
100
AcDbCircle
 10
48.23517021441104
 20
-60.77764731423997
 30
0.0
 40
0.2726811960877191
  0
CIRCLE
  5
171
330
79
100
AcDbEntity
  8
Camada 1
 62
   250
420
  1907995
370
     9
100
AcDbCircle
 10
48.23517021441104
 20
-60.77764731423966
 30
0.0
 40
0.1493510783004393
  0
CIRCLE
  5
172
330
79
100
AcDbEntity
  8
Camada 1
 62
   250
420
  1907995
370
     9
100
AcDbCircle
 10
48.23517021441104
 20
-60.77764731423997
 30
0.0
 40
0.0852919513517276
  0
CIRCLE
  5
173
330
79
100
AcDbEntity
  8
Camada 1
 62
   250
420
  1907995
370
     9
100
AcDbCircle
 10
48.23517021441104
 20
-60.77764731424029
 30
0.0
 40
0.0545362392180893
  0
CIRCLE
  5
174
330
79
100
AcDbEntity
  8
Camada 1
 62
   250
420
  1907995
370
     9
100
AcDbCircle
 10
46.9664216813882
 20
-56.80555944379434
 30
0.0
 40
0.2726811960875588
  0
CIRCLE
  5
175
330
79
100
AcDbEntity
  8
Camada 1
 62
   250
420
  1907995
370
     9
100
AcDbCircle
 10
45.29183415975114
 20
-55.57963687495931
 30
0.0
 40
0.272681196087639
  0
CIRCLE
  5
176
330
79
100
AcDbEntity
  8
Camada 1
 62
   250
420
  1907995
370
     9
100
AcDbCircle
 10
46.96642168138835
 20
-56.80555944379434
 30
0.0
 40
0.1493510783001986
  0
CIRCLE
  5
177
330
79
100
AcDbEntity
  8
Camada 1
 62
   250
420
  1907995
370
     9
100
AcDbCircle
 10
45.2918341597513
 20
-55.57963687495996
 30
0.0
 40
0.1493510782993163
  0
CIRCLE
  5
178
330
79
100
AcDbEntity
  8
Camada 1
 62
   250
420
  1907995
370
     9
100
AcDbCircle
 10
46.96642168138835
 20
-56.80555944379402
 30
0.0
 40
0.0852919513518078
  0
CIRCLE
  5
179
330
79
100
AcDbEntity
  8
Camada 1
 62
   250
420
  1907995
370
     9
100
AcDbCircle
 10
45.29183415975114
 20
-55.57963687495996
 30
0.0
 40
0.0852919513510057
  0
CIRCLE
  5
17A
330
79
100
AcDbEntity
  8
Camada 1
 62
   250
420
  1907995
370
     9
100
AcDbCircle
 10
46.96642168138835
 20
-56.80555944379402
 30
0.0
 40
0.0545362392176882
  0
CIRCLE
  5
17B
330
79
100
AcDbEntity
  8
Camada 1
 62
   250
420
  1907995
370
     9
100
AcDbCircle
 10
45.29183415975114
 20
-55.57963687495931
 30
0.0
 40
0.0545362392175278
  0
CIRCLE
  5
17C
330
79
100
AcDbEntity
  8
Camada 1
 62
   250
420
  1907995
370
     9
100
AcDbCircle
 10
46.66336869743732
 20
-59.63566666658038
 30
0.0
 40
0.2726811960877191
  0
CIRCLE
  5
17D
330
79
100
AcDbEntity
  8
Camada 1
 62
   250
420
  1907995
370
     9
100
AcDbCircle
 10
45.09156718045108
 20
-58.49368601890698
 30
0.0
 40
0.2726811960877191
  0
CIRCLE
  5
17E
330
79
100
AcDbEntity
  8
Camada 1
 62
   250
420
  1907995
370
     9
100
AcDbCircle
 10
46.66336869743747
 20
-59.63566666658038
 30
0.0
 40
0.1493510783003591
  0
CIRCLE
  5
17F
330
79
100
AcDbEntity
  8
Camada 1
 62
   250
420
  1907995
370
     9
100
AcDbCircle
 10
45.09156718045124
 20
-58.49368601890698
 30
0.0
 40
0.1493510783003591
  0
CIRCLE
  5
180
330
79
100
AcDbEntity
  8
Camada 1
 62
   250
420
  1907995
370
     9
100
AcDbCircle
 10
46.66336869743715
 20
-59.63566666657973
 30
0.0
 40
0.0852919513516474
  0
CIRCLE
  5
181
330
79
100
AcDbEntity
  8
Camada 1
 62
   250
420
  1907995
370
     9
100
AcDbCircle
 10
45.09156718045108
 20
-58.4936860189073
 30
0.0
 40
0.0852919513515672
  0
CIRCLE
  5
182
330
79
100
AcDbEntity
  8
Camada 1
 62
   250
420
  1907995
370
     9
100
AcDbCircle
 10
46.66336869743732
 20
-59.63566666658038
 30
0.0
 40
0.054536239217608
  0
CIRCLE
  5
183
330
79
100
AcDbEntity
  8
Camada 1
 62
   250
420
  1907995
370
     9
100
AcDbCircle
 10
45.09156718045108
 20
-58.49368601890698
 30
0.0
 40
0.054536239217608
  0
CIRCLE
  5
184
330
79
100
AcDbEntity
  8
Camada 1
 62
   250
420
  1907995
370
     9
100
AcDbCircle
 10
44.05214139820278
 20
-51.75787792581786
 30
0.0
 40
0.2726811960872379
  0
CIRCLE
  5
185
330
79
100
AcDbEntity
  8
Camada 1
 62
   250
420
  1907995
370
     9
100
AcDbCircle
 10
44.05214139820278
 20
-51.75787792581786
 30
0.0
 40
0.1493510782997976
  0
CIRCLE
  5
186
330
79
100
AcDbEntity
  8
Camada 1
 62
   250
420
  1907995
370
     9
100
AcDbCircle
 10
44.05214139820261
 20
-51.75787792581818
 30
0.0
 40
0.0852919513510057
  0
CIRCLE
  5
187
330
79
100
AcDbEntity
  8
Camada 1
 62
   250
420
  1907995
370
     9
100
AcDbCircle
 10
44.05214139820246
 20
-51.75787792581786
 30
0.0
 40
0.0545362392172872
  0
CIRCLE
  5
188
330
79
100
AcDbEntity
  8
Camada 1
 62
   250
420
  1907995
370
     9
100
AcDbCircle
 10
43.65580592606128
 20
-54.39105794793874
 30
0.0
 40
0.2726811960871577
  0
CIRCLE
  5
189
330
79
100
AcDbEntity
  8
Camada 1
 62
   250
420
  1907995
370
     9
100
AcDbCircle
 10
43.65580592606112
 20
-54.39105794793874
 30
0.0
 40
0.149351078299958
  0
CIRCLE
  5
18A
330
79
100
AcDbEntity
  8
Camada 1
 62
   250
420
  1907995
370
     9
100
AcDbCircle
 10
43.65580592606112
 20
-54.39105794793842
 30
0.0
 40
0.0852919513515672
  0
CIRCLE
  5
18B
330
79
100
AcDbEntity
  8
Camada 1
 62
   250
420
  1907995
370
     9
100
AcDbCircle
 10
43.65580592606128
 20
-54.39105794793842
 30
0.0
 40
0.054536239217207
  0
CIRCLE
  5
18C
330
79
100
AcDbEntity
  8
Camada 1
 62
   250
420
  1907995
370
     9
100
AcDbCircle
 10
42.04021153859178
 20
-53.21963053219141
 30
0.0
 40
0.2726811960875588
  0
CIRCLE
  5
18D
330
79
100
AcDbEntity
  8
Camada 1
 62
   250
420
  1907995
370
     9
100
AcDbCircle
 10
42.04021153859193
 20
-53.21963053219141
 30
0.0
 40
0.1493510782998778
  0
CIRCLE
  5
18E
330
79
100
AcDbEntity
  8
Camada 1
 62
   250
420
  1907995
370
     9
100
AcDbCircle
 10
42.04021153859161
 20
-53.21963053219141
 30
0.0
 40
0.0852919513511661
  0
CIRCLE
  5
18F
330
79
100
AcDbEntity
  8
Camada 1
 62
   250
420
  1907995
370
     9
100
AcDbCircle
 10
42.04021153859161
 20
-53.21963053219141
 30
0.0
 40
0.0545362392173674
  0
CIRCLE
  5
190
330
79
100
AcDbEntity
  8
Camada 1
 62
   250
420
  1907995
370
     9
100
AcDbCircle
 10
40.37616262951725
 20
-55.06774407590089
 30
0.0
 40
0.272681196087639
  0
CIRCLE
  5
191
330
79
100
AcDbEntity
  8
Camada 1
 62
   250
420
  1907995
370
     9
100
AcDbCircle
 10
40.37616262951708
 20
-55.06774407590089
 30
0.0
 40
0.1493510783004393
  0
CIRCLE
  5
192
330
79
100
AcDbEntity
  8
Camada 1
 62
   250
420
  1907995
370
     9
100
AcDbCircle
 10
40.37616262951708
 20
-55.06774407590089
 30
0.0
 40
0.0852919513509255
  0
CIRCLE
  5
193
330
79
100
AcDbEntity
  8
Camada 1
 62
   250
420
  1907995
370
     9
100
AcDbCircle
 10
40.37616262951725
 20
-55.06774407590089
 30
0.0
 40
0.0545362392175278
  0
CIRCLE
  5
194
330
79
100
AcDbEntity
  8
Camada 1
 62
   250
420
  1907995
370
     9
100
AcDbCircle
 10
43.51976566347736
 20
-57.35170537123326
 30
0.0
 40
0.2726811960873983
  0
CIRCLE
  5
195
330
79
100
AcDbEntity
  8
Camada 1
 62
   250
420
  1907995
370
     9
100
AcDbCircle
 10
41.94796414649016
 20
-56.2097247235605
 30
0.0
 40
0.2726811960882004
  0
CIRCLE
  5
196
330
79
100
AcDbEntity
  8
Camada 1
 62
   250
420
  1907995
370
     9
100
AcDbCircle
 10
43.51976566347768
 20
-57.35170537123293
 30
0.0
 40
0.1493510783002788
  0
CIRCLE
  5
197
330
79
100
AcDbEntity
  8
Camada 1
 62
   250
420
  1907995
370
     9
100
AcDbCircle
 10
41.94796414649048
 20
-56.20972472356082
 30
0.0
 40
0.1493510783001184
  0
CIRCLE
  5
198
330
79
100
AcDbEntity
  8
Camada 1
 62
   250
420
  1907995
370
     9
100
AcDbCircle
 10
43.51976566347768
 20
-57.35170537123358
 30
0.0
 40
0.0852919513510859
  0
CIRCLE
  5
199
330
79
100
AcDbEntity
  8
Camada 1
 62
   250
420
  1907995
370
     9
100
AcDbCircle
 10
41.94796414649032
 20
-56.2097247235605
 30
0.0
 40
0.0852919513516474
  0
CIRCLE
  5
19A
330
79
100
AcDbEntity
  8
Camada 1
 62
   250
420
  1907995
370
     9
100
AcDbCircle
 10
43.51976566347736
 20
-57.35170537123293
 30
0.0
 40
0.0545362392177684
  0
CIRCLE
  5
19B
330
79
100
AcDbEntity
  8
Camada 1
 62
   250
420
  1907995
370
     9
100
AcDbCircle
 10
41.94796414649016
 20
-56.20972472356114
 30
0.0
 40
0.0545362392177684
  0
CIRCLE
  5
19C
330
79
100
AcDbEntity
  8
Camada 1
 62
   250
420
  1907995
370
     9
100
AcDbCircle
 10
44.0654253036243
 20
-60.79843840948904
 30
0.0
 40
0.2726811960879598
  0
CIRCLE
  5
19D
330
79
100
AcDbEntity
  8
Camada 1
 62
   250
420
  1907995
370
     9
100
AcDbCircle
 10
42.38202765331756
 20
-59.58464194249497
 30
0.0
 40
0.2726811960875588
  0
CIRCLE
  5
19E
330
79
100
AcDbEntity
  8
Camada 1
 62
   250
420
  1907995
370
     9
100
AcDbCircle
 10
44.0654253036243
 20
-60.79843840948937
 30
0.0
 40
0.1493510783003591
  0
CIRCLE
  5
19F
330
79
100
AcDbEntity
  8
Camada 1
 62
   250
420
  1907995
370
     9
100
AcDbCircle
 10
42.38202765331773
 20
-59.58464194249497
 30
0.0
 40
0.1493510783001986
  0
CIRCLE
  5
1A0
330
79
100
AcDbEntity
  8
Camada 1
 62
   250
420
  1907995
370
     9
100
AcDbCircle
 10
44.0654253036243
 20
-60.79843840948904
 30
0.0
 40
0.0852919513516474
  0
CIRCLE
  5
1A1
330
79
100
AcDbEntity
  8
Camada 1
 62
   250
420
  1907995
370
     9
100
AcDbCircle
 10
42.38202765331773
 20
-59.58464194249497
 30
0.0
 40
0.0852919513519683
  0
CIRCLE
  5
1A2
330
79
100
AcDbEntity
  8
Camada 1
 62
   250
420
  1907995
370
     9
100
AcDbCircle
 10
44.0654253036243
 20
-60.79843840948937
 30
0.0
 40
0.0545362392173674
  0
CIRCLE
  5
1A3
330
79
100
AcDbEntity
  8
Camada 1
 62
   250
420
  1907995
370
     9
100
AcDbCircle
 10
42.38202765331756
 20
-59.58464194249497
 30
0.0
 40
0.0545362392174476
  0
CIRCLE
  5
1A4
330
79
100
AcDbEntity
  8
Camada 1
 62
   250
420
  1907995
370
     9
100
AcDbCircle
 10
39.13272159329642
 20
-57.22144712684422
 30
0.0
 40
0.272681196087639
  0
CIRCLE
  5
1A5
330
79
100
AcDbEntity
  8
Camada 1
 62
   250
420
  1907995
370
     9
100
AcDbCircle
 10
40.74606139215616
 20
-58.39597771760584
 30
0.0
 40
0.2726811960872379
  0
CIRCLE
  5
1A6
330
79
100
AcDbEntity
  8
Camada 1
 62
   250
420
  1907995
370
     9
100
AcDbCircle
 10
39.13272159329658
 20
-57.22144712684422
 30
0.0
 40
0.149351078299958
  0
CIRCLE
  5
1A7
330
79
100
AcDbEntity
  8
Camada 1
 62
   250
420
  1907995
370
     9
100
AcDbCircle
 10
40.74606139215616
 20
-58.39597771760584
 30
0.0
 40
0.1493510782997976
  0
CIRCLE
  5
1A8
330
79
100
AcDbEntity
  8
Camada 1
 62
   250
420
  1907995
370
     9
100
AcDbCircle
 10
39.13272159329658
 20
-57.2214471268439
 30
0.0
 40
0.0852919513515672
  0
CIRCLE
  5
1A9
330
79
100
AcDbEntity
  8
Camada 1
 62
   250
420
  1907995
370
     9
100
AcDbCircle
 10
40.746061392156
 20
-58.39597771760584
 30
0.0
 40
0.0852919513518078
  0
CIRCLE
  5
1AA
330
79
100
AcDbEntity
  8
Camada 1
 62
   250
420
  1907995
370
     9
100
AcDbCircle
 10
39.13272159329642
 20
-57.22144712684422
 30
0.0
 40
0.054536239217207
  0
CIRCLE
  5
1AB
330
79
100
AcDbEntity
  8
Camada 1
 62
   250
420
  1907995
370
     9
100
AcDbCircle
 10
40.74606139215616
 20
-58.3959777176052
 30
0.0
 40
0.0545362392180893
  0
CIRCLE
  5
1AC
330
79
100
AcDbEntity
  8
Camada 1
 62
   250
420
  1907995
370
     9
100
AcDbCircle
 10
38.36423276990625
 20
-59.58661252710803
 30
0.0
 40
0.2726811960871577
  0
CIRCLE
  5
1AD
330
79
100
AcDbEntity
  8
Camada 1
 62
   250
420
  1907995
370
     9
100
AcDbCircle
 10
40.12561763337377
 20
-60.81244661396258
 30
0.0
 40
0.2726811960877191
  0
CIRCLE
  5
1AE
330
79
100
AcDbEntity
  8
Camada 1
 62
   250
420
  1907995
370
     9
100
AcDbCircle
 10
38.36423276990608
 20
-59.58661252710835
 30
0.0
 40
0.1493510782994767
  0
CIRCLE
  5
1AF
330
79
100
AcDbEntity
  8
Camada 1
 62
   250
420
  1907995
370
     9
100
AcDbCircle
 10
40.12561763337393
 20
-60.81244661396258
 30
0.0
 40
0.1493510783003591
  0
CIRCLE
  5
1B0
330
79
100
AcDbEntity
  8
Camada 1
 62
   250
420
  1907995
370
     9
100
AcDbCircle
 10
38.36423276990625
 20
-59.58661252710835
 30
0.0
 40
0.0852919513510057
  0
CIRCLE
  5
1B1
330
79
100
AcDbEntity
  8
Camada 1
 62
   250
420
  1907995
370
     9
100
AcDbCircle
 10
40.12561763337393
 20
-60.81244661396322
 30
0.0
 40
0.0852919513505244
  0
CIRCLE
  5
1B2
330
79
100
AcDbEntity
  8
Camada 1
 62
   250
420
  1907995
370
     9
100
AcDbCircle
 10
38.3642327699064
 20
-59.58661252710803
 30
0.0
 40
0.0545362392171267
  0
CIRCLE
  5
1B3
330
79
100
AcDbEntity
  8
Camada 1
 62
   250
420
  1907995
370
     9
100
AcDbCircle
 10
40.12561763337377
 20
-60.81244661396258
 30
0.0
 40
0.054536239217608
  0
CIRCLE
  5
1B4
330
79
100
AcDbEntity
  8
Camada 1
 62
   250
420
  1907995
370
     9
100
AcDbCircle
 10
48.23517021441104
 20
-63.34209508444942
 30
0.0
 40
0.2726811960875587
  0
CIRCLE
  5
1B5
330
79
100
AcDbEntity
  8
Camada 1
 62
   250
420
  1907995
370
     9
100
AcDbCircle
 10
48.23517021441104
 20
-63.34209508444974
 30
0.0
 40
0.149351078299958
  0
CIRCLE
  5
1B6
330
79
100
AcDbEntity
  8
Camada 1
 62
   250
420
  1907995
370
     9
100
AcDbCircle
 10
48.23517021441104
 20
-63.34209508444974
 30
0.0
 40
0.0852919513517276
  0
CIRCLE
  5
1B7
330
79
100
AcDbEntity
  8
Camada 1
 62
   250
420
  1907995
370
     9
100
AcDbCircle
 10
48.23517021441104
 20
-63.34209508444942
 30
0.0
 40
0.0545362392177684
  0
CIRCLE
  5
1B8
330
79
100
AcDbEntity
  8
Camada 1
 62
   250
420
  1907995
370
     9
100
AcDbCircle
 10
48.72552024284979
 20
-65.9823165290443
 30
0.0
 40
0.2726811960873983
  0
CIRCLE
  5
1B9
330
79
100
AcDbEntity
  8
Camada 1
 62
   250
420
  1907995
370
     9
100
AcDbCircle
 10
48.72552024284963
 20
-65.9823165290443
 30
0.0
 40
0.1493510783001986
  0
CIRCLE
  5
1BA
330
79
100
AcDbEntity
  8
Camada 1
 62
   250
420
  1907995
370
     9
100
AcDbCircle
 10
48.72552024284995
 20
-65.98231652904461
 30
0.0
 40
0.0852919513510057
  0
CIRCLE
  5
1BB
330
79
100
AcDbEntity
  8
Camada 1
 62
   250
420
  1907995
370
     9
100
AcDbCircle
 10
48.72552024284979
 20
-65.9823165290443
 30
0.0
 40
0.0545362392172872
  0
CIRCLE
  5
1BC
330
79
100
AcDbEntity
  8
Camada 1
 62
   250
420
  1907995
370
     9
100
AcDbCircle
 10
45.87569689703797
 20
-62.05987119934453
 30
0.0
 40
0.2726811960873983
  0
CIRCLE
  5
1BD
330
79
100
AcDbEntity
  8
Camada 1
 62
   250
420
  1907995
370
     9
100
AcDbCircle
 10
46.66336869743732
 20
-64.48407573210838
 30
0.0
 40
0.2726811960872379
  0
CIRCLE
  5
1BE
330
79
100
AcDbEntity
  8
Camada 1
 62
   250
420
  1907995
370
     9
100
AcDbCircle
 10
44.0654253036243
 20
-63.32130398919971
 30
0.0
 40
0.2726811960874786
  0
CIRCLE
  5
1BF
330
79
100
AcDbEntity
  8
Camada 1
 62
   250
420
  1907995
370
     9
100
AcDbCircle
 10
45.8756968970378
 20
-62.05987119934421
 30
0.0
 40
0.1493510783006799
  0
CIRCLE
  5
1C0
330
79
100
AcDbEntity
  8
Camada 1
 62
   250
420
  1907995
370
     9
100
AcDbCircle
 10
46.66336869743747
 20
-64.48407573210838
 30
0.0
 40
0.1493510782998778
  0
CIRCLE
  5
1C1
330
79
100
AcDbEntity
  8
Camada 1
 62
   250
420
  1907995
370
     9
100
AcDbCircle
 10
44.0654253036243
 20
-63.32130398919971
 30
0.0
 40
0.1493510783003591
  0
CIRCLE
  5
1C2
330
79
100
AcDbEntity
  8
Camada 1
 62
   250
420
  1907995
370
     9
100
AcDbCircle
 10
45.87569689703797
 20
-62.05987119934453
 30
0.0
 40
0.0852919513510859
  0
CIRCLE
  5
1C3
330
79
100
AcDbEntity
  8
Camada 1
 62
   250
420
  1907995
370
     9
100
AcDbCircle
 10
46.66336869743715
 20
-64.48407573210838
 30
0.0
 40
0.0852919513508453
  0
CIRCLE
  5
1C4
330
79
100
AcDbEntity
  8
Camada 1
 62
   250
420
  1907995
370
     9
100
AcDbCircle
 10
44.0654253036243
 20
-63.32130398919971
 30
0.0
 40
0.0852919513518078
  0
CIRCLE
  5
1C5
330
79
100
AcDbEntity
  8
Camada 1
 62
   250
420
  1907995
370
     9
100
AcDbCircle
 10
45.87569689703797
 20
-62.05987119934421
 30
0.0
 40
0.0545362392177684
  0
CIRCLE
  5
1C6
330
79
100
AcDbEntity
  8
Camada 1
 62
   250
420
  1907995
370
     9
100
AcDbCircle
 10
46.66336869743732
 20
-64.48407573210838
 30
0.0
 40
0.0545362392171267
  0
CIRCLE
  5
1C7
330
79
100
AcDbEntity
  8
Camada 1
 62
   250
420
  1907995
370
     9
100
AcDbCircle
 10
44.0654253036243
 20
-63.32130398919971
 30
0.0
 40
0.0545362392173674
  0
CIRCLE
  5
1C8
330
79
100
AcDbEntity
  8
Camada 1
 62
   250
420
  1907995
370
     9
100
AcDbCircle
 10
45.09156718045108
 20
-65.6260563797821
 30
0.0
 40
0.2726811960877191
  0
CIRCLE
  5
1C9
330
79
100
AcDbEntity
  8
Camada 1
 62
   250
420
  1907995
370
     9
100
AcDbCircle
 10
46.9664216813882
 20
-67.31418295489442
 30
0.0
 40
0.27268119608804
  0
CIRCLE
  5
1CA
330
79
100
AcDbEntity
  8
Camada 1
 62
   250
420
  1907995
370
     9
100
AcDbCircle
 10
45.09156718045124
 20
-65.6260563797821
 30
0.0
 40
0.1493510783003591
  0
CIRCLE
  5
1CB
330
79
100
AcDbEntity
  8
Camada 1
 62
   250
420
  1907995
370
     9
100
AcDbCircle
 10
46.96642168138835
 20
-67.31418295489442
 30
0.0
 40
0.1493510783006799
  0
CIRCLE
  5
1CC
330
79
100
AcDbEntity
  8
Camada 1
 62
   250
420
  1907995
370
     9
100
AcDbCircle
 10
45.09156718045108
 20
-65.62605637978177
 30
0.0
 40
0.0852919513518881
  0
CIRCLE
  5
1CD
330
79
100
AcDbEntity
  8
Camada 1
 62
   250
420
  1907995
370
     9
100
AcDbCircle
 10
46.96642168138835
 20
-67.31418295489506
 30
0.0
 40
0.085291951351487
  0
CIRCLE
  5
1CE
330
79
100
AcDbEntity
  8
Camada 1
 62
   250
420
  1907995
370
     9
100
AcDbCircle
 10
45.09156718045108
 20
-65.6260563797821
 30
0.0
 40
0.054536239217608
  0
CIRCLE
  5
1CF
330
79
100
AcDbEntity
  8
Camada 1
 62
   250
420
  1907995
370
     9
100
AcDbCircle
 10
46.96642168138835
 20
-67.31418295489442
 30
0.0
 40
0.0545362392176882
  0
CIRCLE
  5
1D0
330
79
100
AcDbEntity
  8
Camada 1
 62
   250
420
  1907995
370
     9
100
AcDbCircle
 10
49.36580943070803
 20
-68.09379129355005
 30
0.0
 40
0.2726811960875588
  0
CIRCLE
  5
1D1
330
79
100
AcDbEntity
  8
Camada 1
 62
   250
420
  1907995
370
     9
100
AcDbCircle
 10
49.9999999878621
 20
-70.06988133441584
 30
0.0
 40
0.272681196087639
  0
CIRCLE
  5
1D2
330
79
100
AcDbEntity
  8
Camada 1
 62
   250
420
  1907995
370
     9
100
AcDbCircle
 10
49.36580943070803
 20
-68.09379129355005
 30
0.0
 40
0.1493510782997976
  0
CIRCLE
  5
1D3
330
79
100
AcDbEntity
  8
Camada 1
 62
   250
420
  1907995
370
     9
100
AcDbCircle
 10
49.99999998786226
 20
-70.06988133441584
 30
0.0
 40
0.1493510783002788
  0
CIRCLE
  5
1D4
330
79
100
AcDbEntity
  8
Camada 1
 62
   250
420
  1907995
370
     9
100
AcDbCircle
 10
49.36580943070803
 20
-68.09379129355005
 30
0.0
 40
0.0852919513512464
  0
CIRCLE
  5
1D5
330
79
100
AcDbEntity
  8
Camada 1
 62
   250
420
  1907995
370
     9
100
AcDbCircle
 10
49.99999998786226
 20
-70.06988133441552
 30
0.0
 40
0.0852919513518881
  0
CIRCLE
  5
1D6
330
79
100
AcDbEntity
  8
Camada 1
 62
   250
420
  1907995
370
     9
100
AcDbCircle
 10
49.36580943070803
 20
-68.09379129355005
 30
0.0
 40
0.0545362392174476
  0
CIRCLE
  5
1D7
330
79
100
AcDbEntity
  8
Camada 1
 62
   250
420
  1907995
370
     9
100
AcDbCircle
 10
49.99999998786194
 20
-70.06988133441616
 30
0.0
 40
0.0545362392179289
  0
CIRCLE
  5
1D8
330
79
100
AcDbEntity
  8
Camada 1
 62
   250
420
  1907995
370
     9
100
AcDbCircle
 10
48.75655895164111
 20
-73.89042239528784
 30
0.0
 40
0.2726811960878796
  0
CIRCLE
  5
1D9
330
79
100
AcDbEntity
  8
Camada 1
 62
   250
420
  1907995
370
     9
100
AcDbCircle
 10
48.13501931187857
 20
-71.83644227804845
 30
0.0
 40
0.272681196087639
  0
CIRCLE
  5
1DA
330
79
100
AcDbEntity
  8
Camada 1
 62
   250
420
  1907995
370
     9
100
AcDbCircle
 10
48.75655895164143
 20
-73.89042239528784
 30
0.0
 40
0.1493510783002788
  0
CIRCLE
  5
1DB
330
79
100
AcDbEntity
  8
Camada 1
 62
   250
420
  1907995
370
     9
100
AcDbCircle
 10
48.13501931187825
 20
-71.83644227804812
 30
0.0
 40
0.1493510783005195
  0
CIRCLE
  5
1DC
330
79
100
AcDbEntity
  8
Camada 1
 62
   250
420
  1907995
370
     9
100
AcDbCircle
 10
48.7565589516416
 20
-73.89042239528849
 30
0.0
 40
0.0852919513511661
  0
CIRCLE
  5
1DD
330
79
100
AcDbEntity
  8
Camada 1
 62
   250
420
  1907995
370
     9
100
AcDbCircle
 10
48.13501931187825
 20
-71.83644227804845
 30
0.0
 40
0.0852919513518078
  0
CIRCLE
  5
1DE
330
79
100
AcDbEntity
  8
Camada 1
 62
   250
420
  1907995
370
     9
100
AcDbCircle
 10
48.75655895164111
 20
-73.89042239528784
 30
0.0
 40
0.0545362392177684
  0
CIRCLE
  5
1DF
330
79
100
AcDbEntity
  8
Camada 1
 62
   250
420
  1907995
370
     9
100
AcDbCircle
 10
48.13501931187841
 20
-71.83644227804812
 30
0.0
 40
0.054536239217608
  0
CIRCLE
  5
1E0
330
79
100
AcDbEntity
  8
Camada 1
 62
   250
420
  1907995
370
     9
100
AcDbCircle
 10
45.29183415975114
 20
-68.5401055237288
 30
0.0
 40
0.2726811960881202
  0
CIRCLE
  5
1E1
330
79
100
AcDbEntity
  8
Camada 1
 62
   250
420
  1907995
370
     9
100
AcDbCircle
 10
47.52477073101301
 20
-69.67784353388826
 30
0.0
 40
0.2726811960875588
  0
CIRCLE
  5
1E2
330
79
100
AcDbEntity
  8
Camada 1
 62
   250
420
  1907995
370
     9
100
AcDbCircle
 10
45.2918341597513
 20
-68.54010552372911
 30
0.0
 40
0.1493510782996371
  0
CIRCLE
  5
1E3
330
79
100
AcDbEntity
  8
Camada 1
 62
   250
420
  1907995
370
     9
100
AcDbCircle
 10
47.52477073101301
 20
-69.67784353388826
 30
0.0
 40
0.1493510783004393
  0
CIRCLE
  5
1E4
330
79
100
AcDbEntity
  8
Camada 1
 62
   250
420
  1907995
370
     9
100
AcDbCircle
 10
45.29183415975114
 20
-68.54010552372911
 30
0.0
 40
0.0852919513513266
  0
CIRCLE
  5
1E5
330
79
100
AcDbEntity
  8
Camada 1
 62
   250
420
  1907995
370
     9
100
AcDbCircle
 10
47.52477073101285
 20
-69.67784353388859
 30
0.0
 40
0.0852919513513266
  0
CIRCLE
  5
1E6
330
79
100
AcDbEntity
  8
Camada 1
 62
   250
420
  1907995
370
     9
100
AcDbCircle
 10
45.29183415975114
 20
-68.54010552372847
 30
0.0
 40
0.0545362392178487
  0
CIRCLE
  5
1E7
330
79
100
AcDbEntity
  8
Camada 1
 62
   250
420
  1907995
370
     9
100
AcDbCircle
 10
47.52477073101301
 20
-69.67784353388826
 30
0.0
 40
0.0545362392174476
  0
CIRCLE
  5
1E8
330
79
100
AcDbEntity
  8
Camada 1
 62
   250
420
  1907995
370
     9
100
AcDbCircle
 10
46.32402121917624
 20
-73.37337053874572
 30
0.0
 40
0.2726811960873983
  0
CIRCLE
  5
1E9
330
79
100
AcDbEntity
  8
Camada 1
 62
   250
420
  1907995
370
     9
100
AcDbCircle
 10
45.76227675085063
 20
-71.06549148587813
 30
0.0
 40
0.2726811960873181
  0
CIRCLE
  5
1EA
330
79
100
AcDbEntity
  8
Camada 1
 62
   250
420
  1907995
370
     9
100
AcDbCircle
 10
46.32402121917624
 20
-73.37337053874572
 30
0.0
 40
0.1493510783002788
  0
CIRCLE
  5
1EB
330
79
100
AcDbEntity
  8
Camada 1
 62
   250
420
  1907995
370
     9
100
AcDbCircle
 10
45.76227675085063
 20
-71.06549148587781
 30
0.0
 40
0.1493510783000382
  0
CIRCLE
  5
1EC
330
79
100
AcDbEntity
  8
Camada 1
 62
   250
420
  1907995
370
     9
100
AcDbCircle
 10
46.32402121917624
 20
-73.37337053874541
 30
0.0
 40
0.0852919513518881
  0
CIRCLE
  5
1ED
330
79
100
AcDbEntity
  8
Camada 1
 62
   250
420
  1907995
370
     9
100
AcDbCircle
 10
45.76227675085063
 20
-71.06549148587781
 30
0.0
 40
0.0852919513518078
  0
CIRCLE
  5
1EE
330
79
100
AcDbEntity
  8
Camada 1
 62
   250
420
  1907995
370
     9
100
AcDbCircle
 10
46.32402121917672
 20
-73.37337053874604
 30
0.0
 40
0.0545362392176882
  0
CIRCLE
  5
1EF
330
79
100
AcDbEntity
  8
Camada 1
 62
   250
420
  1907995
370
     9
100
AcDbCircle
 10
45.7622767508508
 20
-71.06549148587813
 30
0.0
 40
0.0545362392172872
  0
CIRCLE
  5
1F0
330
79
100
AcDbEntity
  8
Camada 1
 62
   250
420
  1907995
370
     9
100
AcDbCircle
 10
41.98998985279015
 20
-62.05987119934453
 30
0.0
 40
0.2726811960873181
  0
CIRCLE
  5
1F1
330
79
100
AcDbEntity
  8
Camada 1
 62
   250
420
  1907995
370
     9
100
AcDbCircle
 10
42.38202765331756
 20
-64.53510045619282
 30
0.0
 40
0.2726811960882004
  0
CIRCLE
  5
1F2
330
79
100
AcDbEntity
  8
Camada 1
 62
   250
420
  1907995
370
     9
100
AcDbCircle
 10
41.98998985279015
 20
-62.05987119934421
 30
0.0
 40
0.1493510783003591
  0
CIRCLE
  5
1F3
330
79
100
AcDbEntity
  8
Camada 1
 62
   250
420
  1907995
370
     9
100
AcDbCircle
 10
42.38202765331773
 20
-64.53510045619315
 30
0.0
 40
0.1493510783003591
  0
CIRCLE
  5
1F4
330
79
100
AcDbEntity
  8
Camada 1
 62
   250
420
  1907995
370
     9
100
AcDbCircle
 10
41.98998985279032
 20
-62.05987119934453
 30
0.0
 40
0.0852919513507651
  0
CIRCLE
  5
1F5
330
79
100
AcDbEntity
  8
Camada 1
 62
   250
420
  1907995
370
     9
100
AcDbCircle
 10
42.38202765331773
 20
-64.5351004561925
 30
0.0
 40
0.0852919513518078
  0
CIRCLE
  5
1F6
330
79
100
AcDbEntity
  8
Camada 1
 62
   250
420
  1907995
370
     9
100
AcDbCircle
 10
41.98998985279015
 20
-62.05987119934421
 30
0.0
 40
0.0545362392173674
  0
CIRCLE
  5
1F7
330
79
100
AcDbEntity
  8
Camada 1
 62
   250
420
  1907995
370
     9
100
AcDbCircle
 10
42.38202765331756
 20
-64.53510045619282
 30
0.0
 40
0.0545362392180893
  0
CIRCLE
  5
1F8
330
79
100
AcDbEntity
  8
Camada 1
 62
   250
420
  1907995
370
     9
100
AcDbCircle
 10
43.51976566347736
 20
-66.76803702745454
 30
0.0
 40
0.27268119608804
  0
CIRCLE
  5
1F9
330
79
100
AcDbEntity
  8
Camada 1
 62
   250
420
  1907995
370
     9
100
AcDbCircle
 10
41.94796414649016
 20
-67.91001767512762
 30
0.0
 40
0.2726811960873983
  0
CIRCLE
  5
1FA
330
79
100
AcDbEntity
  8
Camada 1
 62
   250
420
  1907995
370
     9
100
AcDbCircle
 10
43.51976566347768
 20
-66.76803702745454
 30
0.0
 40
0.1493510782997976
  0
CIRCLE
  5
1FB
330
79
100
AcDbEntity
  8
Camada 1
 62
   250
420
  1907995
370
     9
100
AcDbCircle
 10
41.94796414649048
 20
-67.91001767512762
 30
0.0
 40
0.1493510782997976
  0
CIRCLE
  5
1FC
330
79
100
AcDbEntity
  8
Camada 1
 62
   250
420
  1907995
370
     9
100
AcDbCircle
 10
43.51976566347768
 20
-66.76803702745485
 30
0.0
 40
0.0852919513510859
  0
CIRCLE
  5
1FD
330
79
100
AcDbEntity
  8
Camada 1
 62
   250
420
  1907995
370
     9
100
AcDbCircle
 10
41.94796414649032
 20
-67.91001767512793
 30
0.0
 40
0.0852919513510057
  0
CIRCLE
  5
1FE
330
79
100
AcDbEntity
  8
Camada 1
 62
   250
420
  1907995
370
     9
100
AcDbCircle
 10
43.51976566347736
 20
-66.76803702745421
 30
0.0
 40
0.0545362392177684
  0
CIRCLE
  5
1FF
330
79
100
AcDbEntity
  8
Camada 1
 62
   250
420
  1907995
370
     9
100
AcDbCircle
 10
41.94796414649016
 20
-67.91001767512762
 30
0.0
 40
0.0545362392172872
  0
CIRCLE
  5
200
330
79
100
AcDbEntity
  8
Camada 1
 62
   250
420
  1907995
370
     9
100
AcDbCircle
 10
38.36423276990625
 20
-64.53312987157976
 30
0.0
 40
0.2726811960871577
  0
CIRCLE
  5
201
330
79
100
AcDbEntity
  8
Camada 1
 62
   250
420
  1907995
370
     9
100
AcDbCircle
 10
38.1042828085433
 20
-62.05987119934453
 30
0.0
 40
0.2726811960873983
  0
CIRCLE
  5
202
330
79
100
AcDbEntity
  8
Camada 1
 62
   250
420
  1907995
370
     9
100
AcDbCircle
 10
40.12561763337377
 20
-63.30729578472617
 30
0.0
 40
0.2726811960872379
  0
CIRCLE
  5
203
330
79
100
AcDbEntity
  8
Camada 1
 62
   250
420
  1907995
370
     9
100
AcDbCircle
 10
38.36423276990608
 20
-64.53312987157912
 30
0.0
 40
0.1493510783002788
  0
CIRCLE
  5
204
330
79
100
AcDbEntity
  8
Camada 1
 62
   250
420
  1907995
370
     9
100
AcDbCircle
 10
38.10428280854315
 20
-62.05987119934421
 30
0.0
 40
0.1493510783006799
  0
CIRCLE
  5
205
330
79
100
AcDbEntity
  8
Camada 1
 62
   250
420
  1907995
370
     9
100
AcDbCircle
 10
40.12561763337393
 20
-63.30729578472617
 30
0.0
 40
0.1493510782998778
  0
CIRCLE
  5
206
330
79
100
AcDbEntity
  8
Camada 1
 62
   250
420
  1907995
370
     9
100
AcDbCircle
 10
38.36423276990625
 20
-64.53312987157943
 30
0.0
 40
0.0852919513513266
  0
CIRCLE
  5
207
330
79
100
AcDbEntity
  8
Camada 1
 62
   250
420
  1907995
370
     9
100
AcDbCircle
 10
38.10428280854347
 20
-62.05987119934453
 30
0.0
 40
0.0852919513508453
  0
CIRCLE
  5
208
330
79
100
AcDbEntity
  8
Camada 1
 62
   250
420
  1907995
370
     9
100
AcDbCircle
 10
40.12561763337393
 20
-63.30729578472617
 30
0.0
 40
0.0852919513510057
  0
CIRCLE
  5
209
330
79
100
AcDbEntity
  8
Camada 1
 62
   250
420
  1907995
370
     9
100
AcDbCircle
 10
38.3642327699064
 20
-64.53312987158007
 30
0.0
 40
0.0545362392172872
  0
CIRCLE
  5
20A
330
79
100
AcDbEntity
  8
Camada 1
 62
   250
420
  1907995
370
     9
100
AcDbCircle
 10
38.1042828085433
 20
-62.05987119934421
 30
0.0
 40
0.0545362392177684
  0
CIRCLE
  5
20B
330
79
100
AcDbEntity
  8
Camada 1
 62
   250
420
  1907995
370
     9
100
AcDbCircle
 10
40.12561763337377
 20
-63.30729578472617
 30
0.0
 40
0.0545362392171267
  0
CIRCLE
  5
20C
330
79
100
AcDbEntity
  8
Camada 1
 62
   250
420
  1907995
370
     9
100
AcDbCircle
 10
39.13272159329642
 20
-66.89829527184453
 30
0.0
 40
0.2726811960881202
  0
CIRCLE
  5
20D
330
79
100
AcDbEntity
  8
Camada 1
 62
   250
420
  1907995
370
     9
100
AcDbCircle
 10
40.74606139215616
 20
-65.72376468108259
 30
0.0
 40
0.2726811960878796
  0
CIRCLE
  5
20E
330
79
100
AcDbEntity
  8
Camada 1
 62
   250
420
  1907995
370
     9
100
AcDbCircle
 10
39.13272159329658
 20
-66.89829527184453
 30
0.0
 40
0.1493510783004393
  0
CIRCLE
  5
20F
330
79
100
AcDbEntity
  8
Camada 1
 62
   250
420
  1907995
370
     9
100
AcDbCircle
 10
40.74606139215616
 20
-65.72376468108259
 30
0.0
 40
0.1493510783004393
  0
CIRCLE
  5
210
330
79
100
AcDbEntity
  8
Camada 1
 62
   250
420
  1907995
370
     9
100
AcDbCircle
 10
39.13272159329658
 20
-66.89829527184453
 30
0.0
 40
0.0852919513522089
  0
CIRCLE
  5
211
330
79
100
AcDbEntity
  8
Camada 1
 62
   250
420
  1907995
370
     9
100
AcDbCircle
 10
40.746061392156
 20
-65.72376468108322
 30
0.0
 40
0.085291951351487
  0
CIRCLE
  5
212
330
79
100
AcDbEntity
  8
Camada 1
 62
   250
420
  1907995
370
     9
100
AcDbCircle
 10
39.13272159329642
 20
-66.89829527184453
 30
0.0
 40
0.0545362392176882
  0
CIRCLE
  5
213
330
79
100
AcDbEntity
  8
Camada 1
 62
   250
420
  1907995
370
     9
100
AcDbCircle
 10
40.74606139215616
 20
-65.72376468108259
 30
0.0
 40
0.0545362392177684
  0
CIRCLE
  5
214
330
79
100
AcDbEntity
  8
Camada 1
 62
   250
420
  1907995
370
     9
100
AcDbCircle
 10
43.65580592606128
 20
-69.72868445075
 30
0.0
 40
0.272681196087639
  0
CIRCLE
  5
215
330
79
100
AcDbEntity
  8
Camada 1
 62
   250
420
  1907995
370
     9
100
AcDbCircle
 10
43.65580592606112
 20
-69.72868445075
 30
0.0
 40
0.1493510783004393
  0
CIRCLE
  5
216
330
79
100
AcDbEntity
  8
Camada 1
 62
   250
420
  1907995
370
     9
100
AcDbCircle
 10
43.65580592606112
 20
-69.72868445075064
 30
0.0
 40
0.0852919513512464
  0
CIRCLE
  5
217
330
79
100
AcDbEntity
  8
Camada 1
 62
   250
420
  1907995
370
     9
100
AcDbCircle
 10
43.65580592606128
 20
-69.72868445075
 30
0.0
 40
0.054536239217207
  0
CIRCLE
  5
218
330
79
100
AcDbEntity
  8
Camada 1
 62
   250
420
  1907995
370
     9
100
AcDbCircle
 10
44.05214139820278
 20
-72.36186447287058
 30
0.0
 40
0.2726811960882004
  0
CIRCLE
  5
219
330
79
100
AcDbEntity
  8
Camada 1
 62
   250
420
  1907995
370
     9
100
AcDbCircle
 10
44.05214139820278
 20
-72.36186447287025
 30
0.0
 40
0.149351078299958
  0
CIRCLE
  5
21A
330
79
100
AcDbEntity
  8
Camada 1
 62
   250
420
  1907995
370
     9
100
AcDbCircle
 10
44.05214139820261
 20
-72.36186447287025
 30
0.0
 40
0.0852919513516474
  0
CIRCLE
  5
21B
330
79
100
AcDbEntity
  8
Camada 1
 62
   250
420
  1907995
370
     9
100
AcDbCircle
 10
44.05214139820246
 20
-72.36186447287025
 30
0.0
 40
0.0545362392180893
  0
CIRCLE
  5
21C
330
79
100
AcDbEntity
  8
Camada 1
 62
   250
420
  1907995
370
     9
100
AcDbCircle
 10
40.37616262951725
 20
-69.05199832278785
 30
0.0
 40
0.2726811960871577
  0
CIRCLE
  5
21D
330
79
100
AcDbEntity
  8
Camada 1
 62
   250
420
  1907995
370
     9
100
AcDbCircle
 10
40.37616262951708
 20
-69.05199832278754
 30
0.0
 40
0.1493510782997976
  0
CIRCLE
  5
21E
330
79
100
AcDbEntity
  8
Camada 1
 62
   250
420
  1907995
370
     9
100
AcDbCircle
 10
40.37616262951708
 20
-69.05199832278754
 30
0.0
 40
0.0852919513515672
  0
CIRCLE
  5
21F
330
79
100
AcDbEntity
  8
Camada 1
 62
   250
420
  1907995
370
     9
100
AcDbCircle
 10
40.37616262951725
 20
-69.05199832278754
 30
0.0
 40
0.0545362392175278
  0
CIRCLE
  5
220
330
79
100
AcDbEntity
  8
Camada 1
 62
   250
420
  1907995
370
     9
100
AcDbCircle
 10
42.04021153859178
 20
-70.90011186649767
 30
0.0
 40
0.2726811960875588
  0
CIRCLE
  5
221
330
79
100
AcDbEntity
  8
Camada 1
 62
   250
420
  1907995
370
     9
100
AcDbCircle
 10
42.04021153859193
 20
-70.90011186649767
 30
0.0
 40
0.1493510782998778
  0
CIRCLE
  5
222
330
79
100
AcDbEntity
  8
Camada 1
 62
   250
420
  1907995
370
     9
100
AcDbCircle
 10
42.04021153859161
 20
-70.90011186649734
 30
0.0
 40
0.0852919513516474
  0
CIRCLE
  5
223
330
79
100
AcDbEntity
  8
Camada 1
 62
   250
420
  1907995
370
     9
100
AcDbCircle
 10
42.04021153859161
 20
-70.90011186649767
 30
0.0
 40
0.0545362392173674
  0
SPLINE
  5
224
330
79
100
AcDbEntity
  8
Camada 1
 62
   250
420
  1907995
370
     9
100
AcDbSpline
210
0.0
220
0.0
230
1.0
 70
     8
 71
     3
 72
     8
 73
     4
 74
     0
 42
0.0000000001
 43
0.0000000001
 40
0.0
 40
0.0
 40
0.0
 40
0.0
 40
1.0
 40
1.0
 40
1.0
 40
1.0
 10
47.78970874169551
 20
-29.72242772218233
 30
0.0
 10
47.71440990861228
 20
-29.72242772218233
 30
0.0
 10
47.65336814365024
 20
-29.78346948714372
 30
0.0
 10
47.65336814365024
 20
-29.85876832022567
 30
0.0
  0
SPLINE
  5
225
330
79
100
AcDbEntity
  8
Camada 1
 62
   250
420
  1907995
370
     9
100
AcDbSpline
210
0.0
220
0.0
230
1.0
 70
     8
 71
     3
 72
     8
 73
     4
 74
     0
 42
0.0000000001
 43
0.0000000001
 40
0.0
 40
0.0
 40
0.0
 40
0.0
 40
1.0
 40
1.0
 40
1.0
 40
1.0
 10
52.28894847713947
 20
-29.85876832022567
 30
0.0
 10
52.28894847713947
 20
-29.78346948714372
 30
0.0
 10
52.22790671217872
 20
-29.72242772218233
 30
0.0
 10
52.15260787909549
 20
-29.72242772218233
 30
0.0
  0
LINE
  5
226
330
79
100
AcDbEntity
  8
Camada 1
 62
   250
420
  1907995
370
     9
100
AcDbLine
 10
47.92604933973885
 20
-29.72242772218233
 30
0.0
 11
47.78970874169551
 21
-29.72242772218233
 31
0.0
  0
LINE
  5
227
330
79
100
AcDbEntity
  8
Camada 1
 62
   250
420
  1907995
370
     9
100
AcDbLine
 10
52.28894847713947
 20
-29.99510891826965
 30
0.0
 11
52.28894847713947
 21
-29.85876832022567
 31
0.0
  0
LINE
  5
228
330
79
100
AcDbEntity
  8
Camada 1
 62
   250
420
  1907995
370
     9
100
AcDbLine
 10
52.15260787909549
 20
-29.72242772218233
 30
0.0
 11
52.01626728105151
 21
-29.72242772218233
 31
0.0
  0
LINE
  5
229
330
79
100
AcDbEntity
  8
Camada 1
 62
   250
420
  1907995
370
     9
100
AcDbLine
 10
52.18144955656192
 20
-27.26829695739454
 30
0.0
 11
52.18144955656192
 21
-29.04072473196307
 31
0.0
  0
LINE
  5
22A
330
79
100
AcDbEntity
  8
Camada 1
 62
   250
420
  1907995
370
     9
100
AcDbLine
 10
47.81855041916195
 20
-27.26829695739454
 30
0.0
 11
47.81855041916131
 21
-29.04072473196307
 31
0.0
  0
LINE
  5
22B
330
79
100
AcDbEntity
  8
Camada 1
 62
   250
420
  1907995
370
     9
100
AcDbLine
 10
47.81855041916195
 20
-26.85927516326292
 30
0.0
 11
52.18144955656192
 21
-26.85927516326292
 31
0.0
  0
LINE
  5
22C
330
79
100
AcDbEntity
  8
Camada 1
 62
   250
420
  1907995
370
     9
100
AcDbLine
 10
47.81855041916131
 20
-29.44974652609437
 30
0.0
 11
52.18144955656192
 21
-29.44974652609437
 31
0.0
  0
SPLINE
  5
22D
330
79
100
AcDbEntity
  8
Camada 1
 62
   250
420
  1907995
370
     9
100
AcDbSpline
210
0.0
220
0.0
230
1.0
 70
     8
 71
     3
 72
    11
 73
     7
 74
     0
 42
0.0000000001
 43
0.0000000001
 40
0.0
 40
0.0
 40
0.0
 40
0.0
 40
1.0
 40
1.0
 40
1.0
 40
2.0
 40
2.0
 40
2.0
 40
2.0
 10
47.81855041916131
 20
-29.04072473196307
 30
0.0
 10
47.70560216953774
 20
-29.08778650263993
 30
0.0
 10
47.65219062519677
 20
-29.2175002531828
 30
0.0
 10
47.69925239587299
 20
-29.33044850280669
 30
0.0
 10
47.72172873282281
 20
-29.384391711486
 30
0.0
 10
47.76460721048136
 20
-29.42727018914455
 30
0.0
 10
47.81855041916131
 20
-29.44974652609437
 30
0.0
  0
SPLINE
  5
22E
330
79
100
AcDbEntity
  8
Camada 1
 62
   250
420
  1907995
370
     9
100
AcDbSpline
210
0.0
220
0.0
230
1.0
 70
     8
 71
     3
 72
    11
 73
     7
 74
     0
 42
0.0000000001
 43
0.0000000001
 40
0.0
 40
0.0
 40
0.0
 40
0.0
 40
1.0
 40
1.0
 40
1.0
 40
2.0
 40
2.0
 40
2.0
 40
2.0
 10
52.18144955656192
 20
-29.44974652609437
 30
0.0
 10
52.29439780618614
 20
-29.40268475541815
 30
0.0
 10
52.34780935052711
 20
-29.27297100487529
 30
0.0
 10
52.30074757985089
 20
-29.16002275525172
 30
0.0
 10
52.27827124290043
 20
-29.1060795465724
 30
0.0
 10
52.23539276524125
 20
-29.06320106891321
 30
0.0
 10
52.18144955656192
 20
-29.04072473196307
 30
0.0
  0
SPLINE
  5
22F
330
79
100
AcDbEntity
  8
Camada 1
 62
   250
420
  1907995
370
     9
100
AcDbSpline
210
0.0
220
0.0
230
1.0
 70
     8
 71
     3
 72
    11
 73
     7
 74
     0
 42
0.0000000001
 43
0.0000000001
 40
0.0
 40
0.0
 40
0.0
 40
0.0
 40
1.0
 40
1.0
 40
1.0
 40
2.0
 40
2.0
 40
2.0
 40
2.0
 10
52.18144955656192
 20
-27.26829695739358
 30
0.0
 10
52.29439780618614
 20
-27.22123518671736
 30
0.0
 10
52.34780935052711
 20
-27.09152143617417
 30
0.0
 10
52.30074757985089
 20
-26.97857318655092
 30
0.0
 10
52.27827124290043
 20
-26.92462997787129
 30
0.0
 10
52.23539276524125
 20
-26.88175150021243
 30
0.0
 10
52.18144955656192
 20
-26.85927516326292
 30
0.0
  0
SPLINE
  5
230
330
79
100
AcDbEntity
  8
Camada 1
 62
   250
420
  1907995
370
     9
100
AcDbSpline
210
0.0
220
0.0
230
1.0
 70
     8
 71
     3
 72
    11
 73
     7
 74
     0
 42
0.0000000001
 43
0.0000000001
 40
0.0
 40
0.0
 40
0.0
 40
0.0
 40
1.0
 40
1.0
 40
1.0
 40
2.0
 40
2.0
 40
2.0
 40
2.0
 10
47.81855041916195
 20
-26.85927516326292
 30
0.0
 10
47.70560216953774
 20
-26.90633693393914
 30
0.0
 10
47.65219062519741
 20
-27.03605068448233
 30
0.0
 10
47.69925239587299
 20
-27.1489989341059
 30
0.0
 10
47.72172873282409
 20
-27.20294214278521
 30
0.0
 10
47.76460721048264
 20
-27.24582062044409
 30
0.0
 10
47.81855041916195
 20
-27.26829695739358
 30
0.0
  0
SPLINE
  5
231
330
79
100
AcDbEntity
  8
Camada 1
 62
   250
420
  1907995
370
     9
100
AcDbSpline
210
0.0
220
0.0
230
1.0
 70
     8
 71
     3
 72
     8
 73
     4
 74
     0
 42
0.0000000001
 43
0.0000000001
 40
0.0
 40
0.0
 40
0.0
 40
0.0
 40
1.0
 40
1.0
 40
1.0
 40
1.0
 10
53.08094794073246
 20
-30.1119857592708
 30
0.0
 10
53.0299673625991
 20
-30.03875762537841
 30
0.0
 10
52.94638535926569
 20
-29.99510396958387
 30
0.0
 10
52.8571587996528
 20
-29.99510396958387
 30
0.0
  0
SPLINE
  5
232
330
79
100
AcDbEntity
  8
Camada 1
 62
   250
420
  1907995
370
     9
100
AcDbSpline
210
0.0
220
0.0
230
1.0
 70
     8
 71
     3
 72
     8
 73
     4
 74
     0
 42
0.0000000001
 43
0.0000000001
 40
0.0
 40
0.0
 40
0.0
 40
0.0
 40
1.0
 40
1.0
 40
1.0
 40
1.0
 10
47.14204096897229
 20
-29.99510891826965
 30
0.0
 10
47.05281440936068
 20
-29.99510891826965
 30
0.0
 10
46.96923240602599
 20
-30.03876257406483
 30
0.0
 10
46.91825182789391
 20
-30.11199070795658
 30
0.0
  0
LINE
  5
233
330
79
100
AcDbEntity
  8
Camada 1
 62
   250
420
  1907995
370
     9
100
AcDbLine
 10
52.85795900675223
 20
-29.99510891826965
 30
0.0
 11
47.14204096897229
 21
-29.99510891826965
 31
0.0
  0
SPLINE
  5
234
330
79
100
AcDbEntity
  8
Camada 1
 62
   250
420
  1907995
370
     9
100
AcDbSpline
210
0.0
220
0.0
230
1.0
 70
     8
 71
     3
 72
     8
 73
     4
 74
     0
 42
0.0000000001
 43
0.0000000001
 40
0.0
 40
0.0
 40
0.0
 40
0.0
 40
1.0
 40
1.0
 40
1.0
 40
1.0
 10
53.08174814783703
 20
-30.1119907079662
 30
0.0
 10
54.73123186191265
 20
-32.48129719074593
 30
0.0
 10
57.2160461600126
 20
-34.13880522750238
 30
0.0
 10
60.03718597530956
 20
-34.75165094616339
 30
0.0
  0
LINE
  5
235
330
79
100
AcDbEntity
  8
Camada 1
 62
   250
420
  1907995
370
     9
100
AcDbLine
 10
63.43636592507469
 20
-39.17788365609108
 30
0.0
 11
63.32729344664028
 21
-39.17788365609108
 31
0.0
  0
LINE
  5
236
330
79
100
AcDbEntity
  8
Camada 1
 62
   250
420
  1907995
370
     9
100
AcDbLine
 10
63.25912314761893
 20
-39.10971335706909
 30
0.0
 11
63.25912314761893
 21
-38.74864623182669
 31
0.0
  0
SPLINE
  5
237
330
79
100
AcDbEntity
  8
Camada 1
 62
   250
420
  1907995
370
     9
100
AcDbSpline
210
0.0
220
0.0
230
1.0
 70
     8
 71
     3
 72
     8
 73
     4
 74
     0
 42
0.0000000001
 43
0.0000000001
 40
0.0
 40
0.0
 40
0.0
 40
0.0
 40
1.0
 40
1.0
 40
1.0
 40
1.0
 10
63.59997464272824
 20
-39.34149237374334
 30
0.0
 10
63.59997464272824
 20
-39.25113377404488
 30
0.0
 10
63.5267245247738
 20
-39.17788365609108
 30
0.0
 10
63.43636592507469
 20
-39.17788365609108
 30
0.0
  0
SPLINE
  5
238
330
79
100
AcDbEntity
  8
Camada 1
 62
   250
420
  1907995
370
     9
100
AcDbSpline
210
0.0
220
0.0
230
1.0
 70
     8
 71
     3
 72
     8
 73
     4
 74
     0
 42
0.0000000001
 43
0.0000000001
 40
0.0
 40
0.0
 40
0.0
 40
0.0
 40
1.0
 40
1.0
 40
1.0
 40
1.0
 10
63.25912314761893
 20
-39.10971335706909
 30
0.0
 10
63.25912314761893
 20
-39.14736277361038
 30
0.0
 10
63.2896440300993
 20
-39.17788365609108
 30
0.0
 10
63.32729344664028
 20
-39.17788365609108
 30
0.0
  0
LINE
  5
239
330
79
100
AcDbEntity
  8
Camada 1
 62
   250
420
  1907995
370
     9
100
AcDbLine
 10
63.59997464272824
 20
-42.10238958586248
 30
0.0
 11
63.59997464272824
 21
-39.34149237374334
 31
0.0
  0
SPLINE
  5
23A
330
79
100
AcDbEntity
  8
Camada 1
 62
   250
420
  1907995
370
     9
100
AcDbSpline
210
0.0
220
0.0
230
1.0
 70
     8
 71
     3
 72
    14
 73
    10
 74
     0
 42
0.0000000001
 43
0.0000000001
 40
0.0
 40
0.0
 40
0.0
 40
0.0
 40
1.0
 40
1.0
 40
1.0
 40
2.0
 40
2.0
 40
2.0
 40
3.0
 40
3.0
 40
3.0
 40
3.0
 10
63.70223009126091
 20
-42.57958157728305
 30
0.0
 10
63.83400304915432
 20
-42.57958157728305
 30
0.0
 10
63.94082613783755
 20
-42.47275848860014
 30
0.0
 10
63.94082613783755
 20
-42.34098553070705
 30
0.0
 10
63.94082613783755
 20
-42.20921257281267
 30
0.0
 10
63.83400304915432
 20
-42.10238948413008
 30
0.0
 10
63.70223009126091
 20
-42.10238948413008
 30
0.0
 10
63.70223009126091
 20
-42.10238948413008
 30
0.0
 10
63.70222985388488
 20
-42.10238948413008
 30
0.0
 10
63.70222985388488
 20
-42.10238948413008
 30
0.0
  0
SPLINE
  5
23B
330
79
100
AcDbEntity
  8
Camada 1
 62
   250
420
  1907995
370
     9
100
AcDbSpline
210
0.0
220
0.0
230
1.0
 70
     8
 71
     3
 72
     8
 73
     4
 74
     0
 42
0.0000000001
 43
0.0000000001
 40
0.0
 40
0.0
 40
0.0
 40
0.0
 40
1.0
 40
1.0
 40
1.0
 40
1.0
 10
63.25912314761893
 20
-38.74864623182669
 30
0.0
 10
63.25912314761893
 20
-36.82427322704733
 30
0.0
 10
61.91769941942601
 20
-35.16016122518748
 30
0.0
 10
60.03718597532111
 20
-34.75165094616532
 30
0.0
  0
LINE
  5
23C
330
79
100
AcDbEntity
  8
Camada 1
 62
   250
420
  1907995
370
     9
100
AcDbLine
 10
36.29776988446362
 20
-42.57958157728305
 30
0.0
 11
63.70223009126091
 21
-42.57958157728434
 31
0.0
  0
SPLINE
  5
23D
330
79
100
AcDbEntity
  8
Camada 1
 62
   250
420
  1907995
370
     9
100
AcDbSpline
210
0.0
220
0.0
230
1.0
 70
     8
 71
     3
 72
     8
 73
     4
 74
     0
 42
0.0000000001
 43
0.0000000001
 40
0.0
 40
0.0
 40
0.0
 40
0.0
 40
1.0
 40
1.0
 40
1.0
 40
1.0
 10
36.60453623006161
 20
-39.17788365609108
 30
0.0
 10
36.4915879804374
 20
-39.17788365609108
 30
0.0
 10
36.40002533299564
 20
-39.26944630353284
 30
0.0
 10
36.40002533299564
 20
-39.38239455315608
 30
0.0
  0
SPLINE
  5
23E
330
79
100
AcDbEntity
  8
Camada 1
 62
   250
420
  1907995
370
     9
100
AcDbSpline
210
0.0
220
0.0
230
1.0
 70
     8
 71
     3
 72
    14
 73
    10
 74
     0
 42
0.0000000001
 43
0.0000000001
 40
0.0
 40
0.0
 40
0.0
 40
0.0
 40
1.0
 40
1.0
 40
1.0
 40
2.0
 40
2.0
 40
2.0
 40
3.0
 40
3.0
 40
3.0
 40
3.0
 10
36.29789664296337
 20
-42.10238951780163
 30
0.0
 10
36.16612370366511
 20
-42.10231951101542
 30
0.0
 10
36.05924387834378
 20
-42.20908583290905
 30
0.0
 10
36.05917387155821
 20
-42.34085877220667
 30
0.0
 10
36.05910386477135
 20
-42.47263171150524
 30
0.0
 10
36.1658701866669
 20
-42.57951153682561
 30
0.0
 10
36.29764312596388
 20
-42.57958154361181
 30
0.0
 10
36.29768537879306
 20
-42.57958156605941
 30
0.0
 10
36.29772763162802
 20
-42.57958157728305
 30
0.0
 10
36.29776988446362
 20
-42.57958157728305
 30
0.0
  0
SPLINE
  5
23F
330
79
100
AcDbEntity
  8
Camada 1
 62
   250
420
  1907995
370
     9
100
AcDbSpline
210
0.0
220
0.0
230
1.0
 70
     8
 71
     3
 72
     8
 73
     4
 74
     0
 42
0.0000000001
 43
0.0000000001
 40
0.0
 40
0.0
 40
0.0
 40
0.0
 40
1.0
 40
1.0
 40
1.0
 40
1.0
 10
36.6727065290836
 20
-39.17788365609108
 30
0.0
 10
36.71035594562458
 20
-39.17788365609108
 30
0.0
 10
36.74087682810495
 20
-39.14736277361038
 30
0.0
 10
36.74087682810495
 20
-39.10971335706909
 30
0.0
  0
LINE
  5
240
330
79
100
AcDbEntity
  8
Camada 1
 62
   250
420
  1907995
370
     9
100
AcDbLine
 10
36.74087682810495
 20
-39.10971335706909
 30
0.0
 11
36.74087682810495
 21
-38.74864623182669
 31
0.0
  0
LINE
  5
241
330
79
100
AcDbEntity
  8
Camada 1
 62
   250
420
  1907995
370
     9
100
AcDbLine
 10
36.60453623006161
 20
-39.17788365609108
 30
0.0
 11
36.6727065290836
 21
-39.17788365609108
 31
0.0
  0
LINE
  5
242
330
79
100
AcDbEntity
  8
Camada 1
 62
   250
420
  1907995
370
     9
100
AcDbLine
 10
36.40002533299564
 20
-42.10241664666198
 30
0.0
 11
36.40002533299564
 21
-39.38239455315608
 31
0.0
  0
SPLINE
  5
243
330
79
100
AcDbEntity
  8
Camada 1
 62
   250
420
  1907995
370
     9
100
AcDbSpline
210
0.0
220
0.0
230
1.0
 70
     8
 71
     3
 72
     8
 73
     4
 74
     0
 42
0.0000000001
 43
0.0000000001
 40
0.0
 40
0.0
 40
0.0
 40
0.0
 40
1.0
 40
1.0
 40
1.0
 40
1.0
 10
39.96281400040277
 20
-34.75165094616532
 30
0.0
 10
38.08230055629787
 20
-35.16016122518748
 30
0.0
 10
36.74087682810623
 20
-36.82427322704733
 30
0.0
 10
36.74087682810623
 20
-38.74864623182669
 30
0.0
  0
SPLINE
  5
244
330
79
100
AcDbEntity
  8
Camada 1
 62
   250
420
  1907995
370
     9
100
AcDbSpline
210
0.0
220
0.0
230
1.0
 70
     8
 71
     3
 72
     8
 73
     4
 74
     0
 42
0.0000000001
 43
0.0000000001
 40
0.0
 40
0.0
 40
0.0
 40
0.0
 40
1.0
 40
1.0
 40
1.0
 40
1.0
 10
39.96281400041304
 20
-34.75165094616339
 30
0.0
 10
42.78395381571193
 20
-34.13880522750238
 30
0.0
 10
45.26876811381059
 20
-32.48129719074593
 30
0.0
 10
46.91825182788685
 20
-30.1119907079662
 30
0.0
  0
LINE
  5
245
330
79
100
AcDbEntity
  8
Camada 1
 62
   250
420
  1907995
370
     9
100
AcDbLine
 10
52.18144955656192
 20
-27.26829695739454
 30
0.0
 11
47.81855041916195
 21
-27.26829695739454
 31
0.0
  0
LINE
  5
246
330
79
100
AcDbEntity
  8
Camada 1
 62
   250
420
  1907995
370
     9
100
AcDbLine
 10
47.81855041916131
 20
-29.04072473196307
 30
0.0
 11
52.18144955656192
 21
-29.04072473196307
 31
0.0
  0
LINE
  5
247
330
79
100
AcDbEntity
  8
Camada 1
 62
   250
420
  1907995
370
     9
100
AcDbLine
 10
52.01626728105151
 20
-29.72242772218233
 30
0.0
 11
47.92604933973885
 21
-29.72242772218233
 31
0.0
  0
LINE
  5
248
330
79
100
AcDbEntity
  8
Camada 1
 62
   250
420
  1907995
370
     9
100
AcDbLine
 10
47.65336814365217
 20
-29.99510891826869
 30
0.0
 11
47.65336814365217
 21
-29.85876832022471
 31
0.0
  0
LINE
  5
249
330
79
100
AcDbEntity
  8
Camada 1
 62
   250
420
  1907995
370
     9
100
AcDbLine
 10
63.32729344664028
 20
-39.17788365609108
 30
0.0
 11
36.6727065290836
 21
-39.17788365609108
 31
0.0
  0
LINE
  5
24A
330
79
100
AcDbEntity
  8
Camada 1
 62
   250
420
  1907995
370
     9
100
AcDbLine
 10
63.70223009126091
 20
-42.10238948413008
 30
0.0
 11
36.29416277195657
 21
-42.10241675198308
 31
0.0
  0
LINE
  5
24B
330
79
100
AcDbEntity
  8
Camada 1
 62
   250
420
  1907995
370
     9
100
AcDbLine
 10
51.74358608496355
 20
-29.72242772218233
 30
0.0
 11
51.74358608496355
 21
-29.44974652609437
 31
0.0
  0
LINE
  5
24C
330
79
100
AcDbEntity
  8
Camada 1
 62
   250
420
  1907995
370
     9
100
AcDbLine
 10
48.19873053582617
 20
-29.72242772218233
 30
0.0
 11
48.19873053582617
 21
-29.44974652609437
 31
0.0
  0
LINE
  5
24D
330
79
100
AcDbEntity
  8
Camada 1
 62
   250
420
  1907995
370
     9
100
AcDbLine
 10
49.43066574561706
 20
-23.99930262567012
 30
0.0
 11
50.56933423010939
 21
-23.99930262567012
 31
0.0
  0
LINE
  5
24E
330
79
100
AcDbEntity
  8
Camada 1
 62
   250
420
  1907995
370
     9
100
AcDbLine
 10
48.4320831103605
 20
-23.99930262567012
 30
0.0
 11
51.56791686536723
 21
-23.99930262567012
 31
0.0
  0
LINE
  5
24F
330
79
100
AcDbEntity
  8
Camada 1
 62
   250
420
  1907995
370
     9
100
AcDbLine
 10
49.36994123233764
 20
-23.99930262567012
 30
0.0
 11
49.99999998786306
 21
-23.99930262567012
 31
0.0
  0
LINE
  5
250
330
79
100
AcDbEntity
  8
Camada 1
 62
   250
420
  1907995
370
     9
100
AcDbLine
 10
50.6300587433888
 20
-23.99930262567012
 30
0.0
 11
49.99999998786306
 21
-23.99930262567012
 31
0.0
  0
SPLINE
  5
251
330
79
100
AcDbEntity
  8
Camada 1
 62
   250
420
  1907995
370
     9
100
AcDbSpline
210
0.0
220
0.0
230
1.0
 70
     8
 71
     3
 72
     8
 73
     4
 74
     0
 42
0.0000000001
 43
0.0000000001
 40
0.0
 40
0.0
 40
0.0
 40
0.0
 40
1.0
 40
1.0
 40
1.0
 40
1.0
 10
51.5117875848928
 20
-26.09782951181435
 30
0.0
 10
51.58716974263096
 20
-26.06568856186451
 30
0.0
 10
51.63608716438858
 20
-25.9916531654957
 30
0.0
 10
51.63608716438858
 20
-25.90970494788827
 30
0.0
  0
SPLINE
  5
252
330
79
100
AcDbEntity
  8
Camada 1
 62
   250
420
  1907995
370
     9
100
AcDbSpline
210
0.0
220
0.0
230
1.0
 70
     8
 71
     3
 72
     8
 73
     4
 74
     0
 42
0.0000000001
 43
0.0000000001
 40
0.0
 40
0.0
 40
0.0
 40
0.0
 40
1.0
 40
1.0
 40
1.0
 40
1.0
 10
51.63608716438858
 20
-24.06747292469147
 30
0.0
 10
51.63608716438858
 20
-24.02982350815017
 30
0.0
 10
51.6055662819082
 20
-23.99930262567012
 30
0.0
 10
51.56791686536723
 20
-23.99930262567012
 30
0.0
  0
SPLINE
  5
253
330
79
100
AcDbEntity
  8
Camada 1
 62
   250
420
  1907995
370
     9
100
AcDbSpline
210
0.0
220
0.0
230
1.0
 70
     8
 71
     3
 72
     8
 73
     4
 74
     0
 42
0.0000000001
 43
0.0000000001
 40
0.0
 40
0.0
 40
0.0
 40
0.0
 40
1.0
 40
1.0
 40
1.0
 40
1.0
 10
48.4320831103605
 20
-23.99930262567012
 30
0.0
 10
48.39443369381889
 20
-23.99930262567012
 30
0.0
 10
48.36391281133852
 20
-24.02982350815017
 30
0.0
 10
48.36391281133852
 20
-24.06747292469147
 30
0.0
  0
SPLINE
  5
254
330
79
100
AcDbEntity
  8
Camada 1
 62
   250
420
  1907995
370
     9
100
AcDbSpline
210
0.0
220
0.0
230
1.0
 70
     8
 71
     3
 72
     8
 73
     4
 74
     0
 42
0.0000000001
 43
0.0000000001
 40
0.0
 40
0.0
 40
0.0
 40
0.0
 40
1.0
 40
1.0
 40
1.0
 40
1.0
 10
51.50912003774942
 20
-26.86278062906387
 30
0.0
 10
51.44811614280764
 20
-26.76374073104371
 30
0.0
 10
51.37751082957686
 20
-26.6709466236792
 30
0.0
 10
51.29832547188202
 20
-26.58574066306487
 30
0.0
  0
SPLINE
  5
255
330
79
100
AcDbEntity
  8
Camada 1
 62
   250
420
  1907995
370
     9
100
AcDbSpline
210
0.0
220
0.0
230
1.0
 70
     8
 71
     3
 72
     8
 73
     4
 74
     0
 42
0.0000000001
 43
0.0000000001
 40
0.0
 40
0.0
 40
0.0
 40
0.0
 40
1.0
 40
1.0
 40
1.0
 40
1.0
 10
48.70474701333185
 20
-26.58244296367554
 30
0.0
 10
48.62431715174228
 20
-26.66854790776405
 30
0.0
 10
48.55267370339344
 20
-26.7624583753626
 30
0.0
 10
48.49087993797832
 20
-26.86278062906387
 30
0.0
  0
LINE
  5
256
330
79
100
AcDbEntity
  8
Camada 1
 62
   250
420
  1907995
370
     9
100
AcDbLine
 10
51.63608716438858
 20
-24.06747292469147
 30
0.0
 11
51.63608716438986
 21
-25.90970494788827
 31
0.0
  0
LINE
  5
257
330
79
100
AcDbEntity
  8
Camada 1
 62
   250
420
  1907995
370
     9
100
AcDbLine
 10
48.36391281133852
 20
-24.06747292469147
 30
0.0
 11
48.36391281133852
 21
-25.94379128390303
 31
0.0
  0
LINE
  5
258
330
79
100
AcDbEntity
  8
Camada 1
 62
   250
420
  1907995
370
     9
100
AcDbLine
 10
49.99999998786306
 20
-23.99930262567012
 30
0.0
 11
51.56791686536723
 21
-23.99930262567012
 31
0.0
  0
LINE
  5
259
330
79
100
AcDbEntity
  8
Camada 1
 62
   250
420
  1907995
370
     9
100
AcDbLine
 10
51.51178758489152
 20
-26.09782951181467
 30
0.0
 11
51.39111943061524
 21
-26.14927920791533
 31
0.0
  0
LINE
  5
25A
330
79
100
AcDbEntity
  8
Camada 1
 62
   250
420
  1907995
370
     9
100
AcDbLine
 10
49.99999998786306
 20
-23.99930262567012
 30
0.0
 11
48.4320831103605
 21
-23.99930262567012
 31
0.0
  0
LINE
  5
25B
330
79
100
AcDbEntity
  8
Camada 1
 62
   250
420
  1907995
370
     9
100
AcDbLine
 10
48.44333905372458
 20
-26.0676844426936
 30
0.0
 11
48.61930603625845
 21
-26.14852060447699
 31
0.0
  0
SPLINE
  5
25C
330
79
100
AcDbEntity
  8
Camada 1
 62
   250
420
  1907995
370
     9
100
AcDbSpline
210
0.0
220
0.0
230
1.0
 70
     8
 71
     3
 72
    11
 73
     7
 74
     0
 42
0.0000000001
 43
0.0000000001
 40
0.0
 40
0.0
 40
0.0
 40
0.0
 40
1.0
 40
1.0
 40
1.0
 40
2.0
 40
2.0
 40
2.0
 40
2.0
 10
48.70474701333249
 20
-26.58244296367458
 30
0.0
 10
48.80754711051191
 20
-26.47238935367395
 30
0.0
 10
48.801666976561
 20
-26.29983733084735
 30
0.0
 10
48.6916133665607
 20
-26.19703723366825
 30
0.0
 10
48.67026534978124
 20
-26.17709624127919
 30
0.0
 10
48.64585170162261
 20
-26.16071522001903
 30
0.0
 10
48.61930603625845
 20
-26.14852060447699
 30
0.0
  0
SPLINE
  5
25D
330
79
100
AcDbEntity
  8
Camada 1
 62
   250
420
  1907995
370
     9
100
AcDbSpline
210
0.0
220
0.0
230
1.0
 70
     8
 71
     3
 72
    11
 73
     7
 74
     0
 42
0.0000000001
 43
0.0000000001
 40
0.0
 40
0.0
 40
0.0
 40
0.0
 40
1.0
 40
1.0
 40
1.0
 40
2.0
 40
2.0
 40
2.0
 40
2.0
 10
51.39111943061524
 20
-26.14927920791533
 30
0.0
 10
51.25258832698101
 20
-26.20834519119255
 30
0.0
 10
51.18816911886264
 20
-26.36852927960958
 30
0.0
 10
51.24723510213858
 20
-26.50706038324253
 30
0.0
 10
51.2595919675811
 20
-26.53604170400051
 30
0.0
 10
51.2768778540993
 20
-26.56266234493564
 30
0.0
 10
51.29832547188331
 20
-26.58574066306679
 30
0.0
  0
SPLINE
  5
25E
330
79
100
AcDbEntity
  8
Camada 1
 62
   250
420
  1907995
370
     9
100
AcDbSpline
210
0.0
220
0.0
230
1.0
 70
     8
 71
     3
 72
     8
 73
     4
 74
     0
 42
0.0000000001
 43
0.0000000001
 40
0.0
 40
0.0
 40
0.0
 40
0.0
 40
1.0
 40
1.0
 40
1.0
 40
1.0
 10
48.36391281133852
 20
-25.94379128390303
 30
0.0
 10
48.36391281133852
 20
-25.99705883266145
 30
0.0
 10
48.39493465348449
 20
-26.04544830570556
 30
0.0
 10
48.44333905372458
 20
-26.06768444269296
 30
0.0
  0
LINE
  5
25F
330
79
100
AcDbEntity
  8
Camada 1
 62
   250
420
  1907995
370
     9
100
AcDbLine
 10
48.77815852103059
 20
-26.39630692205779
 30
0.0
 11
51.22538692478207
 21
-26.39973049076632
 31
0.0
  0
LINE
  5
260
330
79
100
AcDbEntity
  8
Camada 1
 62
   250
420
  1907995
370
     9
100
AcDbLine
 10
48.61930603625845
 20
-26.14852060447699
 30
0.0
 11
50.71167210335783
 21
-26.14909325345021
 31
0.0
  0
LINE
  5
261
330
79
100
AcDbEntity
  8
Camada 1
 62
   250
420
  1907995
370
     9
100
AcDbLine
 10
50.71167210335783
 20
-26.14909325345021
 30
0.0
 11
51.39111943061524
 21
-26.14927920791533
 31
0.0
  0
LINE
  5
262
330
79
100
AcDbEntity
  8
Camada 1
 62
   250
420
  1907995
370
     9
100
AcDbLine
 10
48.36286732938568
 20
-25.90892106016822
 30
0.0
 11
51.63608716438858
 21
-25.90892106016726
 31
0.0
  0
SPLINE
  5
263
330
79
100
AcDbEntity
  8
Camada 1
 62
   250
420
  1907995
370
     9
100
AcDbSpline
210
0.0
220
0.0
230
1.0
 70
     8
 71
     3
 72
     8
 73
     4
 74
     0
 42
0.0000000001
 43
0.0000000001
 40
0.0
 40
0.0
 40
0.0
 40
0.0
 40
1.0
 40
1.0
 40
1.0
 40
1.0
 10
50.723252601023
 20
-60.00180708995942
 30
0.0
 10
50.69061926628712
 20
-59.99033896099462
 30
0.0
 10
50.65771778381238
 20
-59.97964862130274
 30
0.0
 10
50.62457606435238
 20
-59.96974513963896
 30
0.0
  0
SPLINE
  5
264
330
79
100
AcDbEntity
  8
Camada 1
 62
   250
420
  1907995
370
     9
100
AcDbSpline
210
0.0
220
0.0
230
1.0
 70
     8
 71
     3
 72
     8
 73
     4
 74
     0
 42
0.0000000001
 43
0.0000000001
 40
0.0
 40
0.0
 40
0.0
 40
0.0
 40
1.0
 40
1.0
 40
1.0
 40
1.0
 10
48.26616205437194
 20
-60.73604030335624
 30
0.0
 10
48.24517096057406
 20
-60.76353260226039
 30
0.0
 10
48.22483672612547
 20
-60.79152027492213
 30
0.0
 10
48.20517660081908
 20
-60.81997957903785
 30
0.0
  0
SPLINE
  5
265
330
79
100
AcDbEntity
  8
Camada 1
 62
   250
420
  1907995
370
     9
100
AcDbSpline
210
0.0
220
0.0
230
1.0
 70
     8
 71
     3
 72
     8
 73
     4
 74
     0
 42
0.0000000001
 43
0.0000000001
 40
0.0
 40
0.0
 40
0.0
 40
0.0
 40
1.0
 40
1.0
 40
1.0
 40
1.0
 10
48.20517660081908
 20
-63.29976281964929
 30
0.0
 10
48.22483672612547
 20
-63.3282221237663
 30
0.0
 10
48.24517096057406
 20
-63.35620979642933
 30
0.0
 10
48.26616205437194
 20
-63.38370209533219
 30
0.0
  0
SPLINE
  5
266
330
79
100
AcDbEntity
  8
Camada 1
 62
   250
420
  1907995
370
     9
100
AcDbSpline
210
0.0
220
0.0
230
1.0
 70
     8
 71
     3
 72
     8
 73
     4
 74
     0
 42
0.0000000001
 43
0.0000000001
 40
0.0
 40
0.0
 40
0.0
 40
0.0
 40
1.0
 40
1.0
 40
1.0
 40
1.0
 10
50.62457606435238
 20
-64.14999725904947
 30
0.0
 10
50.65771778381238
 20
-64.14009377738441
 30
0.0
 10
50.69061926628712
 20
-64.12940343769381
 30
0.0
 10
50.723252601023
 20
-64.11793530872902
 30
0.0
  0
SPLINE
  5
267
330
79
100
AcDbEntity
  8
Camada 1
 62
   250
420
  1907995
370
     9
100
AcDbSpline
210
0.0
220
0.0
230
1.0
 70
     8
 71
     3
 72
     8
 73
     4
 74
     0
 42
0.0000000001
 43
0.0000000001
 40
0.0
 40
0.0
 40
0.0
 40
0.0
 40
1.0
 40
1.0
 40
1.0
 40
1.0
 10
52.18083261873895
 20
-62.11174852470666
 30
0.0
 10
52.18165520250377
 20
-62.07716853231406
 30
0.0
 10
52.18165520250377
 20
-62.04257386637308
 30
0.0
 10
52.18083261873895
 20
-62.00799387398178
 30
0.0
  0
LINE
  5
268
330
79
100
AcDbEntity
  8
Camada 1
 62
   250
420
  1907995
370
     9
100
AcDbLine
 10
51.63608716438858
 20
-24.13564322371378
 30
0.0
 11
51.63608716438858
 21
-24.13564322371378
 31
0.0
  0
LINE
  5
269
330
79
100
AcDbEntity
  8
Camada 1
 62
   250
420
  1907995
370
     9
100
AcDbLine
 10
51.49974656634588
 20
-23.99930262567012
 30
0.0
 11
51.49974656634588
 21
-23.99930262567012
 31
0.0
  0
LINE
  5
26A
330
79
100
AcDbEntity
  8
Camada 1
 62
   250
420
  1907995
370
     9
100
AcDbLine
 10
51.47933880925229
 20
-23.99930262566948
 30
0.0
 11
51.47933880925229
 21
-23.99930262566948
 31
0.0
  0
LINE
  5
26B
330
79
100
AcDbEntity
  8
Camada 1
 62
   250
420
  1907995
370
     9
100
AcDbLine
 10
48.56842370840384
 20
-23.99930262566948
 30
0.0
 11
48.56842370840384
 21
-23.99930262566948
 31
0.0
  0
LINE
  5
26C
330
79
100
AcDbEntity
  8
Camada 1
 62
   250
420
  1907995
370
     9
100
AcDbLine
 10
48.6774961868389
 20
-24.08110698449593
 30
0.0
 11
48.6774961868389
 21
-24.08110698449593
 31
0.0
  0
ENDBLK
  5
7C
330
79
100
AcDbEntity
  8
0
100
AcDbBlockEnd
  0
ENDSEC
  0
SECTION
  2
ENTITIES
  0
INSERT
  5
7A
330
70
100
AcDbEntity
  8
Camada 1
100
AcDbBlockReference
  2
Block_0
 10
0.0
 20
0.0
 30
0.0
  0
ENDSEC
  0
SECTION
  2
OBJECTS
  0
DICTIONARY
  5
C
330
0
100
AcDbDictionary
281
     1
  3
ACAD_COLOR
350
63
  3
ACAD_DETAILVIEWSTYLE
350
6A
  3
ACAD_GROUP
350
D
  3
ACAD_LAYOUT
350
62
  3
ACAD_MATERIAL
350
10
  3
ACAD_MLEADERSTYLE
350
66
  3
ACAD_MLINESTYLE
350
5F
  3
ACAD_PLOTSETTINGS
350
61
  3
ACAD_PLOTSTYLENAME
350
E
  3
ACAD_SCALELIST
350
42
  3
ACAD_SECTIONVIEWSTYLE
350
68
  3
ACAD_TABLESTYLE
350
64
  3
ACAD_VISUALSTYLE
350
29
  3
ACDB_RECOMPOSE_DATA
350
275
  3
AcDbVariableDictionary
350
26D
  0
DICTIONARY
  5
63
102
{ACAD_REACTORS
330
C
102
}
330
C
100
AcDbDictionary
281
     1
  0
DICTIONARY
  5
6A
102
{ACAD_REACTORS
330
C
102
}
330
C
100
AcDbDictionary
281
     1
  3
Imperial24
350
6B
  0
DICTIONARY
  5
D
102
{ACAD_REACTORS
330
C
102
}
330
C
100
AcDbDictionary
281
     1
  0
DICTIONARY
  5
62
102
{ACAD_REACTORS
330
C
102
}
330
C
100
AcDbDictionary
281
     1
  3
Layout1
350
6F
  3
Layout2
350
77
  3
Model
350
73
  0
DICTIONARY
  5
10
102
{ACAD_REACTORS
330
C
102
}
330
C
100
AcDbDictionary
281
     1
  3
ByBlock
350
19
  3
ByLayer
350
11
  3
Global
350
21
  0
DICTIONARY
  5
66
102
{ACAD_REACTORS
330
C
102
}
330
C
100
AcDbDictionary
281
     1
  3
Standard
350
67
  0
DICTIONARY
  5
5F
102
{ACAD_REACTORS
330
C
102
}
330
C
100
AcDbDictionary
281
     1
  3
Standard
350
60
  0
DICTIONARY
  5
61
102
{ACAD_REACTORS
330
C
102
}
330
C
100
AcDbDictionary
281
     1
  0
ACDBDICTIONARYWDFLT
  5
E
102
{ACAD_REACTORS
330
C
102
}
330
C
100
AcDbDictionary
281
     1
  3
Normal
350
F
100
AcDbDictionaryWithDefault
340
F
  0
DICTIONARY
  5
42
102
{ACAD_REACTORS
330
C
102
}
330
C
100
AcDbDictionary
281
     1
  3
A0
350
43
  3
A1
350
44
  3
A2
350
45
  3
A3
350
46
  3
A4
350
47
  3
A5
350
48
  3
A6
350
49
  3
A7
350
4A
  3
A8
350
4B
  3
A9
350
4C
  3
B0
350
4D
  3
B1
350
4E
  3
B2
350
4F
  3
B3
350
50
  3
B4
350
51
  3
B5
350
52
  3
B6
350
53
  0
DICTIONARY
  5
68
102
{ACAD_REACTORS
330
C
102
}
330
C
100
AcDbDictionary
281
     1
  3
Imperial24
350
69
  0
DICTIONARY
  5
64
102
{ACAD_REACTORS
330
C
102
}
330
C
100
AcDbDictionary
281
     1
  3
Standard
350
65
  0
DICTIONARY
  5
29
102
{ACAD_REACTORS
330
C
102
}
330
C
100
AcDbDictionary
281
     1
  3
2dWireframe
350
2F
  3
Basic
350
2E
  3
Brighten
350
35
  3
ColorChange
350
39
  3
Conceptual
350
32
  3
Dim
350
34
  3
EdgeColorOff
350
41
  3
Facepattern
350
38
  3
Flat
350
2A
  3
FlatWithEdges
350
2B
  3
Gouraud
350
2C
  3
GouraudWithEdges
350
2D
  3
Hidden
350
31
  3
JitterOff
350
3F
  3
Linepattern
350
37
  3
OverhangOff
350
40
  3
Realistic
350
33
  3
Shaded
350
3E
  3
Shaded with edges
350
3D
  3
Shades of Gray
350
3A
  3
Sketchy
350
3B
  3
Thicken
350
36
  3
Wireframe
350
30
  3
X-Ray
350
3C
  0
XRECORD
  5
275
102
{ACAD_REACTORS
330
C
102
}
330
C
100
AcDbXrecord
280
     1
 90
        1
330
65
  0
DICTIONARY
  5
26D
102
{ACAD_REACTORS
330
C
102
}
330
C
100
AcDbDictionary
281
     1
  3
CANNOSCALE
350
272
  3
CMLEADERSTYLE
350
26F
  3
CTABLESTYLE
350
26E
  3
CVIEWDETAILSTYLE
350
270
  3
CVIEWSECTIONSTYLE
350
271
  0
ACDBDETAILVIEWSTYLE
  5
6B
102
{ACAD_REACTORS
330
6A
102
}
330
6A
100
AcDbModelDocViewStyle
 70
     0
  3
Imperial24
290
     1
300
Imperial24
 90
        0
100
AcDbDetailViewStyle
 70
     0
 71
     0
 90
        3
 71
     1
340
55
 62
   256
 40
0.24
340
0
 62
   256
 40
0.24
300

 40
0.36
280
     3
 71
     2
340
5D
 90
       25
 62
   256
 71
     3
340
55
 62
   256
 40
0.24
 90
        1
 40
0.75
 90
        1
300
%<\AcVar ViewType \f "%tc1">% %<\AcVar ViewDetailId>%\PSCALE %<\AcVar ViewScale \f "%sn">%
 71
     4
340
5D
 90
       25
 62
   256
340
5D
 90
       25
 62
   256
280
     0
  0
LAYOUT
  5
6F
102
{ACAD_REACTORS
330
62
102
}
330
62
100
AcDbPlotSettings
  1

  2

  4

  6

 40
0.0
 41
0.0
 42
0.0
 43
0.0
 44
0.0
 45
0.0
 46
0.0
 47
0.0
 48
0.0
 49
0.0
140
0.0
141
0.0
142
1.0
143
1.0
 70
   688
 72
     0
 73
     0
 74
     5
  7

 75
    16
147
1.0
 76
     0
 77
     2
 78
   300
148
0.0
149
0.0
100
AcDbLayout
  1
Layout1
 70
     1
 71
     1
 10
0.0
 20
0.0
 11
12.0
 21
9.0
 12
0.0
 22
0.0
 32
0.0
 14
0.0
 24
0.0
 34
0.0
 15
0.0
 25
0.0
 35
0.0
146
0.0
 13
0.0
 23
0.0
 33
0.0
 16
1.0
 26
0.0
 36
0.0
 17
0.0
 27
1.0
 37
0.0
 76
     0
330
6C
  0
LAYOUT
  5
77
102
{ACAD_REACTORS
330
62
102
}
330
62
100
AcDbPlotSettings
  1

  2

  4

  6

 40
0.0
 41
0.0
 42
0.0
 43
0.0
 44
0.0
 45
0.0
 46
0.0
 47
0.0
 48
0.0
 49
0.0
140
0.0
141
0.0
142
1.0
143
1.0
 70
   688
 72
     0
 73
     0
 74
     5
  7

 75
    16
147
1.0
 76
     0
 77
     2
 78
   300
148
0.0
149
0.0
100
AcDbLayout
  1
Layout2
 70
     1
 71
     2
 10
0.0
 20
0.0
 11
12.0
 21
9.0
 12
0.0
 22
0.0
 32
0.0
 14
0.0
 24
0.0
 34
0.0
 15
0.0
 25
0.0
 35
0.0
146
0.0
 13
0.0
 23
0.0
 33
0.0
 16
1.0
 26
0.0
 36
0.0
 17
0.0
 27
1.0
 37
0.0
 76
     0
330
74
  0
LAYOUT
  5
73
102
{ACAD_REACTORS
330
62
102
}
330
62
100
AcDbPlotSettings
  1

  2

  4

  6

 40
0.0
 41
0.0
 42
0.0
 43
0.0
 44
0.0
 45
0.0
 46
0.0
 47
0.0
 48
0.0
 49
0.0
140
0.0
141
0.0
142
1.0
143
1.0
 70
  1712
 72
     0
 73
     0
 74
     0
  7

 75
     0
147
1.0
 76
     0
 77
     2
 78
   300
148
0.0
149
0.0
100
AcDbLayout
  1
Model
 70
     1
 71
     0
 10
0.0
 20
0.0
 11
12.0
 21
9.0
 12
0.0
 22
0.0
 32
0.0
 14
0.0
 24
0.0
 34
0.0
 15
0.0
 25
0.0
 35
0.0
146
0.0
 13
0.0
 23
0.0
 33
0.0
 16
1.0
 26
0.0
 36
0.0
 17
0.0
 27
1.0
 37
0.0
 76
     0
330
70
  0
MATERIAL
  5
19
102
{ACAD_XDICTIONARY
360
1A
102
}
102
{ACAD_REACTORS
330
10
102
}
330
10
100
AcDbMaterial
  1
ByBlock
 72
     0
 43
0.0208333333333333
 43
0.0
 43
0.0
 43
0.0
 43
0.0
 43
0.0208333333333333
 43
0.0
 43
0.0
 43
0.0
 43
0.0
 43
1.0
 43
0.0
 43
0.0
 43
0.0
 43
0.0
 43
1.0
 77
     0
 47
0.0208333333333333
 47
0.0
 47
0.0
 47
0.0
 47
0.0
 47
0.0208333333333333
 47
0.0
 47
0.0
 47
0.0
 47
0.0
 47
1.0
 47
0.0
 47
0.0
 47
0.0
 47
0.0
 47
1.0
171
     0
 49
0.0208333333333333
 49
0.0
 49
0.0
 49
0.0
 49
0.0
 49
0.0208333333333333
 49
0.0
 49
0.0
 49
0.0
 49
0.0
 49
1.0
 49
0.0
 49
0.0
 49
0.0
 49
0.0
 49
1.0
175
     0
142
0.0208333333333333
142
0.0
142
0.0
142
0.0
142
0.0
142
0.0208333333333333
142
0.0
142
0.0
142
0.0
142
0.0
142
1.0
142
0.0
142
0.0
142
0.0
142
0.0
142
1.0
179
     0
144
0.0208333333333333
144
0.0
144
0.0
144
0.0
144
0.0
144
0.0208333333333333
144
0.0
144
0.0
144
0.0
144
0.0
144
1.0
144
0.0
144
0.0
144
0.0
144
0.0
144
1.0
147
0.0208333333333333
147
0.0
147
0.0
147
0.0
147
0.0
147
0.0208333333333333
147
0.0
147
0.0
147
0.0
147
0.0
147
1.0
147
0.0
147
0.0
147
0.0
147
0.0
147
1.0
  0
MATERIAL
  5
11
102
{ACAD_XDICTIONARY
360
12
102
}
102
{ACAD_REACTORS
330
10
102
}
330
10
100
AcDbMaterial
  1
ByLayer
 72
     0
 43
0.0208333333333333
 43
0.0
 43
0.0
 43
0.0
 43
0.0
 43
0.0208333333333333
 43
0.0
 43
0.0
 43
0.0
 43
0.0
 43
1.0
 43
0.0
 43
0.0
 43
0.0
 43
0.0
 43
1.0
 77
     0
 47
0.0208333333333333
 47
0.0
 47
0.0
 47
0.0
 47
0.0
 47
0.0208333333333333
 47
0.0
 47
0.0
 47
0.0
 47
0.0
 47
1.0
 47
0.0
 47
0.0
 47
0.0
 47
0.0
 47
1.0
171
     0
 49
0.0208333333333333
 49
0.0
 49
0.0
 49
0.0
 49
0.0
 49
0.0208333333333333
 49
0.0
 49
0.0
 49
0.0
 49
0.0
 49
1.0
 49
0.0
 49
0.0
 49
0.0
 49
0.0
 49
1.0
175
     0
142
0.0208333333333333
142
0.0
142
0.0
142
0.0
142
0.0
142
0.0208333333333333
142
0.0
142
0.0
142
0.0
142
0.0
142
1.0
142
0.0
142
0.0
142
0.0
142
0.0
142
1.0
179
     0
144
0.0208333333333333
144
0.0
144
0.0
144
0.0
144
0.0
144
0.0208333333333333
144
0.0
144
0.0
144
0.0
144
0.0
144
1.0
144
0.0
144
0.0
144
0.0
144
0.0
144
1.0
147
0.0208333333333333
147
0.0
147
0.0
147
0.0
147
0.0
147
0.0208333333333333
147
0.0
147
0.0
147
0.0
147
0.0
147
1.0
147
0.0
147
0.0
147
0.0
147
0.0
147
1.0
  0
MATERIAL
  5
21
102
{ACAD_XDICTIONARY
360
22
102
}
102
{ACAD_REACTORS
330
10
102
}
330
10
100
AcDbMaterial
  1
Global
 72
     0
 43
0.0208333333333333
 43
0.0
 43
0.0
 43
0.0
 43
0.0
 43
0.0208333333333333
 43
0.0
 43
0.0
 43
0.0
 43
0.0
 43
1.0
 43
0.0
 43
0.0
 43
0.0
 43
0.0
 43
1.0
 77
     0
 47
0.0208333333333333
 47
0.0
 47
0.0
 47
0.0
 47
0.0
 47
0.0208333333333333
 47
0.0
 47
0.0
 47
0.0
 47
0.0
 47
1.0
 47
0.0
 47
0.0
 47
0.0
 47
0.0
 47
1.0
171
     0
 49
0.0208333333333333
 49
0.0
 49
0.0
 49
0.0
 49
0.0
 49
0.0208333333333333
 49
0.0
 49
0.0
 49
0.0
 49
0.0
 49
1.0
 49
0.0
 49
0.0
 49
0.0
 49
0.0
 49
1.0
175
     0
142
0.0208333333333333
142
0.0
142
0.0
142
0.0
142
0.0
142
0.0208333333333333
142
0.0
142
0.0
142
0.0
142
0.0
142
1.0
142
0.0
142
0.0
142
0.0
142
0.0
142
1.0
179
     0
144
0.0208333333333333
144
0.0
144
0.0
144
0.0
144
0.0
144
0.0208333333333333
144
0.0
144
0.0
144
0.0
144
0.0
144
1.0
144
0.0
144
0.0
144
0.0
144
0.0
144
1.0
147
0.0208333333333333
147
0.0
147
0.0
147
0.0
147
0.0
147
0.0208333333333333
147
0.0
147
0.0
147
0.0
147
0.0
147
1.0
147
0.0
147
0.0
147
0.0
147
0.0
147
1.0
  0
MLEADERSTYLE
  5
67
102
{ACAD_REACTORS
330
66
102
}
330
66
100
AcDbMLeaderStyle
179
     2
170
     2
171
     1
172
     0
 90
        2
 40
0.0
 41
0.0
173
     1
 91
-1056964608
340
5B
 92
       -2
290
     1
 42
0.09
291
     1
 43
0.36
  3
Standard
 44
0.18
300

342
55
174
     1
178
     6
175
     1
176
     0
 93
-1056964608
 45
0.18
292
     0
297
     0
 46
0.18
 94
-1056964608
 47
1.0
 49
1.0
140
1.0
293
     1
141
0.0
294
     1
177
     0
142
1.0
295
     1
296
     0
143
0.125
271
     0
272
     9
273
     9
298
     1
  0
MLINESTYLE
  5
60
102
{ACAD_REACTORS
330
5F
102
}
330
5F
100
AcDbMlineStyle
  2
STANDARD
 70
     0
  3

 62
   256
 51
90.0
 52
90.0
 71
     2
 49
0.5
 62
   256
  6
BYLAYER
 49
-0.5
 62
   256
  6
BYLAYER
  0
ACDBPLACEHOLDER
  5
F
102
{ACAD_REACTORS
330
E
102
}
330
E
  0
SCALE
  5
43
102
{ACAD_REACTORS
330
42
102
}
330
42
100
AcDbScale
 70
     0
300
1:1
140
1.0
141
1.0
290
     1
  0
SCALE
  5
44
102
{ACAD_REACTORS
330
42
102
}
330
42
100
AcDbScale
 70
     0
300
1/128" = 1'-0"
140
0.0078125
141
12.0
290
     0
  0
SCALE
  5
45
102
{ACAD_REACTORS
330
42
102
}
330
42
100
AcDbScale
 70
     0
300
1/64" = 1'-0"
140
0.015625
141
12.0
290
     0
  0
SCALE
  5
46
102
{ACAD_REACTORS
330
42
102
}
330
42
100
AcDbScale
 70
     0
300
1/32" = 1'-0"
140
0.03125
141
12.0
290
     0
  0
SCALE
  5
47
102
{ACAD_REACTORS
330
42
102
}
330
42
100
AcDbScale
 70
     0
300
1/16" = 1'-0"
140
0.0625
141
12.0
290
     0
  0
SCALE
  5
48
102
{ACAD_REACTORS
330
42
102
}
330
42
100
AcDbScale
 70
     0
300
3/32" = 1'-0"
140
0.09375
141
12.0
290
     0
  0
SCALE
  5
49
102
{ACAD_REACTORS
330
42
102
}
330
42
100
AcDbScale
 70
     0
300
1/8" = 1'-0"
140
0.125
141
12.0
290
     0
  0
SCALE
  5
4A
102
{ACAD_REACTORS
330
42
102
}
330
42
100
AcDbScale
 70
     0
300
3/16" = 1'-0"
140
0.1875
141
12.0
290
     0
  0
SCALE
  5
4B
102
{ACAD_REACTORS
330
42
102
}
330
42
100
AcDbScale
 70
     0
300
1/4" = 1'-0"
140
0.25
141
12.0
290
     0
  0
SCALE
  5
4C
102
{ACAD_REACTORS
330
42
102
}
330
42
100
AcDbScale
 70
     0
300
3/8" = 1'-0"
140
0.375
141
12.0
290
     0
  0
SCALE
  5
4D
102
{ACAD_REACTORS
330
42
102
}
330
42
100
AcDbScale
 70
     0
300
1/2" = 1'-0"
140
0.5
141
12.0
290
     0
  0
SCALE
  5
4E
102
{ACAD_REACTORS
330
42
102
}
330
42
100
AcDbScale
 70
     0
300
3/4" = 1'-0"
140
0.75
141
12.0
290
     0
  0
SCALE
  5
4F
102
{ACAD_REACTORS
330
42
102
}
330
42
100
AcDbScale
 70
     0
300
1" = 1'-0"
140
1.0
141
12.0
290
     0
  0
SCALE
  5
50
102
{ACAD_REACTORS
330
42
102
}
330
42
100
AcDbScale
 70
     0
300
1-1/2" = 1'-0"
140
1.5
141
12.0
290
     0
  0
SCALE
  5
51
102
{ACAD_REACTORS
330
42
102
}
330
42
100
AcDbScale
 70
     0
300
3" = 1'-0"
140
3.0
141
12.0
290
     0
  0
SCALE
  5
52
102
{ACAD_REACTORS
330
42
102
}
330
42
100
AcDbScale
 70
     0
300
6" = 1'-0"
140
6.0
141
12.0
290
     0
  0
SCALE
  5
53
102
{ACAD_REACTORS
330
42
102
}
330
42
100
AcDbScale
 70
     0
300
1'-0" = 1'-0"
140
12.0
141
12.0
290
     0
  0
ACDBSECTIONVIEWSTYLE
  5
69
102
{ACAD_REACTORS
330
68
102
}
330
68
100
AcDbModelDocViewStyle
 70
     0
  3
Imperial24
290
     1
300
Imperial24
 90
        0
100
AcDbSectionViewStyle
 70
     0
 71
     0
 90
       78
 71
     1
340
55
 62
   256
 40
0.24
340
0
340
0
 62
   256
 40
0.24
300
I, O, Q, S, X, Z
 40
0.48
 90
        3
 40
0.18
 90
        1
 71
     2
340
5D
 90
       25
 62
   256
340
5D
 90
       50
 62
   256
 40
0.24
 40
0.0
 40
0.24
 71
     3
340
55
 62
   256
 40
0.24
 90
        1
 40
0.75
 90
        1
300
%<\AcVar ViewType \f "%tc1">% %<\AcVar ViewSectionStartId>%-%<\AcVar ViewSectionEndId>%\PSCALE %<\AcVar ViewScale \f "%sn">%
 71
     4
 62
   256
 62
   257
300
ANSI31
 40
1.0
 90
        0
290
     0
290
     0
 90
        6
 40
0.0
 40
1.570796326794896
 40
0.2617993877991494
 40
1.308996938995747
 40
-0.2617993877991494
 40
1.832595714594046
  0
TABLESTYLE
  5
65
102
{ACAD_XDICTIONARY
360
273
102
}
102
{ACAD_REACTORS
330
64
102
}
330
64
100
AcDbTableStyle
280
     0
  3
Standard
 70
     0
 71
     0
 40
0.06
 41
0.06
280
     0
281
     0
  7
Standard
140
0.18
170
     2
 62
     0
 63
     7
283
     0
 90
      512
 91
        0
  1

274
    -2
284
     1
 64
     0
275
    -2
285
     1
 65
     0
276
    -2
286
     1
 66
     0
277
    -2
287
     1
 67
     0
278
    -2
288
     1
 68
     0
279
    -2
289
     1
 69
     0
  7
Standard
140
0.25
170
     5
 62
     0
 63
     7
283
     0
 90
      512
 91
        0
  1

274
    -2
284
     1
 64
     0
275
    -2
285
     1
 65
     0
276
    -2
286
     1
 66
     0
277
    -2
287
     1
 67
     0
278
    -2
288
     1
 68
     0
279
    -2
289
     1
 69
     0
  7
Standard
140
0.18
170
     5
 62
     0
 63
     7
283
     0
 90
      512
 91
        0
  1

274
    -2
284
     1
 64
     0
275
    -2
285
     1
 65
     0
276
    -2
286
     1
 66
     0
277
    -2
287
     1
 67
     0
278
    -2
288
     1
 68
     0
279
    -2
289
     1
 69
     0
  0
VISUALSTYLE
  5
2F
102
{ACAD_REACTORS
330
29
102
}
330
29
100
AcDbVisualStyle
  2
2dWireframe
 70
     4
177
     3
291
     0
 70
    58
 90
        0
176
     1
 90
        2
176
     1
 90
        0
176
     1
 90
        0
176
     1
 40
0.6
176
     1
 40
30.0
176
     1
 62
     7
420
 16777215
176
     1
 90
        1
176
     1
 90
        4
176
     1
 62
     7
176
     1
 62
   257
176
     1
 90
        1
176
     1
 90
        1
176
     1
 40
1.0
176
     1
 90
        0
176
     1
 62
   257
176
     1
 40
1.0
176
     1
 90
        1
176
     1
 90
        6
176
     1
 90
        2
176
     1
 62
     7
176
     1
 90
        5
176
     1
 90
        0
176
     1
 90
        0
176
     1
290
     0
176
     1
 90
        1
176
     1
 40
0.0
176
     1
 90
        0
176
     1
290
     1
176
     1
290
     1
176
     1
290
     0
176
     1
290
     0
176
     1
290
     0
176
     1
290
     0
176
     1
290
     0
176
     1
290
     0
176
     1
290
     0
176
     1
 90
       50
176
     1
 40
0.0
176
     1
 40
1.0
176
     1
 90
        0
176
     1
 62
    18
420
        0
176
     1
 90
       50
176
     1
 90
        3
176
     1
 62
     5
420
      255
176
     1
290
     0
176
     1
 90
       50
176
     1
 90
       50
176
     1
 90
       50
176
     1
290
     0
176
     1
 90
       50
176
     1
 62
   256
176
     0
 40
1.0
176
     0
 90
        2
176
     1
  1
strokes_ogs.tif
176
     1
290
     0
176
     1
 40
1.0
176
     1
 40
1.0
176
     1
  0
VISUALSTYLE
  5
2E
102
{ACAD_REACTORS
330
29
102
}
330
29
100
AcDbVisualStyle
  2
Basic
 70
     7
177
     3
291
     1
 70
    58
 90
        1
176
     1
 90
        0
176
     1
 90
        1
176
     1
 90
        0
176
     1
 40
0.6
176
     1
 40
30.0
176
     1
 62
     7
420
 16777215
176
     1
 90
        0
176
     1
 90
        4
176
     1
 62
     7
176
     1
 62
   257
176
     1
 90
        1
176
     1
 90
        1
176
     1
 40
1.0
176
     1
 90
        8
176
     1
 62
     7
176
     1
 40
1.0
176
     1
 90
        1
176
     1
 90
        6
176
     1
 90
        2
176
     1
 62
     7
176
     1
 90
        5
176
     1
 90
        0
176
     1
 90
        0
176
     1
290
     0
176
     1
 90
        1
176
     1
 40
0.0
176
     1
 90
        0
176
     1
290
     0
176
     1
290
     1
176
     1
290
     1
176
     1
290
     0
176
     1
290
     0
176
     1
290
     0
176
     1
290
     0
176
     1
290
     0
176
     1
290
     0
176
     1
 90
       50
176
     1
 40
0.0
176
     1
 40
1.0
176
     1
 90
        0
176
     1
 62
    18
420
        0
176
     1
 90
       50
176
     1
 90
        3
176
     1
 62
     5
420
      255
176
     1
290
     0
176
     1
 90
       50
176
     1
 90
       50
176
     1
 90
       50
176
     1
290
     0
176
     1
 90
       50
176
     1
 62
   256
176
     0
 40
1.0
176
     0
 90
        2
176
     1
  1
strokes_ogs.tif
176
     1
290
     0
176
     1
 40
1.0
176
     1
 40
1.0
176
     1
  0
VISUALSTYLE
  5
35
102
{ACAD_REACTORS
330
29
102
}
330
29
100
AcDbVisualStyle
  2
Brighten
 70
    12
177
     3
291
     1
 70
    58
 90
        2
176
     1
 90
        2
176
     1
 90
        0
176
     1
 90
        0
176
     1
 40
0.6
176
     1
 40
30.0
176
     1
 62
     7
420
 16777215
176
     1
 90
        1
176
     1
 90
        4
176
     1
 62
     7
176
     1
 62
   257
176
     1
 90
        1
176
     1
 90
        1
176
     1
 40
1.0
176
     1
 90
        8
176
     1
 62
     7
176
     1
 40
1.0
176
     1
 90
        1
176
     1
 90
        6
176
     1
 90
        2
176
     1
 62
     7
176
     1
 90
        5
176
     1
 90
        0
176
     1
 90
        0
176
     1
290
     0
176
     1
 90
        1
176
     1
 40
50.0
176
     1
 90
        0
176
     1
290
     0
176
     1
290
     1
176
     1
290
     1
176
     1
290
     0
176
     1
290
     0
176
     1
290
     0
176
     1
290
     0
176
     1
290
     0
176
     1
290
     0
176
     1
 90
       50
176
     1
 40
0.0
176
     1
 40
1.0
176
     1
 90
        0
176
     1
 62
    18
420
        0
176
     1
 90
       50
176
     1
 90
        3
176
     1
 62
     5
420
      255
176
     1
290
     0
176
     1
 90
       50
176
     1
 90
       50
176
     1
 90
       50
176
     1
290
     0
176
     1
 90
       50
176
     1
 62
   256
176
     0
 40
1.0
176
     0
 90
        2
176
     1
  1
strokes_ogs.tif
176
     1
290
     0
176
     1
 40
1.0
176
     1
 40
1.0
176
     1
  0
VISUALSTYLE
  5
39
102
{ACAD_REACTORS
330
29
102
}
330
29
100
AcDbVisualStyle
  2
ColorChange
 70
    16
177
     3
291
     1
 70
    58
 90
        2
176
     1
 90
        2
176
     1
 90
        3
176
     1
 90
        0
176
     1
 40
0.6
176
     1
 40
30.0
176
     1
 62
     8
420
  8421504
176
     1
 90
        1
176
     1
 90
        4
176
     1
 62
     7
176
     1
 62
   257
176
     1
 90
        1
176
     1
 90
        1
176
     1
 40
1.0
176
     1
 90
        8
176
     1
 62
     8
420
  8421504
176
     1
 40
1.0
176
     1
 90
        1
176
     1
 90
        6
176
     1
 90
        2
176
     1
 62
     7
176
     1
 90
        5
176
     1
 90
        0
176
     1
 90
        0
176
     1
290
     0
176
     1
 90
        1
176
     1
 40
0.0
176
     1
 90
        0
176
     1
290
     0
176
     1
290
     1
176
     1
290
     1
176
     1
290
     0
176
     1
290
     0
176
     1
290
     0
176
     1
290
     0
176
     1
290
     0
176
     1
290
     0
176
     1
 90
       50
176
     1
 40
0.0
176
     1
 40
1.0
176
     1
 90
        0
176
     1
 62
    18
420
        0
176
     1
 90
       50
176
     1
 90
        3
176
     1
 62
     5
420
      255
176
     1
290
     0
176
     1
 90
       50
176
     1
 90
       50
176
     1
 90
       50
176
     1
290
     0
176
     1
 90
       50
176
     1
 62
   256
176
     0
 40
1.0
176
     0
 90
        2
176
     1
  1
strokes_ogs.tif
176
     1
290
     0
176
     1
 40
1.0
176
     1
 40
1.0
176
     1
  0
VISUALSTYLE
  5
32
102
{ACAD_REACTORS
330
29
102
}
330
29
100
AcDbVisualStyle
  2
Conceptual
 70
     9
177
     3
291
     0
 70
    58
 90
        3
176
     1
 90
        2
176
     1
 90
        0
176
     1
 90
        0
176
     1
 40
0.6
176
     1
 40
30.0
176
     1
 62
     7
420
 16777215
176
     1
 90
        2
176
     1
 90
        2
176
     1
 62
     7
176
     1
 62
   257
176
     1
 90
        1
176
     1
 90
        1
176
     1
 40
179.0
176
     1
 90
        8
176
     1
 62
     7
176
     1
 40
1.0
176
     1
 90
        1
176
     1
 90
        6
176
     1
 90
        2
176
     1
 62
     7
176
     1
 90
        3
176
     1
 90
        0
176
     1
 90
        0
176
     1
290
     0
176
     1
 90
        1
176
     1
 40
0.0
176
     1
 90
        0
176
     1
290
     0
176
     1
290
     1
176
     1
290
     1
176
     1
290
     0
176
     1
290
     0
176
     1
290
     0
176
     1
290
     0
176
     1
290
     0
176
     1
290
     0
176
     1
 90
       50
176
     1
 40
0.0
176
     1
 40
1.0
176
     1
 90
        0
176
     1
 62
    18
420
        0
176
     1
 90
       50
176
     1
 90
        3
176
     1
 62
     5
420
      255
176
     1
290
     0
176
     1
 90
       50
176
     1
 90
       50
176
     1
 90
       50
176
     1
290
     0
176
     1
 90
       50
176
     1
 62
   256
176
     0
 40
1.0
176
     0
 90
        2
176
     1
  1
strokes_ogs.tif
176
     1
290
     0
176
     1
 40
1.0
176
     1
 40
1.0
176
     1
  0
VISUALSTYLE
  5
34
102
{ACAD_REACTORS
330
29
102
}
330
29
100
AcDbVisualStyle
  2
Dim
 70
    11
177
     3
291
     1
 70
    58
 90
        2
176
     1
 90
        2
176
     1
 90
        0
176
     1
 90
        0
176
     1
 40
0.6
176
     1
 40
30.0
176
     1
 62
     7
420
 16777215
176
     1
 90
        1
176
     1
 90
        4
176
     1
 62
     7
176
     1
 62
   257
176
     1
 90
        1
176
     1
 90
        1
176
     1
 40
1.0
176
     1
 90
        8
176
     1
 62
     7
176
     1
 40
1.0
176
     1
 90
        1
176
     1
 90
        6
176
     1
 90
        2
176
     1
 62
     7
176
     1
 90
        5
176
     1
 90
        0
176
     1
 90
        0
176
     1
290
     0
176
     1
 90
        1
176
     1
 40
-50.0
176
     1
 90
        0
176
     1
290
     0
176
     1
290
     1
176
     1
290
     1
176
     1
290
     0
176
     1
290
     0
176
     1
290
     0
176
     1
290
     0
176
     1
290
     0
176
     1
290
     0
176
     1
 90
       50
176
     1
 40
0.0
176
     1
 40
1.0
176
     1
 90
        0
176
     1
 62
    18
420
        0
176
     1
 90
       50
176
     1
 90
        3
176
     1
 62
     5
420
      255
176
     1
290
     0
176
     1
 90
       50
176
     1
 90
       50
176
     1
 90
       50
176
     1
290
     0
176
     1
 90
       50
176
     1
 62
   256
176
     0
 40
1.0
176
     0
 90
        2
176
     1
  1
strokes_ogs.tif
176
     1
290
     0
176
     1
 40
1.0
176
     1
 40
1.0
176
     1
  0
VISUALSTYLE
  5
41
102
{ACAD_REACTORS
330
29
102
}
330
29
100
AcDbVisualStyle
  2
EdgeColorOff
 70
    22
177
     3
291
     1
 70
    58
 90
        2
176
     0
 90
        2
176
     0
 90
        0
176
     0
 90
        0
176
     0
 40
0.6
176
     0
 40
30.0
176
     0
 62
     7
420
 16777215
176
     0
 90
        1
176
     0
 90
        4
176
     0
 62
     7
176
     0
 62
   257
176
     0
 90
        1
176
     0
 90
        1
176
     0
 40
1.0
176
     0
 90
        8
176
     2
 62
     7
176
     0
 40
1.0
176
     0
 90
        1
176
     0
 90
        6
176
     0
 90
        2
176
     0
 62
     7
176
     0
 90
        5
176
     0
 90
        0
176
     0
 90
        0
176
     0
290
     0
176
     0
 90
        1
176
     0
 40
0.0
176
     0
 90
        0
176
     0
290
     0
176
     0
290
     1
176
     0
290
     1
176
     0
290
     0
176
     0
290
     0
176
     0
290
     0
176
     0
290
     0
176
     0
290
     0
176
     0
290
     0
176
     0
 90
       50
176
     0
 40
0.0
176
     0
 40
1.0
176
     0
 90
        0
176
     0
 62
    18
420
        0
176
     0
 90
       50
176
     0
 90
        3
176
     0
 62
     5
420
      255
176
     0
290
     0
176
     0
 90
       50
176
     0
 90
       50
176
     0
 90
       50
176
     0
290
     0
176
     0
 90
       50
176
     0
 62
   256
176
     0
 40
1.0
176
     0
 90
        2
176
     0
  1
strokes_ogs.tif
176
     0
290
     0
176
     0
 40
1.0
176
     0
 40
1.0
176
     0
  0
VISUALSTYLE
  5
38
102
{ACAD_REACTORS
330
29
102
}
330
29
100
AcDbVisualStyle
  2
Facepattern
 70
    15
177
     3
291
     1
 70
    58
 90
        2
176
     1
 90
        2
176
     1
 90
        0
176
     1
 90
        0
176
     1
 40
0.6
176
     1
 40
30.0
176
     1
 62
     7
420
 16777215
176
     1
 90
        1
176
     1
 90
        4
176
     1
 62
     7
176
     1
 62
   257
176
     1
 90
        1
176
     1
 90
        1
176
     1
 40
1.0
176
     1
 90
        8
176
     1
 62
     7
176
     1
 40
1.0
176
     1
 90
        1
176
     1
 90
        6
176
     1
 90
        2
176
     1
 62
     7
176
     1
 90
        5
176
     1
 90
        0
176
     1
 90
        0
176
     1
290
     0
176
     1
 90
        1
176
     1
 40
0.0
176
     1
 90
        0
176
     1
290
     0
176
     1
290
     1
176
     1
290
     1
176
     1
290
     0
176
     1
290
     0
176
     1
290
     0
176
     1
290
     0
176
     1
290
     0
176
     1
290
     0
176
     1
 90
       50
176
     1
 40
0.0
176
     1
 40
1.0
176
     1
 90
        0
176
     1
 62
    18
420
        0
176
     1
 90
       50
176
     1
 90
        3
176
     1
 62
     5
420
      255
176
     1
290
     0
176
     1
 90
       50
176
     1
 90
       50
176
     1
 90
       50
176
     1
290
     0
176
     1
 90
       50
176
     1
 62
   256
176
     0
 40
1.0
176
     0
 90
        2
176
     1
  1
strokes_ogs.tif
176
     1
290
     0
176
     1
 40
1.0
176
     1
 40
1.0
176
     1
  0
VISUALSTYLE
  5
2A
102
{ACAD_REACTORS
330
29
102
}
330
29
100
AcDbVisualStyle
  2
Flat
 70
     0
177
     3
291
     1
 70
    58
 90
        2
176
     1
 90
        1
176
     1
 90
        1
176
     1
 90
        2
176
     1
 40
0.6
176
     1
 40
30.0
176
     1
 62
     7
420
 16777215
176
     1
 90
        0
176
     1
 90
        0
176
     1
 62
     7
176
     1
 62
   257
176
     1
 90
        1
176
     1
 90
        1
176
     1
 40
1.0
176
     1
 90
        8
176
     1
 62
     7
176
     1
 40
1.0
176
     1
 90
        1
176
     1
 90
        6
176
     1
 90
        2
176
     1
 62
     7
176
     1
 90
        5
176
     1
 90
        0
176
     1
 90
        0
176
     1
290
     0
176
     1
 90
       13
176
     1
 40
0.0
176
     1
 90
        0
176
     1
290
     0
176
     1
290
     1
176
     1
290
     1
176
     1
290
     0
176
     1
290
     0
176
     1
290
     0
176
     1
290
     0
176
     1
290
     0
176
     1
290
     0
176
     1
 90
       50
176
     1
 40
0.0
176
     1
 40
1.0
176
     1
 90
        0
176
     1
 62
    18
420
        0
176
     1
 90
       50
176
     1
 90
        3
176
     1
 62
     5
420
      255
176
     1
290
     0
176
     1
 90
       50
176
     1
 90
       50
176
     1
 90
       50
176
     1
290
     0
176
     1
 90
       50
176
     1
 62
   256
176
     0
 40
1.0
176
     0
 90
        2
176
     1
  1
strokes_ogs.tif
176
     1
290
     0
176
     1
 40
1.0
176
     1
 40
1.0
176
     1
  0
VISUALSTYLE
  5
2B
102
{ACAD_REACTORS
330
29
102
}
330
29
100
AcDbVisualStyle
  2
FlatWithEdges
 70
     1
177
     3
291
     1
 70
    58
 90
        2
176
     1
 90
        1
176
     1
 90
        1
176
     1
 90
        2
176
     1
 40
0.6
176
     1
 40
30.0
176
     1
 62
     7
420
 16777215
176
     1
 90
        1
176
     1
 90
        0
176
     1
 62
     7
176
     1
 62
   257
176
     1
 90
        1
176
     1
 90
        1
176
     1
 40
1.0
176
     1
 90
        0
176
     1
 62
   257
176
     1
 40
1.0
176
     1
 90
        1
176
     1
 90
        6
176
     1
 90
        2
176
     1
 62
     7
176
     1
 90
        5
176
     1
 90
        0
176
     1
 90
        0
176
     1
290
     0
176
     1
 90
       13
176
     1
 40
0.0
176
     1
 90
        0
176
     1
290
     0
176
     1
290
     1
176
     1
290
     1
176
     1
290
     0
176
     1
290
     0
176
     1
290
     0
176
     1
290
     0
176
     1
290
     0
176
     1
290
     0
176
     1
 90
       50
176
     1
 40
0.0
176
     1
 40
1.0
176
     1
 90
        0
176
     1
 62
    18
420
        0
176
     1
 90
       50
176
     1
 90
        3
176
     1
 62
     5
420
      255
176
     1
290
     0
176
     1
 90
       50
176
     1
 90
       50
176
     1
 90
       50
176
     1
290
     0
176
     1
 90
       50
176
     1
 62
   256
176
     0
 40
1.0
176
     0
 90
        2
176
     1
  1
strokes_ogs.tif
176
     1
290
     0
176
     1
 40
1.0
176
     1
 40
1.0
176
     1
  0
VISUALSTYLE
  5
2C
102
{ACAD_REACTORS
330
29
102
}
330
29
100
AcDbVisualStyle
  2
Gouraud
 70
     2
177
     3
291
     1
 70
    58
 90
        2
176
     1
 90
        2
176
     1
 90
        1
176
     1
 90
        2
176
     1
 40
0.6
176
     1
 40
30.0
176
     1
 62
     7
420
 16777215
176
     1
 90
        0
176
     1
 90
        0
176
     1
 62
     7
176
     1
 62
   257
176
     1
 90
        1
176
     1
 90
        1
176
     1
 40
1.0
176
     1
 90
        0
176
     1
 62
     7
176
     1
 40
1.0
176
     1
 90
        1
176
     1
 90
        6
176
     1
 90
        2
176
     1
 62
     7
176
     1
 90
        5
176
     1
 90
        0
176
     1
 90
        0
176
     1
290
     0
176
     1
 90
       13
176
     1
 40
0.0
176
     1
 90
        0
176
     1
290
     0
176
     1
290
     1
176
     1
290
     1
176
     1
290
     0
176
     1
290
     0
176
     1
290
     0
176
     1
290
     0
176
     1
290
     0
176
     1
290
     0
176
     1
 90
       50
176
     1
 40
0.0
176
     1
 40
1.0
176
     1
 90
        0
176
     1
 62
    18
420
        0
176
     1
 90
       50
176
     1
 90
        3
176
     1
 62
     5
420
      255
176
     1
290
     0
176
     1
 90
       50
176
     1
 90
       50
176
     1
 90
       50
176
     1
290
     0
176
     1
 90
       50
176
     1
 62
   256
176
     0
 40
1.0
176
     0
 90
        2
176
     1
  1
strokes_ogs.tif
176
     1
290
     0
176
     1
 40
1.0
176
     1
 40
1.0
176
     1
  0
VISUALSTYLE
  5
2D
102
{ACAD_REACTORS
330
29
102
}
330
29
100
AcDbVisualStyle
  2
GouraudWithEdges
 70
     3
177
     3
291
     1
 70
    58
 90
        2
176
     1
 90
        2
176
     1
 90
        1
176
     1
 90
        2
176
     1
 40
0.6
176
     1
 40
30.0
176
     1
 62
     7
420
 16777215
176
     1
 90
        1
176
     1
 90
        0
176
     1
 62
     7
176
     1
 62
   257
176
     1
 90
        1
176
     1
 90
        1
176
     1
 40
1.0
176
     1
 90
        0
176
     1
 62
   257
176
     1
 40
1.0
176
     1
 90
        1
176
     1
 90
        6
176
     1
 90
        2
176
     1
 62
     7
176
     1
 90
        5
176
     1
 90
        0
176
     1
 90
        0
176
     1
290
     0
176
     1
 90
       13
176
     1
 40
0.0
176
     1
 90
        0
176
     1
290
     0
176
     1
290
     1
176
     1
290
     1
176
     1
290
     0
176
     1
290
     0
176
     1
290
     0
176
     1
290
     0
176
     1
290
     0
176
     1
290
     0
176
     1
 90
       50
176
     1
 40
0.0
176
     1
 40
1.0
176
     1
 90
        0
176
     1
 62
    18
420
        0
176
     1
 90
       50
176
     1
 90
        3
176
     1
 62
     5
420
      255
176
     1
290
     0
176
     1
 90
       50
176
     1
 90
       50
176
     1
 90
       50
176
     1
290
     0
176
     1
 90
       50
176
     1
 62
   256
176
     0
 40
1.0
176
     0
 90
        2
176
     1
  1
strokes_ogs.tif
176
     1
290
     0
176
     1
 40
1.0
176
     1
 40
1.0
176
     1
  0
VISUALSTYLE
  5
31
102
{ACAD_REACTORS
330
29
102
}
330
29
100
AcDbVisualStyle
  2
Hidden
 70
     6
177
     3
291
     0
 70
    58
 90
        1
176
     1
 90
        2
176
     1
 90
        2
176
     1
 90
        0
176
     1
 40
0.6
176
     1
 40
30.0
176
     1
 62
     7
420
 16777215
176
     1
 90
        2
176
     1
 90
        2
176
     1
 62
     7
176
     1
 62
   257
176
     1
 90
        2
176
     1
 90
        1
176
     1
 40
40.0
176
     1
 90
        0
176
     1
 62
   257
176
     1
 40
1.0
176
     1
 90
        1
176
     1
 90
        6
176
     1
 90
        2
176
     1
 62
     7
176
     1
 90
        3
176
     1
 90
        0
176
     1
 90
        0
176
     1
290
     0
176
     1
 90
        1
176
     1
 40
0.0
176
     1
 90
        0
176
     1
290
     0
176
     1
290
     1
176
     1
290
     1
176
     1
290
     0
176
     1
290
     0
176
     1
290
     0
176
     1
290
     0
176
     1
290
     0
176
     1
290
     0
176
     1
 90
       50
176
     1
 40
0.0
176
     1
 40
1.0
176
     1
 90
        0
176
     1
 62
    18
420
        0
176
     1
 90
       50
176
     1
 90
        3
176
     1
 62
     5
420
      255
176
     1
290
     0
176
     1
 90
       50
176
     1
 90
       50
176
     1
 90
       50
176
     1
290
     0
176
     1
 90
       50
176
     1
 62
   256
176
     0
 40
1.0
176
     0
 90
        2
176
     1
  1
strokes_ogs.tif
176
     1
290
     0
176
     1
 40
1.0
176
     1
 40
1.0
176
     1
  0
VISUALSTYLE
  5
3F
102
{ACAD_REACTORS
330
29
102
}
330
29
100
AcDbVisualStyle
  2
JitterOff
 70
    20
177
     3
291
     1
 70
    58
 90
        2
176
     0
 90
        2
176
     0
 90
        0
176
     0
 90
        0
176
     0
 40
0.6
176
     0
 40
30.0
176
     0
 62
     7
420
 16777215
176
     0
 90
        1
176
     0
 90
        4
176
     0
 62
     7
176
     0
 62
   257
176
     0
 90
        1
176
     0
 90
        1
176
     0
 40
1.0
176
     0
 90
       10
176
     2
 62
     7
176
     0
 40
1.0
176
     0
 90
        1
176
     0
 90
        6
176
     0
 90
        2
176
     0
 62
     7
176
     0
 90
        5
176
     0
 90
        0
176
     0
 90
        0
176
     0
290
     0
176
     0
 90
        1
176
     0
 40
0.0
176
     0
 90
        0
176
     0
290
     0
176
     0
290
     1
176
     0
290
     1
176
     0
290
     0
176
     0
290
     0
176
     0
290
     0
176
     0
290
     0
176
     0
290
     0
176
     0
290
     0
176
     0
 90
       50
176
     0
 40
0.0
176
     0
 40
1.0
176
     0
 90
        0
176
     0
 62
    18
420
        0
176
     0
 90
       50
176
     0
 90
        3
176
     0
 62
     5
420
      255
176
     0
290
     0
176
     0
 90
       50
176
     0
 90
       50
176
     0
 90
       50
176
     0
290
     0
176
     0
 90
       50
176
     0
 62
   256
176
     0
 40
1.0
176
     0
 90
        2
176
     0
  1
strokes_ogs.tif
176
     0
290
     0
176
     0
 40
1.0
176
     0
 40
1.0
176
     0
  0
VISUALSTYLE
  5
37
102
{ACAD_REACTORS
330
29
102
}
330
29
100
AcDbVisualStyle
  2
Linepattern
 70
    14
177
     3
291
     1
 70
    58
 90
        2
176
     1
 90
        2
176
     1
 90
        0
176
     1
 90
        0
176
     1
 40
0.6
176
     1
 40
30.0
176
     1
 62
     7
420
 16777215
176
     1
 90
        1
176
     1
 90
        4
176
     1
 62
     7
176
     1
 62
   257
176
     1
 90
        7
176
     1
 90
        7
176
     1
 40
1.0
176
     1
 90
        8
176
     1
 62
     7
176
     1
 40
1.0
176
     1
 90
        1
176
     1
 90
        6
176
     1
 90
        2
176
     1
 62
     7
176
     1
 90
        5
176
     1
 90
        0
176
     1
 90
        0
176
     1
290
     0
176
     1
 90
        1
176
     1
 40
0.0
176
     1
 90
        0
176
     1
290
     0
176
     1
290
     1
176
     1
290
     1
176
     1
290
     0
176
     1
290
     0
176
     1
290
     0
176
     1
290
     0
176
     1
290
     0
176
     1
290
     0
176
     1
 90
       50
176
     1
 40
0.0
176
     1
 40
1.0
176
     1
 90
        0
176
     1
 62
    18
420
        0
176
     1
 90
       50
176
     1
 90
        3
176
     1
 62
     5
420
      255
176
     1
290
     0
176
     1
 90
       50
176
     1
 90
       50
176
     1
 90
       50
176
     1
290
     0
176
     1
 90
       50
176
     1
 62
   256
176
     0
 40
1.0
176
     0
 90
        2
176
     1
  1
strokes_ogs.tif
176
     1
290
     0
176
     1
 40
1.0
176
     1
 40
1.0
176
     1
  0
VISUALSTYLE
  5
40
102
{ACAD_REACTORS
330
29
102
}
330
29
100
AcDbVisualStyle
  2
OverhangOff
 70
    21
177
     3
291
     1
 70
    58
 90
        2
176
     0
 90
        2
176
     0
 90
        0
176
     0
 90
        0
176
     0
 40
0.6
176
     0
 40
30.0
176
     0
 62
     7
420
 16777215
176
     0
 90
        1
176
     0
 90
        4
176
     0
 62
     7
176
     0
 62
   257
176
     0
 90
        1
176
     0
 90
        1
176
     0
 40
1.0
176
     0
 90
        9
176
     2
 62
     7
176
     0
 40
1.0
176
     0
 90
        1
176
     0
 90
        6
176
     0
 90
        2
176
     0
 62
     7
176
     0
 90
        5
176
     0
 90
        0
176
     0
 90
        0
176
     0
290
     0
176
     0
 90
        1
176
     0
 40
0.0
176
     0
 90
        0
176
     0
290
     0
176
     0
290
     1
176
     0
290
     1
176
     0
290
     0
176
     0
290
     0
176
     0
290
     0
176
     0
290
     0
176
     0
290
     0
176
     0
290
     0
176
     0
 90
       50
176
     0
 40
0.0
176
     0
 40
1.0
176
     0
 90
        0
176
     0
 62
    18
420
        0
176
     0
 90
       50
176
     0
 90
        3
176
     0
 62
     5
420
      255
176
     0
290
     0
176
     0
 90
       50
176
     0
 90
       50
176
     0
 90
       50
176
     0
290
     0
176
     0
 90
       50
176
     0
 62
   256
176
     0
 40
1.0
176
     0
 90
        2
176
     0
  1
strokes_ogs.tif
176
     0
290
     0
176
     0
 40
1.0
176
     0
 40
1.0
176
     0
  0
VISUALSTYLE
  5
33
102
{ACAD_REACTORS
330
29
102
}
330
29
100
AcDbVisualStyle
  2
Realistic
 70
     8
177
     3
291
     0
 70
    58
 90
        2
176
     1
 90
        3
176
     1
 90
        0
176
     1
 90
        2
176
     1
 40
0.6
176
     1
 40
30.0
176
     1
 62
     7
420
 16777215
176
     1
 90
        0
176
     1
 90
        0
176
     1
 62
     7
176
     1
 62
   257
176
     1
 90
        1
176
     1
 90
        1
176
     1
 40
1.0
176
     1
 90
        8
176
     1
 62
   257
176
     1
 40
1.0
176
     1
 90
        1
176
     1
 90
        6
176
     1
 90
        2
176
     1
 62
     7
176
     1
 90
        3
176
     1
 90
        0
176
     1
 90
        0
176
     1
290
     0
176
     1
 90
       13
176
     1
 40
0.0
176
     1
 90
        0
176
     1
290
     0
176
     1
290
     1
176
     1
290
     1
176
     1
290
     0
176
     1
290
     0
176
     1
290
     0
176
     1
290
     0
176
     1
290
     0
176
     1
290
     0
176
     1
 90
       50
176
     1
 40
0.0
176
     1
 40
1.0
176
     1
 90
        0
176
     1
 62
    18
420
        0
176
     1
 90
       50
176
     1
 90
        3
176
     1
 62
     5
420
      255
176
     1
290
     0
176
     1
 90
       50
176
     1
 90
       50
176
     1
 90
       50
176
     1
290
     0
176
     1
 90
       50
176
     1
 62
   256
176
     0
 40
1.0
176
     0
 90
        2
176
     1
  1
strokes_ogs.tif
176
     1
290
     0
176
     1
 40
1.0
176
     1
 40
1.0
176
     1
  0
VISUALSTYLE
  5
3E
102
{ACAD_REACTORS
330
29
102
}
330
29
100
AcDbVisualStyle
  2
Shaded
 70
    27
177
     3
291
     0
 70
    58
 90
        2
176
     1
 90
        2
176
     1
 90
        1
176
     1
 90
        2
176
     1
 40
0.6
176
     1
 40
30.0
176
     1
 62
     7
420
 16777215
176
     1
 90
        0
176
     1
 90
        4
176
     1
 62
     7
176
     1
 62
   257
176
     1
 90
        1
176
     1
 90
        1
176
     1
 40
1.0
176
     1
 90
        8
176
     1
 62
   257
176
     1
 40
1.0
176
     1
 90
        1
176
     1
 90
        6
176
     1
 90
        2
176
     1
 62
     8
420
  7895160
176
     1
 90
        3
176
     1
 90
        0
176
     1
 90
        0
176
     1
290
     0
176
     1
 90
        5
176
     1
 40
0.0
176
     1
 90
        0
176
     1
290
     0
176
     1
290
     1
176
     1
290
     1
176
     1
290
     0
176
     1
290
     0
176
     1
290
     0
176
     1
290
     0
176
     1
290
     0
176
     1
290
     0
176
     1
 90
       50
176
     1
 40
0.0
176
     1
 40
1.0
176
     1
 90
        0
176
     1
 62
    18
420
        0
176
     1
 90
       50
176
     1
 90
        3
176
     1
 62
     5
420
      255
176
     1
290
     0
176
     1
 90
       50
176
     1
 90
       50
176
     1
 90
       50
176
     1
290
     0
176
     1
 90
       50
176
     1
 62
   256
176
     0
 40
1.0
176
     0
 90
        2
176
     1
  1
strokes_ogs.tif
176
     1
290
     0
176
     1
 40
1.0
176
     1
 40
1.0
176
     1
  0
VISUALSTYLE
  5
3D
102
{ACAD_REACTORS
330
29
102
}
330
29
100
AcDbVisualStyle
  2
Shaded with edges
 70
    26
177
     3
291
     0
 70
    58
 90
        2
176
     1
 90
        2
176
     1
 90
        1
176
     1
 90
        2
176
     1
 40
0.6
176
     1
 40
30.0
176
     1
 62
     7
420
 16777215
176
     1
 90
        1
176
     1
 90
        2
176
     1
 62
     7
176
     1
 62
   257
176
     1
 90
        2
176
     1
 90
        1
176
     1
 40
1.0
176
     1
 90
        8
176
     1
 62
   257
176
     1
 40
1.0
176
     1
 90
        1
176
     1
 90
        6
176
     1
 90
        2
176
     1
 62
     7
176
     1
 90
        3
176
     1
 90
        0
176
     1
 90
        0
176
     1
290
     0
176
     1
 90
        5
176
     1
 40
0.0
176
     1
 90
        0
176
     1
290
     0
176
     1
290
     1
176
     1
290
     1
176
     1
290
     0
176
     1
290
     0
176
     1
290
     0
176
     1
290
     0
176
     1
290
     0
176
     1
290
     0
176
     1
 90
       50
176
     1
 40
0.0
176
     1
 40
1.0
176
     1
 90
        0
176
     1
 62
    18
420
        0
176
     1
 90
       50
176
     1
 90
        3
176
     1
 62
     5
420
      255
176
     1
290
     0
176
     1
 90
       50
176
     1
 90
       50
176
     1
 90
       50
176
     1
290
     0
176
     1
 90
       50
176
     1
 62
   256
176
     0
 40
1.0
176
     0
 90
        2
176
     1
  1
strokes_ogs.tif
176
     1
290
     0
176
     1
 40
1.0
176
     1
 40
1.0
176
     1
  0
VISUALSTYLE
  5
3A
102
{ACAD_REACTORS
330
29
102
}
330
29
100
AcDbVisualStyle
  2
Shades of Gray
 70
    23
177
     3
291
     0
 70
    58
 90
        2
176
     1
 90
        2
176
     1
 90
        3
176
     1
 90
        0
176
     1
 40
0.6
176
     1
 40
30.0
176
     1
 62
     7
420
 16777215
176
     1
 90
        2
176
     1
 90
        2
176
     1
 62
     7
176
     1
 62
     7
176
     1
 90
        1
176
     1
 90
        1
176
     1
 40
40.0
176
     1
 90
        8
176
     1
 62
     7
176
     1
 40
1.0
176
     1
 90
        1
176
     1
 90
        6
176
     1
 90
        2
176
     1
 62
     7
176
     1
 90
        3
176
     1
 90
        0
176
     1
 90
        0
176
     1
290
     0
176
     1
 90
        1
176
     1
 40
0.0
176
     1
 90
        0
176
     1
290
     0
176
     1
290
     1
176
     1
290
     1
176
     1
290
     0
176
     1
290
     0
176
     1
290
     0
176
     1
290
     0
176
     1
290
     0
176
     1
290
     0
176
     1
 90
       50
176
     1
 40
0.0
176
     1
 40
1.0
176
     1
 90
        0
176
     1
 62
    18
420
        0
176
     1
 90
       50
176
     1
 90
        3
176
     1
 62
     5
420
      255
176
     1
290
     0
176
     1
 90
       50
176
     1
 90
       50
176
     1
 90
       50
176
     1
290
     0
176
     1
 90
       50
176
     1
 62
   256
176
     0
 40
1.0
176
     0
 90
        2
176
     1
  1
strokes_ogs.tif
176
     1
290
     0
176
     1
 40
1.0
176
     1
 40
1.0
176
     1
  0
VISUALSTYLE
  5
3B
102
{ACAD_REACTORS
330
29
102
}
330
29
100
AcDbVisualStyle
  2
Sketchy
 70
    24
177
     3
291
     0
 70
    58
 90
        1
176
     1
 90
        2
176
     1
 90
        2
176
     1
 90
        0
176
     1
 40
0.6
176
     1
 40
30.0
176
     1
 62
     7
420
 16777215
176
     1
 90
        2
176
     1
 90
        2
176
     1
 62
     7
176
     1
 62
     7
176
     1
 90
        1
176
     1
 90
        1
176
     1
 40
40.0
176
     1
 90
       11
176
     1
 62
     7
176
     1
 40
1.0
176
     1
 90
        1
176
     1
 90
        6
176
     1
 90
        2
176
     1
 62
     7
176
     1
 90
        6
176
     1
 90
        0
176
     1
 90
        0
176
     1
290
     0
176
     1
 90
        1
176
     1
 40
0.0
176
     1
 90
        0
176
     1
290
     0
176
     1
290
     1
176
     1
290
     1
176
     1
290
     0
176
     1
290
     0
176
     1
290
     0
176
     1
290
     0
176
     1
290
     0
176
     1
290
     0
176
     1
 90
       50
176
     1
 40
0.0
176
     1
 40
1.0
176
     1
 90
        0
176
     1
 62
    18
420
        0
176
     1
 90
       50
176
     1
 90
        3
176
     1
 62
     5
420
      255
176
     1
290
     0
176
     1
 90
       50
176
     1
 90
       50
176
     1
 90
       50
176
     1
290
     0
176
     1
 90
       50
176
     1
 62
   256
176
     0
 40
1.0
176
     0
 90
        2
176
     1
  1
strokes_ogs.tif
176
     1
290
     0
176
     1
 40
1.0
176
     1
 40
1.0
176
     1
  0
VISUALSTYLE
  5
36
102
{ACAD_REACTORS
330
29
102
}
330
29
100
AcDbVisualStyle
  2
Thicken
 70
    13
177
     3
291
     1
 70
    58
 90
        2
176
     1
 90
        2
176
     1
 90
        0
176
     1
 90
        0
176
     1
 40
0.6
176
     1
 40
30.0
176
     1
 62
     7
420
 16777215
176
     1
 90
        1
176
     1
 90
        4
176
     1
 62
     7
176
     1
 62
   257
176
     1
 90
        1
176
     1
 90
        1
176
     1
 40
1.0
176
     1
 90
       12
176
     1
 62
     7
176
     1
 40
1.0
176
     1
 90
        1
176
     1
 90
        6
176
     1
 90
        2
176
     1
 62
     7
176
     1
 90
        5
176
     1
 90
        0
176
     1
 90
        0
176
     1
290
     0
176
     1
 90
        1
176
     1
 40
0.0
176
     1
 90
        0
176
     1
290
     0
176
     1
290
     1
176
     1
290
     1
176
     1
290
     0
176
     1
290
     0
176
     1
290
     0
176
     1
290
     0
176
     1
290
     0
176
     1
290
     0
176
     1
 90
       50
176
     1
 40
0.0
176
     1
 40
1.0
176
     1
 90
        0
176
     1
 62
    18
420
        0
176
     1
 90
       50
176
     1
 90
        3
176
     1
 62
     5
420
      255
176
     1
290
     0
176
     1
 90
       50
176
     1
 90
       50
176
     1
 90
       50
176
     1
290
     0
176
     1
 90
       50
176
     1
 62
   256
176
     0
 40
1.0
176
     0
 90
        2
176
     1
  1
strokes_ogs.tif
176
     1
290
     0
176
     1
 40
1.0
176
     1
 40
1.0
176
     1
  0
VISUALSTYLE
  5
30
102
{ACAD_REACTORS
330
29
102
}
330
29
100
AcDbVisualStyle
  2
Wireframe
 70
     5
177
     3
291
     0
 70
    58
 90
        0
176
     1
 90
        2
176
     1
 90
        0
176
     1
 90
        0
176
     1
 40
0.6
176
     1
 40
30.0
176
     1
 62
     7
420
 16777215
176
     1
 90
        1
176
     1
 90
        4
176
     1
 62
     7
176
     1
 62
   257
176
     1
 90
        1
176
     1
 90
        1
176
     1
 40
1.0
176
     1
 90
        0
176
     1
 62
   257
176
     1
 40
1.0
176
     1
 90
        1
176
     1
 90
        6
176
     1
 90
        2
176
     1
 62
     7
176
     1
 90
        3
176
     1
 90
        0
176
     1
 90
        0
176
     1
290
     0
176
     1
 90
        1
176
     1
 40
0.0
176
     1
 90
        0
176
     1
290
     0
176
     1
290
     1
176
     1
290
     1
176
     1
290
     0
176
     1
290
     0
176
     1
290
     0
176
     1
290
     0
176
     1
290
     0
176
     1
290
     0
176
     1
 90
       50
176
     1
 40
0.0
176
     1
 40
1.0
176
     1
 90
        0
176
     1
 62
    18
420
        0
176
     1
 90
       50
176
     1
 90
        3
176
     1
 62
     5
420
      255
176
     1
290
     0
176
     1
 90
       50
176
     1
 90
       50
176
     1
 90
       50
176
     1
290
     0
176
     1
 90
       50
176
     1
 62
   256
176
     0
 40
1.0
176
     0
 90
        2
176
     1
  1
strokes_ogs.tif
176
     1
290
     0
176
     1
 40
1.0
176
     1
 40
1.0
176
     1
  0
VISUALSTYLE
  5
3C
102
{ACAD_REACTORS
330
29
102
}
330
29
100
AcDbVisualStyle
  2
X-Ray
 70
    25
177
     3
291
     0
 70
    58
 90
        2
176
     1
 90
        2
176
     1
 90
        1
176
     1
 90
        1
176
     1
 40
0.5
176
     1
 40
30.0
176
     1
 62
     7
420
 16777215
176
     1
 90
        1
176
     1
 90
        0
176
     1
 62
     7
176
     1
 62
   257
176
     1
 90
        1
176
     1
 90
        1
176
     1
 40
1.0
176
     1
 90
        8
176
     1
 62
     7
176
     1
 40
1.0
176
     1
 90
        1
176
     1
 90
        6
176
     1
 90
        2
176
     1
 62
     7
176
     1
 90
        3
176
     1
 90
        0
176
     1
 90
        0
176
     1
290
     0
176
     1
 90
       13
176
     1
 40
0.0
176
     1
 90
        0
176
     1
290
     0
176
     1
290
     1
176
     1
290
     1
176
     1
290
     0
176
     1
290
     0
176
     1
290
     0
176
     1
290
     0
176
     1
290
     0
176
     1
290
     0
176
     1
 90
       50
176
     1
 40
0.0
176
     1
 40
1.0
176
     1
 90
        0
176
     1
 62
    18
420
        0
176
     1
 90
       50
176
     1
 90
        3
176
     1
 62
     5
420
      255
176
     1
290
     0
176
     1
 90
       50
176
     1
 90
       50
176
     1
 90
       50
176
     1
290
     0
176
     1
 90
       50
176
     1
 62
   256
176
     0
 40
1.0
176
     0
 90
        2
176
     1
  1
strokes_ogs.tif
176
     1
290
     0
176
     1
 40
1.0
176
     1
 40
1.0
176
     1
  0
DICTIONARYVAR
  5
272
102
{ACAD_REACTORS
330
26D
102
}
330
26D
100
DictionaryVariables
280
     0
  1
1:1
  0
DICTIONARYVAR
  5
26F
102
{ACAD_REACTORS
330
26D
102
}
330
26D
100
DictionaryVariables
280
     0
  1
STANDARD
  0
DICTIONARYVAR
  5
26E
102
{ACAD_REACTORS
330
26D
102
}
330
26D
100
DictionaryVariables
280
     0
  1
STANDARD
  0
DICTIONARYVAR
  5
270
102
{ACAD_REACTORS
330
26D
102
}
330
26D
100
DictionaryVariables
280
     0
  1
Imperial24
  0
DICTIONARYVAR
  5
271
102
{ACAD_REACTORS
330
26D
102
}
330
26D
100
DictionaryVariables
280
     0
  1
Imperial24
  0
DICTIONARY
  5
1A
330
19
100
AcDbDictionary
280
     1
281
     1
  3
BUMPTILE
360
1C
  3
DIFFUSETILE
360
1B
  3
OPACITYTILE
360
1F
  3
REFLECTIONTILE
360
1E
  3
REFRACTIONTILE
360
20
  3
SPECULARTILE
360
1D
  0
DICTIONARY
  5
12
330
11
100
AcDbDictionary
280
     1
281
     1
  3
BUMPTILE
360
14
  3
DIFFUSETILE
360
13
  3
OPACITYTILE
360
17
  3
REFLECTIONTILE
360
16
  3
REFRACTIONTILE
360
18
  3
SPECULARTILE
360
15
  0
DICTIONARY
  5
22
330
21
100
AcDbDictionary
280
     1
281
     1
  3
BUMPTILE
360
24
  3
DIFFUSETILE
360
23
  3
OPACITYTILE
360
27
  3
REFLECTIONTILE
360
26
  3
REFRACTIONTILE
360
28
  3
SPECULARTILE
360
25
  0
DICTIONARY
  5
273
330
65
100
AcDbDictionary
280
     1
281
     1
  3
ACAD_ROUNDTRIP_2008_TABLESTYLE_CELLSTYLEMAP
360
274
  0
XRECORD
  5
1C
102
{ACAD_REACTORS
330
1A
102
}
330
1A
100
AcDbXrecord
280
     1
270
     1
271
     1
  0
XRECORD
  5
1B
102
{ACAD_REACTORS
330
1A
102
}
330
1A
100
AcDbXrecord
280
     1
270
     1
271
     1
  0
XRECORD
  5
1F
102
{ACAD_REACTORS
330
1A
102
}
330
1A
100
AcDbXrecord
280
     1
270
     1
271
     1
  0
XRECORD
  5
1E
102
{ACAD_REACTORS
330
1A
102
}
330
1A
100
AcDbXrecord
280
     1
270
     1
271
     1
  0
XRECORD
  5
20
102
{ACAD_REACTORS
330
1A
102
}
330
1A
100
AcDbXrecord
280
     1
270
     1
271
     1
  0
XRECORD
  5
1D
102
{ACAD_REACTORS
330
1A
102
}
330
1A
100
AcDbXrecord
280
     1
270
     1
271
     1
  0
XRECORD
  5
14
102
{ACAD_REACTORS
330
12
102
}
330
12
100
AcDbXrecord
280
     1
270
     1
271
     1
  0
XRECORD
  5
13
102
{ACAD_REACTORS
330
12
102
}
330
12
100
AcDbXrecord
280
     1
270
     1
271
     1
  0
XRECORD
  5
17
102
{ACAD_REACTORS
330
12
102
}
330
12
100
AcDbXrecord
280
     1
270
     1
271
     1
  0
XRECORD
  5
16
102
{ACAD_REACTORS
330
12
102
}
330
12
100
AcDbXrecord
280
     1
270
     1
271
     1
  0
XRECORD
  5
18
102
{ACAD_REACTORS
330
12
102
}
330
12
100
AcDbXrecord
280
     1
270
     1
271
     1
  0
XRECORD
  5
15
102
{ACAD_REACTORS
330
12
102
}
330
12
100
AcDbXrecord
280
     1
270
     1
271
     1
  0
XRECORD
  5
24
102
{ACAD_REACTORS
330
22
102
}
330
22
100
AcDbXrecord
280
     1
270
     1
271
     1
  0
XRECORD
  5
23
102
{ACAD_REACTORS
330
22
102
}
330
22
100
AcDbXrecord
280
     1
270
     1
271
     1
  0
XRECORD
  5
27
102
{ACAD_REACTORS
330
22
102
}
330
22
100
AcDbXrecord
280
     1
270
     1
271
     1
  0
XRECORD
  5
26
102
{ACAD_REACTORS
330
22
102
}
330
22
100
AcDbXrecord
280
     1
270
     1
271
     1
  0
XRECORD
  5
28
102
{ACAD_REACTORS
330
22
102
}
330
22
100
AcDbXrecord
280
     1
270
     1
271
     1
  0
XRECORD
  5
25
102
{ACAD_REACTORS
330
22
102
}
330
22
100
AcDbXrecord
280
     1
270
     1
271
     1
  0
CELLSTYLEMAP
  5
274
102
{ACAD_REACTORS
330
273
102
}
330
273
100
AcDbCellStyleMap
 90
        3
300
CELLSTYLE
  1
TABLEFORMAT_BEGIN
 90
        5
170
     1
 91
        0
 92
    32768
 62
   257
 93
        1
300
CONTENTFORMAT
  1
CONTENTFORMAT_BEGIN
 90
        0
 91
        0
 92
      512
 93
        0
300

 40
0.0
140
1.0
 94
        5
 62
     0
340
55
144
0.25
309
CONTENTFORMAT_END
171
     0
 94
        0
309
TABLEFORMAT_END
  1
CELLSTYLE_BEGIN
 90
        1
 91
        1
300
_TITLE
309
CELLSTYLE_END
300
CELLSTYLE
  1
TABLEFORMAT_BEGIN
 90
        5
170
     1
 91
        0
 92
        0
 62
   257
 93
        1
300
CONTENTFORMAT
  1
CONTENTFORMAT_BEGIN
 90
        0
 91
        0
 92
      512
 93
        0
300

 40
0.0
140
1.0
 94
        5
 62
     0
340
55
144
0.18
309
CONTENTFORMAT_END
171
     0
 94
        0
309
TABLEFORMAT_END
  1
CELLSTYLE_BEGIN
 90
        2
 91
        1
300
_HEADER
309
CELLSTYLE_END
300
CELLSTYLE
  1
TABLEFORMAT_BEGIN
 90
        5
170
     1
 91
        0
 92
        0
 62
   257
 93
        1
300
CONTENTFORMAT
  1
CONTENTFORMAT_BEGIN
 90
        0
 91
        0
 92
      512
 93
        0
300

 40
0.0
140
1.0
 94
        2
 62
     0
340
55
144
0.18
309
CONTENTFORMAT_END
171
     0
 94
        0
309
TABLEFORMAT_END
  1
CELLSTYLE_BEGIN
 90
        3
 91
        2
300
_DATA
309
CELLSTYLE_END
  0
ENDSEC
  0
EOF
