  0
SECTION
  2
HEADER
  9
$ACADVER
  1
AC1032
  9
$ACADMAINTVER
 90
      228
  9
$DWGCODEPAGE
  3
ANSI_1252
  9
$REQUIREDVERSIONS
160
                 0
  9
$INSBASE
 10
0.0
 20
0.0
 30
0.0
  9
$EXTMIN
 10
1.000000000000000E+20
 20
1.000000000000000E+20
 30
1.000000000000000E+20
  9
$EXTMAX
 10
-1.000000000000000E+20
 20
-1.000000000000000E+20
 30
-1.000000000000000E+20
  9
$LIMMIN
 10
0.0
 20
0.0
  9
$LIMMAX
 10
12.0
 20
9.0
  9
$ORTHOMODE
 70
     0
  9
$REGENMODE
 70
     1
  9
$FILLMODE
 70
     1
  9
$QTEXTMODE
 70
     0
  9
$MIRRTEXT
 70
     0
  9
$LTSCALE
 40
1.0
  9
$ATTMODE
 70
     1
  9
$TEXTSIZE
 40
0.2
  9
$TRACEWID
 40
0.05
  9
$TEXTSTYLE
  7
Standard
  9
$CLAYER
  8
0
  9
$CELTYPE
  6
ByLayer
  9
$CECOLOR
 62
   256
  9
$CELTSCALE
 40
1.0
  9
$DISPSILH
 70
     0
  9
$DIMSCALE
 40
1.0
  9
$DIMASZ
 40
0.18
  9
$DIMEXO
 40
0.0625
  9
$DIMDLI
 40
0.38
  9
$DIMRND
 40
0.0
  9
$DIMDLE
 40
0.0
  9
$DIMEXE
 40
0.18
  9
$DIMTP
 40
0.0
  9
$DIMTM
 40
0.0
  9
$DIMTXT
 40
0.18
  9
$DIMCEN
 40
0.09
  9
$DIMTSZ
 40
0.0
  9
$DIMTOL
 70
     0
  9
$DIMLIM
 70
     0
  9
$DIMTIH
 70
     1
  9
$DIMTOH
 70
     1
  9
$DIMSE1
 70
     0
  9
$DIMSE2
 70
     0
  9
$DIMTAD
 70
     0
  9
$DIMZIN
 70
     0
  9
$DIMBLK
  1

  9
$DIMASO
 70
     1
  9
$DIMSHO
 70
     1
  9
$DIMPOST
  1

  9
$DIMAPOST
  1

  9
$DIMALT
 70
     0
  9
$DIMALTD
 70
     2
  9
$DIMALTF
 40
25.4
  9
$DIMLFAC
 40
1.0
  9
$DIMTOFL
 70
     0
  9
$DIMTVP
 40
0.0
  9
$DIMTIX
 70
     0
  9
$DIMSOXD
 70
     0
  9
$DIMSAH
 70
     0
  9
$DIMBLK1
  1

  9
$DIMBLK2
  1

  9
$DIMSTYLE
  2
Standard
  9
$DIMCLRD
 70
     0
  9
$DIMCLRE
 70
     0
  9
$DIMCLRT
 70
     0
  9
$DIMTFAC
 40
1.0
  9
$DIMGAP
 40
0.09
  9
$DIMJUST
 70
     0
  9
$DIMSD1
 70
     0
  9
$DIMSD2
 70
     0
  9
$DIMTOLJ
 70
     1
  9
$DIMTZIN
 70
     0
  9
$DIMALTZ
 70
     0
  9
$DIMALTTZ
 70
     0
  9
$DIMUPT
 70
     0
  9
$DIMDEC
 70
     4
  9
$DIMTDEC
 70
     4
  9
$DIMALTU
 70
     2
  9
$DIMALTTD
 70
     2
  9
$DIMTXSTY
  7
Standard
  9
$DIMAUNIT
 70
     0
  9
$DIMADEC
 70
     0
  9
$DIMALTRND
 40
0.0
  9
$DIMAZIN
 70
     0
  9
$DIMDSEP
 70
    46
  9
$DIMATFIT
 70
     3
  9
$DIMFRAC
 70
     0
  9
$DIMLDRBLK
  1

  9
$DIMLUNIT
 70
     2
  9
$DIMLWD
 70
    -2
  9
$DIMLWE
 70
    -2
  9
$DIMTMOVE
 70
     0
  9
$DIMFXL
 40
1.0
  9
$DIMFXLON
 70
     0
  9
$DIMJOGANG
 40
0.7853981633974483
  9
$DIMTFILL
 70
     0
  9
$DIMTFILLCLR
 70
     0
  9
$DIMARCSYM
 70
     0
  9
$DIMLTYPE
  6

  9
$DIMLTEX1
  6

  9
$DIMLTEX2
  6

  9
$DIMTXTDIRECTION
 70
     0
  9
$LUNITS
 70
     2
  9
$LUPREC
 70
     4
  9
$SKETCHINC
 40
0.1
  9
$FILLETRAD
 40
0.0
  9
$AUNITS
 70
     0
  9
$AUPREC
 70
     0
  9
$MENU
  1
.
  9
$ELEVATION
 40
0.0
  9
$PELEVATION
 40
0.0
  9
$THICKNESS
 40
0.0
  9
$LIMCHECK
 70
     0
  9
$CHAMFERA
 40
0.0
  9
$CHAMFERB
 40
0.0
  9
$CHAMFERC
 40
0.0
  9
$CHAMFERD
 40
0.0
  9
$SKPOLY
 70
     0
  9
$TDCREATE
 40
2460185.532256945
  9
$TDUCREATE
 40
2460185.490590278
  9
$TDUPDATE
 40
2460185.532256945
  9
$TDUUPDATE
 40
2460185.490590278
  9
$TDINDWG
 40
0.0000000000
  9
$TDUSRTIMER
 40
0.0000000000
  9
$USRTIMER
 70
     1
  9
$ANGBASE
 50
0.0
  9
$ANGDIR
 70
     0
  9
$PDMODE
 70
     0
  9
$PDSIZE
 40
0.0
  9
$PLINEWID
 40
0.0
  9
$SPLFRAME
 70
     0
  9
$SPLINETYPE
 70
     6
  9
$SPLINESEGS
 70
     8
  9
$HANDSEED
  5
39B
  9
$SURFTAB1
 70
     6
  9
$SURFTAB2
 70
     6
  9
$SURFTYPE
 70
     6
  9
$SURFU
 70
     6
  9
$SURFV
 70
     6
  9
$UCSBASE
  2

  9
$UCSNAME
  2

  9
$UCSORG
 10
0.0
 20
0.0
 30
0.0
  9
$UCSXDIR
 10
1.0
 20
0.0
 30
0.0
  9
$UCSYDIR
 10
0.0
 20
1.0
 30
0.0
  9
$UCSORTHOREF
  2

  9
$UCSORTHOVIEW
 70
     0
  9
$UCSORGTOP
 10
0.0
 20
0.0
 30
0.0
  9
$UCSORGBOTTOM
 10
0.0
 20
0.0
 30
0.0
  9
$UCSORGLEFT
 10
0.0
 20
0.0
 30
0.0
  9
$UCSORGRIGHT
 10
0.0
 20
0.0
 30
0.0
  9
$UCSORGFRONT
 10
0.0
 20
0.0
 30
0.0
  9
$UCSORGBACK
 10
0.0
 20
0.0
 30
0.0
  9
$PUCSBASE
  2

  9
$PUCSNAME
  2

  9
$PUCSORG
 10
0.0
 20
0.0
 30
0.0
  9
$PUCSXDIR
 10
1.0
 20
0.0
 30
0.0
  9
$PUCSYDIR
 10
0.0
 20
1.0
 30
0.0
  9
$PUCSORTHOREF
  2

  9
$PUCSORTHOVIEW
 70
     0
  9
$PUCSORGTOP
 10
0.0
 20
0.0
 30
0.0
  9
$PUCSORGBOTTOM
 10
0.0
 20
0.0
 30
0.0
  9
$PUCSORGLEFT
 10
0.0
 20
0.0
 30
0.0
  9
$PUCSORGRIGHT
 10
0.0
 20
0.0
 30
0.0
  9
$PUCSORGFRONT
 10
0.0
 20
0.0
 30
0.0
  9
$PUCSORGBACK
 10
0.0
 20
0.0
 30
0.0
  9
$USERI1
 70
     0
  9
$USERI2
 70
     0
  9
$USERI3
 70
     0
  9
$USERI4
 70
     0
  9
$USERI5
 70
     0
  9
$USERR1
 40
0.0
  9
$USERR2
 40
0.0
  9
$USERR3
 40
0.0
  9
$USERR4
 40
0.0
  9
$USERR5
 40
0.0
  9
$WORLDVIEW
 70
     1
  9
$SHADEDGE
 70
     3
  9
$SHADEDIF
 70
    70
  9
$TILEMODE
 70
     1
  9
$MAXACTVP
 70
    64
  9
$PINSBASE
 10
0.0
 20
0.0
 30
0.0
  9
$PLIMCHECK
 70
     0
  9
$PEXTMIN
 10
1.000000000000000E+20
 20
1.000000000000000E+20
 30
1.000000000000000E+20
  9
$PEXTMAX
 10
-1.000000000000000E+20
 20
-1.000000000000000E+20
 30
-1.000000000000000E+20
  9
$PLIMMIN
 10
0.0
 20
0.0
  9
$PLIMMAX
 10
12.0
 20
9.0
  9
$UNITMODE
 70
     0
  9
$VISRETAIN
 70
     1
  9
$PLINEGEN
 70
     0
  9
$PSLTSCALE
 70
     1
  9
$TREEDEPTH
 70
  3020
  9
$CMLSTYLE
  2
Standard
  9
$CMLJUST
 70
     0
  9
$CMLSCALE
 40
1.0
  9
$PROXYGRAPHICS
 70
     1
  9
$MEASUREMENT
 70
     0
  9
$CELWEIGHT
370
    -1
  9
$ENDCAPS
280
     0
  9
$JOINSTYLE
280
     0
  9
$LWDISPLAY
290
     1
  9
$INSUNITS
 70
     4
  9
$HYPERLINKBASE
  1

  9
$STYLESHEET
  1

  9
$XEDIT
290
     1
  9
$CEPSNTYPE
380
     0
  9
$PSTYLEMODE
290
     1
  9
$FINGERPRINTGUID
  2
{84903A28-5783-FE4F-A4D6-A47DC511B737}
  9
$VERSIONGUID
  2
{18AE8339-4B0D-974E-8586-CFFA5CCC33B4}
  9
$EXTNAMES
290
     1
  9
$PSVPSCALE
 40
0.0
  9
$OLESTARTUP
290
     0
  9
$SORTENTS
280
   127
  9
$INDEXCTL
280
     0
  9
$HIDETEXT
280
     1
  9
$XCLIPFRAME
280
     2
  9
$HALOGAP
280
     0
  9
$OBSCOLOR
 70
   257
  9
$OBSLTYPE
280
     0
  9
$INTERSECTIONDISPLAY
280
     0
  9
$INTERSECTIONCOLOR
 70
   257
  9
$DIMASSOC
280
     2
  9
$PROJECTNAME
  1

  9
$CAMERADISPLAY
290
     0
  9
$LENSLENGTH
 40
50.0
  9
$CAMERAHEIGHT
 40
0.0
  9
$STEPSPERSEC
 40
2.0
  9
$STEPSIZE
 40
6.0
  9
$3DDWFPREC
 40
2.0
  9
$PSOLWIDTH
 40
0.25
  9
$PSOLHEIGHT
 40
4.0
  9
$LOFTANG1
 40
1.570796326794896
  9
$LOFTANG2
 40
1.570796326794896
  9
$LOFTMAG1
 40
0.0
  9
$LOFTMAG2
 40
0.0
  9
$LOFTPARAM
 70
     7
  9
$LOFTNORMALS
280
     1
  9
$LATITUDE
 40
37.795
  9
$LONGITUDE
 40
-122.394
  9
$NORTHDIRECTION
 40
0.0
  9
$TIMEZONE
 70
 -8000
  9
$LIGHTGLYPHDISPLAY
280
     1
  9
$TILEMODELIGHTSYNCH
280
     1
  9
$CMATERIAL
347
11
  9
$SOLIDHIST
280
     0
  9
$SHOWHIST
280
     1
  9
$DWFFRAME
280
     2
  9
$DGNFRAME
280
     0
  9
$REALWORLDSCALE
290
     1
  9
$INTERFERECOLOR
 62
     1
  9
$INTERFEREOBJVS
345
33
  9
$INTERFEREVPVS
346
30
  9
$CSHADOW
280
     0
  9
$SHADOWPLANELOCATION
 40
0.0
  0
ENDSEC
  0
SECTION
  2
CLASSES
  0
CLASS
  1
ACDBDICTIONARYWDFLT
  2
AcDbDictionaryWithDefault
  3
ObjectDBX Classes
 90
        0
 91
        1
280
     0
281
     0
  0
CLASS
  1
MATERIAL
  2
AcDbMaterial
  3
ObjectDBX Classes
 90
     1153
 91
        3
280
     0
281
     0
  0
CLASS
  1
VISUALSTYLE
  2
AcDbVisualStyle
  3
ObjectDBX Classes
 90
     4095
 91
       24
280
     0
281
     0
  0
CLASS
  1
SCALE
  2
AcDbScale
  3
ObjectDBX Classes
 90
     1153
 91
       17
280
     0
281
     0
  0
CLASS
  1
TABLESTYLE
  2
AcDbTableStyle
  3
ObjectDBX Classes
 90
     4095
 91
        1
280
     0
281
     0
  0
CLASS
  1
MLEADERSTYLE
  2
AcDbMLeaderStyle
  3
ACDB_MLEADERSTYLE_CLASS
 90
     4095
 91
        1
280
     0
281
     0
  0
CLASS
  1
ACDBSECTIONVIEWSTYLE
  2
AcDbSectionViewStyle
  3
ObjectDBX Classes
 90
     1025
 91
        1
280
     0
281
     0
  0
CLASS
  1
ACDBDETAILVIEWSTYLE
  2
AcDbDetailViewStyle
  3
ObjectDBX Classes
 90
     1025
 91
        1
280
     0
281
     0
  0
CLASS
  1
DICTIONARYVAR
  2
AcDbDictionaryVar
  3
ObjectDBX Classes
 90
        0
 91
        5
280
     0
281
     0
  0
CLASS
  1
CELLSTYLEMAP
  2
AcDbCellStyleMap
  3
ObjectDBX Classes
 90
     1152
 91
        1
280
     0
281
     0
  0
ENDSEC
  0
SECTION
  2
TABLES
  0
TABLE
  2
VPORT
  5
8
330
0
100
AcDbSymbolTable
 70
     1
  0
VPORT
  5
57
330
8
100
AcDbSymbolTableRecord
100
AcDbViewportTableRecord
  2
*Active
 70
     0
 10
0.0
 20
0.0
 11
1.0
 21
1.0
 12
0.0
 22
0.0
 13
0.0
 23
0.0
 14
1.0
 24
1.0
 15
0.0
 25
0.0
 16
0.0
 26
0.0
 36
1.0
 17
49.99999998749409
 27
-49.99999998749409
 37
0.0
 40
101.9999999744879
 41
1.0
 42
50.0
 43
0.0
 44
0.0
 50
0.0
 51
0.0
 71
     0
 72
   100
 73
     1
 74
     1
 75
     0
 76
     0
 77
     0
 78
     0
281
     0
 65
     1
110
0.0
120
0.0
130
0.0
111
1.0
121
0.0
131
0.0
112
0.0
122
1.0
132
0.0
 79
     0
146
0.0
 60
     3
 61
     5
292
     1
282
     1
141
0.0
142
0.0
 63
   250
421
  3355443
  0
ENDTAB
  0
TABLE
  2
LTYPE
  5
5
330
0
100
AcDbSymbolTable
 70
     1
  0
LTYPE
  5
5B
330
5
100
AcDbSymbolTableRecord
100
AcDbLinetypeTableRecord
  2
ByBlock
 70
     0
  3

 72
    65
 73
     0
 40
0.0
  0
LTYPE
  5
5C
330
5
100
AcDbSymbolTableRecord
100
AcDbLinetypeTableRecord
  2
ByLayer
 70
     0
  3

 72
    65
 73
     0
 40
0.0
  0
LTYPE
  5
5D
330
5
100
AcDbSymbolTableRecord
100
AcDbLinetypeTableRecord
  2
Continuous
 70
     0
  3
Solid line
 72
    65
 73
     0
 40
0.0
  0
ENDTAB
  0
TABLE
  2
LAYER
  5
2
330
0
100
AcDbSymbolTable
 70
     2
  0
LAYER
  5
54
330
2
100
AcDbSymbolTableRecord
100
AcDbLayerTableRecord
  2
0
 70
     0
 62
     7
  6
Continuous
370
    -3
390
F
347
21
348
0
  0
LAYER
  5
78
330
2
100
AcDbSymbolTableRecord
100
AcDbLayerTableRecord
  2
Camada 1
 70
     0
 62
     7
  6
Continuous
370
     0
390
F
347
21
348
0
  0
ENDTAB
  0
TABLE
  2
STYLE
  5
3
330
0
100
AcDbSymbolTable
 70
     2
  0
STYLE
  5
55
330
3
100
AcDbSymbolTableRecord
100
AcDbTextStyleTableRecord
  2
Standard
 70
     0
 40
0.0
 41
1.0
 50
0.0
 71
     0
 42
0.2
  3
txt
  4

  0
STYLE
  5
5A
330
3
100
AcDbSymbolTableRecord
100
AcDbTextStyleTableRecord
  2
Annotative
 70
     0
 40
0.0
 41
1.0
 50
0.0
 71
     0
 42
0.2
  3
txt
  4

1001
AcadAnnotative
1000
AnnotativeData
1002
{
1070
     1
1070
     1
1002
}
  0
ENDTAB
  0
TABLE
  2
VIEW
  5
6
330
0
100
AcDbSymbolTable
 70
     0
  0
ENDTAB
  0
TABLE
  2
UCS
  5
7
330
0
100
AcDbSymbolTable
 70
     0
  0
ENDTAB
  0
TABLE
  2
APPID
  5
9
330
0
100
AcDbSymbolTable
 70
     2
  0
APPID
  5
56
330
9
100
AcDbSymbolTableRecord
100
AcDbRegAppTableRecord
  2
ACAD
 70
     0
  0
APPID
  5
5E
330
9
100
AcDbSymbolTableRecord
100
AcDbRegAppTableRecord
  2
AcadAnnotative
 70
     0
  0
ENDTAB
  0
TABLE
  2
DIMSTYLE
  5
A
330
0
100
AcDbSymbolTable
 70
     2
100
AcDbDimStyleTable
 71
     0
  0
DIMSTYLE
105
58
330
A
100
AcDbSymbolTableRecord
100
AcDbDimStyleTableRecord
  2
Standard
 70
     0
340
55
  0
DIMSTYLE
105
59
330
A
100
AcDbSymbolTableRecord
100
AcDbDimStyleTableRecord
  2
Annotative
 70
     0
340
55
1001
AcadAnnotative
1000
AnnotativeData
1002
{
1070
     1
1070
     1
1002
}
  0
ENDTAB
  0
TABLE
  2
BLOCK_RECORD
  5
1
330
0
100
AcDbSymbolTable
 70
     2
  0
BLOCK_RECORD
  5
70
330
1
100
AcDbSymbolTableRecord
100
AcDbBlockTableRecord
  2
*Model_Space
340
73
 70
     0
280
     1
281
     0
  0
BLOCK_RECORD
  5
6C
330
1
100
AcDbSymbolTableRecord
100
AcDbBlockTableRecord
  2
*Paper_Space
340
6F
 70
     0
280
     1
281
     0
  0
BLOCK_RECORD
  5
74
330
1
100
AcDbSymbolTableRecord
100
AcDbBlockTableRecord
  2
*Paper_Space0
340
77
 70
     0
280
     1
281
     0
  0
BLOCK_RECORD
  5
79
330
1
100
AcDbSymbolTableRecord
100
AcDbBlockTableRecord
  2
Block_0
340
0
102
{BLKREFS
331
7A
102
}
 70
     0
280
     1
281
     0
  0
ENDTAB
  0
ENDSEC
  0
SECTION
  2
BLOCKS
  0
BLOCK
  5
71
330
70
100
AcDbEntity
  8
0
100
AcDbBlockBegin
  2
*Model_Space
 70
     0
 10
0.0
 20
0.0
 30
0.0
  3
*Model_Space
  1

  0
ENDBLK
  5
72
330
70
100
AcDbEntity
  8
0
100
AcDbBlockEnd
  0
BLOCK
  5
6D
330
6C
100
AcDbEntity
 67
     1
  8
0
100
AcDbBlockBegin
  2
*Paper_Space
 70
     0
 10
0.0
 20
0.0
 30
0.0
  3
*Paper_Space
  1

  0
ENDBLK
  5
6E
330
6C
100
AcDbEntity
 67
     1
  8
0
100
AcDbBlockEnd
  0
BLOCK
  5
75
330
74
100
AcDbEntity
 67
     1
  8
0
100
AcDbBlockBegin
  2
*Paper_Space0
 70
     0
 10
0.0
 20
0.0
 30
0.0
  3
*Paper_Space0
  1

  0
ENDBLK
  5
76
330
74
100
AcDbEntity
 67
     1
  8
0
100
AcDbBlockEnd
  0
BLOCK
  5
7B
330
79
100
AcDbEntity
  8
0
100
AcDbBlockBegin
  2
Block_0
 70
     0
 10
0.0
 20
0.0
 30
0.0
  3
Block_0
  1

  0
LINE
  5
7D
330
79
100
AcDbEntity
  8
Camada 1
 62
   250
420
  1907995
370
    18
100
AcDbLine
 10
56.85837835906069
 20
-49.81858029779965
 30
0.0
 11
56.29985432236614
 21
-49.81858029779965
 31
0.0
  0
LINE
  5
7E
330
79
100
AcDbEntity
  8
Camada 1
 62
   250
420
  1907995
370
    18
100
AcDbLine
 10
56.85837835906069
 20
-49.26005626110574
 30
0.0
 11
56.85837835906069
 21
-49.81858029779965
 31
0.0
  0
LINE
  5
7F
330
79
100
AcDbEntity
  8
Camada 1
 62
   250
420
  1907995
370
    18
100
AcDbLine
 10
56.29985432236614
 20
-49.81858029779965
 30
0.0
 11
56.29985432236614
 21
-49.26005626110574
 31
0.0
  0
LINE
  5
80
330
79
100
AcDbEntity
  8
Camada 1
 62
   250
420
  1907995
370
    18
100
AcDbLine
 10
56.29985432236614
 20
-49.26005626110574
 30
0.0
 11
56.85837835906069
 21
-49.26005626110574
 31
0.0
  0
LWPOLYLINE
  5
81
330
79
100
AcDbEntity
  8
Camada 1
 62
   250
420
  1907995
370
    18
100
AcDbPolyline
 90
        9
 70
     1
 43
0.0
 10
56.61855148430663
 20
-49.57939662568468
 10
56.61855148430663
 20
-49.41940484207567
 10
56.53871639316221
 20
-49.41940484207567
 10
56.53871639316221
 20
-49.49923993322072
 10
56.45952450465625
 20
-49.49923993322072
 10
56.45952450465625
 20
-49.57939662568468
 10
56.53871639316221
 20
-49.57939662568468
 10
56.53871639316221
 20
-49.65923171682973
 10
56.61855148430663
 20
-49.65923171682973
  0
LINE
  5
82
330
79
100
AcDbEntity
  8
Camada 1
 62
   250
420
  1907995
370
    18
100
AcDbLine
 10
59.49133810573563
 20
-49.81858029779965
 30
0.0
 11
58.93281406904172
 21
-49.81858029779965
 31
0.0
  0
LINE
  5
83
330
79
100
AcDbEntity
  8
Camada 1
 62
   250
420
  1907995
370
    18
100
AcDbLine
 10
59.49133810573563
 20
-49.26005626110574
 30
0.0
 11
59.49133810573563
 21
-49.81858029779965
 31
0.0
  0
LINE
  5
84
330
79
100
AcDbEntity
  8
Camada 1
 62
   250
420
  1907995
370
    18
100
AcDbLine
 10
58.93281406904172
 20
-49.81858029779965
 30
0.0
 11
58.93281406904172
 21
-49.26005626110574
 31
0.0
  0
LINE
  5
85
330
79
100
AcDbEntity
  8
Camada 1
 62
   250
420
  1907995
370
    18
100
AcDbLine
 10
58.93281406904172
 20
-49.26005626110574
 30
0.0
 11
59.49133810573563
 21
-49.26005626110574
 31
0.0
  0
LWPOLYLINE
  5
86
330
79
100
AcDbEntity
  8
Camada 1
 62
   250
420
  1907995
370
    18
100
AcDbPolyline
 90
       11
 70
     1
 43
0.0
 10
59.33166792344616
 20
-49.57939662568468
 10
59.25183283230111
 20
-49.49923993322072
 10
59.25183283230111
 20
-49.41940484207567
 10
59.17199774115669
 20
-49.41940484207567
 10
59.17199774115669
 20
-49.49923993322072
 10
59.09248425133119
 20
-49.49923993322072
 10
59.09248425133119
 20
-49.57939662568468
 10
59.17199774115669
 20
-49.57939662568468
 10
59.17199774115669
 20
-49.65923171682973
 10
59.25183283230111
 20
-49.65923171682973
 10
59.25183283230111
 20
-49.57939662568468
  0
LINE
  5
87
330
79
100
AcDbEntity
  8
Camada 1
 62
   250
420
  1907995
370
    18
100
AcDbLine
 10
62.12430272515799
 20
-49.81858029779965
 30
0.0
 11
61.56609541703556
 21
-49.81858029779965
 31
0.0
  0
LINE
  5
88
330
79
100
AcDbEntity
  8
Camada 1
 62
   250
420
  1907995
370
    18
100
AcDbLine
 10
62.12430272515799
 20
-49.26005626110574
 30
0.0
 11
62.12430272515799
 21
-49.81858029779965
 31
0.0
  0
LINE
  5
89
330
79
100
AcDbEntity
  8
Camada 1
 62
   250
420
  1907995
370
    18
100
AcDbLine
 10
61.56609541703556
 20
-49.81858029779965
 30
0.0
 11
61.56609541703556
 21
-49.26005626110574
 31
0.0
  0
LINE
  5
8A
330
79
100
AcDbEntity
  8
Camada 1
 62
   250
420
  1907995
370
    18
100
AcDbLine
 10
61.56609541703556
 20
-49.26005626110574
 30
0.0
 11
62.12430272515799
 21
-49.26005626110574
 31
0.0
  0
LWPOLYLINE
  5
8B
330
79
100
AcDbEntity
  8
Camada 1
 62
   250
420
  1907995
370
    18
100
AcDbPolyline
 90
       12
 70
     1
 43
0.0
 10
61.96463254286789
 20
-49.57939662568468
 10
61.96463254286789
 20
-49.49923993322072
 10
61.88479745172347
 20
-49.49923993322072
 10
61.88479745172347
 20
-49.41940484207567
 10
61.80560069047008
 20
-49.41940484207567
 10
61.80560069047008
 20
-49.49923993322072
 10
61.72576559932503
 20
-49.49923993322072
 10
61.72576559932503
 20
-49.57939662568468
 10
61.80560069047008
 20
-49.57939662568468
 10
61.80560069047008
 20
-49.65923171682973
 10
61.88479745172347
 20
-49.65923171682973
 10
61.88479745172347
 20
-49.57939662568468
  0
LINE
  5
8C
330
79
100
AcDbEntity
  8
Camada 1
 62
   250
420
  1907995
370
    18
100
AcDbLine
 10
64.75758407315247
 20
-49.26005626110574
 30
0.0
 11
64.75758407315247
 21
-49.81858029779965
 31
0.0
  0
LINE
  5
8D
330
79
100
AcDbEntity
  8
Camada 1
 62
   250
420
  1907995
370
    18
100
AcDbLine
 10
64.75758407315247
 20
-49.81858029779965
 30
0.0
 11
64.19905516371113
 21
-49.81858029779965
 31
0.0
  0
LINE
  5
8E
330
79
100
AcDbEntity
  8
Camada 1
 62
   250
420
  1907995
370
    18
100
AcDbLine
 10
64.19905516371113
 20
-49.81858029779965
 30
0.0
 11
64.19905516371113
 21
-49.26005626110574
 31
0.0
  0
LINE
  5
8F
330
79
100
AcDbEntity
  8
Camada 1
 62
   250
420
  1907995
370
    18
100
AcDbLine
 10
64.19905516371113
 20
-49.26005626110574
 30
0.0
 11
64.75758407315247
 21
-49.26005626110574
 31
0.0
  0
LWPOLYLINE
  5
90
330
79
100
AcDbEntity
  8
Camada 1
 62
   250
420
  1907995
370
    18
100
AcDbPolyline
 90
       12
 70
     1
 43
0.0
 10
64.59791389086301
 20
-49.57939662568468
 10
64.59791389086301
 20
-49.49923993322072
 10
64.51775719839905
 20
-49.49923993322072
 10
64.51775719839905
 20
-49.41940484207567
 10
64.43856043714565
 20
-49.41940484207567
 10
64.43856043714565
 20
-49.49923993322072
 10
64.35872534600061
 20
-49.49923993322072
 10
64.35872534600061
 20
-49.57939662568468
 10
64.43856043714565
 20
-49.57939662568468
 10
64.43856043714565
 20
-49.65923171682973
 10
64.51775719839905
 20
-49.65923171682973
 10
64.51775719839905
 20
-49.57939662568468
  0
LINE
  5
91
330
79
100
AcDbEntity
  8
Camada 1
 62
   250
420
  1907995
370
    18
100
AcDbLine
 10
51.59213726439128
 20
-34.0236869931401
 30
0.0
 11
51.59213726439128
 21
-33.4654845577651
 31
0.0
  0
LINE
  5
92
330
79
100
AcDbEntity
  8
Camada 1
 62
   250
420
  1907995
370
    18
100
AcDbLine
 10
51.59213726439128
 20
-33.4654845577651
 30
0.0
 11
51.03360835494994
 21
-33.4654845577651
 31
0.0
  0
LINE
  5
93
330
79
100
AcDbEntity
  8
Camada 1
 62
   250
420
  1907995
370
    18
100
AcDbLine
 10
51.03360835494994
 20
-33.4654845577651
 30
0.0
 11
51.03360835494994
 21
-34.0236869931401
 31
0.0
  0
LINE
  5
94
330
79
100
AcDbEntity
  8
Camada 1
 62
   250
420
  1907995
370
    18
100
AcDbLine
 10
51.03360835494994
 20
-34.0236869931401
 30
0.0
 11
51.59213726439128
 21
-34.0236869931401
 31
0.0
  0
LWPOLYLINE
  5
95
330
79
100
AcDbEntity
  8
Camada 1
 62
   250
420
  1907995
370
    18
100
AcDbPolyline
 90
        7
 70
     1
 43
0.0
 10
51.19264020734775
 20
-33.70498983119963
 10
51.19264020734775
 20
-33.62515474005457
 10
51.2724752984928
 20
-33.62515474005457
 10
51.35263199095676
 20
-33.62515474005457
 10
51.35263199095676
 20
-33.78450332102513
 10
51.2724752984928
 20
-33.78450332102513
 10
51.19264020734775
 20
-33.78450332102513
  0
LINE
  5
96
330
79
100
AcDbEntity
  8
Camada 1
 62
   250
420
  1907995
370
    18
100
AcDbLine
 10
54.22509701106622
 20
-34.0236869931401
 30
0.0
 11
54.22509701106622
 21
-33.4654845577651
 31
0.0
  0
LINE
  5
97
330
79
100
AcDbEntity
  8
Camada 1
 62
   250
420
  1907995
370
    18
100
AcDbLine
 10
54.22509701106622
 20
-33.4654845577651
 30
0.0
 11
53.66657297437231
 21
-33.4654845577651
 31
0.0
  0
LINE
  5
98
330
79
100
AcDbEntity
  8
Camada 1
 62
   250
420
  1907995
370
    18
100
AcDbLine
 10
53.66657297437231
 20
-33.4654845577651
 30
0.0
 11
53.66657297437231
 21
-34.0236869931401
 31
0.0
  0
LINE
  5
99
330
79
100
AcDbEntity
  8
Camada 1
 62
   250
420
  1907995
370
    18
100
AcDbLine
 10
53.66657297437231
 20
-34.0236869931401
 30
0.0
 11
54.22509701106622
 21
-34.0236869931401
 31
0.0
  0
LWPOLYLINE
  5
9A
330
79
100
AcDbEntity
  8
Camada 1
 62
   250
420
  1907995
370
    18
100
AcDbPolyline
 90
        7
 70
     1
 43
0.0
 10
53.82655988523389
 20
-33.70498983119963
 10
53.82655988523389
 20
-33.62515474005457
 10
53.90575664648729
 20
-33.62515474005457
 10
53.98559173763169
 20
-33.62515474005457
 10
53.98559173763169
 20
-33.78450332102513
 10
53.90575664648729
 20
-33.78450332102513
 10
53.82655988523389
 20
-33.78450332102513
  0
LINE
  5
9B
330
79
100
AcDbEntity
  8
Camada 1
 62
   250
420
  1907995
370
    18
100
AcDbLine
 10
56.85837835906069
 20
-34.0236869931401
 30
0.0
 11
56.85837835906069
 21
-33.4654845577651
 31
0.0
  0
LINE
  5
9C
330
79
100
AcDbEntity
  8
Camada 1
 62
   250
420
  1907995
370
    18
100
AcDbLine
 10
56.85837835906069
 20
-33.4654845577651
 30
0.0
 11
56.29985432236614
 21
-33.4654845577651
 31
0.0
  0
LINE
  5
9D
330
79
100
AcDbEntity
  8
Camada 1
 62
   250
420
  1907995
370
    18
100
AcDbLine
 10
56.29985432236614
 20
-33.4654845577651
 30
0.0
 11
56.29985432236614
 21
-34.0236869931401
 31
0.0
  0
LINE
  5
9E
330
79
100
AcDbEntity
  8
Camada 1
 62
   250
420
  1907995
370
    18
100
AcDbLine
 10
56.29985432236614
 20
-34.0236869931401
 30
0.0
 11
56.85837835906069
 21
-34.0236869931401
 31
0.0
  0
LWPOLYLINE
  5
9F
330
79
100
AcDbEntity
  8
Camada 1
 62
   250
420
  1907995
370
    18
100
AcDbPolyline
 90
        7
 70
     1
 43
0.0
 10
56.45952450465625
 20
-33.70498983119963
 10
56.45952450465625
 20
-33.62515474005457
 10
56.53871639316221
 20
-33.62515474005457
 10
56.61855148430663
 20
-33.62515474005457
 10
56.61855148430663
 20
-33.78450332102513
 10
56.53871639316221
 20
-33.78450332102513
 10
56.45952450465625
 20
-33.78450332102513
  0
LINE
  5
A0
330
79
100
AcDbEntity
  8
Camada 1
 62
   250
420
  1907995
370
    18
100
AcDbLine
 10
59.49133810573563
 20
-34.0236869931401
 30
0.0
 11
59.49133810573563
 21
-33.4654845577651
 31
0.0
  0
LINE
  5
A1
330
79
100
AcDbEntity
  8
Camada 1
 62
   250
420
  1907995
370
    18
100
AcDbLine
 10
59.49133810573563
 20
-33.4654845577651
 30
0.0
 11
58.93281406904172
 21
-33.4654845577651
 31
0.0
  0
LINE
  5
A2
330
79
100
AcDbEntity
  8
Camada 1
 62
   250
420
  1907995
370
    18
100
AcDbLine
 10
58.93281406904172
 20
-33.4654845577651
 30
0.0
 11
58.93281406904172
 21
-34.0236869931401
 31
0.0
  0
LINE
  5
A3
330
79
100
AcDbEntity
  8
Camada 1
 62
   250
420
  1907995
370
    18
100
AcDbLine
 10
58.93281406904172
 20
-34.0236869931401
 30
0.0
 11
59.49133810573563
 21
-34.0236869931401
 31
0.0
  0
LWPOLYLINE
  5
A4
330
79
100
AcDbEntity
  8
Camada 1
 62
   250
420
  1907995
370
    18
100
AcDbPolyline
 90
       10
 70
     1
 43
0.0
 10
59.09248425133119
 20
-33.70498983119963
 10
59.09248425133119
 20
-33.62515474005457
 10
59.17199774115669
 20
-33.62515474005457
 10
59.25183283230111
 20
-33.62515474005457
 10
59.25183283230111
 20
-33.70498983119963
 10
59.33166792344616
 20
-33.70498983119963
 10
59.25183283230111
 20
-33.70498983119963
 10
59.25183283230111
 20
-33.78450332102513
 10
59.17199774115669
 20
-33.78450332102513
 10
59.09248425133119
 20
-33.78450332102513
  0
LINE
  5
A5
330
79
100
AcDbEntity
  8
Camada 1
 62
   250
420
  1907995
370
    18
100
AcDbLine
 10
62.12430272515799
 20
-34.0236869931401
 30
0.0
 11
62.12430272515799
 21
-33.4654845577651
 31
0.0
  0
LINE
  5
A6
330
79
100
AcDbEntity
  8
Camada 1
 62
   250
420
  1907995
370
    18
100
AcDbLine
 10
62.12430272515799
 20
-33.4654845577651
 30
0.0
 11
61.56609541703556
 21
-33.4654845577651
 31
0.0
  0
LINE
  5
A7
330
79
100
AcDbEntity
  8
Camada 1
 62
   250
420
  1907995
370
    18
100
AcDbLine
 10
61.56609541703556
 20
-33.4654845577651
 30
0.0
 11
61.56609541703556
 21
-34.0236869931401
 31
0.0
  0
LINE
  5
A8
330
79
100
AcDbEntity
  8
Camada 1
 62
   250
420
  1907995
370
    18
100
AcDbLine
 10
61.56609541703556
 20
-34.0236869931401
 30
0.0
 11
62.12430272515799
 21
-34.0236869931401
 31
0.0
  0
LWPOLYLINE
  5
A9
330
79
100
AcDbEntity
  8
Camada 1
 62
   250
420
  1907995
370
    18
100
AcDbPolyline
 90
        9
 70
     1
 43
0.0
 10
61.72576559932503
 20
-33.70498983119963
 10
61.72576559932503
 20
-33.62515474005457
 10
61.80560069047008
 20
-33.62515474005457
 10
61.88479745172347
 20
-33.62515474005457
 10
61.88479745172347
 20
-33.70498983119963
 10
61.96463254286789
 20
-33.70498983119963
 10
61.88479745172347
 20
-33.78450332102513
 10
61.80560069047008
 20
-33.78450332102513
 10
61.72576559932503
 20
-33.78450332102513
  0
LINE
  5
AA
330
79
100
AcDbEntity
  8
Camada 1
 62
   250
420
  1907995
370
    18
100
AcDbLine
 10
64.75758407315247
 20
-34.0236869931401
 30
0.0
 11
64.75758407315247
 21
-33.4654845577651
 31
0.0
  0
LINE
  5
AB
330
79
100
AcDbEntity
  8
Camada 1
 62
   250
420
  1907995
370
    18
100
AcDbLine
 10
64.75758407315247
 20
-33.4654845577651
 30
0.0
 11
64.19905516371113
 21
-33.4654845577651
 31
0.0
  0
LINE
  5
AC
330
79
100
AcDbEntity
  8
Camada 1
 62
   250
420
  1907995
370
    18
100
AcDbLine
 10
64.19905516371113
 20
-33.4654845577651
 30
0.0
 11
64.19905516371113
 21
-34.0236869931401
 31
0.0
  0
LINE
  5
AD
330
79
100
AcDbEntity
  8
Camada 1
 62
   250
420
  1907995
370
    18
100
AcDbLine
 10
64.19905516371113
 20
-34.0236869931401
 30
0.0
 11
64.75758407315247
 21
-34.0236869931401
 31
0.0
  0
LWPOLYLINE
  5
AE
330
79
100
AcDbEntity
  8
Camada 1
 62
   250
420
  1907995
370
    18
100
AcDbPolyline
 90
       10
 70
     1
 43
0.0
 10
64.35872534600061
 20
-33.70498983119963
 10
64.35872534600061
 20
-33.70498983119963
 10
64.43856043714565
 20
-33.62515474005457
 10
64.51775719839905
 20
-33.62515474005457
 10
64.51775719839905
 20
-33.70498983119963
 10
64.59791389086301
 20
-33.70498983119963
 10
64.59791389086301
 20
-33.78450332102513
 10
64.51775719839905
 20
-33.78450332102513
 10
64.43856043714565
 20
-33.78450332102513
 10
64.35872534600061
 20
-33.78450332102513
  0
LINE
  5
AF
330
79
100
AcDbEntity
  8
Camada 1
 62
   250
420
  1907995
370
    18
100
AcDbLine
 10
51.59213726439128
 20
-31.39137044910363
 30
0.0
 11
51.59213726439128
 21
-30.83283666691486
 31
0.0
  0
LINE
  5
B0
330
79
100
AcDbEntity
  8
Camada 1
 62
   250
420
  1907995
370
    18
100
AcDbLine
 10
51.59213726439128
 20
-30.83283666691486
 30
0.0
 11
51.03360835494994
 21
-30.83283666691486
 31
0.0
  0
LINE
  5
B1
330
79
100
AcDbEntity
  8
Camada 1
 62
   250
420
  1907995
370
    18
100
AcDbLine
 10
51.03360835494994
 20
-30.83283666691486
 30
0.0
 11
51.03360835494994
 21
-31.39137044910363
 31
0.0
  0
LINE
  5
B2
330
79
100
AcDbEntity
  8
Camada 1
 62
   250
420
  1907995
370
    18
100
AcDbLine
 10
51.03360835494994
 20
-31.39137044910363
 30
0.0
 11
51.59213726439128
 21
-31.39137044910363
 31
0.0
  0
LWPOLYLINE
  5
B3
330
79
100
AcDbEntity
  8
Camada 1
 62
   250
420
  1907995
370
    18
100
AcDbPolyline
 90
        7
 70
     1
 43
0.0
 10
51.19264020734775
 20
-31.07203008452469
 10
51.19264020734775
 20
-30.99250684920432
 10
51.2724752984928
 20
-30.99250684920432
 10
51.35263199095676
 20
-30.99250684920432
 10
51.35263199095676
 20
-31.15186517566911
 10
51.2724752984928
 20
-31.15186517566911
 10
51.19264020734775
 20
-31.15186517566911
  0
LINE
  5
B4
330
79
100
AcDbEntity
  8
Camada 1
 62
   250
420
  1907995
370
    18
100
AcDbLine
 10
54.22509701106622
 20
-31.39137044910363
 30
0.0
 11
54.22509701106622
 21
-30.83283666691486
 31
0.0
  0
LINE
  5
B5
330
79
100
AcDbEntity
  8
Camada 1
 62
   250
420
  1907995
370
    18
100
AcDbLine
 10
54.22509701106622
 20
-30.83283666691486
 30
0.0
 11
53.66657297437231
 21
-30.83283666691486
 31
0.0
  0
LINE
  5
B6
330
79
100
AcDbEntity
  8
Camada 1
 62
   250
420
  1907995
370
    18
100
AcDbLine
 10
53.66657297437231
 20
-30.83283666691486
 30
0.0
 11
53.66657297437231
 21
-31.39137044910363
 31
0.0
  0
LINE
  5
B7
330
79
100
AcDbEntity
  8
Camada 1
 62
   250
420
  1907995
370
    18
100
AcDbLine
 10
53.66657297437231
 20
-31.39137044910363
 30
0.0
 11
54.22509701106622
 21
-31.39137044910363
 31
0.0
  0
LWPOLYLINE
  5
B8
330
79
100
AcDbEntity
  8
Camada 1
 62
   250
420
  1907995
370
    18
100
AcDbPolyline
 90
        7
 70
     1
 43
0.0
 10
53.82655988523389
 20
-31.07203008452469
 10
53.82655988523389
 20
-30.99250684920432
 10
53.90575664648729
 20
-30.99250684920432
 10
53.98559173763169
 20
-30.99250684920432
 10
53.98559173763169
 20
-31.15186517566911
 10
53.90575664648729
 20
-31.15186517566911
 10
53.82655988523389
 20
-31.15186517566911
  0
LINE
  5
B9
330
79
100
AcDbEntity
  8
Camada 1
 62
   250
420
  1907995
370
    18
100
AcDbLine
 10
56.85837835906069
 20
-31.39137044910363
 30
0.0
 11
56.85837835906069
 21
-30.83283666691486
 31
0.0
  0
LINE
  5
BA
330
79
100
AcDbEntity
  8
Camada 1
 62
   250
420
  1907995
370
    18
100
AcDbLine
 10
56.85837835906069
 20
-30.83283666691486
 30
0.0
 11
56.29985432236614
 21
-30.83283666691486
 31
0.0
  0
LINE
  5
BB
330
79
100
AcDbEntity
  8
Camada 1
 62
   250
420
  1907995
370
    18
100
AcDbLine
 10
56.29985432236614
 20
-30.83283666691486
 30
0.0
 11
56.29985432236614
 21
-31.39137044910363
 31
0.0
  0
LINE
  5
BC
330
79
100
AcDbEntity
  8
Camada 1
 62
   250
420
  1907995
370
    18
100
AcDbLine
 10
56.29985432236614
 20
-31.39137044910363
 30
0.0
 11
56.85837835906069
 21
-31.39137044910363
 31
0.0
  0
LWPOLYLINE
  5
BD
330
79
100
AcDbEntity
  8
Camada 1
 62
   250
420
  1907995
370
    18
100
AcDbPolyline
 90
        7
 70
     1
 43
0.0
 10
56.45952450465625
 20
-31.07203008452469
 10
56.45952450465625
 20
-30.99250684920432
 10
56.53871639316221
 20
-30.99250684920432
 10
56.61855148430663
 20
-30.99250684920432
 10
56.61855148430663
 20
-31.15186517566911
 10
56.53871639316221
 20
-31.15186517566911
 10
56.45952450465625
 20
-31.15186517566911
  0
LINE
  5
BE
330
79
100
AcDbEntity
  8
Camada 1
 62
   250
420
  1907995
370
    18
100
AcDbLine
 10
59.49133810573563
 20
-31.39137044910363
 30
0.0
 11
59.49133810573563
 21
-30.83283666691486
 31
0.0
  0
LINE
  5
BF
330
79
100
AcDbEntity
  8
Camada 1
 62
   250
420
  1907995
370
    18
100
AcDbLine
 10
59.49133810573563
 20
-30.83283666691486
 30
0.0
 11
58.93281406904172
 21
-30.83283666691486
 31
0.0
  0
LINE
  5
C0
330
79
100
AcDbEntity
  8
Camada 1
 62
   250
420
  1907995
370
    18
100
AcDbLine
 10
58.93281406904172
 20
-30.83283666691486
 30
0.0
 11
58.93281406904172
 21
-31.39137044910363
 31
0.0
  0
LINE
  5
C1
330
79
100
AcDbEntity
  8
Camada 1
 62
   250
420
  1907995
370
    18
100
AcDbLine
 10
58.93281406904172
 20
-31.39137044910363
 30
0.0
 11
59.49133810573563
 21
-31.39137044910363
 31
0.0
  0
LWPOLYLINE
  5
C2
330
79
100
AcDbEntity
  8
Camada 1
 62
   250
420
  1907995
370
    18
100
AcDbPolyline
 90
       10
 70
     1
 43
0.0
 10
59.09248425133119
 20
-31.07203008452469
 10
59.09248425133119
 20
-30.99250684920432
 10
59.17199774115669
 20
-30.99250684920432
 10
59.25183283230111
 20
-30.99250684920432
 10
59.25183283230111
 20
-31.07203008452469
 10
59.33166792344616
 20
-31.07203008452469
 10
59.25183283230111
 20
-31.07203008452469
 10
59.25183283230111
 20
-31.15186517566911
 10
59.17199774115669
 20
-31.15186517566911
 10
59.09248425133119
 20
-31.15186517566911
  0
LINE
  5
C3
330
79
100
AcDbEntity
  8
Camada 1
 62
   250
420
  1907995
370
    18
100
AcDbLine
 10
62.12430272515799
 20
-31.39137044910363
 30
0.0
 11
62.12430272515799
 21
-30.83283666691486
 31
0.0
  0
LINE
  5
C4
330
79
100
AcDbEntity
  8
Camada 1
 62
   250
420
  1907995
370
    18
100
AcDbLine
 10
62.12430272515799
 20
-30.83283666691486
 30
0.0
 11
61.56609541703556
 21
-30.83283666691486
 31
0.0
  0
LINE
  5
C5
330
79
100
AcDbEntity
  8
Camada 1
 62
   250
420
  1907995
370
    18
100
AcDbLine
 10
61.56609541703556
 20
-30.83283666691486
 30
0.0
 11
61.56609541703556
 21
-31.39137044910363
 31
0.0
  0
LINE
  5
C6
330
79
100
AcDbEntity
  8
Camada 1
 62
   250
420
  1907995
370
    18
100
AcDbLine
 10
61.56609541703556
 20
-31.39137044910363
 30
0.0
 11
62.12430272515799
 21
-31.39137044910363
 31
0.0
  0
LWPOLYLINE
  5
C7
330
79
100
AcDbEntity
  8
Camada 1
 62
   250
420
  1907995
370
    18
100
AcDbPolyline
 90
        9
 70
     1
 43
0.0
 10
61.72576559932503
 20
-31.07203008452469
 10
61.72576559932503
 20
-30.99250684920432
 10
61.80560069047008
 20
-30.99250684920432
 10
61.88479745172347
 20
-30.99250684920432
 10
61.88479745172347
 20
-31.07203008452469
 10
61.96463254286789
 20
-31.07203008452469
 10
61.88479745172347
 20
-31.15186517566911
 10
61.80560069047008
 20
-31.15186517566911
 10
61.72576559932503
 20
-31.15186517566911
  0
LINE
  5
C8
330
79
100
AcDbEntity
  8
Camada 1
 62
   250
420
  1907995
370
    18
100
AcDbLine
 10
64.75758407315247
 20
-31.39137044910363
 30
0.0
 11
64.75758407315247
 21
-30.83283666691486
 31
0.0
  0
LINE
  5
C9
330
79
100
AcDbEntity
  8
Camada 1
 62
   250
420
  1907995
370
    18
100
AcDbLine
 10
64.75758407315247
 20
-30.83283666691486
 30
0.0
 11
64.19905516371113
 21
-30.83283666691486
 31
0.0
  0
LINE
  5
CA
330
79
100
AcDbEntity
  8
Camada 1
 62
   250
420
  1907995
370
    18
100
AcDbLine
 10
64.19905516371113
 20
-30.83283666691486
 30
0.0
 11
64.19905516371113
 21
-31.39137044910363
 31
0.0
  0
LINE
  5
CB
330
79
100
AcDbEntity
  8
Camada 1
 62
   250
420
  1907995
370
    18
100
AcDbLine
 10
64.19905516371113
 20
-31.39137044910363
 30
0.0
 11
64.75758407315247
 21
-31.39137044910363
 31
0.0
  0
LWPOLYLINE
  5
CC
330
79
100
AcDbEntity
  8
Camada 1
 62
   250
420
  1907995
370
    18
100
AcDbPolyline
 90
       10
 70
     1
 43
0.0
 10
64.35872534600061
 20
-31.07203008452469
 10
64.35872534600061
 20
-31.07203008452469
 10
64.43856043714565
 20
-30.99250684920432
 10
64.51775719839905
 20
-30.99250684920432
 10
64.51775719839905
 20
-31.07203008452469
 10
64.59791389086301
 20
-31.07203008452469
 10
64.59791389086301
 20
-31.15186517566911
 10
64.51775719839905
 20
-31.15186517566911
 10
64.43856043714565
 20
-31.15186517566911
 10
64.35872534600061
 20
-31.15186517566911
  0
LINE
  5
CD
330
79
100
AcDbEntity
  8
Camada 1
 62
   250
420
  1907995
370
    18
100
AcDbLine
 10
51.59213726439128
 20
-28.75872255825338
 30
0.0
 11
51.59213726439128
 21
-28.20052012287838
 31
0.0
  0
LINE
  5
CE
330
79
100
AcDbEntity
  8
Camada 1
 62
   250
420
  1907995
370
    18
100
AcDbLine
 10
51.59213726439128
 20
-28.20052012287838
 30
0.0
 11
51.03360835494994
 21
-28.20052012287838
 31
0.0
  0
LINE
  5
CF
330
79
100
AcDbEntity
  8
Camada 1
 62
   250
420
  1907995
370
    18
100
AcDbLine
 10
51.03360835494994
 20
-28.20052012287838
 30
0.0
 11
51.03360835494994
 21
-28.75872255825338
 31
0.0
  0
LINE
  5
D0
330
79
100
AcDbEntity
  8
Camada 1
 62
   250
420
  1907995
370
    18
100
AcDbLine
 10
51.03360835494994
 20
-28.75872255825338
 30
0.0
 11
51.59213726439128
 21
-28.75872255825338
 31
0.0
  0
LWPOLYLINE
  5
D1
330
79
100
AcDbEntity
  8
Camada 1
 62
   250
420
  1907995
370
    18
100
AcDbPolyline
 90
        7
 70
     1
 43
0.0
 10
51.19264020734775
 20
-28.43970379499335
 10
51.19264020734775
 20
-28.36019030516784
 10
51.2724752984928
 20
-28.36019030516784
 10
51.35263199095676
 20
-28.36019030516784
 10
51.35263199095676
 20
-28.5195388861384
 10
51.2724752984928
 20
-28.5195388861384
 10
51.19264020734775
 20
-28.5195388861384
  0
LINE
  5
D2
330
79
100
AcDbEntity
  8
Camada 1
 62
   250
420
  1907995
370
    18
100
AcDbLine
 10
54.22509701106622
 20
-28.75872255825338
 30
0.0
 11
54.22509701106622
 21
-28.20052012287838
 31
0.0
  0
LINE
  5
D3
330
79
100
AcDbEntity
  8
Camada 1
 62
   250
420
  1907995
370
    18
100
AcDbLine
 10
54.22509701106622
 20
-28.20052012287838
 30
0.0
 11
53.66657297437231
 21
-28.20052012287838
 31
0.0
  0
LINE
  5
D4
330
79
100
AcDbEntity
  8
Camada 1
 62
   250
420
  1907995
370
    18
100
AcDbLine
 10
53.66657297437231
 20
-28.20052012287838
 30
0.0
 11
53.66657297437231
 21
-28.75872255825338
 31
0.0
  0
LINE
  5
D5
330
79
100
AcDbEntity
  8
Camada 1
 62
   250
420
  1907995
370
    18
100
AcDbLine
 10
53.66657297437231
 20
-28.75872255825338
 30
0.0
 11
54.22509701106622
 21
-28.75872255825338
 31
0.0
  0
LWPOLYLINE
  5
D6
330
79
100
AcDbEntity
  8
Camada 1
 62
   250
420
  1907995
370
    18
100
AcDbPolyline
 90
        7
 70
     1
 43
0.0
 10
53.82655988523389
 20
-28.43970379499335
 10
53.82655988523389
 20
-28.36019030516784
 10
53.90575664648729
 20
-28.36019030516784
 10
53.98559173763169
 20
-28.36019030516784
 10
53.98559173763169
 20
-28.5195388861384
 10
53.90575664648729
 20
-28.5195388861384
 10
53.82655988523389
 20
-28.5195388861384
  0
LINE
  5
D7
330
79
100
AcDbEntity
  8
Camada 1
 62
   250
420
  1907995
370
    18
100
AcDbLine
 10
56.85837835906069
 20
-28.75872255825338
 30
0.0
 11
56.85837835906069
 21
-28.20052012287838
 31
0.0
  0
LINE
  5
D8
330
79
100
AcDbEntity
  8
Camada 1
 62
   250
420
  1907995
370
    18
100
AcDbLine
 10
56.85837835906069
 20
-28.20052012287838
 30
0.0
 11
56.29985432236614
 21
-28.20052012287838
 31
0.0
  0
LINE
  5
D9
330
79
100
AcDbEntity
  8
Camada 1
 62
   250
420
  1907995
370
    18
100
AcDbLine
 10
56.29985432236614
 20
-28.20052012287838
 30
0.0
 11
56.29985432236614
 21
-28.75872255825338
 31
0.0
  0
LINE
  5
DA
330
79
100
AcDbEntity
  8
Camada 1
 62
   250
420
  1907995
370
    18
100
AcDbLine
 10
56.29985432236614
 20
-28.75872255825338
 30
0.0
 11
56.85837835906069
 21
-28.75872255825338
 31
0.0
  0
LWPOLYLINE
  5
DB
330
79
100
AcDbEntity
  8
Camada 1
 62
   250
420
  1907995
370
    18
100
AcDbPolyline
 90
        7
 70
     1
 43
0.0
 10
56.45952450465625
 20
-28.43970379499335
 10
56.45952450465625
 20
-28.36019030516784
 10
56.53871639316221
 20
-28.36019030516784
 10
56.61855148430663
 20
-28.36019030516784
 10
56.61855148430663
 20
-28.5195388861384
 10
56.53871639316221
 20
-28.5195388861384
 10
56.45952450465625
 20
-28.5195388861384
  0
LINE
  5
DC
330
79
100
AcDbEntity
  8
Camada 1
 62
   250
420
  1907995
370
    18
100
AcDbLine
 10
59.49133810573563
 20
-28.75872255825338
 30
0.0
 11
59.49133810573563
 21
-28.20052012287838
 31
0.0
  0
LINE
  5
DD
330
79
100
AcDbEntity
  8
Camada 1
 62
   250
420
  1907995
370
    18
100
AcDbLine
 10
59.49133810573563
 20
-28.20052012287838
 30
0.0
 11
58.93281406904172
 21
-28.20052012287838
 31
0.0
  0
LINE
  5
DE
330
79
100
AcDbEntity
  8
Camada 1
 62
   250
420
  1907995
370
    18
100
AcDbLine
 10
58.93281406904172
 20
-28.20052012287838
 30
0.0
 11
58.93281406904172
 21
-28.75872255825338
 31
0.0
  0
LINE
  5
DF
330
79
100
AcDbEntity
  8
Camada 1
 62
   250
420
  1907995
370
    18
100
AcDbLine
 10
58.93281406904172
 20
-28.75872255825338
 30
0.0
 11
59.49133810573563
 21
-28.75872255825338
 31
0.0
  0
LWPOLYLINE
  5
E0
330
79
100
AcDbEntity
  8
Camada 1
 62
   250
420
  1907995
370
    18
100
AcDbPolyline
 90
       10
 70
     1
 43
0.0
 10
59.09248425133119
 20
-28.43970379499335
 10
59.09248425133119
 20
-28.36019030516784
 10
59.17199774115669
 20
-28.36019030516784
 10
59.25183283230111
 20
-28.36019030516784
 10
59.25183283230111
 20
-28.43970379499335
 10
59.33166792344616
 20
-28.43970379499335
 10
59.25183283230111
 20
-28.43970379499335
 10
59.25183283230111
 20
-28.5195388861384
 10
59.17199774115669
 20
-28.5195388861384
 10
59.09248425133119
 20
-28.5195388861384
  0
LINE
  5
E1
330
79
100
AcDbEntity
  8
Camada 1
 62
   250
420
  1907995
370
    18
100
AcDbLine
 10
62.12430272515799
 20
-28.75872255825338
 30
0.0
 11
62.12430272515799
 21
-28.20052012287838
 31
0.0
  0
LINE
  5
E2
330
79
100
AcDbEntity
  8
Camada 1
 62
   250
420
  1907995
370
    18
100
AcDbLine
 10
62.12430272515799
 20
-28.20052012287838
 30
0.0
 11
61.56609541703556
 21
-28.20052012287838
 31
0.0
  0
LINE
  5
E3
330
79
100
AcDbEntity
  8
Camada 1
 62
   250
420
  1907995
370
    18
100
AcDbLine
 10
61.56609541703556
 20
-28.20052012287838
 30
0.0
 11
61.56609541703556
 21
-28.75872255825338
 31
0.0
  0
LINE
  5
E4
330
79
100
AcDbEntity
  8
Camada 1
 62
   250
420
  1907995
370
    18
100
AcDbLine
 10
61.56609541703556
 20
-28.75872255825338
 30
0.0
 11
62.12430272515799
 21
-28.75872255825338
 31
0.0
  0
LWPOLYLINE
  5
E5
330
79
100
AcDbEntity
  8
Camada 1
 62
   250
420
  1907995
370
    18
100
AcDbPolyline
 90
        9
 70
     1
 43
0.0
 10
61.72576559932503
 20
-28.43970379499335
 10
61.72576559932503
 20
-28.36019030516784
 10
61.80560069047008
 20
-28.36019030516784
 10
61.88479745172347
 20
-28.36019030516784
 10
61.88479745172347
 20
-28.43970379499335
 10
61.96463254286789
 20
-28.43970379499335
 10
61.88479745172347
 20
-28.5195388861384
 10
61.80560069047008
 20
-28.5195388861384
 10
61.72576559932503
 20
-28.5195388861384
  0
LINE
  5
E6
330
79
100
AcDbEntity
  8
Camada 1
 62
   250
420
  1907995
370
    18
100
AcDbLine
 10
64.75758407315247
 20
-28.75872255825338
 30
0.0
 11
64.75758407315247
 21
-28.20052012287838
 31
0.0
  0
LINE
  5
E7
330
79
100
AcDbEntity
  8
Camada 1
 62
   250
420
  1907995
370
    18
100
AcDbLine
 10
64.75758407315247
 20
-28.20052012287838
 30
0.0
 11
64.19905516371113
 21
-28.20052012287838
 31
0.0
  0
LINE
  5
E8
330
79
100
AcDbEntity
  8
Camada 1
 62
   250
420
  1907995
370
    18
100
AcDbLine
 10
64.19905516371113
 20
-28.20052012287838
 30
0.0
 11
64.19905516371113
 21
-28.75872255825338
 31
0.0
  0
LINE
  5
E9
330
79
100
AcDbEntity
  8
Camada 1
 62
   250
420
  1907995
370
    18
100
AcDbLine
 10
64.19905516371113
 20
-28.75872255825338
 30
0.0
 11
64.75758407315247
 21
-28.75872255825338
 31
0.0
  0
LWPOLYLINE
  5
EA
330
79
100
AcDbEntity
  8
Camada 1
 62
   250
420
  1907995
370
    18
100
AcDbPolyline
 90
       10
 70
     1
 43
0.0
 10
64.35872534600061
 20
-28.43970379499335
 10
64.35872534600061
 20
-28.43970379499335
 10
64.43856043714565
 20
-28.36019030516784
 10
64.51775719839905
 20
-28.36019030516784
 10
64.51775719839905
 20
-28.43970379499335
 10
64.59791389086301
 20
-28.43970379499335
 10
64.59791389086301
 20
-28.5195388861384
 10
64.51775719839905
 20
-28.5195388861384
 10
64.43856043714565
 20
-28.5195388861384
 10
64.35872534600061
 20
-28.5195388861384
  0
LINE
  5
EB
330
79
100
AcDbEntity
  8
Camada 1
 62
   250
420
  1907995
370
    18
100
AcDbLine
 10
54.22509701106622
 20
-26.1264060142169
 30
0.0
 11
54.22509701106622
 21
-25.56819383334767
 31
0.0
  0
LINE
  5
EC
330
79
100
AcDbEntity
  8
Camada 1
 62
   250
420
  1907995
370
    18
100
AcDbLine
 10
54.22509701106622
 20
-25.56819383334767
 30
0.0
 11
53.66657297437231
 21
-25.56819383334767
 31
0.0
  0
LINE
  5
ED
330
79
100
AcDbEntity
  8
Camada 1
 62
   250
420
  1907995
370
    18
100
AcDbLine
 10
53.66657297437231
 20
-25.56819383334767
 30
0.0
 11
53.66657297437231
 21
-26.1264060142169
 31
0.0
  0
LINE
  5
EE
330
79
100
AcDbEntity
  8
Camada 1
 62
   250
420
  1907995
370
    18
100
AcDbLine
 10
53.66657297437231
 20
-26.1264060142169
 30
0.0
 11
54.22509701106622
 21
-26.1264060142169
 31
0.0
  0
LWPOLYLINE
  5
EF
330
79
100
AcDbEntity
  8
Camada 1
 62
   250
420
  1907995
370
    18
100
AcDbPolyline
 90
        7
 70
     1
 43
0.0
 10
53.82655988523389
 20
-25.80737750546265
 10
53.82655988523389
 20
-25.72786401563714
 10
53.90575664648729
 20
-25.72786401563714
 10
53.98559173763169
 20
-25.72786401563714
 10
53.98559173763169
 20
-25.88721259660771
 10
53.90575664648729
 20
-25.88721259660771
 10
53.82655988523389
 20
-25.88721259660771
  0
LINE
  5
F0
330
79
100
AcDbEntity
  8
Camada 1
 62
   250
420
  1907995
370
    18
100
AcDbLine
 10
56.85837835906069
 20
-26.1264060142169
 30
0.0
 11
56.85837835906069
 21
-25.56819383334767
 31
0.0
  0
LINE
  5
F1
330
79
100
AcDbEntity
  8
Camada 1
 62
   250
420
  1907995
370
    18
100
AcDbLine
 10
56.85837835906069
 20
-25.56819383334767
 30
0.0
 11
56.29985432236614
 21
-25.56819383334767
 31
0.0
  0
LINE
  5
F2
330
79
100
AcDbEntity
  8
Camada 1
 62
   250
420
  1907995
370
    18
100
AcDbLine
 10
56.29985432236614
 20
-25.56819383334767
 30
0.0
 11
56.29985432236614
 21
-26.1264060142169
 31
0.0
  0
LINE
  5
F3
330
79
100
AcDbEntity
  8
Camada 1
 62
   250
420
  1907995
370
    18
100
AcDbLine
 10
56.29985432236614
 20
-26.1264060142169
 30
0.0
 11
56.85837835906069
 21
-26.1264060142169
 31
0.0
  0
LWPOLYLINE
  5
F4
330
79
100
AcDbEntity
  8
Camada 1
 62
   250
420
  1907995
370
    18
100
AcDbPolyline
 90
        7
 70
     1
 43
0.0
 10
56.45952450465625
 20
-25.80737750546265
 10
56.45952450465625
 20
-25.72786401563714
 10
56.53871639316221
 20
-25.72786401563714
 10
56.61855148430663
 20
-25.72786401563714
 10
56.61855148430663
 20
-25.88721259660771
 10
56.53871639316221
 20
-25.88721259660771
 10
56.45952450465625
 20
-25.88721259660771
  0
LINE
  5
F5
330
79
100
AcDbEntity
  8
Camada 1
 62
   250
420
  1907995
370
    18
100
AcDbLine
 10
59.49133810573563
 20
-26.1264060142169
 30
0.0
 11
59.49133810573563
 21
-25.56819383334767
 31
0.0
  0
LINE
  5
F6
330
79
100
AcDbEntity
  8
Camada 1
 62
   250
420
  1907995
370
    18
100
AcDbLine
 10
59.49133810573563
 20
-25.56819383334767
 30
0.0
 11
58.93281406904172
 21
-25.56819383334767
 31
0.0
  0
LINE
  5
F7
330
79
100
AcDbEntity
  8
Camada 1
 62
   250
420
  1907995
370
    18
100
AcDbLine
 10
58.93281406904172
 20
-25.56819383334767
 30
0.0
 11
58.93281406904172
 21
-26.1264060142169
 31
0.0
  0
LINE
  5
F8
330
79
100
AcDbEntity
  8
Camada 1
 62
   250
420
  1907995
370
    18
100
AcDbLine
 10
58.93281406904172
 20
-26.1264060142169
 30
0.0
 11
59.49133810573563
 21
-26.1264060142169
 31
0.0
  0
LWPOLYLINE
  5
F9
330
79
100
AcDbEntity
  8
Camada 1
 62
   250
420
  1907995
370
    18
100
AcDbPolyline
 90
       10
 70
     1
 43
0.0
 10
59.09248425133119
 20
-25.80737750546265
 10
59.09248425133119
 20
-25.72786401563714
 10
59.17199774115669
 20
-25.72786401563714
 10
59.25183283230111
 20
-25.72786401563714
 10
59.25183283230111
 20
-25.80737750546265
 10
59.33166792344616
 20
-25.80737750546265
 10
59.25183283230111
 20
-25.80737750546265
 10
59.25183283230111
 20
-25.88721259660771
 10
59.17199774115669
 20
-25.88721259660771
 10
59.09248425133119
 20
-25.88721259660771
  0
LINE
  5
FA
330
79
100
AcDbEntity
  8
Camada 1
 62
   250
420
  1907995
370
    18
100
AcDbLine
 10
62.12430272515799
 20
-26.1264060142169
 30
0.0
 11
62.12430272515799
 21
-25.56819383334767
 31
0.0
  0
LINE
  5
FB
330
79
100
AcDbEntity
  8
Camada 1
 62
   250
420
  1907995
370
    18
100
AcDbLine
 10
62.12430272515799
 20
-25.56819383334767
 30
0.0
 11
61.56609541703556
 21
-25.56819383334767
 31
0.0
  0
LINE
  5
FC
330
79
100
AcDbEntity
  8
Camada 1
 62
   250
420
  1907995
370
    18
100
AcDbLine
 10
61.56609541703556
 20
-25.56819383334767
 30
0.0
 11
61.56609541703556
 21
-26.1264060142169
 31
0.0
  0
LINE
  5
FD
330
79
100
AcDbEntity
  8
Camada 1
 62
   250
420
  1907995
370
    18
100
AcDbLine
 10
61.56609541703556
 20
-26.1264060142169
 30
0.0
 11
62.12430272515799
 21
-26.1264060142169
 31
0.0
  0
LWPOLYLINE
  5
FE
330
79
100
AcDbEntity
  8
Camada 1
 62
   250
420
  1907995
370
    18
100
AcDbPolyline
 90
       10
 70
     1
 43
0.0
 10
61.72576559932503
 20
-25.80737750546265
 10
61.72576559932503
 20
-25.72786401563714
 10
61.80560069047008
 20
-25.72786401563714
 10
61.88479745172347
 20
-25.72786401563714
 10
61.88479745172347
 20
-25.80737750546265
 10
61.96463254286789
 20
-25.80737750546265
 10
61.88479745172347
 20
-25.80737750546265
 10
61.88479745172347
 20
-25.88721259660771
 10
61.80560069047008
 20
-25.88721259660771
 10
61.72576559932503
 20
-25.88721259660771
  0
LINE
  5
FF
330
79
100
AcDbEntity
  8
Camada 1
 62
   250
420
  1907995
370
    18
100
AcDbLine
 10
64.75758407315247
 20
-26.1264060142169
 30
0.0
 11
64.75758407315247
 21
-25.56819383334767
 31
0.0
  0
LINE
  5
100
330
79
100
AcDbEntity
  8
Camada 1
 62
   250
420
  1907995
370
    18
100
AcDbLine
 10
64.75758407315247
 20
-25.56819383334767
 30
0.0
 11
64.19905516371113
 21
-25.56819383334767
 31
0.0
  0
LINE
  5
101
330
79
100
AcDbEntity
  8
Camada 1
 62
   250
420
  1907995
370
    18
100
AcDbLine
 10
64.19905516371113
 20
-25.56819383334767
 30
0.0
 11
64.19905516371113
 21
-26.1264060142169
 31
0.0
  0
LINE
  5
102
330
79
100
AcDbEntity
  8
Camada 1
 62
   250
420
  1907995
370
    18
100
AcDbLine
 10
64.19905516371113
 20
-26.1264060142169
 30
0.0
 11
64.75758407315247
 21
-26.1264060142169
 31
0.0
  0
LWPOLYLINE
  5
103
330
79
100
AcDbEntity
  8
Camada 1
 62
   250
420
  1907995
370
    18
100
AcDbPolyline
 90
        9
 70
     1
 43
0.0
 10
64.35872534600061
 20
-25.80737750546265
 10
64.35872534600061
 20
-25.80737750546265
 10
64.43856043714565
 20
-25.72786401563714
 10
64.51775719839905
 20
-25.72786401563714
 10
64.51775719839905
 20
-25.80737750546265
 10
64.59791389086301
 20
-25.80737750546265
 10
64.51775719839905
 20
-25.88721259660771
 10
64.43856043714565
 20
-25.88721259660771
 10
64.35872534600061
 20
-25.88721259660771
  0
LINE
  5
104
330
79
100
AcDbEntity
  8
Camada 1
 62
   250
420
  1907995
370
    18
100
AcDbLine
 10
56.85837835906069
 20
-23.49407972468556
 30
0.0
 11
56.85837835906069
 21
-22.85572059684723
 31
0.0
  0
LINE
  5
105
330
79
100
AcDbEntity
  8
Camada 1
 62
   250
420
  1907995
370
    18
100
AcDbLine
 10
56.85837835906069
 20
-22.85572059684723
 30
0.0
 11
56.29985432236614
 21
-22.85572059684723
 31
0.0
  0
LINE
  5
106
330
79
100
AcDbEntity
  8
Camada 1
 62
   250
420
  1907995
370
    18
100
AcDbLine
 10
56.29985432236614
 20
-22.85572059684723
 30
0.0
 11
56.29985432236614
 21
-23.49407972468556
 31
0.0
  0
LINE
  5
107
330
79
100
AcDbEntity
  8
Camada 1
 62
   250
420
  1907995
370
    18
100
AcDbLine
 10
56.29985432236614
 20
-23.49407972468556
 30
0.0
 11
56.85837835906069
 21
-23.49407972468556
 31
0.0
  0
LWPOLYLINE
  5
108
330
79
100
AcDbEntity
  8
Camada 1
 62
   250
420
  1907995
370
    18
100
AcDbPolyline
 90
        7
 70
     1
 43
0.0
 10
56.45952450465625
 20
-23.17473936010662
 10
56.45952450465625
 20
-23.09490426896221
 10
56.53871639316221
 20
-23.09490426896221
 10
56.61855148430663
 20
-23.09490426896221
 10
56.61855148430663
 20
-23.25457445125167
 10
56.53871639316221
 20
-23.25457445125167
 10
56.45952450465625
 20
-23.25457445125167
  0
LINE
  5
109
330
79
100
AcDbEntity
  8
Camada 1
 62
   250
420
  1907995
370
    18
100
AcDbLine
 10
59.49133810573563
 20
-23.49407972468556
 30
0.0
 11
59.49133810573563
 21
-22.85572059684723
 31
0.0
  0
LINE
  5
10A
330
79
100
AcDbEntity
  8
Camada 1
 62
   250
420
  1907995
370
    18
100
AcDbLine
 10
59.49133810573563
 20
-22.85572059684723
 30
0.0
 11
58.93281406904172
 21
-22.85572059684723
 31
0.0
  0
LINE
  5
10B
330
79
100
AcDbEntity
  8
Camada 1
 62
   250
420
  1907995
370
    18
100
AcDbLine
 10
58.93281406904172
 20
-22.85572059684723
 30
0.0
 11
58.93281406904172
 21
-23.49407972468556
 31
0.0
  0
LINE
  5
10C
330
79
100
AcDbEntity
  8
Camada 1
 62
   250
420
  1907995
370
    18
100
AcDbLine
 10
58.93281406904172
 20
-23.49407972468556
 30
0.0
 11
59.49133810573563
 21
-23.49407972468556
 31
0.0
  0
LWPOLYLINE
  5
10D
330
79
100
AcDbEntity
  8
Camada 1
 62
   250
420
  1907995
370
    18
100
AcDbPolyline
 90
       10
 70
     1
 43
0.0
 10
59.09248425133119
 20
-23.17473936010662
 10
59.09248425133119
 20
-23.09490426896221
 10
59.17199774115669
 20
-23.09490426896221
 10
59.25183283230111
 20
-23.09490426896221
 10
59.25183283230111
 20
-23.17473936010662
 10
59.33166792344616
 20
-23.17473936010662
 10
59.25183283230111
 20
-23.17473936010662
 10
59.25183283230111
 20
-23.25457445125167
 10
59.17199774115669
 20
-23.25457445125167
 10
59.09248425133119
 20
-23.25457445125167
  0
LINE
  5
10E
330
79
100
AcDbEntity
  8
Camada 1
 62
   250
420
  1907995
370
    18
100
AcDbLine
 10
62.12430272515799
 20
-23.49407972468556
 30
0.0
 11
62.12430272515799
 21
-22.85572059684723
 31
0.0
  0
LINE
  5
10F
330
79
100
AcDbEntity
  8
Camada 1
 62
   250
420
  1907995
370
    18
100
AcDbLine
 10
62.12430272515799
 20
-22.85572059684723
 30
0.0
 11
61.56609541703556
 21
-22.85572059684723
 31
0.0
  0
LINE
  5
110
330
79
100
AcDbEntity
  8
Camada 1
 62
   250
420
  1907995
370
    18
100
AcDbLine
 10
61.56609541703556
 20
-22.85572059684723
 30
0.0
 11
61.56609541703556
 21
-23.49407972468556
 31
0.0
  0
LINE
  5
111
330
79
100
AcDbEntity
  8
Camada 1
 62
   250
420
  1907995
370
    18
100
AcDbLine
 10
61.56609541703556
 20
-23.49407972468556
 30
0.0
 11
62.12430272515799
 21
-23.49407972468556
 31
0.0
  0
LWPOLYLINE
  5
112
330
79
100
AcDbEntity
  8
Camada 1
 62
   250
420
  1907995
370
    18
100
AcDbPolyline
 90
       10
 70
     1
 43
0.0
 10
61.72576559932503
 20
-23.17473936010662
 10
61.72576559932503
 20
-23.09490426896221
 10
61.80560069047008
 20
-23.09490426896221
 10
61.88479745172347
 20
-23.09490426896221
 10
61.88479745172347
 20
-23.17473936010662
 10
61.96463254286789
 20
-23.17473936010662
 10
61.88479745172347
 20
-23.17473936010662
 10
61.88479745172347
 20
-23.25457445125167
 10
61.80560069047008
 20
-23.25457445125167
 10
61.72576559932503
 20
-23.25457445125167
  0
LINE
  5
113
330
79
100
AcDbEntity
  8
Camada 1
 62
   250
420
  1907995
370
    18
100
AcDbLine
 10
64.75758407315247
 20
-23.49407972468556
 30
0.0
 11
64.75758407315247
 21
-22.85572059684723
 31
0.0
  0
LINE
  5
114
330
79
100
AcDbEntity
  8
Camada 1
 62
   250
420
  1907995
370
    18
100
AcDbLine
 10
64.75758407315247
 20
-22.85572059684723
 30
0.0
 11
64.19905516371113
 21
-22.85572059684723
 31
0.0
  0
LINE
  5
115
330
79
100
AcDbEntity
  8
Camada 1
 62
   250
420
  1907995
370
    18
100
AcDbLine
 10
64.19905516371113
 20
-22.85572059684723
 30
0.0
 11
64.19905516371113
 21
-23.49407972468556
 31
0.0
  0
LINE
  5
116
330
79
100
AcDbEntity
  8
Camada 1
 62
   250
420
  1907995
370
    18
100
AcDbLine
 10
64.19905516371113
 20
-23.49407972468556
 30
0.0
 11
64.75758407315247
 21
-23.49407972468556
 31
0.0
  0
LWPOLYLINE
  5
117
330
79
100
AcDbEntity
  8
Camada 1
 62
   250
420
  1907995
370
    18
100
AcDbPolyline
 90
        8
 70
     1
 43
0.0
 10
64.35872534600061
 20
-23.17473936010662
 10
64.35872534600061
 20
-23.09490426896221
 10
64.43856043714565
 20
-23.09490426896221
 10
64.51775719839905
 20
-23.09490426896221
 10
64.59791389086301
 20
-23.17473936010662
 10
64.51775719839905
 20
-23.25457445125167
 10
64.43856043714565
 20
-23.25457445125167
 10
64.35872534600061
 20
-23.25457445125167
  0
LINE
  5
118
330
79
100
AcDbEntity
  8
Camada 1
 62
   250
420
  1907995
370
    18
100
AcDbLine
 10
59.49133810573563
 20
-20.86144157933017
 30
0.0
 11
59.49133810573563
 21
-20.22339430731653
 31
0.0
  0
LINE
  5
119
330
79
100
AcDbEntity
  8
Camada 1
 62
   250
420
  1907995
370
    18
100
AcDbLine
 10
59.49133810573563
 20
-20.22339430731653
 30
0.0
 11
58.93281406904172
 21
-20.22339430731653
 31
0.0
  0
LINE
  5
11A
330
79
100
AcDbEntity
  8
Camada 1
 62
   250
420
  1907995
370
    18
100
AcDbLine
 10
58.93281406904172
 20
-20.22339430731653
 30
0.0
 11
58.93281406904172
 21
-20.86144157933017
 31
0.0
  0
LINE
  5
11B
330
79
100
AcDbEntity
  8
Camada 1
 62
   250
420
  1907995
370
    18
100
AcDbLine
 10
58.93281406904172
 20
-20.86144157933017
 30
0.0
 11
59.49133810573563
 21
-20.86144157933017
 31
0.0
  0
LWPOLYLINE
  5
11C
330
79
100
AcDbEntity
  8
Camada 1
 62
   250
420
  1907995
370
    18
100
AcDbPolyline
 90
       10
 70
     1
 43
0.0
 10
59.09248425133119
 20
-20.54241307057592
 10
59.09248425133119
 20
-20.4625779794315
 10
59.17199774115669
 20
-20.4625779794315
 10
59.25183283230111
 20
-20.4625779794315
 10
59.25183283230111
 20
-20.54241307057592
 10
59.33166792344616
 20
-20.54241307057592
 10
59.25183283230111
 20
-20.54241307057592
 10
59.25183283230111
 20
-20.62224816172097
 10
59.17199774115669
 20
-20.62224816172097
 10
59.09248425133119
 20
-20.62224816172097
  0
LINE
  5
11D
330
79
100
AcDbEntity
  8
Camada 1
 62
   250
420
  1907995
370
    18
100
AcDbLine
 10
62.12430272515799
 20
-20.86144157933017
 30
0.0
 11
62.12430272515799
 21
-20.22339430731653
 31
0.0
  0
LINE
  5
11E
330
79
100
AcDbEntity
  8
Camada 1
 62
   250
420
  1907995
370
    18
100
AcDbLine
 10
62.12430272515799
 20
-20.22339430731653
 30
0.0
 11
61.56609541703556
 21
-20.22339430731653
 31
0.0
  0
LINE
  5
11F
330
79
100
AcDbEntity
  8
Camada 1
 62
   250
420
  1907995
370
    18
100
AcDbLine
 10
61.56609541703556
 20
-20.22339430731653
 30
0.0
 11
61.56609541703556
 21
-20.86144157933017
 31
0.0
  0
LINE
  5
120
330
79
100
AcDbEntity
  8
Camada 1
 62
   250
420
  1907995
370
    18
100
AcDbLine
 10
61.56609541703556
 20
-20.86144157933017
 30
0.0
 11
62.12430272515799
 21
-20.86144157933017
 31
0.0
  0
LWPOLYLINE
  5
121
330
79
100
AcDbEntity
  8
Camada 1
 62
   250
420
  1907995
370
    18
100
AcDbPolyline
 90
       10
 70
     1
 43
0.0
 10
61.72576559932503
 20
-20.54241307057592
 10
61.72576559932503
 20
-20.4625779794315
 10
61.80560069047008
 20
-20.4625779794315
 10
61.88479745172347
 20
-20.4625779794315
 10
61.88479745172347
 20
-20.54241307057592
 10
61.96463254286789
 20
-20.54241307057592
 10
61.88479745172347
 20
-20.54241307057592
 10
61.88479745172347
 20
-20.62224816172097
 10
61.80560069047008
 20
-20.62224816172097
 10
61.72576559932503
 20
-20.62224816172097
  0
LINE
  5
122
330
79
100
AcDbEntity
  8
Camada 1
 62
   250
420
  1907995
370
    18
100
AcDbLine
 10
64.75758407315247
 20
-20.86144157933017
 30
0.0
 11
64.75758407315247
 21
-20.22339430731653
 31
0.0
  0
LINE
  5
123
330
79
100
AcDbEntity
  8
Camada 1
 62
   250
420
  1907995
370
    18
100
AcDbLine
 10
64.75758407315247
 20
-20.22339430731653
 30
0.0
 11
64.19905516371113
 21
-20.22339430731653
 31
0.0
  0
LINE
  5
124
330
79
100
AcDbEntity
  8
Camada 1
 62
   250
420
  1907995
370
    18
100
AcDbLine
 10
64.19905516371113
 20
-20.22339430731653
 30
0.0
 11
64.19905516371113
 21
-20.86144157933017
 31
0.0
  0
LINE
  5
125
330
79
100
AcDbEntity
  8
Camada 1
 62
   250
420
  1907995
370
    18
100
AcDbLine
 10
64.19905516371113
 20
-20.86144157933017
 30
0.0
 11
64.75758407315247
 21
-20.86144157933017
 31
0.0
  0
LWPOLYLINE
  5
126
330
79
100
AcDbEntity
  8
Camada 1
 62
   250
420
  1907995
370
    18
100
AcDbPolyline
 90
        8
 70
     1
 43
0.0
 10
64.35872534600061
 20
-20.54241307057592
 10
64.35872534600061
 20
-20.4625779794315
 10
64.43856043714565
 20
-20.4625779794315
 10
64.51775719839905
 20
-20.4625779794315
 10
64.59791389086301
 20
-20.54241307057592
 10
64.51775719839905
 20
-20.62224816172097
 10
64.43856043714565
 20
-20.62224816172097
 10
64.35872534600061
 20
-20.62224816172097
  0
LINE
  5
127
330
79
100
AcDbEntity
  8
Camada 1
 62
   250
420
  1907995
370
    18
100
AcDbLine
 10
51.59213726439128
 20
-20.86144157933017
 30
0.0
 11
51.59213726439128
 21
-20.22339430731653
 31
0.0
  0
LINE
  5
128
330
79
100
AcDbEntity
  8
Camada 1
 62
   250
420
  1907995
370
    18
100
AcDbLine
 10
51.59213726439128
 20
-20.22339430731653
 30
0.0
 11
51.03360835494994
 21
-20.22339430731653
 31
0.0
  0
LINE
  5
129
330
79
100
AcDbEntity
  8
Camada 1
 62
   250
420
  1907995
370
    18
100
AcDbLine
 10
51.03360835494994
 20
-20.22339430731653
 30
0.0
 11
51.03360835494994
 21
-20.86144157933017
 31
0.0
  0
LINE
  5
12A
330
79
100
AcDbEntity
  8
Camada 1
 62
   250
420
  1907995
370
    18
100
AcDbLine
 10
51.03360835494994
 20
-20.86144157933017
 30
0.0
 11
51.59213726439128
 21
-20.86144157933017
 31
0.0
  0
LWPOLYLINE
  5
12B
330
79
100
AcDbEntity
  8
Camada 1
 62
   250
420
  1907995
370
    18
100
AcDbPolyline
 90
        7
 70
     1
 43
0.0
 10
51.19264020734775
 20
-20.54241307057592
 10
51.19264020734775
 20
-20.4625779794315
 10
51.2724752984928
 20
-20.4625779794315
 10
51.35263199095676
 20
-20.4625779794315
 10
51.35263199095676
 20
-20.62224816172097
 10
51.2724752984928
 20
-20.62224816172097
 10
51.19264020734775
 20
-20.62224816172097
  0
LINE
  5
12C
330
79
100
AcDbEntity
  8
Camada 1
 62
   250
420
  1907995
370
    18
100
AcDbLine
 10
51.59213726439128
 20
-23.49407972468556
 30
0.0
 11
51.59213726439128
 21
-22.85572059684723
 31
0.0
  0
LINE
  5
12D
330
79
100
AcDbEntity
  8
Camada 1
 62
   250
420
  1907995
370
    18
100
AcDbLine
 10
51.59213726439128
 20
-22.85572059684723
 30
0.0
 11
51.03360835494994
 21
-22.85572059684723
 31
0.0
  0
LINE
  5
12E
330
79
100
AcDbEntity
  8
Camada 1
 62
   250
420
  1907995
370
    18
100
AcDbLine
 10
51.03360835494994
 20
-22.85572059684723
 30
0.0
 11
51.03360835494994
 21
-23.49407972468556
 31
0.0
  0
LINE
  5
12F
330
79
100
AcDbEntity
  8
Camada 1
 62
   250
420
  1907995
370
    18
100
AcDbLine
 10
51.03360835494994
 20
-23.49407972468556
 30
0.0
 11
51.59213726439128
 21
-23.49407972468556
 31
0.0
  0
LWPOLYLINE
  5
130
330
79
100
AcDbEntity
  8
Camada 1
 62
   250
420
  1907995
370
    18
100
AcDbPolyline
 90
        7
 70
     1
 43
0.0
 10
51.19264020734775
 20
-23.17473936010662
 10
51.19264020734775
 20
-23.09490426896221
 10
51.2724752984928
 20
-23.09490426896221
 10
51.35263199095676
 20
-23.09490426896221
 10
51.35263199095676
 20
-23.25457445125167
 10
51.2724752984928
 20
-23.25457445125167
 10
51.19264020734775
 20
-23.25457445125167
  0
LINE
  5
131
330
79
100
AcDbEntity
  8
Camada 1
 62
   250
420
  1907995
370
    18
100
AcDbLine
 10
51.59213726439128
 20
-26.1264060142169
 30
0.0
 11
51.59213726439128
 21
-25.56819383334767
 31
0.0
  0
LINE
  5
132
330
79
100
AcDbEntity
  8
Camada 1
 62
   250
420
  1907995
370
    18
100
AcDbLine
 10
51.59213726439128
 20
-25.56819383334767
 30
0.0
 11
51.03360835494994
 21
-25.56819383334767
 31
0.0
  0
LINE
  5
133
330
79
100
AcDbEntity
  8
Camada 1
 62
   250
420
  1907995
370
    18
100
AcDbLine
 10
51.03360835494994
 20
-25.56819383334767
 30
0.0
 11
51.03360835494994
 21
-26.1264060142169
 31
0.0
  0
LINE
  5
134
330
79
100
AcDbEntity
  8
Camada 1
 62
   250
420
  1907995
370
    18
100
AcDbLine
 10
51.03360835494994
 20
-26.1264060142169
 30
0.0
 11
51.59213726439128
 21
-26.1264060142169
 31
0.0
  0
LWPOLYLINE
  5
135
330
79
100
AcDbEntity
  8
Camada 1
 62
   250
420
  1907995
370
    18
100
AcDbPolyline
 90
        7
 70
     1
 43
0.0
 10
51.19264020734775
 20
-25.80737750546265
 10
51.19264020734775
 20
-25.72786401563714
 10
51.2724752984928
 20
-25.72786401563714
 10
51.35263199095676
 20
-25.72786401563714
 10
51.35263199095676
 20
-25.88721259660771
 10
51.2724752984928
 20
-25.88721259660771
 10
51.19264020734775
 20
-25.88721259660771
  0
LINE
  5
136
330
79
100
AcDbEntity
  8
Camada 1
 62
   250
420
  1907995
370
    18
100
AcDbLine
 10
54.22509701106622
 20
-20.86144157933017
 30
0.0
 11
54.22509701106622
 21
-20.22339430731653
 31
0.0
  0
LINE
  5
137
330
79
100
AcDbEntity
  8
Camada 1
 62
   250
420
  1907995
370
    18
100
AcDbLine
 10
54.22509701106622
 20
-20.22339430731653
 30
0.0
 11
53.66657297437231
 21
-20.22339430731653
 31
0.0
  0
LINE
  5
138
330
79
100
AcDbEntity
  8
Camada 1
 62
   250
420
  1907995
370
    18
100
AcDbLine
 10
53.66657297437231
 20
-20.22339430731653
 30
0.0
 11
53.66657297437231
 21
-20.86144157933017
 31
0.0
  0
LINE
  5
139
330
79
100
AcDbEntity
  8
Camada 1
 62
   250
420
  1907995
370
    18
100
AcDbLine
 10
53.66657297437231
 20
-20.86144157933017
 30
0.0
 11
54.22509701106622
 21
-20.86144157933017
 31
0.0
  0
LWPOLYLINE
  5
13A
330
79
100
AcDbEntity
  8
Camada 1
 62
   250
420
  1907995
370
    18
100
AcDbPolyline
 90
        7
 70
     1
 43
0.0
 10
53.82655988523389
 20
-20.54241307057592
 10
53.82655988523389
 20
-20.4625779794315
 10
53.90575664648729
 20
-20.4625779794315
 10
53.98559173763169
 20
-20.4625779794315
 10
53.98559173763169
 20
-20.62224816172097
 10
53.90575664648729
 20
-20.62224816172097
 10
53.82655988523389
 20
-20.62224816172097
  0
LINE
  5
13B
330
79
100
AcDbEntity
  8
Camada 1
 62
   250
420
  1907995
370
    18
100
AcDbLine
 10
54.22509701106622
 20
-23.49407972468556
 30
0.0
 11
54.22509701106622
 21
-22.85572059684723
 31
0.0
  0
LINE
  5
13C
330
79
100
AcDbEntity
  8
Camada 1
 62
   250
420
  1907995
370
    18
100
AcDbLine
 10
54.22509701106622
 20
-22.85572059684723
 30
0.0
 11
53.66657297437231
 21
-22.85572059684723
 31
0.0
  0
LINE
  5
13D
330
79
100
AcDbEntity
  8
Camada 1
 62
   250
420
  1907995
370
    18
100
AcDbLine
 10
53.66657297437231
 20
-22.85572059684723
 30
0.0
 11
53.66657297437231
 21
-23.49407972468556
 31
0.0
  0
LINE
  5
13E
330
79
100
AcDbEntity
  8
Camada 1
 62
   250
420
  1907995
370
    18
100
AcDbLine
 10
53.66657297437231
 20
-23.49407972468556
 30
0.0
 11
54.22509701106622
 21
-23.49407972468556
 31
0.0
  0
LWPOLYLINE
  5
13F
330
79
100
AcDbEntity
  8
Camada 1
 62
   250
420
  1907995
370
    18
100
AcDbPolyline
 90
        7
 70
     1
 43
0.0
 10
53.82655988523389
 20
-23.17473936010662
 10
53.82655988523389
 20
-23.09490426896221
 10
53.90575664648729
 20
-23.09490426896221
 10
53.98559173763169
 20
-23.09490426896221
 10
53.98559173763169
 20
-23.25457445125167
 10
53.90575664648729
 20
-23.25457445125167
 10
53.82655988523389
 20
-23.25457445125167
  0
LINE
  5
140
330
79
100
AcDbEntity
  8
Camada 1
 62
   250
420
  1907995
370
    18
100
AcDbLine
 10
56.85837835906069
 20
-20.86144157933017
 30
0.0
 11
56.85837835906069
 21
-20.22339430731653
 31
0.0
  0
LINE
  5
141
330
79
100
AcDbEntity
  8
Camada 1
 62
   250
420
  1907995
370
    18
100
AcDbLine
 10
56.85837835906069
 20
-20.22339430731653
 30
0.0
 11
56.29985432236614
 21
-20.22339430731653
 31
0.0
  0
LINE
  5
142
330
79
100
AcDbEntity
  8
Camada 1
 62
   250
420
  1907995
370
    18
100
AcDbLine
 10
56.29985432236614
 20
-20.22339430731653
 30
0.0
 11
56.29985432236614
 21
-20.86144157933017
 31
0.0
  0
LINE
  5
143
330
79
100
AcDbEntity
  8
Camada 1
 62
   250
420
  1907995
370
    18
100
AcDbLine
 10
56.29985432236614
 20
-20.86144157933017
 30
0.0
 11
56.85837835906069
 21
-20.86144157933017
 31
0.0
  0
LWPOLYLINE
  5
144
330
79
100
AcDbEntity
  8
Camada 1
 62
   250
420
  1907995
370
    18
100
AcDbPolyline
 90
        7
 70
     1
 43
0.0
 10
56.45952450465625
 20
-20.54241307057592
 10
56.45952450465625
 20
-20.4625779794315
 10
56.53871639316221
 20
-20.4625779794315
 10
56.61855148430663
 20
-20.4625779794315
 10
56.61855148430663
 20
-20.62224816172097
 10
56.53871639316221
 20
-20.62224816172097
 10
56.45952450465625
 20
-20.62224816172097
  0
LWPOLYLINE
  5
145
330
79
100
AcDbEntity
  8
Camada 1
 62
   250
420
  1907995
370
    18
100
AcDbPolyline
 90
        7
 70
     1
 43
0.0
 10
38.19373171814313
 20
-23.17493426999745
 10
38.19373171814313
 20
-23.0950991788524
 10
38.11389662699807
 20
-23.0950991788524
 10
38.03406153585302
 20
-23.0950991788524
 10
38.03406153585302
 20
-23.25476936114251
 10
38.11389662699807
 20
-23.25476936114251
 10
38.19373171814313
 20
-23.25476936114251
  0
LINE
  5
146
330
79
100
AcDbEntity
  8
Camada 1
 62
   250
420
  1907995
370
    18
100
AcDbLine
 10
37.79519459231016
 20
-22.8559057612432
 30
0.0
 11
38.3534019004326
 21
-22.8559057612432
 31
0.0
  0
LINE
  5
147
330
79
100
AcDbEntity
  8
Camada 1
 62
   250
420
  1907995
370
    18
100
AcDbLine
 10
37.79519459231016
 20
-23.49395303325747
 30
0.0
 11
37.79519459231016
 21
-22.8559057612432
 31
0.0
  0
LINE
  5
148
330
79
100
AcDbEntity
  8
Camada 1
 62
   250
420
  1907995
370
    18
100
AcDbLine
 10
38.3534019004326
 20
-22.8559057612432
 30
0.0
 11
38.3534019004326
 21
-23.49395303325747
 31
0.0
  0
LINE
  5
149
330
79
100
AcDbEntity
  8
Camada 1
 62
   250
420
  1907995
370
    18
100
AcDbLine
 10
38.3534019004326
 20
-23.49395303325747
 30
0.0
 11
37.79519459231016
 21
-23.49395303325747
 31
0.0
  0
LWPOLYLINE
  5
14A
330
79
100
AcDbEntity
  8
Camada 1
 62
   250
420
  1907995
370
    18
100
AcDbPolyline
 90
        7
 70
     1
 43
0.0
 10
35.56140786498582
 20
-23.17493426999745
 10
35.56140786498582
 20
-23.0950991788524
 10
35.48157277384077
 20
-23.0950991788524
 10
35.40173768269635
 20
-23.0950991788524
 10
35.40173768269635
 20
-23.25476936114251
 10
35.48157277384077
 20
-23.25476936114251
 10
35.56140786498582
 20
-23.25476936114251
  0
LINE
  5
14B
330
79
100
AcDbEntity
  8
Camada 1
 62
   250
420
  1907995
370
    18
100
AcDbLine
 10
35.16287073915285
 20
-22.8559057612432
 30
0.0
 11
35.72107804727528
 21
-22.8559057612432
 31
0.0
  0
LINE
  5
14C
330
79
100
AcDbEntity
  8
Camada 1
 62
   250
420
  1907995
370
    18
100
AcDbLine
 10
35.16287073915285
 20
-23.49395303325747
 30
0.0
 11
35.16287073915285
 21
-22.8559057612432
 31
0.0
  0
LINE
  5
14D
330
79
100
AcDbEntity
  8
Camada 1
 62
   250
420
  1907995
370
    18
100
AcDbLine
 10
35.72107804727528
 20
-22.8559057612432
 30
0.0
 11
35.72107804727528
 21
-23.49395303325747
 31
0.0
  0
LINE
  5
14E
330
79
100
AcDbEntity
  8
Camada 1
 62
   250
420
  1907995
370
    18
100
AcDbLine
 10
35.72107804727528
 20
-23.49395303325747
 30
0.0
 11
35.16287073915285
 21
-23.49395303325747
 31
0.0
  0
LWPOLYLINE
  5
14F
330
79
100
AcDbEntity
  8
Camada 1
 62
   250
420
  1907995
370
    18
100
AcDbPolyline
 90
        7
 70
     1
 43
0.0
 10
48.72334142297042
 20
-20.5422863791472
 10
48.72334142297042
 20
-20.4627728893217
 10
48.64350633182538
 20
-20.4627728893217
 10
48.56367124068096
 20
-20.4627728893217
 10
48.56367124068096
 20
-20.62212147029161
 10
48.64350633182538
 20
-20.62212147029161
 10
48.72334142297042
 20
-20.62212147029161
  0
LINE
  5
150
330
79
100
AcDbEntity
  8
Camada 1
 62
   250
420
  1907995
370
    18
100
AcDbLine
 10
48.40463938828252
 20
-20.22326761588781
 30
0.0
 11
48.96284182365752
 21
-20.22326761588781
 31
0.0
  0
LINE
  5
151
330
79
100
AcDbEntity
  8
Camada 1
 62
   250
420
  1907995
370
    18
100
AcDbLine
 10
48.40463938828252
 20
-20.86162674372614
 30
0.0
 11
48.40463938828252
 21
-20.22326761588781
 31
0.0
  0
LINE
  5
152
330
79
100
AcDbEntity
  8
Camada 1
 62
   250
420
  1907995
370
    18
100
AcDbLine
 10
48.96284182365752
 20
-20.22326761588781
 30
0.0
 11
48.96284182365752
 21
-20.86162674372614
 31
0.0
  0
LINE
  5
153
330
79
100
AcDbEntity
  8
Camada 1
 62
   250
420
  1907995
370
    18
100
AcDbLine
 10
48.96284182365752
 20
-20.86162674372614
 30
0.0
 11
48.40463938828252
 21
-20.86162674372614
 31
0.0
  0
LWPOLYLINE
  5
154
330
79
100
AcDbEntity
  8
Camada 1
 62
   250
420
  1907995
370
    18
100
AcDbPolyline
 90
        7
 70
     1
 43
0.0
 10
46.09101756981313
 20
-20.5422863791472
 10
46.09101756981313
 20
-20.4627728893217
 10
46.01118247866806
 20
-20.4627728893217
 10
45.93134738752365
 20
-20.4627728893217
 10
45.93134738752365
 20
-20.62212147029161
 10
46.01118247866806
 20
-20.62212147029161
 10
46.09101756981313
 20
-20.62212147029161
  0
LINE
  5
155
330
79
100
AcDbEntity
  8
Camada 1
 62
   250
420
  1907995
370
    18
100
AcDbLine
 10
45.77231553512521
 20
-20.22326761588781
 30
0.0
 11
46.33052284324764
 21
-20.22326761588781
 31
0.0
  0
LINE
  5
156
330
79
100
AcDbEntity
  8
Camada 1
 62
   250
420
  1907995
370
    18
100
AcDbLine
 10
45.77231553512521
 20
-20.86162674372614
 30
0.0
 11
45.77231553512521
 21
-20.22326761588781
 31
0.0
  0
LINE
  5
157
330
79
100
AcDbEntity
  8
Camada 1
 62
   250
420
  1907995
370
    18
100
AcDbLine
 10
46.33052284324764
 20
-20.22326761588781
 30
0.0
 11
46.33052284324764
 21
-20.86162674372614
 31
0.0
  0
LINE
  5
158
330
79
100
AcDbEntity
  8
Camada 1
 62
   250
420
  1907995
370
    18
100
AcDbLine
 10
46.33052284324764
 20
-20.86162674372614
 30
0.0
 11
45.77231553512521
 21
-20.86162674372614
 31
0.0
  0
LWPOLYLINE
  5
159
330
79
100
AcDbEntity
  8
Camada 1
 62
   250
420
  1907995
370
    18
100
AcDbPolyline
 90
        7
 70
     1
 43
0.0
 10
43.45869615302921
 20
-20.5422863791472
 10
43.45869615302921
 20
-20.4627728893217
 10
43.3788610618848
 20
-20.4627728893217
 10
43.29902597073974
 20
-20.4627728893217
 10
43.29902597073974
 20
-20.62212147029161
 10
43.3788610618848
 20
-20.62212147029161
 10
43.45869615302921
 20
-20.62212147029161
  0
LINE
  5
15A
330
79
100
AcDbEntity
  8
Camada 1
 62
   250
420
  1907995
370
    18
100
AcDbLine
 10
43.06015902719688
 20
-20.22326761588781
 30
0.0
 11
43.69820142646373
 21
-20.22326761588781
 31
0.0
  0
LINE
  5
15B
330
79
100
AcDbEntity
  8
Camada 1
 62
   250
420
  1907995
370
    18
100
AcDbLine
 10
43.06015902719688
 20
-20.86162674372614
 30
0.0
 11
43.06015902719688
 21
-20.22326761588781
 31
0.0
  0
LINE
  5
15C
330
79
100
AcDbEntity
  8
Camada 1
 62
   250
420
  1907995
370
    18
100
AcDbLine
 10
43.69820142646373
 20
-20.22326761588781
 30
0.0
 11
43.69820142646373
 21
-20.86162674372614
 31
0.0
  0
LINE
  5
15D
330
79
100
AcDbEntity
  8
Camada 1
 62
   250
420
  1907995
370
    18
100
AcDbLine
 10
43.69820142646373
 20
-20.86162674372614
 30
0.0
 11
43.06015902719688
 21
-20.86162674372614
 31
0.0
  0
LWPOLYLINE
  5
15E
330
79
100
AcDbEntity
  8
Camada 1
 62
   250
420
  1907995
370
    18
100
AcDbPolyline
 90
        7
 70
     1
 43
0.0
 10
40.82605313492639
 20
-20.5422863791472
 10
40.82605313492639
 20
-20.4627728893217
 10
40.74621804378198
 20
-20.4627728893217
 10
40.66638295263692
 20
-20.4627728893217
 10
40.66638295263692
 20
-20.62212147029161
 10
40.74621804378198
 20
-20.62212147029161
 10
40.82605313492639
 20
-20.62212147029161
  0
LINE
  5
15F
330
79
100
AcDbEntity
  8
Camada 1
 62
   250
420
  1907995
370
    18
100
AcDbLine
 10
40.42751600909407
 20
-20.22326761588781
 30
0.0
 11
40.98572331721586
 21
-20.22326761588781
 31
0.0
  0
LINE
  5
160
330
79
100
AcDbEntity
  8
Camada 1
 62
   250
420
  1907995
370
    18
100
AcDbLine
 10
40.42751600909407
 20
-20.86162674372614
 30
0.0
 11
40.42751600909407
 21
-20.22326761588781
 31
0.0
  0
LINE
  5
161
330
79
100
AcDbEntity
  8
Camada 1
 62
   250
420
  1907995
370
    18
100
AcDbLine
 10
40.98572331721586
 20
-20.22326761588781
 30
0.0
 11
40.98572331721586
 21
-20.86162674372614
 31
0.0
  0
LINE
  5
162
330
79
100
AcDbEntity
  8
Camada 1
 62
   250
420
  1907995
370
    18
100
AcDbLine
 10
40.98572331721586
 20
-20.86162674372614
 30
0.0
 11
40.42751600909407
 21
-20.86162674372614
 31
0.0
  0
LWPOLYLINE
  5
163
330
79
100
AcDbEntity
  8
Camada 1
 62
   250
420
  1907995
370
    18
100
AcDbPolyline
 90
        7
 70
     1
 43
0.0
 10
38.19373171814313
 20
-20.5422863791472
 10
38.19373171814313
 20
-20.4627728893217
 10
38.11389662699807
 20
-20.4627728893217
 10
38.03406153585302
 20
-20.4627728893217
 10
38.03406153585302
 20
-20.62212147029161
 10
38.11389662699807
 20
-20.62212147029161
 10
38.19373171814313
 20
-20.62212147029161
  0
LINE
  5
164
330
79
100
AcDbEntity
  8
Camada 1
 62
   250
420
  1907995
370
    18
100
AcDbLine
 10
37.79519459231016
 20
-20.22326761588781
 30
0.0
 11
38.3534019004326
 21
-20.22326761588781
 31
0.0
  0
LINE
  5
165
330
79
100
AcDbEntity
  8
Camada 1
 62
   250
420
  1907995
370
    18
100
AcDbLine
 10
37.79519459231016
 20
-20.86162674372614
 30
0.0
 11
37.79519459231016
 21
-20.22326761588781
 31
0.0
  0
LINE
  5
166
330
79
100
AcDbEntity
  8
Camada 1
 62
   250
420
  1907995
370
    18
100
AcDbLine
 10
38.3534019004326
 20
-20.22326761588781
 30
0.0
 11
38.3534019004326
 21
-20.86162674372614
 31
0.0
  0
LINE
  5
167
330
79
100
AcDbEntity
  8
Camada 1
 62
   250
420
  1907995
370
    18
100
AcDbLine
 10
38.3534019004326
 20
-20.86162674372614
 30
0.0
 11
37.79519459231016
 21
-20.86162674372614
 31
0.0
  0
LINE
  5
168
330
79
100
AcDbEntity
  8
Camada 1
 62
   250
420
  1907995
370
    18
100
AcDbLine
 10
35.16287073915285
 20
-20.22326761588781
 30
0.0
 11
35.72107804727528
 21
-20.22326761588781
 31
0.0
  0
LINE
  5
169
330
79
100
AcDbEntity
  8
Camada 1
 62
   250
420
  1907995
370
    18
100
AcDbLine
 10
35.16287073915285
 20
-20.86162674372614
 30
0.0
 11
35.16287073915285
 21
-20.22326761588781
 31
0.0
  0
LINE
  5
16A
330
79
100
AcDbEntity
  8
Camada 1
 62
   250
420
  1907995
370
    18
100
AcDbLine
 10
35.72107804727528
 20
-20.22326761588781
 30
0.0
 11
35.72107804727528
 21
-20.86162674372614
 31
0.0
  0
LINE
  5
16B
330
79
100
AcDbEntity
  8
Camada 1
 62
   250
420
  1907995
370
    18
100
AcDbLine
 10
35.72107804727528
 20
-20.86162674372614
 30
0.0
 11
35.16287073915285
 21
-20.86162674372614
 31
0.0
  0
LWPOLYLINE
  5
16C
330
79
100
AcDbEntity
  8
Camada 1
 62
   250
420
  1907995
370
    18
100
AcDbPolyline
 90
        7
 70
     1
 43
0.0
 10
35.56140786498582
 20
-20.5422863791472
 10
35.56140786498582
 20
-20.4627728893217
 10
35.48157277384077
 20
-20.4627728893217
 10
35.40173768269635
 20
-20.4627728893217
 10
35.40173768269635
 20
-20.62212147029161
 10
35.48157277384077
 20
-20.62212147029161
 10
35.56140786498582
 20
-20.62212147029161
  0
LINE
  5
16D
330
79
100
AcDbEntity
  8
Camada 1
 62
   250
420
  1907995
370
    18
100
AcDbLine
 10
51.59548484176034
 20
-36.65652004838632
 30
0.0
 11
51.03727753363854
 21
-36.65652004838632
 31
0.0
  0
LINE
  5
16E
330
79
100
AcDbEntity
  8
Camada 1
 62
   250
420
  1907995
370
    18
100
AcDbLine
 10
51.59548484176034
 20
-36.09767441037287
 30
0.0
 11
51.59548484176034
 21
-36.65652004838632
 31
0.0
  0
LINE
  5
16F
330
79
100
AcDbEntity
  8
Camada 1
 62
   250
420
  1907995
370
    18
100
AcDbLine
 10
51.03727753363854
 20
-36.65652004838632
 30
0.0
 11
51.03727753363854
 21
-36.09767441037287
 31
0.0
  0
LINE
  5
170
330
79
100
AcDbEntity
  8
Camada 1
 62
   250
420
  1907995
370
    18
100
AcDbLine
 10
51.03727753363854
 20
-36.09767441037287
 30
0.0
 11
51.59548484176034
 21
-36.09767441037287
 31
0.0
  0
LWPOLYLINE
  5
171
330
79
100
AcDbEntity
  8
Camada 1
 62
   250
420
  1907995
370
    18
100
AcDbPolyline
 90
        7
 70
     1
 43
0.0
 10
51.35597956832581
 20
-36.33717968380675
 10
51.35597956832581
 20
-36.25734459266233
 10
51.27614447718141
 20
-36.25734459266233
 10
51.19630938603634
 20
-36.25734459266233
 10
51.19630938603634
 20
-36.41670291912712
 10
51.27614447718141
 20
-36.41670291912712
 10
51.35597956832581
 20
-36.41670291912712
  0
LINE
  5
172
330
79
100
AcDbEntity
  8
Camada 1
 62
   250
420
  1907995
370
    18
100
AcDbLine
 10
54.22781113129104
 20
-36.65652004838632
 30
0.0
 11
53.66960382316925
 21
-36.65652004838632
 31
0.0
  0
LINE
  5
173
330
79
100
AcDbEntity
  8
Camada 1
 62
   250
420
  1907995
370
    18
100
AcDbLine
 10
54.22781113129104
 20
-36.09767441037287
 30
0.0
 11
54.22781113129104
 21
-36.65652004838632
 31
0.0
  0
LINE
  5
174
330
79
100
AcDbEntity
  8
Camada 1
 62
   250
420
  1907995
370
    18
100
AcDbLine
 10
53.66960382316925
 20
-36.65652004838632
 30
0.0
 11
53.66960382316925
 21
-36.09767441037287
 31
0.0
  0
LINE
  5
175
330
79
100
AcDbEntity
  8
Camada 1
 62
   250
420
  1907995
370
    18
100
AcDbLine
 10
53.66960382316925
 20
-36.09767441037287
 30
0.0
 11
54.22781113129104
 21
-36.09767441037287
 31
0.0
  0
LWPOLYLINE
  5
176
330
79
100
AcDbEntity
  8
Camada 1
 62
   250
420
  1907995
370
    18
100
AcDbPolyline
 90
        7
 70
     1
 43
0.0
 10
53.98830585785717
 20
-36.33717968380675
 10
53.98830585785717
 20
-36.25734459266233
 10
53.9084707667121
 20
-36.25734459266233
 10
53.82927400545871
 20
-36.25734459266233
 10
53.82927400545871
 20
-36.41670291912712
 10
53.9084707667121
 20
-36.41670291912712
 10
53.98830585785717
 20
-36.41670291912712
  0
LINE
  5
177
330
79
100
AcDbEntity
  8
Camada 1
 62
   250
420
  1907995
370
    18
100
AcDbLine
 10
56.86013254807495
 20
-36.65652004838632
 30
0.0
 11
56.30192523995315
 21
-36.65652004838632
 31
0.0
  0
LINE
  5
178
330
79
100
AcDbEntity
  8
Camada 1
 62
   250
420
  1907995
370
    18
100
AcDbLine
 10
56.86013254807495
 20
-36.09767441037287
 30
0.0
 11
56.86013254807495
 21
-36.65652004838632
 31
0.0
  0
LINE
  5
179
330
79
100
AcDbEntity
  8
Camada 1
 62
   250
420
  1907995
370
    18
100
AcDbLine
 10
56.30192523995315
 20
-36.65652004838632
 30
0.0
 11
56.30192523995315
 21
-36.09767441037287
 31
0.0
  0
LINE
  5
17A
330
79
100
AcDbEntity
  8
Camada 1
 62
   250
420
  1907995
370
    18
100
AcDbLine
 10
56.30192523995315
 20
-36.09767441037287
 30
0.0
 11
56.86013254807495
 21
-36.09767441037287
 31
0.0
  0
LWPOLYLINE
  5
17B
330
79
100
AcDbEntity
  8
Camada 1
 62
   250
420
  1907995
370
    18
100
AcDbPolyline
 90
        7
 70
     1
 43
0.0
 10
56.62062727464043
 20
-36.33717968380675
 10
56.62062727464043
 20
-36.25734459266233
 10
56.54079218349601
 20
-36.25734459266233
 10
56.46159542224262
 20
-36.33717968380675
 10
56.46159542224262
 20
-36.41670291912712
 10
56.54079218349601
 20
-36.41670291912712
 10
56.62062727464043
 20
-36.41670291912712
  0
LINE
  5
17C
330
79
100
AcDbEntity
  8
Camada 1
 62
   250
420
  1907995
370
    18
100
AcDbLine
 10
59.49277556617777
 20
-36.65652004838632
 30
0.0
 11
58.93456825805597
 21
-36.65652004838632
 31
0.0
  0
LINE
  5
17D
330
79
100
AcDbEntity
  8
Camada 1
 62
   250
420
  1907995
370
    18
100
AcDbLine
 10
59.49277556617777
 20
-36.09767441037287
 30
0.0
 11
59.49277556617777
 21
-36.65652004838632
 31
0.0
  0
LINE
  5
17E
330
79
100
AcDbEntity
  8
Camada 1
 62
   250
420
  1907995
370
    18
100
AcDbLine
 10
58.93456825805597
 20
-36.65652004838632
 30
0.0
 11
58.93456825805597
 21
-36.09767441037287
 31
0.0
  0
LINE
  5
17F
330
79
100
AcDbEntity
  8
Camada 1
 62
   250
420
  1907995
370
    18
100
AcDbLine
 10
58.93456825805597
 20
-36.09767441037287
 30
0.0
 11
59.49277556617777
 21
-36.09767441037287
 31
0.0
  0
LWPOLYLINE
  5
180
330
79
100
AcDbEntity
  8
Camada 1
 62
   250
420
  1907995
370
    18
100
AcDbPolyline
 90
        8
 70
     1
 43
0.0
 10
59.3331053838883
 20
-36.33717968380675
 10
59.25327029274324
 20
-36.33717968380675
 10
59.25327029274324
 20
-36.25734459266233
 10
59.17343520159883
 20
-36.25734459266233
 10
59.09423844034544
 20
-36.33717968380675
 10
59.09423844034544
 20
-36.41670291912712
 10
59.17343520159883
 20
-36.41670291912712
 10
59.25327029274324
 20
-36.41670291912712
  0
LINE
  5
181
330
79
100
AcDbEntity
  8
Camada 1
 62
   250
420
  1907995
370
    18
100
AcDbLine
 10
62.12509698296168
 20
-36.65652004838632
 30
0.0
 11
61.56688967483924
 21
-36.65652004838632
 31
0.0
  0
LINE
  5
182
330
79
100
AcDbEntity
  8
Camada 1
 62
   250
420
  1907995
370
    18
100
AcDbLine
 10
62.12509698296168
 20
-36.09767441037287
 30
0.0
 11
62.12509698296168
 21
-36.65652004838632
 31
0.0
  0
LINE
  5
183
330
79
100
AcDbEntity
  8
Camada 1
 62
   250
420
  1907995
370
    18
100
AcDbLine
 10
61.56688967483924
 20
-36.65652004838632
 30
0.0
 11
61.56688967483924
 21
-36.09767441037287
 31
0.0
  0
LINE
  5
184
330
79
100
AcDbEntity
  8
Camada 1
 62
   250
420
  1907995
370
    18
100
AcDbLine
 10
61.56688967483924
 20
-36.09767441037287
 30
0.0
 11
62.12509698296168
 21
-36.09767441037287
 31
0.0
  0
LWPOLYLINE
  5
185
330
79
100
AcDbEntity
  8
Camada 1
 62
   250
420
  1907995
370
    18
100
AcDbPolyline
 90
        9
 70
     1
 43
0.0
 10
61.96542680067221
 20
-36.33717968380675
 10
61.88559170952716
 20
-36.33717968380675
 10
61.88559170952716
 20
-36.25734459266233
 10
61.80639494827377
 20
-36.25734459266233
 10
61.72655985712871
 20
-36.33717968380675
 10
61.72655985712871
 20
-36.41670291912712
 10
61.80639494827377
 20
-36.41670291912712
 10
61.88559170952716
 20
-36.41670291912712
 10
61.96542680067221
 20
-36.41670291912712
  0
LINE
  5
186
330
79
100
AcDbEntity
  8
Camada 1
 62
   250
420
  1907995
370
    18
100
AcDbLine
 10
64.75741839974559
 20
-36.65652004838632
 30
0.0
 11
64.1992110916238
 21
-36.65652004838632
 31
0.0
  0
LINE
  5
187
330
79
100
AcDbEntity
  8
Camada 1
 62
   250
420
  1907995
370
    18
100
AcDbLine
 10
64.75741839974559
 20
-36.09767441037287
 30
0.0
 11
64.75741839974559
 21
-36.65652004838632
 31
0.0
  0
LINE
  5
188
330
79
100
AcDbEntity
  8
Camada 1
 62
   250
420
  1907995
370
    18
100
AcDbLine
 10
64.1992110916238
 20
-36.65652004838632
 30
0.0
 11
64.1992110916238
 21
-36.09767441037287
 31
0.0
  0
LINE
  5
189
330
79
100
AcDbEntity
  8
Camada 1
 62
   250
420
  1907995
370
    18
100
AcDbLine
 10
64.1992110916238
 20
-36.09767441037287
 30
0.0
 11
64.75741839974559
 21
-36.09767441037287
 31
0.0
  0
LWPOLYLINE
  5
18A
330
79
100
AcDbEntity
  8
Camada 1
 62
   250
420
  1907995
370
    18
100
AcDbPolyline
 90
       10
 70
     1
 43
0.0
 10
64.59774821745613
 20
-36.33717968380675
 10
64.51791312631107
 20
-36.33717968380675
 10
64.51791312631107
 20
-36.25734459266233
 10
64.43871636505768
 20
-36.25734459266233
 10
64.43871636505768
 20
-36.33717968380675
 10
64.35888127391327
 20
-36.33717968380675
 10
64.35888127391327
 20
-36.41670291912712
 10
64.43871636505768
 20
-36.41670291912712
 10
64.51791312631107
 20
-36.41670291912712
 10
64.59774821745613
 20
-36.41670291912712
  0
LINE
  5
18B
330
79
100
AcDbEntity
  8
Camada 1
 62
   250
420
  1907995
370
    18
100
AcDbLine
 10
51.59548484176034
 20
-39.28884146516959
 30
0.0
 11
51.03727753363854
 21
-39.28884146516959
 31
0.0
  0
LINE
  5
18C
330
79
100
AcDbEntity
  8
Camada 1
 62
   250
420
  1907995
370
    18
100
AcDbLine
 10
51.59548484176034
 20
-38.72999582715614
 30
0.0
 11
51.59548484176034
 21
-39.28884146516959
 31
0.0
  0
LINE
  5
18D
330
79
100
AcDbEntity
  8
Camada 1
 62
   250
420
  1907995
370
    18
100
AcDbLine
 10
51.03727753363854
 20
-39.28884146516959
 30
0.0
 11
51.03727753363854
 21
-38.72999582715614
 31
0.0
  0
LINE
  5
18E
330
79
100
AcDbEntity
  8
Camada 1
 62
   250
420
  1907995
370
    18
100
AcDbLine
 10
51.03727753363854
 20
-38.72999582715614
 30
0.0
 11
51.59548484176034
 21
-38.72999582715614
 31
0.0
  0
LWPOLYLINE
  5
18F
330
79
100
AcDbEntity
  8
Camada 1
 62
   250
420
  1907995
370
    18
100
AcDbPolyline
 90
        8
 70
     1
 43
0.0
 10
51.35597956832581
 20
-38.96950110059066
 10
51.35597956832581
 20
-38.88998761076516
 10
51.27614447718141
 20
-38.88998761076516
 10
51.19630938603634
 20
-38.88998761076516
 10
51.19630938603634
 20
-39.04933619173571
 10
51.27614447718141
 20
-39.04933619173571
 10
51.27614447718141
 20
-39.12917128288012
 10
51.35597956832581
 20
-39.04933619173571
  0
LINE
  5
190
330
79
100
AcDbEntity
  8
Camada 1
 62
   250
420
  1907995
370
    18
100
AcDbLine
 10
54.22781113129104
 20
-39.28884146516959
 30
0.0
 11
53.66960382316925
 21
-39.28884146516959
 31
0.0
  0
LINE
  5
191
330
79
100
AcDbEntity
  8
Camada 1
 62
   250
420
  1907995
370
    18
100
AcDbLine
 10
54.22781113129104
 20
-38.72999582715614
 30
0.0
 11
54.22781113129104
 21
-39.28884146516959
 31
0.0
  0
LINE
  5
192
330
79
100
AcDbEntity
  8
Camada 1
 62
   250
420
  1907995
370
    18
100
AcDbLine
 10
53.66960382316925
 20
-39.28884146516959
 30
0.0
 11
53.66960382316925
 21
-38.72999582715614
 31
0.0
  0
LINE
  5
193
330
79
100
AcDbEntity
  8
Camada 1
 62
   250
420
  1907995
370
    18
100
AcDbLine
 10
53.66960382316925
 20
-38.72999582715614
 30
0.0
 11
54.22781113129104
 21
-38.72999582715614
 31
0.0
  0
LWPOLYLINE
  5
194
330
79
100
AcDbEntity
  8
Camada 1
 62
   250
420
  1907995
370
    18
100
AcDbPolyline
 90
        8
 70
     1
 43
0.0
 10
53.98830585785717
 20
-38.96950110059066
 10
53.98830585785717
 20
-38.88998761076516
 10
53.9084707667121
 20
-38.88998761076516
 10
53.82927400545871
 20
-38.88998761076516
 10
53.82927400545871
 20
-39.04933619173571
 10
53.9084707667121
 20
-39.04933619173571
 10
53.9084707667121
 20
-39.12917128288012
 10
53.98830585785717
 20
-39.04933619173571
  0
LINE
  5
195
330
79
100
AcDbEntity
  8
Camada 1
 62
   250
420
  1907995
370
    18
100
AcDbLine
 10
56.86013254807495
 20
-39.28884146516959
 30
0.0
 11
56.30192523995315
 21
-39.28884146516959
 31
0.0
  0
LINE
  5
196
330
79
100
AcDbEntity
  8
Camada 1
 62
   250
420
  1907995
370
    18
100
AcDbLine
 10
56.86013254807495
 20
-38.72999582715614
 30
0.0
 11
56.86013254807495
 21
-39.28884146516959
 31
0.0
  0
LINE
  5
197
330
79
100
AcDbEntity
  8
Camada 1
 62
   250
420
  1907995
370
    18
100
AcDbLine
 10
56.30192523995315
 20
-39.28884146516959
 30
0.0
 11
56.30192523995315
 21
-38.72999582715614
 31
0.0
  0
LINE
  5
198
330
79
100
AcDbEntity
  8
Camada 1
 62
   250
420
  1907995
370
    18
100
AcDbLine
 10
56.30192523995315
 20
-38.72999582715614
 30
0.0
 11
56.86013254807495
 21
-38.72999582715614
 31
0.0
  0
LWPOLYLINE
  5
199
330
79
100
AcDbEntity
  8
Camada 1
 62
   250
420
  1907995
370
    18
100
AcDbPolyline
 90
        8
 70
     1
 43
0.0
 10
56.62062727464043
 20
-38.96950110059066
 10
56.62062727464043
 20
-38.88998761076516
 10
56.54079218349601
 20
-38.88998761076516
 10
56.46159542224262
 20
-38.96950110059066
 10
56.46159542224262
 20
-39.04933619173571
 10
56.54079218349601
 20
-39.04933619173571
 10
56.54079218349601
 20
-39.12917128288012
 10
56.62062727464043
 20
-39.04933619173571
  0
LINE
  5
19A
330
79
100
AcDbEntity
  8
Camada 1
 62
   250
420
  1907995
370
    18
100
AcDbLine
 10
59.49277556617777
 20
-39.28884146516959
 30
0.0
 11
58.93456825805597
 21
-39.28884146516959
 31
0.0
  0
LINE
  5
19B
330
79
100
AcDbEntity
  8
Camada 1
 62
   250
420
  1907995
370
    18
100
AcDbLine
 10
59.49277556617777
 20
-38.72999582715614
 30
0.0
 11
59.49277556617777
 21
-39.28884146516959
 31
0.0
  0
LINE
  5
19C
330
79
100
AcDbEntity
  8
Camada 1
 62
   250
420
  1907995
370
    18
100
AcDbLine
 10
58.93456825805597
 20
-39.28884146516959
 30
0.0
 11
58.93456825805597
 21
-38.72999582715614
 31
0.0
  0
LINE
  5
19D
330
79
100
AcDbEntity
  8
Camada 1
 62
   250
420
  1907995
370
    18
100
AcDbLine
 10
58.93456825805597
 20
-38.72999582715614
 30
0.0
 11
59.49277556617777
 21
-38.72999582715614
 31
0.0
  0
LWPOLYLINE
  5
19E
330
79
100
AcDbEntity
  8
Camada 1
 62
   250
420
  1907995
370
    18
100
AcDbPolyline
 90
       10
 70
     1
 43
0.0
 10
59.3331053838883
 20
-38.96950110059066
 10
59.25327029274324
 20
-38.96950110059066
 10
59.25327029274324
 20
-38.88998761076516
 10
59.17343520159883
 20
-38.88998761076516
 10
59.09423844034544
 20
-38.96950110059066
 10
59.09423844034544
 20
-39.04933619173571
 10
59.17343520159883
 20
-39.04933619173571
 10
59.17343520159883
 20
-39.12917128288012
 10
59.25327029274324
 20
-39.12917128288012
 10
59.25327029274324
 20
-39.04933619173571
  0
LINE
  5
19F
330
79
100
AcDbEntity
  8
Camada 1
 62
   250
420
  1907995
370
    18
100
AcDbLine
 10
62.12509698296168
 20
-39.28884146516959
 30
0.0
 11
61.56688967483924
 21
-39.28884146516959
 31
0.0
  0
LINE
  5
1A0
330
79
100
AcDbEntity
  8
Camada 1
 62
   250
420
  1907995
370
    18
100
AcDbLine
 10
62.12509698296168
 20
-38.72999582715614
 30
0.0
 11
62.12509698296168
 21
-39.28884146516959
 31
0.0
  0
LINE
  5
1A1
330
79
100
AcDbEntity
  8
Camada 1
 62
   250
420
  1907995
370
    18
100
AcDbLine
 10
61.56688967483924
 20
-39.28884146516959
 30
0.0
 11
61.56688967483924
 21
-38.72999582715614
 31
0.0
  0
LINE
  5
1A2
330
79
100
AcDbEntity
  8
Camada 1
 62
   250
420
  1907995
370
    18
100
AcDbLine
 10
61.56688967483924
 20
-38.72999582715614
 30
0.0
 11
62.12509698296168
 21
-38.72999582715614
 31
0.0
  0
LWPOLYLINE
  5
1A3
330
79
100
AcDbEntity
  8
Camada 1
 62
   250
420
  1907995
370
    18
100
AcDbPolyline
 90
       11
 70
     1
 43
0.0
 10
61.96542680067221
 20
-38.96950110059066
 10
61.88559170952716
 20
-38.96950110059066
 10
61.88559170952716
 20
-38.88998761076516
 10
61.80639494827377
 20
-38.88998761076516
 10
61.72655985712871
 20
-38.96950110059066
 10
61.72655985712871
 20
-39.04933619173571
 10
61.80639494827377
 20
-39.04933619173571
 10
61.80639494827377
 20
-39.12917128288012
 10
61.88559170952716
 20
-39.12917128288012
 10
61.88559170952716
 20
-39.04933619173571
 10
61.96542680067221
 20
-39.04933619173571
  0
LINE
  5
1A4
330
79
100
AcDbEntity
  8
Camada 1
 62
   250
420
  1907995
370
    18
100
AcDbLine
 10
64.75741839974559
 20
-39.28884146516959
 30
0.0
 11
64.1992110916238
 21
-39.28884146516959
 31
0.0
  0
LINE
  5
1A5
330
79
100
AcDbEntity
  8
Camada 1
 62
   250
420
  1907995
370
    18
100
AcDbLine
 10
64.75741839974559
 20
-38.72999582715614
 30
0.0
 11
64.75741839974559
 21
-39.28884146516959
 31
0.0
  0
LINE
  5
1A6
330
79
100
AcDbEntity
  8
Camada 1
 62
   250
420
  1907995
370
    18
100
AcDbLine
 10
64.1992110916238
 20
-39.28884146516959
 30
0.0
 11
64.1992110916238
 21
-38.72999582715614
 31
0.0
  0
LINE
  5
1A7
330
79
100
AcDbEntity
  8
Camada 1
 62
   250
420
  1907995
370
    18
100
AcDbLine
 10
64.1992110916238
 20
-38.72999582715614
 30
0.0
 11
64.75741839974559
 21
-38.72999582715614
 31
0.0
  0
LWPOLYLINE
  5
1A8
330
79
100
AcDbEntity
  8
Camada 1
 62
   250
420
  1907995
370
    18
100
AcDbPolyline
 90
       12
 70
     1
 43
0.0
 10
64.59774821745613
 20
-38.96950110059066
 10
64.51791312631107
 20
-38.96950110059066
 10
64.51791312631107
 20
-38.88998761076516
 10
64.43871636505768
 20
-38.88998761076516
 10
64.43871636505768
 20
-38.96950110059066
 10
64.35888127391327
 20
-38.96950110059066
 10
64.35888127391327
 20
-39.04933619173571
 10
64.43871636505768
 20
-39.04933619173571
 10
64.43871636505768
 20
-39.12917128288012
 10
64.51791312631107
 20
-39.12917128288012
 10
64.51791312631107
 20
-39.04933619173571
 10
64.59774821745613
 20
-39.04933619173571
  0
LINE
  5
1A9
330
79
100
AcDbEntity
  8
Camada 1
 62
   250
420
  1907995
370
    18
100
AcDbLine
 10
51.59548484176034
 20
-41.92116775470029
 30
0.0
 11
51.03727753363854
 21
-41.92116775470029
 31
0.0
  0
LINE
  5
1AA
330
79
100
AcDbEntity
  8
Camada 1
 62
   250
420
  1907995
370
    18
100
AcDbLine
 10
51.59548484176034
 20
-41.36263884525895
 30
0.0
 11
51.59548484176034
 21
-41.92116775470029
 31
0.0
  0
LINE
  5
1AB
330
79
100
AcDbEntity
  8
Camada 1
 62
   250
420
  1907995
370
    18
100
AcDbLine
 10
51.03727753363854
 20
-41.92116775470029
 30
0.0
 11
51.03727753363854
 21
-41.36263884525895
 31
0.0
  0
LINE
  5
1AC
330
79
100
AcDbEntity
  8
Camada 1
 62
   250
420
  1907995
370
    18
100
AcDbLine
 10
51.03727753363854
 20
-41.36263884525895
 30
0.0
 11
51.59548484176034
 21
-41.36263884525895
 31
0.0
  0
LWPOLYLINE
  5
1AD
330
79
100
AcDbEntity
  8
Camada 1
 62
   250
420
  1907995
370
    18
100
AcDbPolyline
 90
        8
 70
     1
 43
0.0
 10
51.35597956832581
 20
-41.60214411869347
 10
51.35597956832581
 20
-41.52230902754842
 10
51.27614447718141
 20
-41.52230902754842
 10
51.19630938603634
 20
-41.60214411869347
 10
51.19630938603634
 20
-41.68197920983788
 10
51.27614447718141
 20
-41.68197920983788
 10
51.27614447718141
 20
-41.76149757241082
 10
51.35597956832581
 20
-41.76149757241082
  0
LINE
  5
1AE
330
79
100
AcDbEntity
  8
Camada 1
 62
   250
420
  1907995
370
    18
100
AcDbLine
 10
54.22781113129104
 20
-41.92116775470029
 30
0.0
 11
53.66960382316925
 21
-41.92116775470029
 31
0.0
  0
LINE
  5
1AF
330
79
100
AcDbEntity
  8
Camada 1
 62
   250
420
  1907995
370
    18
100
AcDbLine
 10
54.22781113129104
 20
-41.36263884525895
 30
0.0
 11
54.22781113129104
 21
-41.92116775470029
 31
0.0
  0
LINE
  5
1B0
330
79
100
AcDbEntity
  8
Camada 1
 62
   250
420
  1907995
370
    18
100
AcDbLine
 10
53.66960382316925
 20
-41.92116775470029
 30
0.0
 11
53.66960382316925
 21
-41.36263884525895
 31
0.0
  0
LINE
  5
1B1
330
79
100
AcDbEntity
  8
Camada 1
 62
   250
420
  1907995
370
    18
100
AcDbLine
 10
53.66960382316925
 20
-41.36263884525895
 30
0.0
 11
54.22781113129104
 21
-41.36263884525895
 31
0.0
  0
LWPOLYLINE
  5
1B2
330
79
100
AcDbEntity
  8
Camada 1
 62
   250
420
  1907995
370
    18
100
AcDbPolyline
 90
        8
 70
     1
 43
0.0
 10
53.98830585785717
 20
-41.60214411869347
 10
53.98830585785717
 20
-41.52230902754842
 10
53.9084707667121
 20
-41.52230902754842
 10
53.82927400545871
 20
-41.60214411869347
 10
53.82927400545871
 20
-41.68197920983788
 10
53.9084707667121
 20
-41.68197920983788
 10
53.9084707667121
 20
-41.76149757241082
 10
53.98830585785717
 20
-41.76149757241082
  0
LINE
  5
1B3
330
79
100
AcDbEntity
  8
Camada 1
 62
   250
420
  1907995
370
    18
100
AcDbLine
 10
56.86013254807495
 20
-41.92116775470029
 30
0.0
 11
56.30192523995315
 21
-41.92116775470029
 31
0.0
  0
LINE
  5
1B4
330
79
100
AcDbEntity
  8
Camada 1
 62
   250
420
  1907995
370
    18
100
AcDbLine
 10
56.86013254807495
 20
-41.36263884525895
 30
0.0
 11
56.86013254807495
 21
-41.92116775470029
 31
0.0
  0
LINE
  5
1B5
330
79
100
AcDbEntity
  8
Camada 1
 62
   250
420
  1907995
370
    18
100
AcDbLine
 10
56.30192523995315
 20
-41.92116775470029
 30
0.0
 11
56.30192523995315
 21
-41.36263884525895
 31
0.0
  0
LINE
  5
1B6
330
79
100
AcDbEntity
  8
Camada 1
 62
   250
420
  1907995
370
    18
100
AcDbLine
 10
56.30192523995315
 20
-41.36263884525895
 30
0.0
 11
56.86013254807495
 21
-41.36263884525895
 31
0.0
  0
LWPOLYLINE
  5
1B7
330
79
100
AcDbEntity
  8
Camada 1
 62
   250
420
  1907995
370
    18
100
AcDbPolyline
 90
        9
 70
     1
 43
0.0
 10
56.62062727464043
 20
-41.60214411869347
 10
56.62062727464043
 20
-41.52230902754842
 10
56.54079218349601
 20
-41.52230902754842
 10
56.54079218349601
 20
-41.60214411869347
 10
56.46159542224262
 20
-41.60214411869347
 10
56.46159542224262
 20
-41.68197920983788
 10
56.54079218349601
 20
-41.68197920983788
 10
56.54079218349601
 20
-41.76149757241082
 10
56.62062727464043
 20
-41.76149757241082
  0
LINE
  5
1B8
330
79
100
AcDbEntity
  8
Camada 1
 62
   250
420
  1907995
370
    18
100
AcDbLine
 10
59.49277556617777
 20
-41.92116775470029
 30
0.0
 11
58.93456825805597
 21
-41.92116775470029
 31
0.0
  0
LINE
  5
1B9
330
79
100
AcDbEntity
  8
Camada 1
 62
   250
420
  1907995
370
    18
100
AcDbLine
 10
59.49277556617777
 20
-41.36263884525895
 30
0.0
 11
59.49277556617777
 21
-41.92116775470029
 31
0.0
  0
LINE
  5
1BA
330
79
100
AcDbEntity
  8
Camada 1
 62
   250
420
  1907995
370
    18
100
AcDbLine
 10
58.93456825805597
 20
-41.92116775470029
 30
0.0
 11
58.93456825805597
 21
-41.36263884525895
 31
0.0
  0
LINE
  5
1BB
330
79
100
AcDbEntity
  8
Camada 1
 62
   250
420
  1907995
370
    18
100
AcDbLine
 10
58.93456825805597
 20
-41.36263884525895
 30
0.0
 11
59.49277556617777
 21
-41.36263884525895
 31
0.0
  0
LWPOLYLINE
  5
1BC
330
79
100
AcDbEntity
  8
Camada 1
 62
   250
420
  1907995
370
    18
100
AcDbPolyline
 90
       11
 70
     1
 43
0.0
 10
59.3331053838883
 20
-41.60214411869347
 10
59.25327029274324
 20
-41.60214411869347
 10
59.25327029274324
 20
-41.52230902754842
 10
59.17343520159883
 20
-41.52230902754842
 10
59.17343520159883
 20
-41.60214411869347
 10
59.09423844034544
 20
-41.60214411869347
 10
59.09423844034544
 20
-41.68197920983788
 10
59.17343520159883
 20
-41.68197920983788
 10
59.17343520159883
 20
-41.76149757241082
 10
59.25327029274324
 20
-41.76149757241082
 10
59.25327029274324
 20
-41.68197920983788
  0
LINE
  5
1BD
330
79
100
AcDbEntity
  8
Camada 1
 62
   250
420
  1907995
370
    18
100
AcDbLine
 10
62.12509698296168
 20
-41.92116775470029
 30
0.0
 11
61.56688967483924
 21
-41.92116775470029
 31
0.0
  0
LINE
  5
1BE
330
79
100
AcDbEntity
  8
Camada 1
 62
   250
420
  1907995
370
    18
100
AcDbLine
 10
62.12509698296168
 20
-41.36263884525895
 30
0.0
 11
62.12509698296168
 21
-41.92116775470029
 31
0.0
  0
LINE
  5
1BF
330
79
100
AcDbEntity
  8
Camada 1
 62
   250
420
  1907995
370
    18
100
AcDbLine
 10
61.56688967483924
 20
-41.92116775470029
 30
0.0
 11
61.56688967483924
 21
-41.36263884525895
 31
0.0
  0
LINE
  5
1C0
330
79
100
AcDbEntity
  8
Camada 1
 62
   250
420
  1907995
370
    18
100
AcDbLine
 10
61.56688967483924
 20
-41.36263884525895
 30
0.0
 11
62.12509698296168
 21
-41.36263884525895
 31
0.0
  0
LWPOLYLINE
  5
1C1
330
79
100
AcDbEntity
  8
Camada 1
 62
   250
420
  1907995
370
    18
100
AcDbPolyline
 90
       12
 70
     1
 43
0.0
 10
61.96542680067221
 20
-41.60214411869347
 10
61.88559170952716
 20
-41.60214411869347
 10
61.88559170952716
 20
-41.52230902754842
 10
61.80639494827377
 20
-41.52230902754842
 10
61.80639494827377
 20
-41.60214411869347
 10
61.72655985712871
 20
-41.60214411869347
 10
61.72655985712871
 20
-41.68197920983788
 10
61.80639494827377
 20
-41.68197920983788
 10
61.80639494827377
 20
-41.76149757241082
 10
61.88559170952716
 20
-41.76149757241082
 10
61.88559170952716
 20
-41.68197920983788
 10
61.96542680067221
 20
-41.68197920983788
  0
LINE
  5
1C2
330
79
100
AcDbEntity
  8
Camada 1
 62
   250
420
  1907995
370
    18
100
AcDbLine
 10
64.75741839974559
 20
-41.92116775470029
 30
0.0
 11
64.1992110916238
 21
-41.92116775470029
 31
0.0
  0
LINE
  5
1C3
330
79
100
AcDbEntity
  8
Camada 1
 62
   250
420
  1907995
370
    18
100
AcDbLine
 10
64.75741839974559
 20
-41.36263884525895
 30
0.0
 11
64.75741839974559
 21
-41.92116775470029
 31
0.0
  0
LINE
  5
1C4
330
79
100
AcDbEntity
  8
Camada 1
 62
   250
420
  1907995
370
    18
100
AcDbLine
 10
64.1992110916238
 20
-41.92116775470029
 30
0.0
 11
64.1992110916238
 21
-41.36263884525895
 31
0.0
  0
LINE
  5
1C5
330
79
100
AcDbEntity
  8
Camada 1
 62
   250
420
  1907995
370
    18
100
AcDbLine
 10
64.1992110916238
 20
-41.36263884525895
 30
0.0
 11
64.75741839974559
 21
-41.36263884525895
 31
0.0
  0
LWPOLYLINE
  5
1C6
330
79
100
AcDbEntity
  8
Camada 1
 62
   250
420
  1907995
370
    18
100
AcDbPolyline
 90
       12
 70
     1
 43
0.0
 10
64.59774821745613
 20
-41.60214411869347
 10
64.51791312631107
 20
-41.60214411869347
 10
64.51791312631107
 20
-41.52230902754842
 10
64.43871636505768
 20
-41.52230902754842
 10
64.43871636505768
 20
-41.60214411869347
 10
64.35888127391327
 20
-41.60214411869347
 10
64.35888127391327
 20
-41.68197920983788
 10
64.43871636505768
 20
-41.68197920983788
 10
64.43871636505768
 20
-41.76149757241082
 10
64.51791312631107
 20
-41.76149757241082
 10
64.51791312631107
 20
-41.68197920983788
 10
64.59774821745613
 20
-41.68197920983788
  0
LINE
  5
1C7
330
79
100
AcDbEntity
  8
Camada 1
 62
   250
420
  1907995
370
    18
100
AcDbLine
 10
51.59548484176034
 20
-44.5534891714842
 30
0.0
 11
51.03727753363854
 21
-44.5534891714842
 31
0.0
  0
LINE
  5
1C8
330
79
100
AcDbEntity
  8
Camada 1
 62
   250
420
  1907995
370
    18
100
AcDbLine
 10
51.59548484176034
 20
-43.99496026204286
 30
0.0
 11
51.59548484176034
 21
-44.5534891714842
 31
0.0
  0
LINE
  5
1C9
330
79
100
AcDbEntity
  8
Camada 1
 62
   250
420
  1907995
370
    18
100
AcDbLine
 10
51.03727753363854
 20
-44.5534891714842
 30
0.0
 11
51.03727753363854
 21
-43.99496026204286
 31
0.0
  0
LINE
  5
1CA
330
79
100
AcDbEntity
  8
Camada 1
 62
   250
420
  1907995
370
    18
100
AcDbLine
 10
51.03727753363854
 20
-43.99496026204286
 30
0.0
 11
51.59548484176034
 21
-43.99496026204286
 31
0.0
  0
LWPOLYLINE
  5
1CB
330
79
100
AcDbEntity
  8
Camada 1
 62
   250
420
  1907995
370
    18
100
AcDbPolyline
 90
        8
 70
     1
 43
0.0
 10
51.35597956832581
 20
-44.23446553547739
 10
51.35597956832581
 20
-44.15463044433233
 10
51.27614447718141
 20
-44.15463044433233
 10
51.19630938603634
 20
-44.23446553547739
 10
51.19630938603634
 20
-44.3143006266218
 10
51.27614447718141
 20
-44.3143006266218
 10
51.27614447718141
 20
-44.39381898919473
 10
51.35597956832581
 20
-44.39381898919473
  0
LINE
  5
1CC
330
79
100
AcDbEntity
  8
Camada 1
 62
   250
420
  1907995
370
    18
100
AcDbLine
 10
54.22781113129104
 20
-44.5534891714842
 30
0.0
 11
53.66960382316925
 21
-44.5534891714842
 31
0.0
  0
LINE
  5
1CD
330
79
100
AcDbEntity
  8
Camada 1
 62
   250
420
  1907995
370
    18
100
AcDbLine
 10
54.22781113129104
 20
-43.99496026204286
 30
0.0
 11
54.22781113129104
 21
-44.5534891714842
 31
0.0
  0
LINE
  5
1CE
330
79
100
AcDbEntity
  8
Camada 1
 62
   250
420
  1907995
370
    18
100
AcDbLine
 10
53.66960382316925
 20
-44.5534891714842
 30
0.0
 11
53.66960382316925
 21
-43.99496026204286
 31
0.0
  0
LINE
  5
1CF
330
79
100
AcDbEntity
  8
Camada 1
 62
   250
420
  1907995
370
    18
100
AcDbLine
 10
53.66960382316925
 20
-43.99496026204286
 30
0.0
 11
54.22781113129104
 21
-43.99496026204286
 31
0.0
  0
LWPOLYLINE
  5
1D0
330
79
100
AcDbEntity
  8
Camada 1
 62
   250
420
  1907995
370
    18
100
AcDbPolyline
 90
        8
 70
     1
 43
0.0
 10
53.98830585785717
 20
-44.23446553547739
 10
53.98830585785717
 20
-44.15463044433233
 10
53.9084707667121
 20
-44.15463044433233
 10
53.82927400545871
 20
-44.23446553547739
 10
53.82927400545871
 20
-44.3143006266218
 10
53.9084707667121
 20
-44.3143006266218
 10
53.9084707667121
 20
-44.39381898919473
 10
53.98830585785717
 20
-44.39381898919473
  0
LINE
  5
1D1
330
79
100
AcDbEntity
  8
Camada 1
 62
   250
420
  1907995
370
    18
100
AcDbLine
 10
56.86013254807495
 20
-44.5534891714842
 30
0.0
 11
56.30192523995315
 21
-44.5534891714842
 31
0.0
  0
LINE
  5
1D2
330
79
100
AcDbEntity
  8
Camada 1
 62
   250
420
  1907995
370
    18
100
AcDbLine
 10
56.86013254807495
 20
-43.99496026204286
 30
0.0
 11
56.86013254807495
 21
-44.5534891714842
 31
0.0
  0
LINE
  5
1D3
330
79
100
AcDbEntity
  8
Camada 1
 62
   250
420
  1907995
370
    18
100
AcDbLine
 10
56.30192523995315
 20
-44.5534891714842
 30
0.0
 11
56.30192523995315
 21
-43.99496026204286
 31
0.0
  0
LINE
  5
1D4
330
79
100
AcDbEntity
  8
Camada 1
 62
   250
420
  1907995
370
    18
100
AcDbLine
 10
56.30192523995315
 20
-43.99496026204286
 30
0.0
 11
56.86013254807495
 21
-43.99496026204286
 31
0.0
  0
LWPOLYLINE
  5
1D5
330
79
100
AcDbEntity
  8
Camada 1
 62
   250
420
  1907995
370
    18
100
AcDbPolyline
 90
        9
 70
     1
 43
0.0
 10
56.62062727464043
 20
-44.23446553547739
 10
56.62062727464043
 20
-44.15463044433233
 10
56.54079218349601
 20
-44.15463044433233
 10
56.54079218349601
 20
-44.23446553547739
 10
56.46159542224262
 20
-44.23446553547739
 10
56.46159542224262
 20
-44.3143006266218
 10
56.54079218349601
 20
-44.3143006266218
 10
56.54079218349601
 20
-44.39381898919473
 10
56.62062727464043
 20
-44.39381898919473
  0
LINE
  5
1D6
330
79
100
AcDbEntity
  8
Camada 1
 62
   250
420
  1907995
370
    18
100
AcDbLine
 10
59.49277556617777
 20
-44.5534891714842
 30
0.0
 11
58.93456825805597
 21
-44.5534891714842
 31
0.0
  0
LINE
  5
1D7
330
79
100
AcDbEntity
  8
Camada 1
 62
   250
420
  1907995
370
    18
100
AcDbLine
 10
59.49277556617777
 20
-43.99496026204286
 30
0.0
 11
59.49277556617777
 21
-44.5534891714842
 31
0.0
  0
LINE
  5
1D8
330
79
100
AcDbEntity
  8
Camada 1
 62
   250
420
  1907995
370
    18
100
AcDbLine
 10
58.93456825805597
 20
-44.5534891714842
 30
0.0
 11
58.93456825805597
 21
-43.99496026204286
 31
0.0
  0
LINE
  5
1D9
330
79
100
AcDbEntity
  8
Camada 1
 62
   250
420
  1907995
370
    18
100
AcDbLine
 10
58.93456825805597
 20
-43.99496026204286
 30
0.0
 11
59.49277556617777
 21
-43.99496026204286
 31
0.0
  0
LWPOLYLINE
  5
1DA
330
79
100
AcDbEntity
  8
Camada 1
 62
   250
420
  1907995
370
    18
100
AcDbPolyline
 90
       11
 70
     1
 43
0.0
 10
59.3331053838883
 20
-44.23446553547739
 10
59.25327029274324
 20
-44.23446553547739
 10
59.25327029274324
 20
-44.15463044433233
 10
59.17343520159883
 20
-44.15463044433233
 10
59.17343520159883
 20
-44.23446553547739
 10
59.09423844034544
 20
-44.23446553547739
 10
59.09423844034544
 20
-44.3143006266218
 10
59.17343520159883
 20
-44.3143006266218
 10
59.17343520159883
 20
-44.39381898919473
 10
59.25327029274324
 20
-44.39381898919473
 10
59.25327029274324
 20
-44.3143006266218
  0
LINE
  5
1DB
330
79
100
AcDbEntity
  8
Camada 1
 62
   250
420
  1907995
370
    18
100
AcDbLine
 10
62.12509698296168
 20
-44.5534891714842
 30
0.0
 11
61.56688967483924
 21
-44.5534891714842
 31
0.0
  0
LINE
  5
1DC
330
79
100
AcDbEntity
  8
Camada 1
 62
   250
420
  1907995
370
    18
100
AcDbLine
 10
62.12509698296168
 20
-43.99496026204286
 30
0.0
 11
62.12509698296168
 21
-44.5534891714842
 31
0.0
  0
LINE
  5
1DD
330
79
100
AcDbEntity
  8
Camada 1
 62
   250
420
  1907995
370
    18
100
AcDbLine
 10
61.56688967483924
 20
-44.5534891714842
 30
0.0
 11
61.56688967483924
 21
-43.99496026204286
 31
0.0
  0
LINE
  5
1DE
330
79
100
AcDbEntity
  8
Camada 1
 62
   250
420
  1907995
370
    18
100
AcDbLine
 10
61.56688967483924
 20
-43.99496026204286
 30
0.0
 11
62.12509698296168
 21
-43.99496026204286
 31
0.0
  0
LWPOLYLINE
  5
1DF
330
79
100
AcDbEntity
  8
Camada 1
 62
   250
420
  1907995
370
    18
100
AcDbPolyline
 90
       12
 70
     1
 43
0.0
 10
61.96542680067221
 20
-44.23446553547739
 10
61.88559170952716
 20
-44.23446553547739
 10
61.88559170952716
 20
-44.15463044433233
 10
61.80639494827377
 20
-44.15463044433233
 10
61.80639494827377
 20
-44.23446553547739
 10
61.72655985712871
 20
-44.23446553547739
 10
61.72655985712871
 20
-44.3143006266218
 10
61.80639494827377
 20
-44.3143006266218
 10
61.80639494827377
 20
-44.39381898919473
 10
61.88559170952716
 20
-44.39381898919473
 10
61.88559170952716
 20
-44.3143006266218
 10
61.96542680067221
 20
-44.3143006266218
  0
LINE
  5
1E0
330
79
100
AcDbEntity
  8
Camada 1
 62
   250
420
  1907995
370
    18
100
AcDbLine
 10
64.75741839974559
 20
-44.5534891714842
 30
0.0
 11
64.1992110916238
 21
-44.5534891714842
 31
0.0
  0
LINE
  5
1E1
330
79
100
AcDbEntity
  8
Camada 1
 62
   250
420
  1907995
370
    18
100
AcDbLine
 10
64.75741839974559
 20
-43.99496026204286
 30
0.0
 11
64.75741839974559
 21
-44.5534891714842
 31
0.0
  0
LINE
  5
1E2
330
79
100
AcDbEntity
  8
Camada 1
 62
   250
420
  1907995
370
    18
100
AcDbLine
 10
64.1992110916238
 20
-44.5534891714842
 30
0.0
 11
64.1992110916238
 21
-43.99496026204286
 31
0.0
  0
LINE
  5
1E3
330
79
100
AcDbEntity
  8
Camada 1
 62
   250
420
  1907995
370
    18
100
AcDbLine
 10
64.1992110916238
 20
-43.99496026204286
 30
0.0
 11
64.75741839974559
 21
-43.99496026204286
 31
0.0
  0
LWPOLYLINE
  5
1E4
330
79
100
AcDbEntity
  8
Camada 1
 62
   250
420
  1907995
370
    18
100
AcDbPolyline
 90
       12
 70
     1
 43
0.0
 10
64.59774821745613
 20
-44.23446553547739
 10
64.51791312631107
 20
-44.23446553547739
 10
64.51791312631107
 20
-44.15463044433233
 10
64.43871636505768
 20
-44.15463044433233
 10
64.43871636505768
 20
-44.23446553547739
 10
64.35888127391327
 20
-44.23446553547739
 10
64.35888127391327
 20
-44.3143006266218
 10
64.43871636505768
 20
-44.3143006266218
 10
64.43871636505768
 20
-44.39381898919473
 10
64.51791312631107
 20
-44.39381898919473
 10
64.51791312631107
 20
-44.3143006266218
 10
64.59774821745613
 20
-44.3143006266218
  0
LINE
  5
1E5
330
79
100
AcDbEntity
  8
Camada 1
 62
   250
420
  1907995
370
    18
100
AcDbLine
 10
51.59548484176034
 20
-47.18613218958702
 30
0.0
 11
51.03727753363854
 21
-47.18613218958702
 31
0.0
  0
LINE
  5
1E6
330
79
100
AcDbEntity
  8
Camada 1
 62
   250
420
  1907995
370
    18
100
AcDbLine
 10
51.59548484176034
 20
-46.62792488146523
 30
0.0
 11
51.59548484176034
 21
-47.18613218958702
 31
0.0
  0
LINE
  5
1E7
330
79
100
AcDbEntity
  8
Camada 1
 62
   250
420
  1907995
370
    18
100
AcDbLine
 10
51.03727753363854
 20
-47.18613218958702
 30
0.0
 11
51.03727753363854
 21
-46.62792488146523
 31
0.0
  0
LINE
  5
1E8
330
79
100
AcDbEntity
  8
Camada 1
 62
   250
420
  1907995
370
    18
100
AcDbLine
 10
51.03727753363854
 20
-46.62792488146523
 30
0.0
 11
51.59548484176034
 21
-46.62792488146523
 31
0.0
  0
LWPOLYLINE
  5
1E9
330
79
100
AcDbEntity
  8
Camada 1
 62
   250
420
  1907995
370
    18
100
AcDbPolyline
 90
        7
 70
     1
 43
0.0
 10
51.35597956832581
 20
-46.94662691615314
 10
51.35597956832581
 20
-46.78727346243515
 10
51.27614447718141
 20
-46.78727346243515
 10
51.19630938603634
 20
-46.8671085535802
 10
51.19630938603634
 20
-46.94662691615314
 10
51.27614447718141
 20
-47.02646200729755
 10
51.35597956832581
 20
-47.02646200729755
  0
LINE
  5
1EA
330
79
100
AcDbEntity
  8
Camada 1
 62
   250
420
  1907995
370
    18
100
AcDbLine
 10
54.22781113129104
 20
-47.18613218958702
 30
0.0
 11
53.66960382316925
 21
-47.18613218958702
 31
0.0
  0
LINE
  5
1EB
330
79
100
AcDbEntity
  8
Camada 1
 62
   250
420
  1907995
370
    18
100
AcDbLine
 10
54.22781113129104
 20
-46.62792488146523
 30
0.0
 11
54.22781113129104
 21
-47.18613218958702
 31
0.0
  0
LINE
  5
1EC
330
79
100
AcDbEntity
  8
Camada 1
 62
   250
420
  1907995
370
    18
100
AcDbLine
 10
53.66960382316925
 20
-47.18613218958702
 30
0.0
 11
53.66960382316925
 21
-46.62792488146523
 31
0.0
  0
LINE
  5
1ED
330
79
100
AcDbEntity
  8
Camada 1
 62
   250
420
  1907995
370
    18
100
AcDbLine
 10
53.66960382316925
 20
-46.62792488146523
 30
0.0
 11
54.22781113129104
 21
-46.62792488146523
 31
0.0
  0
LWPOLYLINE
  5
1EE
330
79
100
AcDbEntity
  8
Camada 1
 62
   250
420
  1907995
370
    18
100
AcDbPolyline
 90
        7
 70
     1
 43
0.0
 10
53.98830585785717
 20
-46.94662691615314
 10
53.98830585785717
 20
-46.78727346243515
 10
53.9084707667121
 20
-46.78727346243515
 10
53.82927400545871
 20
-46.8671085535802
 10
53.82927400545871
 20
-46.94662691615314
 10
53.9084707667121
 20
-47.02646200729755
 10
53.98830585785717
 20
-47.02646200729755
  0
LINE
  5
1EF
330
79
100
AcDbEntity
  8
Camada 1
 62
   250
420
  1907995
370
    18
100
AcDbLine
 10
56.86013254807495
 20
-47.18613218958702
 30
0.0
 11
56.30192523995315
 21
-47.18613218958702
 31
0.0
  0
LINE
  5
1F0
330
79
100
AcDbEntity
  8
Camada 1
 62
   250
420
  1907995
370
    18
100
AcDbLine
 10
56.86013254807495
 20
-46.62792488146523
 30
0.0
 11
56.86013254807495
 21
-47.18613218958702
 31
0.0
  0
LINE
  5
1F1
330
79
100
AcDbEntity
  8
Camada 1
 62
   250
420
  1907995
370
    18
100
AcDbLine
 10
56.30192523995315
 20
-47.18613218958702
 30
0.0
 11
56.30192523995315
 21
-46.62792488146523
 31
0.0
  0
LINE
  5
1F2
330
79
100
AcDbEntity
  8
Camada 1
 62
   250
420
  1907995
370
    18
100
AcDbLine
 10
56.30192523995315
 20
-46.62792488146523
 30
0.0
 11
56.86013254807495
 21
-46.62792488146523
 31
0.0
  0
LWPOLYLINE
  5
1F3
330
79
100
AcDbEntity
  8
Camada 1
 62
   250
420
  1907995
370
    18
100
AcDbPolyline
 90
        9
 70
     1
 43
0.0
 10
56.62062727464043
 20
-46.94662691615314
 10
56.62062727464043
 20
-46.78727346243515
 10
56.54079218349601
 20
-46.78727346243515
 10
56.54079218349601
 20
-46.8671085535802
 10
56.46159542224262
 20
-46.8671085535802
 10
56.46159542224262
 20
-46.94662691615314
 10
56.54079218349601
 20
-46.94662691615314
 10
56.54079218349601
 20
-47.02646200729755
 10
56.62062727464043
 20
-47.02646200729755
  0
LINE
  5
1F4
330
79
100
AcDbEntity
  8
Camada 1
 62
   250
420
  1907995
370
    18
100
AcDbLine
 10
59.49277556617777
 20
-47.18613218958702
 30
0.0
 11
58.93456825805597
 21
-47.18613218958702
 31
0.0
  0
LINE
  5
1F5
330
79
100
AcDbEntity
  8
Camada 1
 62
   250
420
  1907995
370
    18
100
AcDbLine
 10
59.49277556617777
 20
-46.62792488146523
 30
0.0
 11
59.49277556617777
 21
-47.18613218958702
 31
0.0
  0
LINE
  5
1F6
330
79
100
AcDbEntity
  8
Camada 1
 62
   250
420
  1907995
370
    18
100
AcDbLine
 10
58.93456825805597
 20
-47.18613218958702
 30
0.0
 11
58.93456825805597
 21
-46.62792488146523
 31
0.0
  0
LINE
  5
1F7
330
79
100
AcDbEntity
  8
Camada 1
 62
   250
420
  1907995
370
    18
100
AcDbLine
 10
58.93456825805597
 20
-46.62792488146523
 30
0.0
 11
59.49277556617777
 21
-46.62792488146523
 31
0.0
  0
LWPOLYLINE
  5
1F8
330
79
100
AcDbEntity
  8
Camada 1
 62
   250
420
  1907995
370
    18
100
AcDbPolyline
 90
       11
 70
     1
 43
0.0
 10
59.3331053838883
 20
-46.94662691615314
 10
59.25327029274324
 20
-46.8671085535802
 10
59.25327029274324
 20
-46.78727346243515
 10
59.17343520159883
 20
-46.78727346243515
 10
59.17343520159883
 20
-46.8671085535802
 10
59.09423844034544
 20
-46.8671085535802
 10
59.09423844034544
 20
-46.94662691615314
 10
59.17343520159883
 20
-46.94662691615314
 10
59.17343520159883
 20
-47.02646200729755
 10
59.25327029274324
 20
-47.02646200729755
 10
59.25327029274324
 20
-46.94662691615314
  0
LINE
  5
1F9
330
79
100
AcDbEntity
  8
Camada 1
 62
   250
420
  1907995
370
    18
100
AcDbLine
 10
62.12509698296168
 20
-47.18613218958702
 30
0.0
 11
61.56688967483924
 21
-47.18613218958702
 31
0.0
  0
LINE
  5
1FA
330
79
100
AcDbEntity
  8
Camada 1
 62
   250
420
  1907995
370
    18
100
AcDbLine
 10
62.12509698296168
 20
-46.62792488146523
 30
0.0
 11
62.12509698296168
 21
-47.18613218958702
 31
0.0
  0
LINE
  5
1FB
330
79
100
AcDbEntity
  8
Camada 1
 62
   250
420
  1907995
370
    18
100
AcDbLine
 10
61.56688967483924
 20
-47.18613218958702
 30
0.0
 11
61.56688967483924
 21
-46.62792488146523
 31
0.0
  0
LINE
  5
1FC
330
79
100
AcDbEntity
  8
Camada 1
 62
   250
420
  1907995
370
    18
100
AcDbLine
 10
61.56688967483924
 20
-46.62792488146523
 30
0.0
 11
62.12509698296168
 21
-46.62792488146523
 31
0.0
  0
LWPOLYLINE
  5
1FD
330
79
100
AcDbEntity
  8
Camada 1
 62
   250
420
  1907995
370
    18
100
AcDbPolyline
 90
       12
 70
     1
 43
0.0
 10
61.96542680067221
 20
-46.94662691615314
 10
61.96542680067221
 20
-46.8671085535802
 10
61.88559170952716
 20
-46.8671085535802
 10
61.88559170952716
 20
-46.78727346243515
 10
61.80639494827377
 20
-46.78727346243515
 10
61.80639494827377
 20
-46.8671085535802
 10
61.72655985712871
 20
-46.8671085535802
 10
61.72655985712871
 20
-46.94662691615314
 10
61.80639494827377
 20
-46.94662691615314
 10
61.80639494827377
 20
-47.02646200729755
 10
61.88559170952716
 20
-47.02646200729755
 10
61.88559170952716
 20
-46.94662691615314
  0
LINE
  5
1FE
330
79
100
AcDbEntity
  8
Camada 1
 62
   250
420
  1907995
370
    18
100
AcDbLine
 10
64.75741839974559
 20
-47.18613218958702
 30
0.0
 11
64.1992110916238
 21
-47.18613218958702
 31
0.0
  0
LINE
  5
1FF
330
79
100
AcDbEntity
  8
Camada 1
 62
   250
420
  1907995
370
    18
100
AcDbLine
 10
64.75741839974559
 20
-46.62792488146523
 30
0.0
 11
64.75741839974559
 21
-47.18613218958702
 31
0.0
  0
LINE
  5
200
330
79
100
AcDbEntity
  8
Camada 1
 62
   250
420
  1907995
370
    18
100
AcDbLine
 10
64.1992110916238
 20
-47.18613218958702
 30
0.0
 11
64.1992110916238
 21
-46.62792488146523
 31
0.0
  0
LINE
  5
201
330
79
100
AcDbEntity
  8
Camada 1
 62
   250
420
  1907995
370
    18
100
AcDbLine
 10
64.1992110916238
 20
-46.62792488146523
 30
0.0
 11
64.75741839974559
 21
-46.62792488146523
 31
0.0
  0
LWPOLYLINE
  5
202
330
79
100
AcDbEntity
  8
Camada 1
 62
   250
420
  1907995
370
    18
100
AcDbPolyline
 90
       12
 70
     1
 43
0.0
 10
64.59774821745613
 20
-46.94662691615314
 10
64.59774821745613
 20
-46.8671085535802
 10
64.51791312631107
 20
-46.8671085535802
 10
64.51791312631107
 20
-46.78727346243515
 10
64.43871636505768
 20
-46.78727346243515
 10
64.43871636505768
 20
-46.8671085535802
 10
64.35888127391327
 20
-46.8671085535802
 10
64.35888127391327
 20
-46.94662691615314
 10
64.43871636505768
 20
-46.94662691615314
 10
64.43871636505768
 20
-47.02646200729755
 10
64.51791312631107
 20
-47.02646200729755
 10
64.51791312631107
 20
-46.94662691615314
  0
LINE
  5
203
330
79
100
AcDbEntity
  8
Camada 1
 62
   250
420
  1907995
370
    18
100
AcDbLine
 10
51.59548484176034
 20
-49.81845360637029
 30
0.0
 11
51.03727753363854
 21
-49.81845360637029
 31
0.0
  0
LINE
  5
204
330
79
100
AcDbEntity
  8
Camada 1
 62
   250
420
  1907995
370
    18
100
AcDbLine
 10
51.59548484176034
 20
-49.26024629824914
 30
0.0
 11
51.59548484176034
 21
-49.81845360637029
 31
0.0
  0
LINE
  5
205
330
79
100
AcDbEntity
  8
Camada 1
 62
   250
420
  1907995
370
    18
100
AcDbLine
 10
51.03727753363854
 20
-49.81845360637029
 30
0.0
 11
51.03727753363854
 21
-49.26024629824914
 31
0.0
  0
LINE
  5
206
330
79
100
AcDbEntity
  8
Camada 1
 62
   250
420
  1907995
370
    18
100
AcDbLine
 10
51.03727753363854
 20
-49.26024629824914
 30
0.0
 11
51.59548484176034
 21
-49.26024629824914
 31
0.0
  0
LWPOLYLINE
  5
207
330
79
100
AcDbEntity
  8
Camada 1
 62
   250
420
  1907995
370
    18
100
AcDbPolyline
 90
        8
 70
     1
 43
0.0
 10
51.35597956832581
 20
-49.57926506150853
 10
51.35597956832581
 20
-49.41959487921906
 10
51.27614447718141
 20
-49.41959487921906
 10
51.27614447718141
 20
-49.49942997036412
 10
51.19630938603634
 20
-49.49942997036412
 10
51.19630938603634
 20
-49.57926506150853
 10
51.27614447718141
 20
-49.65910015265358
 10
51.35597956832581
 20
-49.65910015265358
  0
LINE
  5
208
330
79
100
AcDbEntity
  8
Camada 1
 62
   250
420
  1907995
370
    18
100
AcDbLine
 10
54.22781113129104
 20
-49.81845360637029
 30
0.0
 11
53.66960382316925
 21
-49.81845360637029
 31
0.0
  0
LINE
  5
209
330
79
100
AcDbEntity
  8
Camada 1
 62
   250
420
  1907995
370
    18
100
AcDbLine
 10
54.22781113129104
 20
-49.26024629824914
 30
0.0
 11
54.22781113129104
 21
-49.81845360637029
 31
0.0
  0
LINE
  5
20A
330
79
100
AcDbEntity
  8
Camada 1
 62
   250
420
  1907995
370
    18
100
AcDbLine
 10
53.66960382316925
 20
-49.81845360637029
 30
0.0
 11
53.66960382316925
 21
-49.26024629824914
 31
0.0
  0
LINE
  5
20B
330
79
100
AcDbEntity
  8
Camada 1
 62
   250
420
  1907995
370
    18
100
AcDbLine
 10
53.66960382316925
 20
-49.26024629824914
 30
0.0
 11
54.22781113129104
 21
-49.26024629824914
 31
0.0
  0
LWPOLYLINE
  5
20C
330
79
100
AcDbEntity
  8
Camada 1
 62
   250
420
  1907995
370
    18
100
AcDbPolyline
 90
        8
 70
     1
 43
0.0
 10
53.98830585785717
 20
-49.57926506150853
 10
53.98830585785717
 20
-49.41959487921906
 10
53.9084707667121
 20
-49.41959487921906
 10
53.9084707667121
 20
-49.49942997036412
 10
53.82927400545871
 20
-49.49942997036412
 10
53.82927400545871
 20
-49.57926506150853
 10
53.9084707667121
 20
-49.65910015265358
 10
53.98830585785717
 20
-49.65910015265358
  0
LINE
  5
20D
330
79
100
AcDbEntity
  8
Camada 1
 62
   250
420
  1907995
370
    18
100
AcDbLine
 10
48.40818187554241
 20
-47.18586906123472
 30
0.0
 11
48.9663891836642
 21
-47.18586906123472
 31
0.0
  0
LWPOLYLINE
  5
20E
330
79
100
AcDbEntity
  8
Camada 1
 62
   250
420
  1907995
370
    18
100
AcDbPolyline
 90
        6
 70
     1
 43
0.0
 10
48.5672137279402
 20
-46.94668538911975
 10
48.5672137279402
 20
-46.86685029797533
 10
48.64704881908526
 20
-46.78701520683028
 10
48.72688391023032
 20
-46.78701520683028
 10
48.72688391023032
 20
-47.02619887894526
 10
48.64704881908526
 20
-47.02619887894526
  0
LINE
  5
20F
330
79
100
AcDbEntity
  8
Camada 1
 62
   250
420
  1907995
370
    18
100
AcDbLine
 10
48.9663891836642
 20
-47.18586906123472
 30
0.0
 11
48.9663891836642
 21
-46.62766175311293
 31
0.0
  0
LINE
  5
210
330
79
100
AcDbEntity
  8
Camada 1
 62
   250
420
  1907995
370
    18
100
AcDbLine
 10
48.9663891836642
 20
-46.62766175311293
 30
0.0
 11
48.40818187554241
 21
-46.62766175311293
 31
0.0
  0
LINE
  5
211
330
79
100
AcDbEntity
  8
Camada 1
 62
   250
420
  1907995
370
    18
100
AcDbLine
 10
48.40818187554241
 20
-46.62766175311293
 30
0.0
 11
48.40818187554241
 21
-47.18586906123472
 31
0.0
  0
LINE
  5
212
330
79
100
AcDbEntity
  8
Camada 1
 62
   250
420
  1907995
370
    18
100
AcDbLine
 10
45.77490296392196
 20
-47.18586906123472
 30
0.0
 11
46.33342943698926
 21
-47.18586906123472
 31
0.0
  0
LWPOLYLINE
  5
213
330
79
100
AcDbEntity
  8
Camada 1
 62
   250
420
  1907995
370
    18
100
AcDbPolyline
 90
        7
 70
     1
 43
0.0
 10
45.93393481631976
 20
-46.94668538911975
 10
45.93393481631976
 20
-46.78701520683028
 10
46.01376990746482
 20
-46.78701520683028
 10
46.09360499860922
 20
-46.78701520683028
 10
46.09360499860922
 20
-47.02619887894526
 10
46.01376990746482
 20
-47.02619887894526
 10
45.93393481631976
 20
-47.02619887894526
  0
LINE
  5
214
330
79
100
AcDbEntity
  8
Camada 1
 62
   250
420
  1907995
370
    18
100
AcDbLine
 10
46.33342943698926
 20
-47.18586906123472
 30
0.0
 11
46.33342943698926
 21
-46.62766175311293
 31
0.0
  0
LINE
  5
215
330
79
100
AcDbEntity
  8
Camada 1
 62
   250
420
  1907995
370
    18
100
AcDbLine
 10
46.33342943698926
 20
-46.62766175311293
 30
0.0
 11
45.77490296392196
 21
-46.62766175311293
 31
0.0
  0
LINE
  5
216
330
79
100
AcDbEntity
  8
Camada 1
 62
   250
420
  1907995
370
    18
100
AcDbLine
 10
45.77490296392196
 20
-46.62766175311293
 30
0.0
 11
45.77490296392196
 21
-47.18586906123472
 31
0.0
  0
LINE
  5
217
330
79
100
AcDbEntity
  8
Camada 1
 62
   250
420
  1907995
370
    18
100
AcDbLine
 10
43.06210568972857
 20
-47.18586906123472
 30
0.0
 11
43.70014808899478
 21
-47.18586906123472
 31
0.0
  0
LWPOLYLINE
  5
218
330
79
100
AcDbEntity
  8
Camada 1
 62
   250
420
  1907995
370
    18
100
AcDbPolyline
 90
        7
 70
     1
 43
0.0
 10
43.30097263327143
 20
-46.94668538911975
 10
43.30097263327143
 20
-46.78701520683028
 10
43.38080772441585
 20
-46.78701520683028
 10
43.4606428155609
 20
-46.78701520683028
 10
43.4606428155609
 20
-47.02619887894526
 10
43.38080772441585
 20
-47.02619887894526
 10
43.30097263327143
 20
-47.02619887894526
  0
LINE
  5
219
330
79
100
AcDbEntity
  8
Camada 1
 62
   250
420
  1907995
370
    18
100
AcDbLine
 10
43.70014808899478
 20
-47.18586906123472
 30
0.0
 11
43.70014808899478
 21
-46.62766175311293
 31
0.0
  0
LINE
  5
21A
330
79
100
AcDbEntity
  8
Camada 1
 62
   250
420
  1907995
370
    18
100
AcDbLine
 10
43.70014808899478
 20
-46.62766175311293
 30
0.0
 11
43.06210568972857
 21
-46.62766175311293
 31
0.0
  0
LINE
  5
21B
330
79
100
AcDbEntity
  8
Camada 1
 62
   250
420
  1907995
370
    18
100
AcDbLine
 10
43.06210568972857
 20
-46.62766175311293
 30
0.0
 11
43.06210568972857
 21
-47.18586906123472
 31
0.0
  0
LINE
  5
21C
330
79
100
AcDbEntity
  8
Camada 1
 62
   250
420
  1907995
370
    18
100
AcDbLine
 10
40.42882677810749
 20
-47.18586906123472
 30
0.0
 11
40.98735325117544
 21
-47.18586906123472
 31
0.0
  0
LWPOLYLINE
  5
21D
330
79
100
AcDbEntity
  8
Camada 1
 62
   250
420
  1907995
370
    18
100
AcDbPolyline
 90
        7
 70
     1
 43
0.0
 10
40.66801288659649
 20
-46.94668538911975
 10
40.66801288659649
 20
-46.78701520683028
 10
40.74784797774091
 20
-46.78701520683028
 10
40.82768306888596
 20
-46.78701520683028
 10
40.82768306888596
 20
-47.02619887894526
 10
40.74784797774091
 20
-47.02619887894526
 10
40.66801288659649
 20
-47.02619887894526
  0
LINE
  5
21E
330
79
100
AcDbEntity
  8
Camada 1
 62
   250
420
  1907995
370
    18
100
AcDbLine
 10
40.98735325117544
 20
-47.18586906123472
 30
0.0
 11
40.98735325117544
 21
-46.62766175311293
 31
0.0
  0
LINE
  5
21F
330
79
100
AcDbEntity
  8
Camada 1
 62
   250
420
  1907995
370
    18
100
AcDbLine
 10
40.98735325117544
 20
-46.62766175311293
 30
0.0
 11
40.42882677810749
 21
-46.62766175311293
 31
0.0
  0
LINE
  5
220
330
79
100
AcDbEntity
  8
Camada 1
 62
   250
420
  1907995
370
    18
100
AcDbLine
 10
40.42882677810749
 20
-46.62766175311293
 30
0.0
 11
40.42882677810749
 21
-47.18586906123472
 31
0.0
  0
LINE
  5
221
330
79
100
AcDbEntity
  8
Camada 1
 62
   250
420
  1907995
370
    18
100
AcDbLine
 10
37.79586459505916
 20
-47.18586906123472
 30
0.0
 11
38.35439106812647
 21
-47.18586906123472
 31
0.0
  0
LWPOLYLINE
  5
222
330
79
100
AcDbEntity
  8
Camada 1
 62
   250
420
  1907995
370
    18
100
AcDbPolyline
 90
        7
 70
     1
 43
0.0
 10
38.03473153860202
 20
-46.94668538911975
 10
38.03473153860202
 20
-46.78701520683028
 10
38.11456662974644
 20
-46.78701520683028
 10
38.19440172089148
 20
-46.86685029797533
 10
38.19440172089148
 20
-46.94668538911975
 10
38.11456662974644
 20
-47.02619887894526
 10
38.03473153860202
 20
-47.02619887894526
  0
LINE
  5
223
330
79
100
AcDbEntity
  8
Camada 1
 62
   250
420
  1907995
370
    18
100
AcDbLine
 10
38.35439106812647
 20
-47.18586906123472
 30
0.0
 11
38.35439106812647
 21
-46.62766175311293
 31
0.0
  0
LINE
  5
224
330
79
100
AcDbEntity
  8
Camada 1
 62
   250
420
  1907995
370
    18
100
AcDbLine
 10
38.35439106812647
 20
-46.62766175311293
 30
0.0
 11
37.79586459505916
 21
-46.62766175311293
 31
0.0
  0
LINE
  5
225
330
79
100
AcDbEntity
  8
Camada 1
 62
   250
420
  1907995
370
    18
100
AcDbLine
 10
37.79586459505916
 20
-46.62766175311293
 30
0.0
 11
37.79586459505916
 21
-47.18586906123472
 31
0.0
  0
LINE
  5
226
330
79
100
AcDbEntity
  8
Camada 1
 62
   250
420
  1907995
370
    18
100
AcDbLine
 10
35.16258324706468
 20
-47.18586906123472
 30
0.0
 11
35.72110972013199
 21
-47.18586906123472
 31
0.0
  0
LWPOLYLINE
  5
227
330
79
100
AcDbEntity
  8
Camada 1
 62
   250
420
  1907995
370
    18
100
AcDbPolyline
 90
        7
 70
     1
 43
0.0
 10
35.40176935555305
 20
-46.94668538911975
 10
35.40176935555305
 20
-46.78701520683028
 10
35.48160444669811
 20
-46.78701520683028
 10
35.56143953784252
 20
-46.86685029797533
 10
35.56143953784252
 20
-46.94668538911975
 10
35.48160444669811
 20
-47.02619887894526
 10
35.40176935555305
 20
-47.02619887894526
  0
LINE
  5
228
330
79
100
AcDbEntity
  8
Camada 1
 62
   250
420
  1907995
370
    18
100
AcDbLine
 10
35.72110972013199
 20
-47.18586906123472
 30
0.0
 11
35.72110972013199
 21
-46.62766175311293
 31
0.0
  0
LINE
  5
229
330
79
100
AcDbEntity
  8
Camada 1
 62
   250
420
  1907995
370
    18
100
AcDbLine
 10
35.72110972013199
 20
-46.62766175311293
 30
0.0
 11
35.16258324706468
 21
-46.62766175311293
 31
0.0
  0
LINE
  5
22A
330
79
100
AcDbEntity
  8
Camada 1
 62
   250
420
  1907995
370
    18
100
AcDbLine
 10
35.16258324706468
 20
-46.62766175311293
 30
0.0
 11
35.16258324706468
 21
-47.18586906123472
 31
0.0
  0
LINE
  5
22B
330
79
100
AcDbEntity
  8
Camada 1
 62
   250
420
  1907995
370
    18
100
AcDbLine
 10
48.40818187554241
 20
-49.81851207933818
 30
0.0
 11
48.9663891836642
 21
-49.81851207933818
 31
0.0
  0
LWPOLYLINE
  5
22C
330
79
100
AcDbEntity
  8
Camada 1
 62
   250
420
  1907995
370
    18
100
AcDbPolyline
 90
        7
 70
     1
 43
0.0
 10
48.5672137279402
 20
-49.57932353447578
 10
48.5672137279402
 20
-49.49948844333072
 10
48.64704881908526
 20
-49.49948844333072
 10
48.64704881908526
 20
-49.41965335218631
 10
48.72688391023032
 20
-49.41965335218631
 10
48.72688391023032
 20
-49.65915862562019
 10
48.64704881908526
 20
-49.65915862562019
  0
LINE
  5
22D
330
79
100
AcDbEntity
  8
Camada 1
 62
   250
420
  1907995
370
    18
100
AcDbLine
 10
48.9663891836642
 20
-49.81851207933818
 30
0.0
 11
48.9663891836642
 21
-49.26030477121575
 31
0.0
  0
LINE
  5
22E
330
79
100
AcDbEntity
  8
Camada 1
 62
   250
420
  1907995
370
    18
100
AcDbLine
 10
48.9663891836642
 20
-49.26030477121575
 30
0.0
 11
48.40818187554241
 21
-49.26030477121575
 31
0.0
  0
LINE
  5
22F
330
79
100
AcDbEntity
  8
Camada 1
 62
   250
420
  1907995
370
    18
100
AcDbLine
 10
48.40818187554241
 20
-49.26030477121575
 30
0.0
 11
48.40818187554241
 21
-49.81851207933818
 31
0.0
  0
LINE
  5
230
330
79
100
AcDbEntity
  8
Camada 1
 62
   250
420
  1907995
370
    18
100
AcDbLine
 10
45.77490296392196
 20
-49.81851207933818
 30
0.0
 11
46.33342943698926
 21
-49.81851207933818
 31
0.0
  0
LWPOLYLINE
  5
231
330
79
100
AcDbEntity
  8
Camada 1
 62
   250
420
  1907995
370
    18
100
AcDbPolyline
 90
        7
 70
     1
 43
0.0
 10
45.93393481631976
 20
-49.57932353447578
 10
45.93393481631976
 20
-49.49948844333072
 10
46.01376990746482
 20
-49.41965335218631
 10
46.09360499860922
 20
-49.49948844333072
 10
46.09360499860922
 20
-49.65915862562019
 10
46.01376990746482
 20
-49.65915862562019
 10
45.93393481631976
 20
-49.65915862562019
  0
LINE
  5
232
330
79
100
AcDbEntity
  8
Camada 1
 62
   250
420
  1907995
370
    18
100
AcDbLine
 10
46.33342943698926
 20
-49.81851207933818
 30
0.0
 11
46.33342943698926
 21
-49.26030477121575
 31
0.0
  0
LINE
  5
233
330
79
100
AcDbEntity
  8
Camada 1
 62
   250
420
  1907995
370
    18
100
AcDbLine
 10
46.33342943698926
 20
-49.26030477121575
 30
0.0
 11
45.77490296392196
 21
-49.26030477121575
 31
0.0
  0
LINE
  5
234
330
79
100
AcDbEntity
  8
Camada 1
 62
   250
420
  1907995
370
    18
100
AcDbLine
 10
45.77490296392196
 20
-49.26030477121575
 30
0.0
 11
45.77490296392196
 21
-49.81851207933818
 31
0.0
  0
LINE
  5
235
330
79
100
AcDbEntity
  8
Camada 1
 62
   250
420
  1907995
370
    18
100
AcDbLine
 10
43.06210568972857
 20
-49.81851207933818
 30
0.0
 11
43.70014808899478
 21
-49.81851207933818
 31
0.0
  0
LWPOLYLINE
  5
236
330
79
100
AcDbEntity
  8
Camada 1
 62
   250
420
  1907995
370
    18
100
AcDbPolyline
 90
        7
 70
     1
 43
0.0
 10
43.30097263327143
 20
-49.57932353447578
 10
43.30097263327143
 20
-49.49948844333072
 10
43.38080772441585
 20
-49.41965335218631
 10
43.4606428155609
 20
-49.49948844333072
 10
43.4606428155609
 20
-49.65915862562019
 10
43.38080772441585
 20
-49.65915862562019
 10
43.30097263327143
 20
-49.65915862562019
  0
LINE
  5
237
330
79
100
AcDbEntity
  8
Camada 1
 62
   250
420
  1907995
370
    18
100
AcDbLine
 10
43.70014808899478
 20
-49.81851207933818
 30
0.0
 11
43.70014808899478
 21
-49.26030477121575
 31
0.0
  0
LINE
  5
238
330
79
100
AcDbEntity
  8
Camada 1
 62
   250
420
  1907995
370
    18
100
AcDbLine
 10
43.70014808899478
 20
-49.26030477121575
 30
0.0
 11
43.06210568972857
 21
-49.26030477121575
 31
0.0
  0
LINE
  5
239
330
79
100
AcDbEntity
  8
Camada 1
 62
   250
420
  1907995
370
    18
100
AcDbLine
 10
43.06210568972857
 20
-49.26030477121575
 30
0.0
 11
43.06210568972857
 21
-49.81851207933818
 31
0.0
  0
LINE
  5
23A
330
79
100
AcDbEntity
  8
Camada 1
 62
   250
420
  1907995
370
    18
100
AcDbLine
 10
40.42882677810749
 20
-49.81851207933818
 30
0.0
 11
40.98735325117544
 21
-49.81851207933818
 31
0.0
  0
LWPOLYLINE
  5
23B
330
79
100
AcDbEntity
  8
Camada 1
 62
   250
420
  1907995
370
    18
100
AcDbPolyline
 90
        7
 70
     1
 43
0.0
 10
40.66801288659649
 20
-49.57932353447578
 10
40.66801288659649
 20
-49.49948844333072
 10
40.74784797774091
 20
-49.41965335218631
 10
40.82768306888596
 20
-49.49948844333072
 10
40.82768306888596
 20
-49.65915862562019
 10
40.74784797774091
 20
-49.65915862562019
 10
40.66801288659649
 20
-49.65915862562019
  0
LINE
  5
23C
330
79
100
AcDbEntity
  8
Camada 1
 62
   250
420
  1907995
370
    18
100
AcDbLine
 10
40.98735325117544
 20
-49.81851207933818
 30
0.0
 11
40.98735325117544
 21
-49.26030477121575
 31
0.0
  0
LINE
  5
23D
330
79
100
AcDbEntity
  8
Camada 1
 62
   250
420
  1907995
370
    18
100
AcDbLine
 10
40.98735325117544
 20
-49.26030477121575
 30
0.0
 11
40.42882677810749
 21
-49.26030477121575
 31
0.0
  0
LINE
  5
23E
330
79
100
AcDbEntity
  8
Camada 1
 62
   250
420
  1907995
370
    18
100
AcDbLine
 10
40.42882677810749
 20
-49.26030477121575
 30
0.0
 11
40.42882677810749
 21
-49.81851207933818
 31
0.0
  0
LWPOLYLINE
  5
23F
330
79
100
AcDbEntity
  8
Camada 1
 62
   250
420
  1907995
370
    18
100
AcDbPolyline
 90
        8
 70
     1
 43
0.0
 10
38.03473153860202
 20
-49.57932353447578
 10
38.03473153860202
 20
-49.41965335218631
 10
38.11456662974644
 20
-49.41965335218631
 10
38.11456662974644
 20
-49.49948844333072
 10
38.19440172089148
 20
-49.49948844333072
 10
38.19440172089148
 20
-49.57932353447578
 10
38.11456662974644
 20
-49.65915862562019
 10
38.03473153860202
 20
-49.65915862562019
  0
LINE
  5
240
330
79
100
AcDbEntity
  8
Camada 1
 62
   250
420
  1907995
370
    18
100
AcDbLine
 10
37.79586459505916
 20
-49.81851207933818
 30
0.0
 11
38.35439106812647
 21
-49.81851207933818
 31
0.0
  0
LINE
  5
241
330
79
100
AcDbEntity
  8
Camada 1
 62
   250
420
  1907995
370
    18
100
AcDbLine
 10
38.35439106812647
 20
-49.81851207933818
 30
0.0
 11
38.35439106812647
 21
-49.26030477121575
 31
0.0
  0
LINE
  5
242
330
79
100
AcDbEntity
  8
Camada 1
 62
   250
420
  1907995
370
    18
100
AcDbLine
 10
38.35439106812647
 20
-49.26030477121575
 30
0.0
 11
37.79586459505916
 21
-49.26030477121575
 31
0.0
  0
LINE
  5
243
330
79
100
AcDbEntity
  8
Camada 1
 62
   250
420
  1907995
370
    18
100
AcDbLine
 10
37.79586459505916
 20
-49.26030477121575
 30
0.0
 11
37.79586459505916
 21
-49.81851207933818
 31
0.0
  0
LWPOLYLINE
  5
244
330
79
100
AcDbEntity
  8
Camada 1
 62
   250
420
  1907995
370
    18
100
AcDbPolyline
 90
        8
 70
     1
 43
0.0
 10
35.40176935555305
 20
-49.57932353447578
 10
35.40176935555305
 20
-49.41965335218631
 10
35.48160444669811
 20
-49.41965335218631
 10
35.48160444669811
 20
-49.49948844333072
 10
35.56143953784252
 20
-49.49948844333072
 10
35.56143953784252
 20
-49.57932353447578
 10
35.48160444669811
 20
-49.65915862562019
 10
35.40176935555305
 20
-49.65915862562019
  0
LINE
  5
245
330
79
100
AcDbEntity
  8
Camada 1
 62
   250
420
  1907995
370
    18
100
AcDbLine
 10
35.16258324706468
 20
-49.81851207933818
 30
0.0
 11
35.72110972013199
 21
-49.81851207933818
 31
0.0
  0
LINE
  5
246
330
79
100
AcDbEntity
  8
Camada 1
 62
   250
420
  1907995
370
    18
100
AcDbLine
 10
35.72110972013199
 20
-49.81851207933818
 30
0.0
 11
35.72110972013199
 21
-49.26030477121575
 31
0.0
  0
LINE
  5
247
330
79
100
AcDbEntity
  8
Camada 1
 62
   250
420
  1907995
370
    18
100
AcDbLine
 10
35.72110972013199
 20
-49.26030477121575
 30
0.0
 11
35.16258324706468
 21
-49.26030477121575
 31
0.0
  0
LINE
  5
248
330
79
100
AcDbEntity
  8
Camada 1
 62
   250
420
  1907995
370
    18
100
AcDbLine
 10
35.16258324706468
 20
-49.26030477121575
 30
0.0
 11
35.16258324706468
 21
-49.81851207933818
 31
0.0
  0
LWPOLYLINE
  5
249
330
79
100
AcDbEntity
  8
Camada 1
 62
   250
420
  1907995
370
    18
100
AcDbPolyline
 90
        7
 70
     1
 43
0.0
 10
48.72688391023032
 20
-33.70460001141861
 10
48.72688391023032
 20
-33.62476492027356
 10
48.64704881908526
 20
-33.62476492027356
 10
48.5672137279402
 20
-33.62476492027356
 10
48.5672137279402
 20
-33.78411350124411
 10
48.64704881908526
 20
-33.78411350124411
 10
48.72688391023032
 20
-33.78411350124411
  0
LINE
  5
24A
330
79
100
AcDbEntity
  8
Camada 1
 62
   250
420
  1907995
370
    18
100
AcDbLine
 10
48.40818187554241
 20
-33.46509473798409
 30
0.0
 11
48.9663891836642
 21
-33.46509473798409
 31
0.0
  0
LINE
  5
24B
330
79
100
AcDbEntity
  8
Camada 1
 62
   250
420
  1907995
370
    18
100
AcDbLine
 10
48.9663891836642
 20
-34.02329717335909
 30
0.0
 11
48.40818187554241
 21
-34.02329717335909
 31
0.0
  0
LINE
  5
24C
330
79
100
AcDbEntity
  8
Camada 1
 62
   250
420
  1907995
370
    18
100
AcDbLine
 10
48.40818187554241
 20
-34.02329717335909
 30
0.0
 11
48.40818187554241
 21
-33.46509473798409
 31
0.0
  0
LINE
  5
24D
330
79
100
AcDbEntity
  8
Camada 1
 62
   250
420
  1907995
370
    18
100
AcDbLine
 10
48.9663891836642
 20
-33.46509473798409
 30
0.0
 11
48.9663891836642
 21
-34.02329717335909
 31
0.0
  0
LWPOLYLINE
  5
24E
330
79
100
AcDbEntity
  8
Camada 1
 62
   250
420
  1907995
370
    18
100
AcDbPolyline
 90
        7
 70
     1
 43
0.0
 10
46.09360499860922
 20
-33.70460001141861
 10
46.09360499860922
 20
-33.62476492027356
 10
46.01376990746482
 20
-33.62476492027356
 10
45.93393481631976
 20
-33.62476492027356
 10
45.93393481631976
 20
-33.78411350124411
 10
46.01376990746482
 20
-33.78411350124411
 10
46.09360499860922
 20
-33.78411350124411
  0
LINE
  5
24F
330
79
100
AcDbEntity
  8
Camada 1
 62
   250
420
  1907995
370
    18
100
AcDbLine
 10
45.77490296392196
 20
-33.46509473798409
 30
0.0
 11
46.33342943698926
 21
-33.46509473798409
 31
0.0
  0
LINE
  5
250
330
79
100
AcDbEntity
  8
Camada 1
 62
   250
420
  1907995
370
    18
100
AcDbLine
 10
46.33342943698926
 20
-34.02329717335909
 30
0.0
 11
45.77490296392196
 21
-34.02329717335909
 31
0.0
  0
LINE
  5
251
330
79
100
AcDbEntity
  8
Camada 1
 62
   250
420
  1907995
370
    18
100
AcDbLine
 10
45.77490296392196
 20
-34.02329717335909
 30
0.0
 11
45.77490296392196
 21
-33.46509473798409
 31
0.0
  0
LINE
  5
252
330
79
100
AcDbEntity
  8
Camada 1
 62
   250
420
  1907995
370
    18
100
AcDbLine
 10
46.33342943698926
 20
-33.46509473798409
 30
0.0
 11
46.33342943698926
 21
-34.02329717335909
 31
0.0
  0
LWPOLYLINE
  5
253
330
79
100
AcDbEntity
  8
Camada 1
 62
   250
420
  1907995
370
    18
100
AcDbPolyline
 90
        7
 70
     1
 43
0.0
 10
43.4606428155609
 20
-33.70460001141861
 10
43.4606428155609
 20
-33.62476492027356
 10
43.38080772441585
 20
-33.62476492027356
 10
43.30097263327143
 20
-33.62476492027356
 10
43.30097263327143
 20
-33.78411350124411
 10
43.38080772441585
 20
-33.78411350124411
 10
43.4606428155609
 20
-33.78411350124411
  0
LINE
  5
254
330
79
100
AcDbEntity
  8
Camada 1
 62
   250
420
  1907995
370
    18
100
AcDbLine
 10
43.06210568972857
 20
-33.46509473798409
 30
0.0
 11
43.70014808899478
 21
-33.46509473798409
 31
0.0
  0
LINE
  5
255
330
79
100
AcDbEntity
  8
Camada 1
 62
   250
420
  1907995
370
    18
100
AcDbLine
 10
43.70014808899478
 20
-34.02329717335909
 30
0.0
 11
43.06210568972857
 21
-34.02329717335909
 31
0.0
  0
LINE
  5
256
330
79
100
AcDbEntity
  8
Camada 1
 62
   250
420
  1907995
370
    18
100
AcDbLine
 10
43.06210568972857
 20
-34.02329717335909
 30
0.0
 11
43.06210568972857
 21
-33.46509473798409
 31
0.0
  0
LINE
  5
257
330
79
100
AcDbEntity
  8
Camada 1
 62
   250
420
  1907995
370
    18
100
AcDbLine
 10
43.70014808899478
 20
-33.46509473798409
 30
0.0
 11
43.70014808899478
 21
-34.02329717335909
 31
0.0
  0
LWPOLYLINE
  5
258
330
79
100
AcDbEntity
  8
Camada 1
 62
   250
420
  1907995
370
    18
100
AcDbPolyline
 90
        7
 70
     1
 43
0.0
 10
40.82768306888596
 20
-33.70460001141861
 10
40.82768306888596
 20
-33.62476492027356
 10
40.74784797774091
 20
-33.62476492027356
 10
40.66801288659649
 20
-33.62476492027356
 10
40.66801288659649
 20
-33.78411350124411
 10
40.74784797774091
 20
-33.78411350124411
 10
40.82768306888596
 20
-33.78411350124411
  0
LINE
  5
259
330
79
100
AcDbEntity
  8
Camada 1
 62
   250
420
  1907995
370
    18
100
AcDbLine
 10
40.42882677810749
 20
-33.46509473798409
 30
0.0
 11
40.98735325117544
 21
-33.46509473798409
 31
0.0
  0
LINE
  5
25A
330
79
100
AcDbEntity
  8
Camada 1
 62
   250
420
  1907995
370
    18
100
AcDbLine
 10
40.98735325117544
 20
-34.02329717335909
 30
0.0
 11
40.42882677810749
 21
-34.02329717335909
 31
0.0
  0
LINE
  5
25B
330
79
100
AcDbEntity
  8
Camada 1
 62
   250
420
  1907995
370
    18
100
AcDbLine
 10
40.42882677810749
 20
-34.02329717335909
 30
0.0
 11
40.42882677810749
 21
-33.46509473798409
 31
0.0
  0
LINE
  5
25C
330
79
100
AcDbEntity
  8
Camada 1
 62
   250
420
  1907995
370
    18
100
AcDbLine
 10
40.98735325117544
 20
-33.46509473798409
 30
0.0
 11
40.98735325117544
 21
-34.02329717335909
 31
0.0
  0
LWPOLYLINE
  5
25D
330
79
100
AcDbEntity
  8
Camada 1
 62
   250
420
  1907995
370
    18
100
AcDbPolyline
 90
        7
 70
     1
 43
0.0
 10
38.19440172089148
 20
-33.70460001141861
 10
38.19440172089148
 20
-33.62476492027356
 10
38.11456662974644
 20
-33.62476492027356
 10
38.03473153860202
 20
-33.62476492027356
 10
38.03473153860202
 20
-33.78411350124411
 10
38.11456662974644
 20
-33.78411350124411
 10
38.19440172089148
 20
-33.78411350124411
  0
LINE
  5
25E
330
79
100
AcDbEntity
  8
Camada 1
 62
   250
420
  1907995
370
    18
100
AcDbLine
 10
37.79586459505916
 20
-33.46509473798409
 30
0.0
 11
38.35439106812647
 21
-33.46509473798409
 31
0.0
  0
LINE
  5
25F
330
79
100
AcDbEntity
  8
Camada 1
 62
   250
420
  1907995
370
    18
100
AcDbLine
 10
38.35439106812647
 20
-34.02329717335909
 30
0.0
 11
37.79586459505916
 21
-34.02329717335909
 31
0.0
  0
LINE
  5
260
330
79
100
AcDbEntity
  8
Camada 1
 62
   250
420
  1907995
370
    18
100
AcDbLine
 10
37.79586459505916
 20
-34.02329717335909
 30
0.0
 11
37.79586459505916
 21
-33.46509473798409
 31
0.0
  0
LINE
  5
261
330
79
100
AcDbEntity
  8
Camada 1
 62
   250
420
  1907995
370
    18
100
AcDbLine
 10
38.35439106812647
 20
-33.46509473798409
 30
0.0
 11
38.35439106812647
 21
-34.02329717335909
 31
0.0
  0
LWPOLYLINE
  5
262
330
79
100
AcDbEntity
  8
Camada 1
 62
   250
420
  1907995
370
    18
100
AcDbPolyline
 90
        7
 70
     1
 43
0.0
 10
35.56143953784252
 20
-33.70460001141861
 10
35.56143953784252
 20
-33.62476492027356
 10
35.48160444669811
 20
-33.62476492027356
 10
35.40176935555305
 20
-33.62476492027356
 10
35.40176935555305
 20
-33.78411350124411
 10
35.48160444669811
 20
-33.78411350124411
 10
35.56143953784252
 20
-33.78411350124411
  0
LINE
  5
263
330
79
100
AcDbEntity
  8
Camada 1
 62
   250
420
  1907995
370
    18
100
AcDbLine
 10
35.16258324706468
 20
-33.46509473798409
 30
0.0
 11
35.72110972013199
 21
-33.46509473798409
 31
0.0
  0
LINE
  5
264
330
79
100
AcDbEntity
  8
Camada 1
 62
   250
420
  1907995
370
    18
100
AcDbLine
 10
35.72110972013199
 20
-34.02329717335909
 30
0.0
 11
35.16258324706468
 21
-34.02329717335909
 31
0.0
  0
LINE
  5
265
330
79
100
AcDbEntity
  8
Camada 1
 62
   250
420
  1907995
370
    18
100
AcDbLine
 10
35.16258324706468
 20
-34.02329717335909
 30
0.0
 11
35.16258324706468
 21
-33.46509473798409
 31
0.0
  0
LINE
  5
266
330
79
100
AcDbEntity
  8
Camada 1
 62
   250
420
  1907995
370
    18
100
AcDbLine
 10
35.72110972013199
 20
-33.46509473798409
 30
0.0
 11
35.72110972013199
 21
-34.02329717335909
 31
0.0
  0
LWPOLYLINE
  5
267
330
79
100
AcDbEntity
  8
Camada 1
 62
   250
420
  1907995
370
    18
100
AcDbPolyline
 90
        7
 70
     1
 43
0.0
 10
48.72688391023032
 20
-31.07164026474368
 10
48.72688391023032
 20
-30.99212677491817
 10
48.64704881908526
 20
-30.99212677491817
 10
48.5672137279402
 20
-30.99212677491817
 10
48.5672137279402
 20
-31.15147535588809
 10
48.64704881908526
 20
-31.15147535588809
 10
48.72688391023032
 20
-31.15147535588809
  0
LINE
  5
268
330
79
100
AcDbEntity
  8
Camada 1
 62
   250
420
  1907995
370
    18
100
AcDbLine
 10
48.40818187554241
 20
-30.8324565926287
 30
0.0
 11
48.9663891836642
 21
-30.8324565926287
 31
0.0
  0
LINE
  5
269
330
79
100
AcDbEntity
  8
Camada 1
 62
   250
420
  1907995
370
    18
100
AcDbLine
 10
48.9663891836642
 20
-31.39098062932261
 30
0.0
 11
48.40818187554241
 21
-31.39098062932261
 31
0.0
  0
LINE
  5
26A
330
79
100
AcDbEntity
  8
Camada 1
 62
   250
420
  1907995
370
    18
100
AcDbLine
 10
48.40818187554241
 20
-31.39098062932261
 30
0.0
 11
48.40818187554241
 21
-30.8324565926287
 31
0.0
  0
LINE
  5
26B
330
79
100
AcDbEntity
  8
Camada 1
 62
   250
420
  1907995
370
    18
100
AcDbLine
 10
48.9663891836642
 20
-30.8324565926287
 30
0.0
 11
48.9663891836642
 21
-31.39098062932261
 31
0.0
  0
LWPOLYLINE
  5
26C
330
79
100
AcDbEntity
  8
Camada 1
 62
   250
420
  1907995
370
    18
100
AcDbPolyline
 90
        7
 70
     1
 43
0.0
 10
46.09360499860922
 20
-31.07164026474368
 10
46.09360499860922
 20
-30.99212677491817
 10
46.01376990746482
 20
-30.99212677491817
 10
45.93393481631976
 20
-30.99212677491817
 10
45.93393481631976
 20
-31.15147535588809
 10
46.01376990746482
 20
-31.15147535588809
 10
46.09360499860922
 20
-31.15147535588809
  0
LINE
  5
26D
330
79
100
AcDbEntity
  8
Camada 1
 62
   250
420
  1907995
370
    18
100
AcDbLine
 10
45.77490296392196
 20
-30.8324565926287
 30
0.0
 11
46.33342943698926
 21
-30.8324565926287
 31
0.0
  0
LINE
  5
26E
330
79
100
AcDbEntity
  8
Camada 1
 62
   250
420
  1907995
370
    18
100
AcDbLine
 10
46.33342943698926
 20
-31.39098062932261
 30
0.0
 11
45.77490296392196
 21
-31.39098062932261
 31
0.0
  0
LINE
  5
26F
330
79
100
AcDbEntity
  8
Camada 1
 62
   250
420
  1907995
370
    18
100
AcDbLine
 10
45.77490296392196
 20
-31.39098062932261
 30
0.0
 11
45.77490296392196
 21
-30.8324565926287
 31
0.0
  0
LINE
  5
270
330
79
100
AcDbEntity
  8
Camada 1
 62
   250
420
  1907995
370
    18
100
AcDbLine
 10
46.33342943698926
 20
-30.8324565926287
 30
0.0
 11
46.33342943698926
 21
-31.39098062932261
 31
0.0
  0
LWPOLYLINE
  5
271
330
79
100
AcDbEntity
  8
Camada 1
 62
   250
420
  1907995
370
    18
100
AcDbPolyline
 90
        7
 70
     1
 43
0.0
 10
43.4606428155609
 20
-31.07164026474368
 10
43.4606428155609
 20
-30.99212677491817
 10
43.38080772441585
 20
-30.99212677491817
 10
43.30097263327143
 20
-30.99212677491817
 10
43.30097263327143
 20
-31.15147535588809
 10
43.38080772441585
 20
-31.15147535588809
 10
43.4606428155609
 20
-31.15147535588809
  0
LINE
  5
272
330
79
100
AcDbEntity
  8
Camada 1
 62
   250
420
  1907995
370
    18
100
AcDbLine
 10
43.06210568972857
 20
-30.8324565926287
 30
0.0
 11
43.70014808899478
 21
-30.8324565926287
 31
0.0
  0
LINE
  5
273
330
79
100
AcDbEntity
  8
Camada 1
 62
   250
420
  1907995
370
    18
100
AcDbLine
 10
43.70014808899478
 20
-31.39098062932261
 30
0.0
 11
43.06210568972857
 21
-31.39098062932261
 31
0.0
  0
LINE
  5
274
330
79
100
AcDbEntity
  8
Camada 1
 62
   250
420
  1907995
370
    18
100
AcDbLine
 10
43.06210568972857
 20
-31.39098062932261
 30
0.0
 11
43.06210568972857
 21
-30.8324565926287
 31
0.0
  0
LINE
  5
275
330
79
100
AcDbEntity
  8
Camada 1
 62
   250
420
  1907995
370
    18
100
AcDbLine
 10
43.70014808899478
 20
-30.8324565926287
 30
0.0
 11
43.70014808899478
 21
-31.39098062932261
 31
0.0
  0
LWPOLYLINE
  5
276
330
79
100
AcDbEntity
  8
Camada 1
 62
   250
420
  1907995
370
    18
100
AcDbPolyline
 90
        7
 70
     1
 43
0.0
 10
40.82768306888596
 20
-31.07164026474368
 10
40.82768306888596
 20
-30.99212677491817
 10
40.74784797774091
 20
-30.99212677491817
 10
40.66801288659649
 20
-30.99212677491817
 10
40.66801288659649
 20
-31.15147535588809
 10
40.74784797774091
 20
-31.15147535588809
 10
40.82768306888596
 20
-31.15147535588809
  0
LINE
  5
277
330
79
100
AcDbEntity
  8
Camada 1
 62
   250
420
  1907995
370
    18
100
AcDbLine
 10
40.42882677810749
 20
-30.8324565926287
 30
0.0
 11
40.98735325117544
 21
-30.8324565926287
 31
0.0
  0
LINE
  5
278
330
79
100
AcDbEntity
  8
Camada 1
 62
   250
420
  1907995
370
    18
100
AcDbLine
 10
40.98735325117544
 20
-31.39098062932261
 30
0.0
 11
40.42882677810749
 21
-31.39098062932261
 31
0.0
  0
LINE
  5
279
330
79
100
AcDbEntity
  8
Camada 1
 62
   250
420
  1907995
370
    18
100
AcDbLine
 10
40.42882677810749
 20
-31.39098062932261
 30
0.0
 11
40.42882677810749
 21
-30.8324565926287
 31
0.0
  0
LINE
  5
27A
330
79
100
AcDbEntity
  8
Camada 1
 62
   250
420
  1907995
370
    18
100
AcDbLine
 10
40.98735325117544
 20
-30.8324565926287
 30
0.0
 11
40.98735325117544
 21
-31.39098062932261
 31
0.0
  0
LWPOLYLINE
  5
27B
330
79
100
AcDbEntity
  8
Camada 1
 62
   250
420
  1907995
370
    18
100
AcDbPolyline
 90
        7
 70
     1
 43
0.0
 10
38.19440172089148
 20
-31.07164026474368
 10
38.19440172089148
 20
-30.99212677491817
 10
38.11456662974644
 20
-30.99212677491817
 10
38.03473153860202
 20
-30.99212677491817
 10
38.03473153860202
 20
-31.15147535588809
 10
38.11456662974644
 20
-31.15147535588809
 10
38.19440172089148
 20
-31.15147535588809
  0
LINE
  5
27C
330
79
100
AcDbEntity
  8
Camada 1
 62
   250
420
  1907995
370
    18
100
AcDbLine
 10
37.79586459505916
 20
-30.8324565926287
 30
0.0
 11
38.35439106812647
 21
-30.8324565926287
 31
0.0
  0
LINE
  5
27D
330
79
100
AcDbEntity
  8
Camada 1
 62
   250
420
  1907995
370
    18
100
AcDbLine
 10
38.35439106812647
 20
-31.39098062932261
 30
0.0
 11
37.79586459505916
 21
-31.39098062932261
 31
0.0
  0
LINE
  5
27E
330
79
100
AcDbEntity
  8
Camada 1
 62
   250
420
  1907995
370
    18
100
AcDbLine
 10
37.79586459505916
 20
-31.39098062932261
 30
0.0
 11
37.79586459505916
 21
-30.8324565926287
 31
0.0
  0
LINE
  5
27F
330
79
100
AcDbEntity
  8
Camada 1
 62
   250
420
  1907995
370
    18
100
AcDbLine
 10
38.35439106812647
 20
-30.8324565926287
 30
0.0
 11
38.35439106812647
 21
-31.39098062932261
 31
0.0
  0
LWPOLYLINE
  5
280
330
79
100
AcDbEntity
  8
Camada 1
 62
   250
420
  1907995
370
    18
100
AcDbPolyline
 90
        7
 70
     1
 43
0.0
 10
35.56143953784252
 20
-31.07164026474368
 10
35.56143953784252
 20
-30.99212677491817
 10
35.48160444669811
 20
-30.99212677491817
 10
35.40176935555305
 20
-30.99212677491817
 10
35.40176935555305
 20
-31.15147535588809
 10
35.48160444669811
 20
-31.15147535588809
 10
35.56143953784252
 20
-31.15147535588809
  0
LINE
  5
281
330
79
100
AcDbEntity
  8
Camada 1
 62
   250
420
  1907995
370
    18
100
AcDbLine
 10
35.16258324706468
 20
-30.8324565926287
 30
0.0
 11
35.72110972013199
 21
-30.8324565926287
 31
0.0
  0
LINE
  5
282
330
79
100
AcDbEntity
  8
Camada 1
 62
   250
420
  1907995
370
    18
100
AcDbLine
 10
35.72110972013199
 20
-31.39098062932261
 30
0.0
 11
35.16258324706468
 21
-31.39098062932261
 31
0.0
  0
LINE
  5
283
330
79
100
AcDbEntity
  8
Camada 1
 62
   250
420
  1907995
370
    18
100
AcDbLine
 10
35.16258324706468
 20
-31.39098062932261
 30
0.0
 11
35.16258324706468
 21
-30.8324565926287
 31
0.0
  0
LINE
  5
284
330
79
100
AcDbEntity
  8
Camada 1
 62
   250
420
  1907995
370
    18
100
AcDbLine
 10
35.72110972013199
 20
-30.8324565926287
 30
0.0
 11
35.72110972013199
 21
-31.39098062932261
 31
0.0
  0
LWPOLYLINE
  5
285
330
79
100
AcDbEntity
  8
Camada 1
 62
   250
420
  1907995
370
    18
100
AcDbPolyline
 90
        7
 70
     1
 43
0.0
 10
48.72688391023032
 20
-28.43931397521233
 10
48.72688391023032
 20
-28.35980048538683
 10
48.64704881908526
 20
-28.35980048538683
 10
48.5672137279402
 20
-28.35980048538683
 10
48.5672137279402
 20
-28.51914906635739
 10
48.64704881908526
 20
-28.51914906635739
 10
48.72688391023032
 20
-28.51914906635739
  0
LINE
  5
286
330
79
100
AcDbEntity
  8
Camada 1
 62
   250
420
  1907995
370
    18
100
AcDbLine
 10
48.40818187554241
 20
-28.20013030309736
 30
0.0
 11
48.9663891836642
 21
-28.20013030309736
 31
0.0
  0
LINE
  5
287
330
79
100
AcDbEntity
  8
Camada 1
 62
   250
420
  1907995
370
    18
100
AcDbLine
 10
48.9663891836642
 20
-28.75833273847236
 30
0.0
 11
48.40818187554241
 21
-28.75833273847236
 31
0.0
  0
LINE
  5
288
330
79
100
AcDbEntity
  8
Camada 1
 62
   250
420
  1907995
370
    18
100
AcDbLine
 10
48.40818187554241
 20
-28.75833273847236
 30
0.0
 11
48.40818187554241
 21
-28.20013030309736
 31
0.0
  0
LINE
  5
289
330
79
100
AcDbEntity
  8
Camada 1
 62
   250
420
  1907995
370
    18
100
AcDbLine
 10
48.9663891836642
 20
-28.20013030309736
 30
0.0
 11
48.9663891836642
 21
-28.75833273847236
 31
0.0
  0
LWPOLYLINE
  5
28A
330
79
100
AcDbEntity
  8
Camada 1
 62
   250
420
  1907995
370
    18
100
AcDbPolyline
 90
        7
 70
     1
 43
0.0
 10
46.09360499860922
 20
-28.43931397521233
 10
46.09360499860922
 20
-28.35980048538683
 10
46.01376990746482
 20
-28.35980048538683
 10
45.93393481631976
 20
-28.35980048538683
 10
45.93393481631976
 20
-28.51914906635739
 10
46.01376990746482
 20
-28.51914906635739
 10
46.09360499860922
 20
-28.51914906635739
  0
LINE
  5
28B
330
79
100
AcDbEntity
  8
Camada 1
 62
   250
420
  1907995
370
    18
100
AcDbLine
 10
45.77490296392196
 20
-28.20013030309736
 30
0.0
 11
46.33342943698926
 21
-28.20013030309736
 31
0.0
  0
LINE
  5
28C
330
79
100
AcDbEntity
  8
Camada 1
 62
   250
420
  1907995
370
    18
100
AcDbLine
 10
46.33342943698926
 20
-28.75833273847236
 30
0.0
 11
45.77490296392196
 21
-28.75833273847236
 31
0.0
  0
LINE
  5
28D
330
79
100
AcDbEntity
  8
Camada 1
 62
   250
420
  1907995
370
    18
100
AcDbLine
 10
45.77490296392196
 20
-28.75833273847236
 30
0.0
 11
45.77490296392196
 21
-28.20013030309736
 31
0.0
  0
LINE
  5
28E
330
79
100
AcDbEntity
  8
Camada 1
 62
   250
420
  1907995
370
    18
100
AcDbLine
 10
46.33342943698926
 20
-28.20013030309736
 30
0.0
 11
46.33342943698926
 21
-28.75833273847236
 31
0.0
  0
LWPOLYLINE
  5
28F
330
79
100
AcDbEntity
  8
Camada 1
 62
   250
420
  1907995
370
    18
100
AcDbPolyline
 90
        7
 70
     1
 43
0.0
 10
43.4606428155609
 20
-28.43931397521233
 10
43.4606428155609
 20
-28.35980048538683
 10
43.38080772441585
 20
-28.35980048538683
 10
43.30097263327143
 20
-28.35980048538683
 10
43.30097263327143
 20
-28.51914906635739
 10
43.38080772441585
 20
-28.51914906635739
 10
43.4606428155609
 20
-28.51914906635739
  0
LINE
  5
290
330
79
100
AcDbEntity
  8
Camada 1
 62
   250
420
  1907995
370
    18
100
AcDbLine
 10
43.06210568972857
 20
-28.20013030309736
 30
0.0
 11
43.70014808899478
 21
-28.20013030309736
 31
0.0
  0
LINE
  5
291
330
79
100
AcDbEntity
  8
Camada 1
 62
   250
420
  1907995
370
    18
100
AcDbLine
 10
43.70014808899478
 20
-28.75833273847236
 30
0.0
 11
43.06210568972857
 21
-28.75833273847236
 31
0.0
  0
LINE
  5
292
330
79
100
AcDbEntity
  8
Camada 1
 62
   250
420
  1907995
370
    18
100
AcDbLine
 10
43.06210568972857
 20
-28.75833273847236
 30
0.0
 11
43.06210568972857
 21
-28.20013030309736
 31
0.0
  0
LINE
  5
293
330
79
100
AcDbEntity
  8
Camada 1
 62
   250
420
  1907995
370
    18
100
AcDbLine
 10
43.70014808899478
 20
-28.20013030309736
 30
0.0
 11
43.70014808899478
 21
-28.75833273847236
 31
0.0
  0
LWPOLYLINE
  5
294
330
79
100
AcDbEntity
  8
Camada 1
 62
   250
420
  1907995
370
    18
100
AcDbPolyline
 90
        7
 70
     1
 43
0.0
 10
40.82768306888596
 20
-28.43931397521233
 10
40.82768306888596
 20
-28.35980048538683
 10
40.74784797774091
 20
-28.35980048538683
 10
40.66801288659649
 20
-28.35980048538683
 10
40.66801288659649
 20
-28.51914906635739
 10
40.74784797774091
 20
-28.51914906635739
 10
40.82768306888596
 20
-28.51914906635739
  0
LINE
  5
295
330
79
100
AcDbEntity
  8
Camada 1
 62
   250
420
  1907995
370
    18
100
AcDbLine
 10
40.42882677810749
 20
-28.20013030309736
 30
0.0
 11
40.98735325117544
 21
-28.20013030309736
 31
0.0
  0
LINE
  5
296
330
79
100
AcDbEntity
  8
Camada 1
 62
   250
420
  1907995
370
    18
100
AcDbLine
 10
40.98735325117544
 20
-28.75833273847236
 30
0.0
 11
40.42882677810749
 21
-28.75833273847236
 31
0.0
  0
LINE
  5
297
330
79
100
AcDbEntity
  8
Camada 1
 62
   250
420
  1907995
370
    18
100
AcDbLine
 10
40.42882677810749
 20
-28.75833273847236
 30
0.0
 11
40.42882677810749
 21
-28.20013030309736
 31
0.0
  0
LINE
  5
298
330
79
100
AcDbEntity
  8
Camada 1
 62
   250
420
  1907995
370
    18
100
AcDbLine
 10
40.98735325117544
 20
-28.20013030309736
 30
0.0
 11
40.98735325117544
 21
-28.75833273847236
 31
0.0
  0
LWPOLYLINE
  5
299
330
79
100
AcDbEntity
  8
Camada 1
 62
   250
420
  1907995
370
    18
100
AcDbPolyline
 90
        7
 70
     1
 43
0.0
 10
38.19440172089148
 20
-28.43931397521233
 10
38.19440172089148
 20
-28.35980048538683
 10
38.11456662974644
 20
-28.35980048538683
 10
38.03473153860202
 20
-28.35980048538683
 10
38.03473153860202
 20
-28.51914906635739
 10
38.11456662974644
 20
-28.51914906635739
 10
38.19440172089148
 20
-28.51914906635739
  0
LINE
  5
29A
330
79
100
AcDbEntity
  8
Camada 1
 62
   250
420
  1907995
370
    18
100
AcDbLine
 10
37.79586459505916
 20
-28.20013030309736
 30
0.0
 11
38.35439106812647
 21
-28.20013030309736
 31
0.0
  0
LINE
  5
29B
330
79
100
AcDbEntity
  8
Camada 1
 62
   250
420
  1907995
370
    18
100
AcDbLine
 10
38.35439106812647
 20
-28.75833273847236
 30
0.0
 11
37.79586459505916
 21
-28.75833273847236
 31
0.0
  0
LINE
  5
29C
330
79
100
AcDbEntity
  8
Camada 1
 62
   250
420
  1907995
370
    18
100
AcDbLine
 10
37.79586459505916
 20
-28.75833273847236
 30
0.0
 11
37.79586459505916
 21
-28.20013030309736
 31
0.0
  0
LINE
  5
29D
330
79
100
AcDbEntity
  8
Camada 1
 62
   250
420
  1907995
370
    18
100
AcDbLine
 10
38.35439106812647
 20
-28.20013030309736
 30
0.0
 11
38.35439106812647
 21
-28.75833273847236
 31
0.0
  0
LWPOLYLINE
  5
29E
330
79
100
AcDbEntity
  8
Camada 1
 62
   250
420
  1907995
370
    18
100
AcDbPolyline
 90
        7
 70
     1
 43
0.0
 10
35.56143953784252
 20
-28.43931397521233
 10
35.56143953784252
 20
-28.35980048538683
 10
35.48160444669811
 20
-28.35980048538683
 10
35.40176935555305
 20
-28.35980048538683
 10
35.40176935555305
 20
-28.51914906635739
 10
35.48160444669811
 20
-28.51914906635739
 10
35.56143953784252
 20
-28.51914906635739
  0
LINE
  5
29F
330
79
100
AcDbEntity
  8
Camada 1
 62
   250
420
  1907995
370
    18
100
AcDbLine
 10
35.16258324706468
 20
-28.20013030309736
 30
0.0
 11
35.72110972013199
 21
-28.20013030309736
 31
0.0
  0
LINE
  5
2A0
330
79
100
AcDbEntity
  8
Camada 1
 62
   250
420
  1907995
370
    18
100
AcDbLine
 10
35.72110972013199
 20
-28.75833273847236
 30
0.0
 11
35.16258324706468
 21
-28.75833273847236
 31
0.0
  0
LINE
  5
2A1
330
79
100
AcDbEntity
  8
Camada 1
 62
   250
420
  1907995
370
    18
100
AcDbLine
 10
35.16258324706468
 20
-28.75833273847236
 30
0.0
 11
35.16258324706468
 21
-28.20013030309736
 31
0.0
  0
LINE
  5
2A2
330
79
100
AcDbEntity
  8
Camada 1
 62
   250
420
  1907995
370
    18
100
AcDbLine
 10
35.72110972013199
 20
-28.20013030309736
 30
0.0
 11
35.72110972013199
 21
-28.75833273847236
 31
0.0
  0
LWPOLYLINE
  5
2A3
330
79
100
AcDbEntity
  8
Camada 1
 62
   250
420
  1907995
370
    18
100
AcDbPolyline
 90
        7
 70
     1
 43
0.0
 10
48.72688391023032
 20
-25.80667582985695
 10
48.72688391023032
 20
-25.72716234003144
 10
48.64704881908526
 20
-25.72716234003144
 10
48.5672137279402
 20
-25.72716234003144
 10
48.5672137279402
 20
-25.88651092100136
 10
48.64704881908526
 20
-25.88651092100136
 10
48.72688391023032
 20
-25.88651092100136
  0
LINE
  5
2A4
330
79
100
AcDbEntity
  8
Camada 1
 62
   250
420
  1907995
370
    18
100
AcDbLine
 10
48.40818187554241
 20
-25.56749215774198
 30
0.0
 11
48.9663891836642
 21
-25.56749215774198
 31
0.0
  0
LINE
  5
2A5
330
79
100
AcDbEntity
  8
Camada 1
 62
   250
420
  1907995
370
    18
100
AcDbLine
 10
48.9663891836642
 20
-26.12569459311633
 30
0.0
 11
48.40818187554241
 21
-26.12569459311633
 31
0.0
  0
LINE
  5
2A6
330
79
100
AcDbEntity
  8
Camada 1
 62
   250
420
  1907995
370
    18
100
AcDbLine
 10
48.40818187554241
 20
-26.12569459311633
 30
0.0
 11
48.40818187554241
 21
-25.56749215774198
 31
0.0
  0
LINE
  5
2A7
330
79
100
AcDbEntity
  8
Camada 1
 62
   250
420
  1907995
370
    18
100
AcDbLine
 10
48.9663891836642
 20
-25.56749215774198
 30
0.0
 11
48.9663891836642
 21
-26.12569459311633
 31
0.0
  0
LWPOLYLINE
  5
2A8
330
79
100
AcDbEntity
  8
Camada 1
 62
   250
420
  1907995
370
    18
100
AcDbPolyline
 90
        7
 70
     1
 43
0.0
 10
46.09360499860922
 20
-25.80667582985695
 10
46.09360499860922
 20
-25.72716234003144
 10
46.01376990746482
 20
-25.72716234003144
 10
45.93393481631976
 20
-25.72716234003144
 10
45.93393481631976
 20
-25.88651092100136
 10
46.01376990746482
 20
-25.88651092100136
 10
46.09360499860922
 20
-25.88651092100136
  0
LINE
  5
2A9
330
79
100
AcDbEntity
  8
Camada 1
 62
   250
420
  1907995
370
    18
100
AcDbLine
 10
45.77490296392196
 20
-25.56749215774198
 30
0.0
 11
46.33342943698926
 21
-25.56749215774198
 31
0.0
  0
LINE
  5
2AA
330
79
100
AcDbEntity
  8
Camada 1
 62
   250
420
  1907995
370
    18
100
AcDbLine
 10
45.77490296392196
 20
-26.12569459311633
 30
0.0
 11
45.77490296392196
 21
-25.56749215774198
 31
0.0
  0
LINE
  5
2AB
330
79
100
AcDbEntity
  8
Camada 1
 62
   250
420
  1907995
370
    18
100
AcDbLine
 10
46.33342943698926
 20
-25.56749215774198
 30
0.0
 11
46.33342943698926
 21
-26.12569459311633
 31
0.0
  0
LINE
  5
2AC
330
79
100
AcDbEntity
  8
Camada 1
 62
   250
420
  1907995
370
    18
100
AcDbLine
 10
46.33342943698926
 20
-26.12569459311633
 30
0.0
 11
45.77490296392196
 21
-26.12569459311633
 31
0.0
  0
LWPOLYLINE
  5
2AD
330
79
100
AcDbEntity
  8
Camada 1
 62
   250
420
  1907995
370
    18
100
AcDbPolyline
 90
        7
 70
     1
 43
0.0
 10
43.4606428155609
 20
-25.80667582985695
 10
43.4606428155609
 20
-25.72716234003144
 10
43.38080772441585
 20
-25.72716234003144
 10
43.30097263327143
 20
-25.72716234003144
 10
43.30097263327143
 20
-25.88651092100136
 10
43.38080772441585
 20
-25.88651092100136
 10
43.4606428155609
 20
-25.88651092100136
  0
LINE
  5
2AE
330
79
100
AcDbEntity
  8
Camada 1
 62
   250
420
  1907995
370
    18
100
AcDbLine
 10
43.06210568972857
 20
-25.56749215774198
 30
0.0
 11
43.70014808899478
 21
-25.56749215774198
 31
0.0
  0
LINE
  5
2AF
330
79
100
AcDbEntity
  8
Camada 1
 62
   250
420
  1907995
370
    18
100
AcDbLine
 10
43.06210568972857
 20
-26.12569459311633
 30
0.0
 11
43.06210568972857
 21
-25.56749215774198
 31
0.0
  0
LINE
  5
2B0
330
79
100
AcDbEntity
  8
Camada 1
 62
   250
420
  1907995
370
    18
100
AcDbLine
 10
43.70014808899478
 20
-25.56749215774198
 30
0.0
 11
43.70014808899478
 21
-26.12569459311633
 31
0.0
  0
LINE
  5
2B1
330
79
100
AcDbEntity
  8
Camada 1
 62
   250
420
  1907995
370
    18
100
AcDbLine
 10
43.70014808899478
 20
-26.12569459311633
 30
0.0
 11
43.06210568972857
 21
-26.12569459311633
 31
0.0
  0
LWPOLYLINE
  5
2B2
330
79
100
AcDbEntity
  8
Camada 1
 62
   250
420
  1907995
370
    18
100
AcDbPolyline
 90
        7
 70
     1
 43
0.0
 10
40.82768306888596
 20
-25.80667582985695
 10
40.82768306888596
 20
-25.72716234003144
 10
40.74784797774091
 20
-25.72716234003144
 10
40.66801288659649
 20
-25.72716234003144
 10
40.66801288659649
 20
-25.88651092100136
 10
40.74784797774091
 20
-25.88651092100136
 10
40.82768306888596
 20
-25.88651092100136
  0
LINE
  5
2B3
330
79
100
AcDbEntity
  8
Camada 1
 62
   250
420
  1907995
370
    18
100
AcDbLine
 10
40.42882677810749
 20
-25.56749215774198
 30
0.0
 11
40.98735325117544
 21
-25.56749215774198
 31
0.0
  0
LINE
  5
2B4
330
79
100
AcDbEntity
  8
Camada 1
 62
   250
420
  1907995
370
    18
100
AcDbLine
 10
40.42882677810749
 20
-26.12569459311633
 30
0.0
 11
40.42882677810749
 21
-25.56749215774198
 31
0.0
  0
LINE
  5
2B5
330
79
100
AcDbEntity
  8
Camada 1
 62
   250
420
  1907995
370
    18
100
AcDbLine
 10
40.98735325117544
 20
-25.56749215774198
 30
0.0
 11
40.98735325117544
 21
-26.12569459311633
 31
0.0
  0
LINE
  5
2B6
330
79
100
AcDbEntity
  8
Camada 1
 62
   250
420
  1907995
370
    18
100
AcDbLine
 10
40.98735325117544
 20
-26.12569459311633
 30
0.0
 11
40.42882677810749
 21
-26.12569459311633
 31
0.0
  0
LWPOLYLINE
  5
2B7
330
79
100
AcDbEntity
  8
Camada 1
 62
   250
420
  1907995
370
    18
100
AcDbPolyline
 90
        7
 70
     1
 43
0.0
 10
38.19440172089148
 20
-25.80667582985695
 10
38.19440172089148
 20
-25.72716234003144
 10
38.11456662974644
 20
-25.72716234003144
 10
38.03473153860202
 20
-25.72716234003144
 10
38.03473153860202
 20
-25.88651092100136
 10
38.11456662974644
 20
-25.88651092100136
 10
38.19440172089148
 20
-25.88651092100136
  0
LINE
  5
2B8
330
79
100
AcDbEntity
  8
Camada 1
 62
   250
420
  1907995
370
    18
100
AcDbLine
 10
37.79586459505916
 20
-25.56749215774198
 30
0.0
 11
38.35439106812647
 21
-25.56749215774198
 31
0.0
  0
LINE
  5
2B9
330
79
100
AcDbEntity
  8
Camada 1
 62
   250
420
  1907995
370
    18
100
AcDbLine
 10
37.79586459505916
 20
-26.12569459311633
 30
0.0
 11
37.79586459505916
 21
-25.56749215774198
 31
0.0
  0
LINE
  5
2BA
330
79
100
AcDbEntity
  8
Camada 1
 62
   250
420
  1907995
370
    18
100
AcDbLine
 10
38.35439106812647
 20
-25.56749215774198
 30
0.0
 11
38.35439106812647
 21
-26.12569459311633
 31
0.0
  0
LINE
  5
2BB
330
79
100
AcDbEntity
  8
Camada 1
 62
   250
420
  1907995
370
    18
100
AcDbLine
 10
38.35439106812647
 20
-26.12569459311633
 30
0.0
 11
37.79586459505916
 21
-26.12569459311633
 31
0.0
  0
LWPOLYLINE
  5
2BC
330
79
100
AcDbEntity
  8
Camada 1
 62
   250
420
  1907995
370
    18
100
AcDbPolyline
 90
        7
 70
     1
 43
0.0
 10
35.56143953784252
 20
-25.80667582985695
 10
35.56143953784252
 20
-25.72716234003144
 10
35.48160444669811
 20
-25.72716234003144
 10
35.40176935555305
 20
-25.72716234003144
 10
35.40176935555305
 20
-25.88651092100136
 10
35.48160444669811
 20
-25.88651092100136
 10
35.56143953784252
 20
-25.88651092100136
  0
LINE
  5
2BD
330
79
100
AcDbEntity
  8
Camada 1
 62
   250
420
  1907995
370
    18
100
AcDbLine
 10
35.16258324706468
 20
-25.56749215774198
 30
0.0
 11
35.72110972013199
 21
-25.56749215774198
 31
0.0
  0
LINE
  5
2BE
330
79
100
AcDbEntity
  8
Camada 1
 62
   250
420
  1907995
370
    18
100
AcDbLine
 10
35.16258324706468
 20
-26.12569459311633
 30
0.0
 11
35.16258324706468
 21
-25.56749215774198
 31
0.0
  0
LINE
  5
2BF
330
79
100
AcDbEntity
  8
Camada 1
 62
   250
420
  1907995
370
    18
100
AcDbLine
 10
35.72110972013199
 20
-25.56749215774198
 30
0.0
 11
35.72110972013199
 21
-26.12569459311633
 31
0.0
  0
LINE
  5
2C0
330
79
100
AcDbEntity
  8
Camada 1
 62
   250
420
  1907995
370
    18
100
AcDbLine
 10
35.72110972013199
 20
-26.12569459311633
 30
0.0
 11
35.16258324706468
 21
-26.12569459311633
 31
0.0
  0
LWPOLYLINE
  5
2C1
330
79
100
AcDbEntity
  8
Camada 1
 62
   250
420
  1907995
370
    18
100
AcDbPolyline
 90
        7
 70
     1
 43
0.0
 10
48.72688391023032
 20
-23.1743495403256
 10
48.72688391023032
 20
-23.09451444918119
 10
48.64704881908526
 20
-23.09451444918119
 10
48.5672137279402
 20
-23.09451444918119
 10
48.5672137279402
 20
-23.25418463147066
 10
48.64704881908526
 20
-23.25418463147066
 10
48.72688391023032
 20
-23.25418463147066
  0
LINE
  5
2C2
330
79
100
AcDbEntity
  8
Camada 1
 62
   250
420
  1907995
370
    18
100
AcDbLine
 10
48.40818187554241
 20
-22.85533077706622
 30
0.0
 11
48.9663891836642
 21
-22.85533077706622
 31
0.0
  0
LINE
  5
2C3
330
79
100
AcDbEntity
  8
Camada 1
 62
   250
420
  1907995
370
    18
100
AcDbLine
 10
48.40818187554241
 20
-23.49336830358563
 30
0.0
 11
48.40818187554241
 21
-22.85533077706622
 31
0.0
  0
LINE
  5
2C4
330
79
100
AcDbEntity
  8
Camada 1
 62
   250
420
  1907995
370
    18
100
AcDbLine
 10
48.9663891836642
 20
-22.85533077706622
 30
0.0
 11
48.9663891836642
 21
-23.49336830358563
 31
0.0
  0
LINE
  5
2C5
330
79
100
AcDbEntity
  8
Camada 1
 62
   250
420
  1907995
370
    18
100
AcDbLine
 10
48.9663891836642
 20
-23.49336830358563
 30
0.0
 11
48.40818187554241
 21
-23.49336830358563
 31
0.0
  0
LWPOLYLINE
  5
2C6
330
79
100
AcDbEntity
  8
Camada 1
 62
   250
420
  1907995
370
    18
100
AcDbPolyline
 90
        7
 70
     1
 43
0.0
 10
46.09360499860922
 20
-23.1743495403256
 10
46.09360499860922
 20
-23.09451444918119
 10
46.01376990746482
 20
-23.09451444918119
 10
45.93393481631976
 20
-23.09451444918119
 10
45.93393481631976
 20
-23.25418463147066
 10
46.01376990746482
 20
-23.25418463147066
 10
46.09360499860922
 20
-23.25418463147066
  0
LINE
  5
2C7
330
79
100
AcDbEntity
  8
Camada 1
 62
   250
420
  1907995
370
    18
100
AcDbLine
 10
45.77490296392196
 20
-22.85533077706622
 30
0.0
 11
46.33342943698926
 21
-22.85533077706622
 31
0.0
  0
LINE
  5
2C8
330
79
100
AcDbEntity
  8
Camada 1
 62
   250
420
  1907995
370
    18
100
AcDbLine
 10
45.77490296392196
 20
-23.49336830358563
 30
0.0
 11
45.77490296392196
 21
-22.85533077706622
 31
0.0
  0
LINE
  5
2C9
330
79
100
AcDbEntity
  8
Camada 1
 62
   250
420
  1907995
370
    18
100
AcDbLine
 10
46.33342943698926
 20
-22.85533077706622
 30
0.0
 11
46.33342943698926
 21
-23.49336830358563
 31
0.0
  0
LINE
  5
2CA
330
79
100
AcDbEntity
  8
Camada 1
 62
   250
420
  1907995
370
    18
100
AcDbLine
 10
46.33342943698926
 20
-23.49336830358563
 30
0.0
 11
45.77490296392196
 21
-23.49336830358563
 31
0.0
  0
LWPOLYLINE
  5
2CB
330
79
100
AcDbEntity
  8
Camada 1
 62
   250
420
  1907995
370
    18
100
AcDbPolyline
 90
        7
 70
     1
 43
0.0
 10
43.4606428155609
 20
-23.1743495403256
 10
43.4606428155609
 20
-23.09451444918119
 10
43.38080772441585
 20
-23.09451444918119
 10
43.30097263327143
 20
-23.09451444918119
 10
43.30097263327143
 20
-23.25418463147066
 10
43.38080772441585
 20
-23.25418463147066
 10
43.4606428155609
 20
-23.25418463147066
  0
LINE
  5
2CC
330
79
100
AcDbEntity
  8
Camada 1
 62
   250
420
  1907995
370
    18
100
AcDbLine
 10
43.06210568972857
 20
-22.85533077706622
 30
0.0
 11
43.70014808899478
 21
-22.85533077706622
 31
0.0
  0
LINE
  5
2CD
330
79
100
AcDbEntity
  8
Camada 1
 62
   250
420
  1907995
370
    18
100
AcDbLine
 10
43.06210568972857
 20
-23.49336830358563
 30
0.0
 11
43.06210568972857
 21
-22.85533077706622
 31
0.0
  0
LINE
  5
2CE
330
79
100
AcDbEntity
  8
Camada 1
 62
   250
420
  1907995
370
    18
100
AcDbLine
 10
43.70014808899478
 20
-22.85533077706622
 30
0.0
 11
43.70014808899478
 21
-23.49336830358563
 31
0.0
  0
LINE
  5
2CF
330
79
100
AcDbEntity
  8
Camada 1
 62
   250
420
  1907995
370
    18
100
AcDbLine
 10
43.70014808899478
 20
-23.49336830358563
 30
0.0
 11
43.06210568972857
 21
-23.49336830358563
 31
0.0
  0
LWPOLYLINE
  5
2D0
330
79
100
AcDbEntity
  8
Camada 1
 62
   250
420
  1907995
370
    18
100
AcDbPolyline
 90
        7
 70
     1
 43
0.0
 10
40.82768306888596
 20
-23.1743495403256
 10
40.82768306888596
 20
-23.09451444918119
 10
40.74784797774091
 20
-23.09451444918119
 10
40.66801288659649
 20
-23.09451444918119
 10
40.66801288659649
 20
-23.25418463147066
 10
40.74784797774091
 20
-23.25418463147066
 10
40.82768306888596
 20
-23.25418463147066
  0
LINE
  5
2D1
330
79
100
AcDbEntity
  8
Camada 1
 62
   250
420
  1907995
370
    18
100
AcDbLine
 10
40.42882677810749
 20
-22.85533077706622
 30
0.0
 11
40.98735325117544
 21
-22.85533077706622
 31
0.0
  0
LINE
  5
2D2
330
79
100
AcDbEntity
  8
Camada 1
 62
   250
420
  1907995
370
    18
100
AcDbLine
 10
40.42882677810749
 20
-23.49336830358563
 30
0.0
 11
40.42882677810749
 21
-22.85533077706622
 31
0.0
  0
LINE
  5
2D3
330
79
100
AcDbEntity
  8
Camada 1
 62
   250
420
  1907995
370
    18
100
AcDbLine
 10
40.98735325117544
 20
-22.85533077706622
 30
0.0
 11
40.98735325117544
 21
-23.49336830358563
 31
0.0
  0
LINE
  5
2D4
330
79
100
AcDbEntity
  8
Camada 1
 62
   250
420
  1907995
370
    18
100
AcDbLine
 10
40.98735325117544
 20
-23.49336830358563
 30
0.0
 11
40.42882677810749
 21
-23.49336830358563
 31
0.0
  0
LINE
  5
2D5
330
79
100
AcDbEntity
  8
Camada 1
 62
   250
420
  1907995
370
    18
100
AcDbLine
 10
48.40489277114059
 20
-75.86784374180441
 30
0.0
 11
48.40489277114059
 21
-76.74539141450512
 31
0.0
  0
LINE
  5
2D6
330
79
100
AcDbEntity
  8
Camada 1
 62
   250
420
  1907995
370
    18
100
AcDbLine
 10
51.59542636879309
 20
-76.74539141450512
 30
0.0
 11
51.59542636879309
 21
-75.86784374180441
 31
0.0
  0
LINE
  5
2D7
330
79
100
AcDbEntity
  8
Camada 1
 62
   250
420
  1907995
370
    18
100
AcDbLine
 10
48.40489277114059
 20
-76.74539141450512
 30
0.0
 11
51.59542636879309
 21
-76.74539141450512
 31
0.0
  0
LWPOLYLINE
  5
2D8
330
79
100
AcDbEntity
  8
Camada 1
 62
   250
420
  1907995
370
    18
100
AcDbPolyline
 90
        3
 70
     0
 43
0.0
 10
51.91412353073356
 20
-77.22408036005527
 10
51.75509655108256
 20
-76.90506159679523
 10
51.59542636879309
 20
-76.74539141450512
  0
LWPOLYLINE
  5
2D9
330
79
100
AcDbEntity
  8
Camada 1
 62
   250
420
  1907995
370
    18
100
AcDbPolyline
 90
        3
 70
     0
 43
0.0
 10
48.40489277114059
 20
-76.74539141450512
 10
48.16538749770607
 20
-76.90506159679523
 10
48.00540058684449
 20
-77.22408036005527
  0
LINE
  5
2DA
330
79
100
AcDbEntity
  8
Camada 1
 62
   250
420
  1907995
370
    18
100
AcDbLine
 10
47.76653364330163
 20
-75.86784374180441
 30
0.0
 11
52.15362880416809
 21
-75.86784374180441
 31
0.0
  0
LINE
  5
2DB
330
79
100
AcDbEntity
  8
Camada 1
 62
   250
420
  1907995
370
    18
100
AcDbLine
 10
52.15362880416809
 20
-73.23583905359325
 30
0.0
 11
47.76653364330163
 21
-73.23583905359325
 31
0.0
  0
LINE
  5
2DC
330
79
100
AcDbEntity
  8
Camada 1
 62
   250
420
  1907995
370
    18
100
AcDbLine
 10
47.76653364330163
 20
-73.23583905359325
 30
0.0
 11
47.76653364330163
 21
-75.86784374180441
 31
0.0
  0
LINE
  5
2DD
330
79
100
AcDbEntity
  8
Camada 1
 62
   250
420
  1907995
370
    18
100
AcDbLine
 10
52.15362880416809
 20
-75.86784374180441
 30
0.0
 11
52.15362880416809
 21
-73.23583905359325
 31
0.0
  0
LINE
  5
2DE
330
79
100
AcDbEntity
  8
Camada 1
 62
   250
420
  1907995
370
    18
100
AcDbLine
 10
46.49045128114198
 20
-77.22408036005527
 30
0.0
 11
53.42971360270114
 21
-77.22408036005527
 31
0.0
  0
LWPOLYLINE
  5
2DF
330
79
100
AcDbEntity
  8
Camada 1
 62
   250
420
  1907995
370
    18
100
AcDbPolyline
 90
        3
 70
     0
 43
0.0
 10
53.5095486938462
 20
-77.3035987226282
 10
53.5095486938462
 20
-77.22408036005527
 10
53.42971360270114
 20
-77.22408036005527
  0
LWPOLYLINE
  5
2E0
330
79
100
AcDbEntity
  8
Camada 1
 62
   250
420
  1907995
370
    18
100
AcDbPolyline
 90
        3
 70
     0
 43
0.0
 10
46.49045128114198
 20
-77.22408036005527
 10
46.41061618999692
 20
-77.22408036005527
 10
46.41061618999692
 20
-77.3035987226282
  0
LINE
  5
2E1
330
79
100
AcDbEntity
  8
Camada 1
 62
   250
420
  1907995
370
    18
100
AcDbLine
 10
46.41061618999692
 20
-77.3035987226282
 30
0.0
 11
46.41061618999692
 21
-81.29152086414341
 31
0.0
  0
LINE
  5
2E2
330
79
100
AcDbEntity
  8
Camada 1
 62
   250
420
  1907995
370
    18
100
AcDbLine
 10
53.5095486938462
 20
-81.29152086414341
 30
0.0
 11
53.5095486938462
 21
-77.3035987226282
 31
0.0
  0
LINE
  5
2E3
330
79
100
AcDbEntity
  8
Camada 1
 62
   250
420
  1907995
370
    18
100
AcDbLine
 10
53.5095486938462
 20
-77.3035987226282
 30
0.0
 11
46.41061618999692
 21
-77.3035987226282
 31
0.0
  0
LINE
  5
2E4
330
79
100
AcDbEntity
  8
Camada 1
 62
   250
420
  1907995
370
    18
100
AcDbLine
 10
31.33423626926627
 20
-81.29152086414341
 30
0.0
 11
68.58560944963135
 21
-81.29152086414341
 31
0.0
  0
LINE
  5
2E5
330
79
100
AcDbEntity
  8
Camada 1
 62
   250
420
  1907995
370
    18
100
AcDbLine
 10
68.58560944963135
 20
-83.20628395546158
 30
0.0
 11
31.33423626926627
 21
-83.20628395546158
 31
0.0
  0
LINE
  5
2E6
330
79
100
AcDbEntity
  8
Camada 1
 62
   250
420
  1907995
370
    18
100
AcDbLine
 10
31.17488525192231
 20
-81.29152086414341
 30
0.0
 11
31.33423626926627
 21
-81.29152086414341
 31
0.0
  0
LINE
  5
2E7
330
79
100
AcDbEntity
  8
Camada 1
 62
   250
420
  1907995
370
    18
100
AcDbLine
 10
31.17488525192231
 20
-83.20628395546158
 30
0.0
 11
31.17488525192231
 21
-81.29152086414341
 31
0.0
  0
LINE
  5
2E8
330
79
100
AcDbEntity
  8
Camada 1
 62
   250
420
  1907995
370
    18
100
AcDbLine
 10
31.33423626926627
 20
-83.20628395546158
 30
0.0
 11
31.17488525192231
 21
-83.20628395546158
 31
0.0
  0
LINE
  5
2E9
330
79
100
AcDbEntity
  8
Camada 1
 62
   250
420
  1907995
370
    18
100
AcDbLine
 10
31.33423626926627
 20
-81.29152086414341
 30
0.0
 11
31.33423626926627
 21
-83.20628395546158
 31
0.0
  0
LINE
  5
2EA
330
79
100
AcDbEntity
  8
Camada 1
 62
   250
420
  1907995
370
    18
100
AcDbLine
 10
68.58560944963135
 20
-81.29152086414341
 30
0.0
 11
68.82511472306586
 21
-81.29152086414341
 31
0.0
  0
LINE
  5
2EB
330
79
100
AcDbEntity
  8
Camada 1
 62
   250
420
  1907995
370
    18
100
AcDbLine
 10
68.58560944963135
 20
-83.20628395546158
 30
0.0
 11
68.58560944963135
 21
-81.29152086414341
 31
0.0
  0
LINE
  5
2EC
330
79
100
AcDbEntity
  8
Camada 1
 62
   250
420
  1907995
370
    18
100
AcDbLine
 10
68.82511472306586
 20
-83.20628395546158
 30
0.0
 11
68.58560944963135
 21
-83.20628395546158
 31
0.0
  0
LINE
  5
2ED
330
79
100
AcDbEntity
  8
Camada 1
 62
   250
420
  1907995
370
    18
100
AcDbLine
 10
68.82511472306586
 20
-81.29152086414341
 30
0.0
 11
68.82511472306586
 21
-83.20628395546158
 31
0.0
  0
LINE
  5
2EE
330
79
100
AcDbEntity
  8
Camada 1
 62
   250
420
  1907995
370
    18
100
AcDbLine
 10
48.40489277114059
 20
-83.76449126358338
 30
0.0
 11
48.96310007926238
 21
-83.76449126358338
 31
0.0
  0
LINE
  5
2EF
330
79
100
AcDbEntity
  8
Camada 1
 62
   250
420
  1907995
370
    18
100
AcDbLine
 10
48.40489277114059
 20
-83.76449126358338
 30
0.0
 11
48.40489277114059
 21
-83.20628395546158
 31
0.0
  0
LINE
  5
2F0
330
79
100
AcDbEntity
  8
Camada 1
 62
   250
420
  1907995
370
    18
100
AcDbLine
 10
48.96310007926238
 20
-83.76449126358338
 30
0.0
 11
48.96310007926238
 21
-83.20628395546158
 31
0.0
  0
LINE
  5
2F1
330
79
100
AcDbEntity
  8
Camada 1
 62
   250
420
  1907995
370
    18
100
AcDbLine
 10
45.77257379073008
 20
-83.76449126358338
 30
0.0
 11
45.77257379073008
 21
-83.20628395546158
 31
0.0
  0
LINE
  5
2F2
330
79
100
AcDbEntity
  8
Camada 1
 62
   250
420
  1907995
370
    18
100
AcDbLine
 10
45.77257379073008
 20
-83.76449126358338
 30
0.0
 11
46.33078109885251
 21
-83.76449126358338
 31
0.0
  0
LINE
  5
2F3
330
79
100
AcDbEntity
  8
Camada 1
 62
   250
420
  1907995
370
    18
100
AcDbLine
 10
46.33078109885251
 20
-83.76449126358338
 30
0.0
 11
46.33078109885251
 21
-83.20628395546158
 31
0.0
  0
LINE
  5
2F4
330
79
100
AcDbEntity
  8
Camada 1
 62
   250
420
  1907995
370
    18
100
AcDbLine
 10
43.06041484642835
 20
-83.76449126358338
 30
0.0
 11
43.69845724569521
 21
-83.76449126358338
 31
0.0
  0
LINE
  5
2F5
330
79
100
AcDbEntity
  8
Camada 1
 62
   250
420
  1907995
370
    18
100
AcDbLine
 10
43.06041484642835
 20
-83.76449126358338
 30
0.0
 11
43.06041484642835
 21
-83.20628395546158
 31
0.0
  0
LINE
  5
2F6
330
79
100
AcDbEntity
  8
Camada 1
 62
   250
420
  1907995
370
    18
100
AcDbLine
 10
43.69845724569521
 20
-83.76449126358338
 30
0.0
 11
43.69845724569521
 21
-83.20628395546158
 31
0.0
  0
LINE
  5
2F7
330
79
100
AcDbEntity
  8
Camada 1
 62
   250
420
  1907995
370
    18
100
AcDbLine
 10
40.42809342964445
 20
-83.76449126358338
 30
0.0
 11
40.42809342964445
 21
-83.20628395546158
 31
0.0
  0
LINE
  5
2F8
330
79
100
AcDbEntity
  8
Camada 1
 62
   250
420
  1907995
370
    18
100
AcDbLine
 10
40.42809342964445
 20
-83.76449126358338
 30
0.0
 11
40.98629830139284
 21
-83.76449126358338
 31
0.0
  0
LINE
  5
2F9
330
79
100
AcDbEntity
  8
Camada 1
 62
   250
420
  1907995
370
    18
100
AcDbLine
 10
40.98629830139284
 20
-83.76449126358338
 30
0.0
 11
40.98629830139284
 21
-83.20628395546158
 31
0.0
  0
LINE
  5
2FA
330
79
100
AcDbEntity
  8
Camada 1
 62
   250
420
  1907995
370
    18
100
AcDbLine
 10
37.79576957648715
 20
-83.76449126358338
 30
0.0
 11
38.35397688460957
 21
-83.76449126358338
 31
0.0
  0
LINE
  5
2FB
330
79
100
AcDbEntity
  8
Camada 1
 62
   250
420
  1907995
370
    18
100
AcDbLine
 10
37.79576957648715
 20
-83.76449126358338
 30
0.0
 11
37.79576957648715
 21
-83.20628395546158
 31
0.0
  0
LINE
  5
2FC
330
79
100
AcDbEntity
  8
Camada 1
 62
   250
420
  1907995
370
    18
100
AcDbLine
 10
38.35397688460957
 20
-83.76449126358338
 30
0.0
 11
38.35397688460957
 21
-83.20628395546158
 31
0.0
  0
LINE
  5
2FD
330
79
100
AcDbEntity
  8
Camada 1
 62
   250
420
  1907995
370
    18
100
AcDbLine
 10
35.16344815970388
 20
-83.76449126358338
 30
0.0
 11
35.72165303145227
 21
-83.76449126358338
 31
0.0
  0
LINE
  5
2FE
330
79
100
AcDbEntity
  8
Camada 1
 62
   250
420
  1907995
370
    18
100
AcDbLine
 10
35.16344815970388
 20
-83.76449126358338
 30
0.0
 11
35.16344815970388
 21
-83.20628395546158
 31
0.0
  0
LINE
  5
2FF
330
79
100
AcDbEntity
  8
Camada 1
 62
   250
420
  1907995
370
    18
100
AcDbLine
 10
35.72165303145227
 20
-83.76449126358338
 30
0.0
 11
35.72165303145227
 21
-83.20628395546158
 31
0.0
  0
LINE
  5
300
330
79
100
AcDbEntity
  8
Camada 1
 62
   250
420
  1907995
370
    18
100
AcDbLine
 10
59.49239061914418
 20
-83.76449126358338
 30
0.0
 11
59.49239061914418
 21
-83.20628395546158
 31
0.0
  0
LINE
  5
301
330
79
100
AcDbEntity
  8
Camada 1
 62
   250
420
  1907995
370
    18
100
AcDbLine
 10
58.93386658245027
 20
-83.76449126358338
 30
0.0
 11
58.93386658245027
 21
-83.20628395546158
 31
0.0
  0
LINE
  5
302
330
79
100
AcDbEntity
  8
Camada 1
 62
   250
420
  1907995
370
    18
100
AcDbLine
 10
59.49239061914418
 20
-83.76449126358338
 30
0.0
 11
58.93386658245027
 21
-83.76449126358338
 31
0.0
  0
LINE
  5
303
330
79
100
AcDbEntity
  8
Camada 1
 62
   250
420
  1907995
370
    18
100
AcDbLine
 10
61.56618799923355
 20
-83.76449126358338
 30
0.0
 11
61.56618799923355
 21
-83.20628395546158
 31
0.0
  0
LINE
  5
304
330
79
100
AcDbEntity
  8
Camada 1
 62
   250
420
  1907995
370
    18
100
AcDbLine
 10
62.12439530735598
 20
-83.76449126358338
 30
0.0
 11
61.56618799923355
 21
-83.76449126358338
 31
0.0
  0
LINE
  5
305
330
79
100
AcDbEntity
  8
Camada 1
 62
   250
420
  1907995
370
    18
100
AcDbLine
 10
62.12439530735598
 20
-83.76449126358338
 30
0.0
 11
62.12439530735598
 21
-83.20628395546158
 31
0.0
  0
LINE
  5
306
330
79
100
AcDbEntity
  8
Camada 1
 62
   250
420
  1907995
370
    18
100
AcDbLine
 10
64.1985094160181
 20
-83.76449126358338
 30
0.0
 11
64.1985094160181
 21
-83.20628395546158
 31
0.0
  0
LINE
  5
307
330
79
100
AcDbEntity
  8
Camada 1
 62
   250
420
  1907995
370
    18
100
AcDbLine
 10
64.75671672413989
 20
-83.76449126358338
 30
0.0
 11
64.1985094160181
 21
-83.76449126358338
 31
0.0
  0
LINE
  5
308
330
79
100
AcDbEntity
  8
Camada 1
 62
   250
420
  1907995
370
    18
100
AcDbLine
 10
64.75671672413989
 20
-83.76449126358338
 30
0.0
 11
64.75671672413989
 21
-83.20628395546158
 31
0.0
  0
LINE
  5
309
330
79
100
AcDbEntity
  8
Camada 1
 62
   250
420
  1907995
370
    18
100
AcDbLine
 10
51.03721906067129
 20
-83.76449126358338
 30
0.0
 11
51.03721906067129
 21
-83.20628395546158
 31
0.0
  0
LINE
  5
30A
330
79
100
AcDbEntity
  8
Camada 1
 62
   250
420
  1907995
370
    18
100
AcDbLine
 10
51.59542636879309
 20
-83.76449126358338
 30
0.0
 11
51.03721906067129
 21
-83.76449126358338
 31
0.0
  0
LINE
  5
30B
330
79
100
AcDbEntity
  8
Camada 1
 62
   250
420
  1907995
370
    18
100
AcDbLine
 10
51.59542636879309
 20
-83.76449126358338
 30
0.0
 11
51.59542636879309
 21
-83.20628395546158
 31
0.0
  0
LINE
  5
30C
330
79
100
AcDbEntity
  8
Camada 1
 62
   250
420
  1907995
370
    18
100
AcDbLine
 10
54.227747785577
 20
-83.76449126358338
 30
0.0
 11
54.227747785577
 21
-83.20628395546158
 31
0.0
  0
LINE
  5
30D
330
79
100
AcDbEntity
  8
Camada 1
 62
   250
420
  1907995
370
    18
100
AcDbLine
 10
53.66921887613567
 20
-83.76449126358338
 30
0.0
 11
53.66921887613567
 21
-83.20628395546158
 31
0.0
  0
LINE
  5
30E
330
79
100
AcDbEntity
  8
Camada 1
 62
   250
420
  1907995
370
    18
100
AcDbLine
 10
54.227747785577
 20
-83.76449126358338
 30
0.0
 11
53.66921887613567
 21
-83.76449126358338
 31
0.0
  0
LINE
  5
30F
330
79
100
AcDbEntity
  8
Camada 1
 62
   250
420
  1907995
370
    18
100
AcDbLine
 10
56.30154516566636
 20
-83.76449126358338
 30
0.0
 11
56.30154516566636
 21
-83.20628395546158
 31
0.0
  0
LINE
  5
310
330
79
100
AcDbEntity
  8
Camada 1
 62
   250
420
  1907995
370
    18
100
AcDbLine
 10
56.86006920236027
 20
-83.76449126358338
 30
0.0
 11
56.30154516566636
 21
-83.76449126358338
 31
0.0
  0
LINE
  5
311
330
79
100
AcDbEntity
  8
Camada 1
 62
   250
420
  1907995
370
    18
100
AcDbLine
 10
56.86006920236027
 20
-83.76449126358338
 30
0.0
 11
56.86006920236027
 21
-83.20628395546158
 31
0.0
  0
LINE
  5
312
330
79
100
AcDbEntity
  8
Camada 1
 62
   250
420
  1907995
370
    18
100
AcDbLine
 10
31.33423626926627
 20
-53.88381588375254
 30
0.0
 11
68.58560944963135
 21
-53.88381588375254
 31
0.0
  0
LINE
  5
313
330
79
100
AcDbEntity
  8
Camada 1
 62
   250
420
  1907995
370
    18
100
AcDbLine
 10
68.82511472306586
 20
-53.72414570146244
 30
0.0
 11
68.82511472306586
 21
-16.39549074951895
 31
0.0
  0
LINE
  5
314
330
79
100
AcDbEntity
  8
Camada 1
 62
   250
420
  1907995
370
    18
100
AcDbLine
 10
68.58560944963135
 20
-16.2355087114048
 30
0.0
 11
31.33423626926627
 21
-16.2355087114048
 31
0.0
  0
LINE
  5
315
330
79
100
AcDbEntity
  8
Camada 1
 62
   250
420
  1907995
370
    18
100
AcDbLine
 10
31.17488525192231
 20
-16.39549074951895
 30
0.0
 11
31.17488525192231
 21
-53.72414570146244
 31
0.0
  0
LWPOLYLINE
  5
316
330
79
100
AcDbEntity
  8
Camada 1
 62
   250
420
  1907995
370
    18
100
AcDbPolyline
 90
        6
 70
     0
 43
0.0
 10
68.82511472306586
 20
-16.39549074951895
 10
68.82511472306586
 20
-16.31565565837389
 10
68.74527963192081
 20
-16.31565565837389
 10
68.74527963192081
 20
-16.2355087114048
 10
68.6654445407764
 20
-16.2355087114048
 10
68.58560944963135
 20
-16.2355087114048
  0
LWPOLYLINE
  5
317
330
79
100
AcDbEntity
  8
Camada 1
 62
   250
420
  1907995
370
    18
100
AcDbPolyline
 90
        4
 70
     0
 43
0.0
 10
31.33423626926627
 20
-16.2355087114048
 10
31.25440117812186
 20
-16.2355087114048
 10
31.17488525192231
 20
-16.2355087114048
 10
31.17488525192231
 20
-16.39549074951895
  0
LWPOLYLINE
  5
318
330
79
100
AcDbEntity
  8
Camada 1
 62
   250
420
  1907995
370
    18
100
AcDbPolyline
 90
        4
 70
     0
 43
0.0
 10
31.17488525192231
 20
-53.72414570146244
 10
31.17488525192231
 20
-53.80398079260748
 10
31.25440117812186
 20
-53.88381588375254
 10
31.33423626926627
 20
-53.88381588375254
  0
LWPOLYLINE
  5
319
330
79
100
AcDbEntity
  8
Camada 1
 62
   250
420
  1907995
370
    18
100
AcDbPolyline
 90
        5
 70
     0
 43
0.0
 10
68.58560944963135
 20
-53.88381588375254
 10
68.6654445407764
 20
-53.88381588375254
 10
68.74527963192081
 20
-53.88381588375254
 10
68.74527963192081
 20
-53.80398079260748
 10
68.82511472306586
 20
-53.72414570146244
  0
LINE
  5
31A
330
79
100
AcDbEntity
  8
Camada 1
 62
   250
420
  1907995
370
    18
100
AcDbLine
 10
48.40489277114059
 20
-36.65508746069097
 30
0.0
 11
48.96310007926238
 21
-36.65508746069097
 31
0.0
  0
LWPOLYLINE
  5
31B
330
79
100
AcDbEntity
  8
Camada 1
 62
   250
420
  1907995
370
    18
100
AcDbPolyline
 90
        7
 70
     1
 43
0.0
 10
48.56392462353904
 20
-36.33606869743095
 10
48.56392462353904
 20
-36.25623360628589
 10
48.64375971468345
 20
-36.25623360628589
 10
48.72359480582851
 20
-36.25623360628589
 10
48.72359480582851
 20
-36.41558218725645
 10
48.64375971468345
 20
-36.41558218725645
 10
48.56392462353904
 20
-36.41558218725645
  0
LINE
  5
31C
330
79
100
AcDbEntity
  8
Camada 1
 62
   250
420
  1907995
370
    18
100
AcDbLine
 10
48.96310007926238
 20
-36.09656342399642
 30
0.0
 11
48.40489277114059
 21
-36.09656342399642
 31
0.0
  0
LINE
  5
31D
330
79
100
AcDbEntity
  8
Camada 1
 62
   250
420
  1907995
370
    18
100
AcDbLine
 10
48.96310007926238
 20
-36.65508746069097
 30
0.0
 11
48.96310007926238
 21
-36.09656342399642
 31
0.0
  0
LINE
  5
31E
330
79
100
AcDbEntity
  8
Camada 1
 62
   250
420
  1907995
370
    18
100
AcDbLine
 10
48.40489277114059
 20
-36.09656342399642
 30
0.0
 11
48.40489277114059
 21
-36.65508746069097
 31
0.0
  0
LINE
  5
31F
330
79
100
AcDbEntity
  8
Camada 1
 62
   250
420
  1907995
370
    18
100
AcDbLine
 10
45.77257379073008
 20
-36.65508746069097
 30
0.0
 11
46.33078109885251
 21
-36.65508746069097
 31
0.0
  0
LWPOLYLINE
  5
320
330
79
100
AcDbEntity
  8
Camada 1
 62
   250
420
  1907995
370
    18
100
AcDbPolyline
 90
        7
 70
     1
 43
0.0
 10
45.93160564312852
 20
-36.33606869743095
 10
45.93160564312852
 20
-36.25623360628589
 10
46.01144073427294
 20
-36.25623360628589
 10
46.09127582541799
 20
-36.25623360628589
 10
46.09127582541799
 20
-36.41558218725645
 10
46.01144073427294
 20
-36.41558218725645
 10
45.93160564312852
 20
-36.41558218725645
  0
LINE
  5
321
330
79
100
AcDbEntity
  8
Camada 1
 62
   250
420
  1907995
370
    18
100
AcDbLine
 10
46.33078109885251
 20
-36.09656342399642
 30
0.0
 11
45.77257379073008
 21
-36.09656342399642
 31
0.0
  0
LINE
  5
322
330
79
100
AcDbEntity
  8
Camada 1
 62
   250
420
  1907995
370
    18
100
AcDbLine
 10
46.33078109885251
 20
-36.65508746069097
 30
0.0
 11
46.33078109885251
 21
-36.09656342399642
 31
0.0
  0
LINE
  5
323
330
79
100
AcDbEntity
  8
Camada 1
 62
   250
420
  1907995
370
    18
100
AcDbLine
 10
45.77257379073008
 20
-36.09656342399642
 30
0.0
 11
45.77257379073008
 21
-36.65508746069097
 31
0.0
  0
LINE
  5
324
330
79
100
AcDbEntity
  8
Camada 1
 62
   250
420
  1907995
370
    18
100
AcDbLine
 10
43.06041484642835
 20
-36.65508746069097
 30
0.0
 11
43.69845724569521
 21
-36.65508746069097
 31
0.0
  0
LWPOLYLINE
  5
325
330
79
100
AcDbEntity
  8
Camada 1
 62
   250
420
  1907995
370
    18
100
AcDbPolyline
 90
        7
 70
     1
 43
0.0
 10
43.29928178997121
 20
-36.33606869743095
 10
43.29928178997121
 20
-36.25623360628589
 10
43.37911688111563
 20
-36.25623360628589
 10
43.45895197226068
 20
-36.25623360628589
 10
43.45895197226068
 20
-36.41558218725645
 10
43.37911688111563
 20
-36.41558218725645
 10
43.29928178997121
 20
-36.41558218725645
  0
LINE
  5
326
330
79
100
AcDbEntity
  8
Camada 1
 62
   250
420
  1907995
370
    18
100
AcDbLine
 10
43.69845724569521
 20
-36.09656342399642
 30
0.0
 11
43.06041484642835
 21
-36.09656342399642
 31
0.0
  0
LINE
  5
327
330
79
100
AcDbEntity
  8
Camada 1
 62
   250
420
  1907995
370
    18
100
AcDbLine
 10
43.69845724569521
 20
-36.65508746069097
 30
0.0
 11
43.69845724569521
 21
-36.09656342399642
 31
0.0
  0
LINE
  5
328
330
79
100
AcDbEntity
  8
Camada 1
 62
   250
420
  1907995
370
    18
100
AcDbLine
 10
43.06041484642835
 20
-36.09656342399642
 30
0.0
 11
43.06041484642835
 21
-36.65508746069097
 31
0.0
  0
LINE
  5
329
330
79
100
AcDbEntity
  8
Camada 1
 62
   250
420
  1907995
370
    18
100
AcDbLine
 10
40.42809342964445
 20
-36.65508746069097
 30
0.0
 11
40.98629830139284
 21
-36.65508746069097
 31
0.0
  0
LWPOLYLINE
  5
32A
330
79
100
AcDbEntity
  8
Camada 1
 62
   250
420
  1907995
370
    18
100
AcDbPolyline
 90
        7
 70
     1
 43
0.0
 10
40.66695793681391
 20
-36.33606869743095
 10
40.66695793681391
 20
-36.25623360628589
 10
40.74679302795896
 20
-36.25623360628589
 10
40.82662811910338
 20
-36.25623360628589
 10
40.82662811910338
 20
-36.41558218725645
 10
40.74679302795896
 20
-36.41558218725645
 10
40.66695793681391
 20
-36.41558218725645
  0
LINE
  5
32B
330
79
100
AcDbEntity
  8
Camada 1
 62
   250
420
  1907995
370
    18
100
AcDbLine
 10
40.98629830139284
 20
-36.09656342399642
 30
0.0
 11
40.42809342964445
 21
-36.09656342399642
 31
0.0
  0
LINE
  5
32C
330
79
100
AcDbEntity
  8
Camada 1
 62
   250
420
  1907995
370
    18
100
AcDbLine
 10
40.98629830139284
 20
-36.65508746069097
 30
0.0
 11
40.98629830139284
 21
-36.09656342399642
 31
0.0
  0
LINE
  5
32D
330
79
100
AcDbEntity
  8
Camada 1
 62
   250
420
  1907995
370
    18
100
AcDbLine
 10
40.42809342964445
 20
-36.09656342399642
 30
0.0
 11
40.42809342964445
 21
-36.65508746069097
 31
0.0
  0
LINE
  5
32E
330
79
100
AcDbEntity
  8
Camada 1
 62
   250
420
  1907995
370
    18
100
AcDbLine
 10
37.79576957648715
 20
-36.65508746069097
 30
0.0
 11
38.35397688460957
 21
-36.65508746069097
 31
0.0
  0
LWPOLYLINE
  5
32F
330
79
100
AcDbEntity
  8
Camada 1
 62
   250
420
  1907995
370
    18
100
AcDbPolyline
 90
        7
 70
     1
 43
0.0
 10
38.03463652003
 20
-36.33606869743095
 10
38.03463652003
 20
-36.25623360628589
 10
38.11447161117506
 20
-36.25623360628589
 10
38.19430670232011
 20
-36.25623360628589
 10
38.19430670232011
 20
-36.41558218725645
 10
38.11447161117506
 20
-36.41558218725645
 10
38.03463652003
 20
-36.41558218725645
  0
LINE
  5
330
330
79
100
AcDbEntity
  8
Camada 1
 62
   250
420
  1907995
370
    18
100
AcDbLine
 10
38.35397688460957
 20
-36.09656342399642
 30
0.0
 11
37.79576957648715
 21
-36.09656342399642
 31
0.0
  0
LINE
  5
331
330
79
100
AcDbEntity
  8
Camada 1
 62
   250
420
  1907995
370
    18
100
AcDbLine
 10
38.35397688460957
 20
-36.65508746069097
 30
0.0
 11
38.35397688460957
 21
-36.09656342399642
 31
0.0
  0
LINE
  5
332
330
79
100
AcDbEntity
  8
Camada 1
 62
   250
420
  1907995
370
    18
100
AcDbLine
 10
37.79576957648715
 20
-36.09656342399642
 30
0.0
 11
37.79576957648715
 21
-36.65508746069097
 31
0.0
  0
LINE
  5
333
330
79
100
AcDbEntity
  8
Camada 1
 62
   250
420
  1907995
370
    18
100
AcDbLine
 10
35.16344815970388
 20
-36.65508746069097
 30
0.0
 11
35.72165303145227
 21
-36.65508746069097
 31
0.0
  0
LWPOLYLINE
  5
334
330
79
100
AcDbEntity
  8
Camada 1
 62
   250
420
  1907995
370
    18
100
AcDbPolyline
 90
        7
 70
     1
 43
0.0
 10
35.4023126668727
 20
-36.33606869743095
 10
35.4023126668727
 20
-36.25623360628589
 10
35.48214775801775
 20
-36.25623360628589
 10
35.5619828491628
 20
-36.25623360628589
 10
35.5619828491628
 20
-36.41558218725645
 10
35.48214775801775
 20
-36.41558218725645
 10
35.4023126668727
 20
-36.41558218725645
  0
LINE
  5
335
330
79
100
AcDbEntity
  8
Camada 1
 62
   250
420
  1907995
370
    18
100
AcDbLine
 10
35.72165303145227
 20
-36.09656342399642
 30
0.0
 11
35.16344815970388
 21
-36.09656342399642
 31
0.0
  0
LINE
  5
336
330
79
100
AcDbEntity
  8
Camada 1
 62
   250
420
  1907995
370
    18
100
AcDbLine
 10
35.72165303145227
 20
-36.65508746069097
 30
0.0
 11
35.72165303145227
 21
-36.09656342399642
 31
0.0
  0
LINE
  5
337
330
79
100
AcDbEntity
  8
Camada 1
 62
   250
420
  1907995
370
    18
100
AcDbLine
 10
35.16344815970388
 20
-36.09656342399642
 30
0.0
 11
35.16344815970388
 21
-36.65508746069097
 31
0.0
  0
LINE
  5
338
330
79
100
AcDbEntity
  8
Camada 1
 62
   250
420
  1907995
370
    18
100
AcDbLine
 10
48.40489277114059
 20
-39.28708727615534
 30
0.0
 11
48.96310007926238
 21
-39.28708727615534
 31
0.0
  0
LWPOLYLINE
  5
339
330
79
100
AcDbEntity
  8
Camada 1
 62
   250
420
  1907995
370
    18
100
AcDbPolyline
 90
        8
 70
     1
 43
0.0
 10
48.56392462353904
 20
-38.96806851289531
 10
48.56392462353904
 20
-38.8882334217509
 10
48.64375971468345
 20
-38.8882334217509
 10
48.72359480582851
 20
-38.8882334217509
 10
48.72359480582851
 20
-39.04758200272082
 10
48.64375971468345
 20
-39.12741709386587
 10
48.64375971468345
 20
-39.04758200272082
 10
48.56392462353904
 20
-39.04758200272082
  0
LINE
  5
33A
330
79
100
AcDbEntity
  8
Camada 1
 62
   250
420
  1907995
370
    18
100
AcDbLine
 10
48.96310007926238
 20
-38.728558366714
 30
0.0
 11
48.40489277114059
 21
-38.728558366714
 31
0.0
  0
LINE
  5
33B
330
79
100
AcDbEntity
  8
Camada 1
 62
   250
420
  1907995
370
    18
100
AcDbLine
 10
48.96310007926238
 20
-39.28708727615534
 30
0.0
 11
48.96310007926238
 21
-38.728558366714
 31
0.0
  0
LINE
  5
33C
330
79
100
AcDbEntity
  8
Camada 1
 62
   250
420
  1907995
370
    18
100
AcDbLine
 10
48.40489277114059
 20
-38.728558366714
 30
0.0
 11
48.40489277114059
 21
-39.28708727615534
 31
0.0
  0
LINE
  5
33D
330
79
100
AcDbEntity
  8
Camada 1
 62
   250
420
  1907995
370
    18
100
AcDbLine
 10
45.77257379073008
 20
-39.28708727615534
 30
0.0
 11
46.33078109885251
 21
-39.28708727615534
 31
0.0
  0
LWPOLYLINE
  5
33E
330
79
100
AcDbEntity
  8
Camada 1
 62
   250
420
  1907995
370
    18
100
AcDbPolyline
 90
        9
 70
     1
 43
0.0
 10
45.93160564312852
 20
-38.96806851289531
 10
45.93160564312852
 20
-38.8882334217509
 10
46.01144073427294
 20
-38.8882334217509
 10
46.09127582541799
 20
-38.8882334217509
 10
46.09127582541799
 20
-39.04758200272082
 10
46.01144073427294
 20
-39.04758200272082
 10
46.01144073427294
 20
-39.12741709386587
 10
46.01144073427294
 20
-39.04758200272082
 10
45.93160564312852
 20
-39.04758200272082
  0
LINE
  5
33F
330
79
100
AcDbEntity
  8
Camada 1
 62
   250
420
  1907995
370
    18
100
AcDbLine
 10
46.33078109885251
 20
-38.728558366714
 30
0.0
 11
45.77257379073008
 21
-38.728558366714
 31
0.0
  0
LINE
  5
340
330
79
100
AcDbEntity
  8
Camada 1
 62
   250
420
  1907995
370
    18
100
AcDbLine
 10
46.33078109885251
 20
-39.28708727615534
 30
0.0
 11
46.33078109885251
 21
-38.728558366714
 31
0.0
  0
LINE
  5
341
330
79
100
AcDbEntity
  8
Camada 1
 62
   250
420
  1907995
370
    18
100
AcDbLine
 10
45.77257379073008
 20
-38.728558366714
 30
0.0
 11
45.77257379073008
 21
-39.28708727615534
 31
0.0
  0
LINE
  5
342
330
79
100
AcDbEntity
  8
Camada 1
 62
   250
420
  1907995
370
    18
100
AcDbLine
 10
43.06041484642835
 20
-39.28708727615534
 30
0.0
 11
43.69845724569521
 21
-39.28708727615534
 31
0.0
  0
LWPOLYLINE
  5
343
330
79
100
AcDbEntity
  8
Camada 1
 62
   250
420
  1907995
370
    18
100
AcDbPolyline
 90
        9
 70
     1
 43
0.0
 10
43.29928178997121
 20
-38.96806851289531
 10
43.29928178997121
 20
-38.8882334217509
 10
43.37911688111563
 20
-38.8882334217509
 10
43.45895197226068
 20
-38.8882334217509
 10
43.45895197226068
 20
-39.04758200272082
 10
43.37911688111563
 20
-39.04758200272082
 10
43.37911688111563
 20
-39.12741709386587
 10
43.37911688111563
 20
-39.04758200272082
 10
43.29928178997121
 20
-39.04758200272082
  0
LINE
  5
344
330
79
100
AcDbEntity
  8
Camada 1
 62
   250
420
  1907995
370
    18
100
AcDbLine
 10
43.69845724569521
 20
-38.728558366714
 30
0.0
 11
43.06041484642835
 21
-38.728558366714
 31
0.0
  0
LINE
  5
345
330
79
100
AcDbEntity
  8
Camada 1
 62
   250
420
  1907995
370
    18
100
AcDbLine
 10
43.69845724569521
 20
-39.28708727615534
 30
0.0
 11
43.69845724569521
 21
-38.728558366714
 31
0.0
  0
LINE
  5
346
330
79
100
AcDbEntity
  8
Camada 1
 62
   250
420
  1907995
370
    18
100
AcDbLine
 10
43.06041484642835
 20
-38.728558366714
 30
0.0
 11
43.06041484642835
 21
-39.28708727615534
 31
0.0
  0
LINE
  5
347
330
79
100
AcDbEntity
  8
Camada 1
 62
   250
420
  1907995
370
    18
100
AcDbLine
 10
40.42809342964445
 20
-39.28708727615534
 30
0.0
 11
40.98629830139284
 21
-39.28708727615534
 31
0.0
  0
LWPOLYLINE
  5
348
330
79
100
AcDbEntity
  8
Camada 1
 62
   250
420
  1907995
370
    18
100
AcDbPolyline
 90
        9
 70
     1
 43
0.0
 10
40.66695793681391
 20
-38.96806851289531
 10
40.66695793681391
 20
-38.8882334217509
 10
40.74679302795896
 20
-38.8882334217509
 10
40.82662811910338
 20
-38.8882334217509
 10
40.82662811910338
 20
-39.04758200272082
 10
40.74679302795896
 20
-39.04758200272082
 10
40.74679302795896
 20
-39.12741709386587
 10
40.74679302795896
 20
-39.04758200272082
 10
40.66695793681391
 20
-39.04758200272082
  0
LINE
  5
349
330
79
100
AcDbEntity
  8
Camada 1
 62
   250
420
  1907995
370
    18
100
AcDbLine
 10
40.98629830139284
 20
-38.728558366714
 30
0.0
 11
40.42809342964445
 21
-38.728558366714
 31
0.0
  0
LINE
  5
34A
330
79
100
AcDbEntity
  8
Camada 1
 62
   250
420
  1907995
370
    18
100
AcDbLine
 10
40.98629830139284
 20
-39.28708727615534
 30
0.0
 11
40.98629830139284
 21
-38.728558366714
 31
0.0
  0
LINE
  5
34B
330
79
100
AcDbEntity
  8
Camada 1
 62
   250
420
  1907995
370
    18
100
AcDbLine
 10
40.42809342964445
 20
-38.728558366714
 30
0.0
 11
40.42809342964445
 21
-39.28708727615534
 31
0.0
  0
LINE
  5
34C
330
79
100
AcDbEntity
  8
Camada 1
 62
   250
420
  1907995
370
    18
100
AcDbLine
 10
37.79576957648715
 20
-39.28708727615534
 30
0.0
 11
38.35397688460957
 21
-39.28708727615534
 31
0.0
  0
LWPOLYLINE
  5
34D
330
79
100
AcDbEntity
  8
Camada 1
 62
   250
420
  1907995
370
    18
100
AcDbPolyline
 90
        8
 70
     1
 43
0.0
 10
38.03463652003
 20
-38.96806851289531
 10
38.03463652003
 20
-38.8882334217509
 10
38.11447161117506
 20
-38.8882334217509
 10
38.19430670232011
 20
-38.8882334217509
 10
38.19430670232011
 20
-39.04758200272082
 10
38.11447161117506
 20
-39.04758200272082
 10
38.11447161117506
 20
-39.12741709386587
 10
38.03463652003
 20
-39.04758200272082
  0
LINE
  5
34E
330
79
100
AcDbEntity
  8
Camada 1
 62
   250
420
  1907995
370
    18
100
AcDbLine
 10
38.35397688460957
 20
-38.728558366714
 30
0.0
 11
37.79576957648715
 21
-38.728558366714
 31
0.0
  0
LINE
  5
34F
330
79
100
AcDbEntity
  8
Camada 1
 62
   250
420
  1907995
370
    18
100
AcDbLine
 10
38.35397688460957
 20
-39.28708727615534
 30
0.0
 11
38.35397688460957
 21
-38.728558366714
 31
0.0
  0
LINE
  5
350
330
79
100
AcDbEntity
  8
Camada 1
 62
   250
420
  1907995
370
    18
100
AcDbLine
 10
37.79576957648715
 20
-38.728558366714
 30
0.0
 11
37.79576957648715
 21
-39.28708727615534
 31
0.0
  0
LINE
  5
351
330
79
100
AcDbEntity
  8
Camada 1
 62
   250
420
  1907995
370
    18
100
AcDbLine
 10
35.16344815970388
 20
-39.28708727615534
 30
0.0
 11
35.72165303145227
 21
-39.28708727615534
 31
0.0
  0
LWPOLYLINE
  5
352
330
79
100
AcDbEntity
  8
Camada 1
 62
   250
420
  1907995
370
    18
100
AcDbPolyline
 90
        8
 70
     1
 43
0.0
 10
35.4023126668727
 20
-38.96806851289531
 10
35.4023126668727
 20
-38.8882334217509
 10
35.48214775801775
 20
-38.8882334217509
 10
35.5619828491628
 20
-38.8882334217509
 10
35.5619828491628
 20
-39.04758200272082
 10
35.48214775801775
 20
-39.04758200272082
 10
35.48214775801775
 20
-39.12741709386587
 10
35.4023126668727
 20
-39.04758200272082
  0
LINE
  5
353
330
79
100
AcDbEntity
  8
Camada 1
 62
   250
420
  1907995
370
    18
100
AcDbLine
 10
35.72165303145227
 20
-38.728558366714
 30
0.0
 11
35.16344815970388
 21
-38.728558366714
 31
0.0
  0
LINE
  5
354
330
79
100
AcDbEntity
  8
Camada 1
 62
   250
420
  1907995
370
    18
100
AcDbLine
 10
35.72165303145227
 20
-39.28708727615534
 30
0.0
 11
35.72165303145227
 21
-38.728558366714
 31
0.0
  0
LINE
  5
355
330
79
100
AcDbEntity
  8
Camada 1
 62
   250
420
  1907995
370
    18
100
AcDbLine
 10
35.16344815970388
 20
-38.728558366714
 30
0.0
 11
35.16344815970388
 21
-39.28708727615534
 31
0.0
  0
LINE
  5
356
330
79
100
AcDbEntity
  8
Camada 1
 62
   250
420
  1907995
370
    18
100
AcDbLine
 10
48.40489277114059
 20
-41.91940869293861
 30
0.0
 11
48.96310007926238
 21
-41.91940869293861
 31
0.0
  0
LWPOLYLINE
  5
357
330
79
100
AcDbEntity
  8
Camada 1
 62
   250
420
  1907995
370
    18
100
AcDbPolyline
 90
        8
 70
     1
 43
0.0
 10
48.56392462353904
 20
-41.60038992967922
 10
48.56392462353904
 20
-41.60038992967922
 10
48.64375971468345
 20
-41.52055483853416
 10
48.72359480582851
 20
-41.52055483853416
 10
48.72359480582851
 20
-41.75973851064914
 10
48.64375971468345
 20
-41.75973851064914
 10
48.64375971468345
 20
-41.68022502082363
 10
48.56392462353904
 20
-41.68022502082363
  0
LINE
  5
358
330
79
100
AcDbEntity
  8
Camada 1
 62
   250
420
  1907995
370
    18
100
AcDbLine
 10
48.96310007926238
 20
-41.3608846562447
 30
0.0
 11
48.40489277114059
 21
-41.3608846562447
 31
0.0
  0
LINE
  5
359
330
79
100
AcDbEntity
  8
Camada 1
 62
   250
420
  1907995
370
    18
100
AcDbLine
 10
48.96310007926238
 20
-41.91940869293861
 30
0.0
 11
48.96310007926238
 21
-41.3608846562447
 31
0.0
  0
LINE
  5
35A
330
79
100
AcDbEntity
  8
Camada 1
 62
   250
420
  1907995
370
    18
100
AcDbLine
 10
48.40489277114059
 20
-41.3608846562447
 30
0.0
 11
48.40489277114059
 21
-41.91940869293861
 31
0.0
  0
LINE
  5
35B
330
79
100
AcDbEntity
  8
Camada 1
 62
   250
420
  1907995
370
    18
100
AcDbLine
 10
45.77257379073008
 20
-41.91940869293861
 30
0.0
 11
46.33078109885251
 21
-41.91940869293861
 31
0.0
  0
LWPOLYLINE
  5
35C
330
79
100
AcDbEntity
  8
Camada 1
 62
   250
420
  1907995
370
    18
100
AcDbPolyline
 90
        7
 70
     1
 43
0.0
 10
45.93160564312852
 20
-41.60038992967922
 10
45.93160564312852
 20
-41.52055483853416
 10
46.01144073427294
 20
-41.52055483853416
 10
46.09127582541799
 20
-41.52055483853416
 10
46.09127582541799
 20
-41.68022502082363
 10
46.01144073427294
 20
-41.75973851064914
 10
45.93160564312852
 20
-41.68022502082363
  0
LINE
  5
35D
330
79
100
AcDbEntity
  8
Camada 1
 62
   250
420
  1907995
370
    18
100
AcDbLine
 10
46.33078109885251
 20
-41.3608846562447
 30
0.0
 11
45.77257379073008
 21
-41.3608846562447
 31
0.0
  0
LINE
  5
35E
330
79
100
AcDbEntity
  8
Camada 1
 62
   250
420
  1907995
370
    18
100
AcDbLine
 10
46.33078109885251
 20
-41.91940869293861
 30
0.0
 11
46.33078109885251
 21
-41.3608846562447
 31
0.0
  0
LINE
  5
35F
330
79
100
AcDbEntity
  8
Camada 1
 62
   250
420
  1907995
370
    18
100
AcDbLine
 10
45.77257379073008
 20
-41.3608846562447
 30
0.0
 11
45.77257379073008
 21
-41.91940869293861
 31
0.0
  0
LINE
  5
360
330
79
100
AcDbEntity
  8
Camada 1
 62
   250
420
  1907995
370
    18
100
AcDbLine
 10
43.06041484642835
 20
-41.91940869293861
 30
0.0
 11
43.69845724569521
 21
-41.91940869293861
 31
0.0
  0
LWPOLYLINE
  5
361
330
79
100
AcDbEntity
  8
Camada 1
 62
   250
420
  1907995
370
    18
100
AcDbPolyline
 90
        7
 70
     1
 43
0.0
 10
43.29928178997121
 20
-41.60038992967922
 10
43.29928178997121
 20
-41.52055483853416
 10
43.37911688111563
 20
-41.52055483853416
 10
43.45895197226068
 20
-41.52055483853416
 10
43.45895197226068
 20
-41.68022502082363
 10
43.37911688111563
 20
-41.75973851064914
 10
43.29928178997121
 20
-41.68022502082363
  0
LINE
  5
362
330
79
100
AcDbEntity
  8
Camada 1
 62
   250
420
  1907995
370
    18
100
AcDbLine
 10
43.69845724569521
 20
-41.3608846562447
 30
0.0
 11
43.06041484642835
 21
-41.3608846562447
 31
0.0
  0
LINE
  5
363
330
79
100
AcDbEntity
  8
Camada 1
 62
   250
420
  1907995
370
    18
100
AcDbLine
 10
43.69845724569521
 20
-41.91940869293861
 30
0.0
 11
43.69845724569521
 21
-41.3608846562447
 31
0.0
  0
LINE
  5
364
330
79
100
AcDbEntity
  8
Camada 1
 62
   250
420
  1907995
370
    18
100
AcDbLine
 10
43.06041484642835
 20
-41.3608846562447
 30
0.0
 11
43.06041484642835
 21
-41.91940869293861
 31
0.0
  0
LINE
  5
365
330
79
100
AcDbEntity
  8
Camada 1
 62
   250
420
  1907995
370
    18
100
AcDbLine
 10
40.42809342964445
 20
-41.91940869293861
 30
0.0
 11
40.98629830139284
 21
-41.91940869293861
 31
0.0
  0
LWPOLYLINE
  5
366
330
79
100
AcDbEntity
  8
Camada 1
 62
   250
420
  1907995
370
    18
100
AcDbPolyline
 90
        7
 70
     1
 43
0.0
 10
40.66695793681391
 20
-41.60038992967922
 10
40.66695793681391
 20
-41.52055483853416
 10
40.74679302795896
 20
-41.52055483853416
 10
40.82662811910338
 20
-41.52055483853416
 10
40.82662811910338
 20
-41.68022502082363
 10
40.74679302795896
 20
-41.75973851064914
 10
40.66695793681391
 20
-41.68022502082363
  0
LINE
  5
367
330
79
100
AcDbEntity
  8
Camada 1
 62
   250
420
  1907995
370
    18
100
AcDbLine
 10
40.98629830139284
 20
-41.3608846562447
 30
0.0
 11
40.42809342964445
 21
-41.3608846562447
 31
0.0
  0
LINE
  5
368
330
79
100
AcDbEntity
  8
Camada 1
 62
   250
420
  1907995
370
    18
100
AcDbLine
 10
40.98629830139284
 20
-41.91940869293861
 30
0.0
 11
40.98629830139284
 21
-41.3608846562447
 31
0.0
  0
LINE
  5
369
330
79
100
AcDbEntity
  8
Camada 1
 62
   250
420
  1907995
370
    18
100
AcDbLine
 10
40.42809342964445
 20
-41.3608846562447
 30
0.0
 11
40.42809342964445
 21
-41.91940869293861
 31
0.0
  0
LINE
  5
36A
330
79
100
AcDbEntity
  8
Camada 1
 62
   250
420
  1907995
370
    18
100
AcDbLine
 10
37.79576957648715
 20
-41.91940869293861
 30
0.0
 11
38.35397688460957
 21
-41.91940869293861
 31
0.0
  0
LWPOLYLINE
  5
36B
330
79
100
AcDbEntity
  8
Camada 1
 62
   250
420
  1907995
370
    18
100
AcDbPolyline
 90
        8
 70
     1
 43
0.0
 10
38.03463652003
 20
-41.60038992967922
 10
38.03463652003
 20
-41.52055483853416
 10
38.11447161117506
 20
-41.52055483853416
 10
38.19430670232011
 20
-41.60038992967922
 10
38.19430670232011
 20
-41.68022502082363
 10
38.11447161117506
 20
-41.68022502082363
 10
38.11447161117506
 20
-41.75973851064914
 10
38.03463652003
 20
-41.75973851064914
  0
LINE
  5
36C
330
79
100
AcDbEntity
  8
Camada 1
 62
   250
420
  1907995
370
    18
100
AcDbLine
 10
38.35397688460957
 20
-41.91940869293861
 30
0.0
 11
38.35397688460957
 21
-41.3608846562447
 31
0.0
  0
LINE
  5
36D
330
79
100
AcDbEntity
  8
Camada 1
 62
   250
420
  1907995
370
    18
100
AcDbLine
 10
38.35397688460957
 20
-41.3608846562447
 30
0.0
 11
37.79576957648715
 21
-41.3608846562447
 31
0.0
  0
LINE
  5
36E
330
79
100
AcDbEntity
  8
Camada 1
 62
   250
420
  1907995
370
    18
100
AcDbLine
 10
37.79576957648715
 20
-41.3608846562447
 30
0.0
 11
37.79576957648715
 21
-41.91940869293861
 31
0.0
  0
LINE
  5
36F
330
79
100
AcDbEntity
  8
Camada 1
 62
   250
420
  1907995
370
    18
100
AcDbLine
 10
35.16344815970388
 20
-41.91940869293861
 30
0.0
 11
35.72165303145227
 21
-41.91940869293861
 31
0.0
  0
LWPOLYLINE
  5
370
330
79
100
AcDbEntity
  8
Camada 1
 62
   250
420
  1907995
370
    18
100
AcDbPolyline
 90
        8
 70
     1
 43
0.0
 10
35.4023126668727
 20
-41.60038992967922
 10
35.4023126668727
 20
-41.52055483853416
 10
35.48214775801775
 20
-41.52055483853416
 10
35.5619828491628
 20
-41.60038992967922
 10
35.5619828491628
 20
-41.68022502082363
 10
35.48214775801775
 20
-41.68022502082363
 10
35.48214775801775
 20
-41.75973851064914
 10
35.4023126668727
 20
-41.75973851064914
  0
LINE
  5
371
330
79
100
AcDbEntity
  8
Camada 1
 62
   250
420
  1907995
370
    18
100
AcDbLine
 10
35.72165303145227
 20
-41.91940869293861
 30
0.0
 11
35.72165303145227
 21
-41.3608846562447
 31
0.0
  0
LINE
  5
372
330
79
100
AcDbEntity
  8
Camada 1
 62
   250
420
  1907995
370
    18
100
AcDbLine
 10
35.72165303145227
 20
-41.3608846562447
 30
0.0
 11
35.16344815970388
 21
-41.3608846562447
 31
0.0
  0
LINE
  5
373
330
79
100
AcDbEntity
  8
Camada 1
 62
   250
420
  1907995
370
    18
100
AcDbLine
 10
35.16344815970388
 20
-41.3608846562447
 30
0.0
 11
35.16344815970388
 21
-41.91940869293861
 31
0.0
  0
LINE
  5
374
330
79
100
AcDbEntity
  8
Camada 1
 62
   250
420
  1907995
370
    18
100
AcDbLine
 10
48.40489277114059
 20
-44.5514133811504
 30
0.0
 11
48.96310007926238
 21
-44.5514133811504
 31
0.0
  0
LWPOLYLINE
  5
375
330
79
100
AcDbEntity
  8
Camada 1
 62
   250
420
  1907995
370
    18
100
AcDbPolyline
 90
        8
 70
     1
 43
0.0
 10
48.56392462353904
 20
-44.23238974514358
 10
48.56392462353904
 20
-44.23238974514358
 10
48.64375971468345
 20
-44.15255465399853
 10
48.72359480582851
 20
-44.15255465399853
 10
48.72359480582851
 20
-44.39174319886094
 10
48.64375971468345
 20
-44.39174319886094
 10
48.64375971468345
 20
-44.312224836288
 10
48.56392462353904
 20
-44.312224836288
  0
LINE
  5
376
330
79
100
AcDbEntity
  8
Camada 1
 62
   250
420
  1907995
370
    18
100
AcDbLine
 10
48.96310007926238
 20
-44.5514133811504
 30
0.0
 11
48.96310007926238
 21
-43.99288447170905
 31
0.0
  0
LINE
  5
377
330
79
100
AcDbEntity
  8
Camada 1
 62
   250
420
  1907995
370
    18
100
AcDbLine
 10
48.96310007926238
 20
-43.99288447170905
 30
0.0
 11
48.40489277114059
 21
-43.99288447170905
 31
0.0
  0
LINE
  5
378
330
79
100
AcDbEntity
  8
Camada 1
 62
   250
420
  1907995
370
    18
100
AcDbLine
 10
48.40489277114059
 20
-43.99288447170905
 30
0.0
 11
48.40489277114059
 21
-44.5514133811504
 31
0.0
  0
LINE
  5
379
330
79
100
AcDbEntity
  8
Camada 1
 62
   250
420
  1907995
370
    18
100
AcDbLine
 10
45.77257379073008
 20
-44.5514133811504
 30
0.0
 11
46.33078109885251
 21
-44.5514133811504
 31
0.0
  0
LWPOLYLINE
  5
37A
330
79
100
AcDbEntity
  8
Camada 1
 62
   250
420
  1907995
370
    18
100
AcDbPolyline
 90
        7
 70
     1
 43
0.0
 10
45.93160564312852
 20
-44.23238974514358
 10
45.93160564312852
 20
-44.15255465399853
 10
46.01144073427294
 20
-44.15255465399853
 10
46.09127582541799
 20
-44.15255465399853
 10
46.09127582541799
 20
-44.312224836288
 10
46.01144073427294
 20
-44.39174319886094
 10
45.93160564312852
 20
-44.312224836288
  0
LINE
  5
37B
330
79
100
AcDbEntity
  8
Camada 1
 62
   250
420
  1907995
370
    18
100
AcDbLine
 10
46.33078109885251
 20
-44.5514133811504
 30
0.0
 11
46.33078109885251
 21
-43.99288447170905
 31
0.0
  0
LINE
  5
37C
330
79
100
AcDbEntity
  8
Camada 1
 62
   250
420
  1907995
370
    18
100
AcDbLine
 10
46.33078109885251
 20
-43.99288447170905
 30
0.0
 11
45.77257379073008
 21
-43.99288447170905
 31
0.0
  0
LINE
  5
37D
330
79
100
AcDbEntity
  8
Camada 1
 62
   250
420
  1907995
370
    18
100
AcDbLine
 10
45.77257379073008
 20
-43.99288447170905
 30
0.0
 11
45.77257379073008
 21
-44.5514133811504
 31
0.0
  0
LINE
  5
37E
330
79
100
AcDbEntity
  8
Camada 1
 62
   250
420
  1907995
370
    18
100
AcDbLine
 10
43.06041484642835
 20
-44.5514133811504
 30
0.0
 11
43.69845724569521
 21
-44.5514133811504
 31
0.0
  0
LWPOLYLINE
  5
37F
330
79
100
AcDbEntity
  8
Camada 1
 62
   250
420
  1907995
370
    18
100
AcDbPolyline
 90
        7
 70
     1
 43
0.0
 10
43.29928178997121
 20
-44.23238974514358
 10
43.29928178997121
 20
-44.15255465399853
 10
43.37911688111563
 20
-44.15255465399853
 10
43.45895197226068
 20
-44.15255465399853
 10
43.45895197226068
 20
-44.312224836288
 10
43.37911688111563
 20
-44.39174319886094
 10
43.29928178997121
 20
-44.312224836288
  0
LINE
  5
380
330
79
100
AcDbEntity
  8
Camada 1
 62
   250
420
  1907995
370
    18
100
AcDbLine
 10
43.69845724569521
 20
-44.5514133811504
 30
0.0
 11
43.69845724569521
 21
-43.99288447170905
 31
0.0
  0
LINE
  5
381
330
79
100
AcDbEntity
  8
Camada 1
 62
   250
420
  1907995
370
    18
100
AcDbLine
 10
43.69845724569521
 20
-43.99288447170905
 30
0.0
 11
43.06041484642835
 21
-43.99288447170905
 31
0.0
  0
LINE
  5
382
330
79
100
AcDbEntity
  8
Camada 1
 62
   250
420
  1907995
370
    18
100
AcDbLine
 10
43.06041484642835
 20
-43.99288447170905
 30
0.0
 11
43.06041484642835
 21
-44.5514133811504
 31
0.0
  0
LINE
  5
383
330
79
100
AcDbEntity
  8
Camada 1
 62
   250
420
  1907995
370
    18
100
AcDbLine
 10
40.42809342964445
 20
-44.5514133811504
 30
0.0
 11
40.98629830139284
 21
-44.5514133811504
 31
0.0
  0
LWPOLYLINE
  5
384
330
79
100
AcDbEntity
  8
Camada 1
 62
   250
420
  1907995
370
    18
100
AcDbPolyline
 90
        7
 70
     1
 43
0.0
 10
40.66695793681391
 20
-44.23238974514358
 10
40.66695793681391
 20
-44.15255465399853
 10
40.74679302795896
 20
-44.15255465399853
 10
40.82662811910338
 20
-44.15255465399853
 10
40.82662811910338
 20
-44.312224836288
 10
40.74679302795896
 20
-44.39174319886094
 10
40.66695793681391
 20
-44.312224836288
  0
LINE
  5
385
330
79
100
AcDbEntity
  8
Camada 1
 62
   250
420
  1907995
370
    18
100
AcDbLine
 10
40.98629830139284
 20
-44.5514133811504
 30
0.0
 11
40.98629830139284
 21
-43.99288447170905
 31
0.0
  0
LINE
  5
386
330
79
100
AcDbEntity
  8
Camada 1
 62
   250
420
  1907995
370
    18
100
AcDbLine
 10
40.98629830139284
 20
-43.99288447170905
 30
0.0
 11
40.42809342964445
 21
-43.99288447170905
 31
0.0
  0
LINE
  5
387
330
79
100
AcDbEntity
  8
Camada 1
 62
   250
420
  1907995
370
    18
100
AcDbLine
 10
40.42809342964445
 20
-43.99288447170905
 30
0.0
 11
40.42809342964445
 21
-44.5514133811504
 31
0.0
  0
LINE
  5
388
330
79
100
AcDbEntity
  8
Camada 1
 62
   250
420
  1907995
370
    18
100
AcDbLine
 10
37.79576957648715
 20
-44.5514133811504
 30
0.0
 11
38.35397688460957
 21
-44.5514133811504
 31
0.0
  0
LWPOLYLINE
  5
389
330
79
100
AcDbEntity
  8
Camada 1
 62
   250
420
  1907995
370
    18
100
AcDbPolyline
 90
        8
 70
     1
 43
0.0
 10
38.03463652003
 20
-44.23238974514358
 10
38.03463652003
 20
-44.15255465399853
 10
38.11447161117506
 20
-44.15255465399853
 10
38.19430670232011
 20
-44.23238974514358
 10
38.19430670232011
 20
-44.312224836288
 10
38.11447161117506
 20
-44.312224836288
 10
38.11447161117506
 20
-44.39174319886094
 10
38.03463652003
 20
-44.39174319886094
  0
LINE
  5
38A
330
79
100
AcDbEntity
  8
Camada 1
 62
   250
420
  1907995
370
    18
100
AcDbLine
 10
38.35397688460957
 20
-44.5514133811504
 30
0.0
 11
38.35397688460957
 21
-43.99288447170905
 31
0.0
  0
LINE
  5
38B
330
79
100
AcDbEntity
  8
Camada 1
 62
   250
420
  1907995
370
    18
100
AcDbLine
 10
38.35397688460957
 20
-43.99288447170905
 30
0.0
 11
37.79576957648715
 21
-43.99288447170905
 31
0.0
  0
LINE
  5
38C
330
79
100
AcDbEntity
  8
Camada 1
 62
   250
420
  1907995
370
    18
100
AcDbLine
 10
37.79576957648715
 20
-43.99288447170905
 30
0.0
 11
37.79576957648715
 21
-44.5514133811504
 31
0.0
  0
LINE
  5
38D
330
79
100
AcDbEntity
  8
Camada 1
 62
   250
420
  1907995
370
    18
100
AcDbLine
 10
35.16344815970388
 20
-44.5514133811504
 30
0.0
 11
35.72165303145227
 21
-44.5514133811504
 31
0.0
  0
LWPOLYLINE
  5
38E
330
79
100
AcDbEntity
  8
Camada 1
 62
   250
420
  1907995
370
    18
100
AcDbPolyline
 90
        8
 70
     1
 43
0.0
 10
35.4023126668727
 20
-44.23238974514358
 10
35.4023126668727
 20
-44.15255465399853
 10
35.48214775801775
 20
-44.15255465399853
 10
35.5619828491628
 20
-44.23238974514358
 10
35.5619828491628
 20
-44.312224836288
 10
35.48214775801775
 20
-44.312224836288
 10
35.48214775801775
 20
-44.39174319886094
 10
35.4023126668727
 20
-44.39174319886094
  0
LINE
  5
38F
330
79
100
AcDbEntity
  8
Camada 1
 62
   250
420
  1907995
370
    18
100
AcDbLine
 10
35.72165303145227
 20
-44.5514133811504
 30
0.0
 11
35.72165303145227
 21
-43.99288447170905
 31
0.0
  0
LINE
  5
390
330
79
100
AcDbEntity
  8
Camada 1
 62
   250
420
  1907995
370
    18
100
AcDbLine
 10
35.72165303145227
 20
-43.99288447170905
 30
0.0
 11
35.16344815970388
 21
-43.99288447170905
 31
0.0
  0
LINE
  5
391
330
79
100
AcDbEntity
  8
Camada 1
 62
   250
420
  1907995
370
    18
100
AcDbLine
 10
35.16344815970388
 20
-43.99288447170905
 30
0.0
 11
35.16344815970388
 21
-44.5514133811504
 31
0.0
  0
ENDBLK
  5
7C
330
79
100
AcDbEntity
  8
0
100
AcDbBlockEnd
  0
ENDSEC
  0
SECTION
  2
ENTITIES
  0
INSERT
  5
7A
330
70
100
AcDbEntity
  8
Camada 1
100
AcDbBlockReference
  2
Block_0
 10
0.0
 20
0.0
 30
0.0
  0
ENDSEC
  0
SECTION
  2
OBJECTS
  0
DICTIONARY
  5
C
330
0
100
AcDbDictionary
281
     1
  3
ACAD_COLOR
350
63
  3
ACAD_DETAILVIEWSTYLE
350
6A
  3
ACAD_GROUP
350
D
  3
ACAD_LAYOUT
350
62
  3
ACAD_MATERIAL
350
10
  3
ACAD_MLEADERSTYLE
350
66
  3
ACAD_MLINESTYLE
350
5F
  3
ACAD_PLOTSETTINGS
350
61
  3
ACAD_PLOTSTYLENAME
350
E
  3
ACAD_SCALELIST
350
42
  3
ACAD_SECTIONVIEWSTYLE
350
68
  3
ACAD_TABLESTYLE
350
64
  3
ACAD_VISUALSTYLE
350
29
  3
ACDB_RECOMPOSE_DATA
350
39A
  3
AcDbVariableDictionary
350
392
  0
DICTIONARY
  5
63
102
{ACAD_REACTORS
330
C
102
}
330
C
100
AcDbDictionary
281
     1
  0
DICTIONARY
  5
6A
102
{ACAD_REACTORS
330
C
102
}
330
C
100
AcDbDictionary
281
     1
  3
Imperial24
350
6B
  0
DICTIONARY
  5
D
102
{ACAD_REACTORS
330
C
102
}
330
C
100
AcDbDictionary
281
     1
  0
DICTIONARY
  5
62
102
{ACAD_REACTORS
330
C
102
}
330
C
100
AcDbDictionary
281
     1
  3
Layout1
350
6F
  3
Layout2
350
77
  3
Model
350
73
  0
DICTIONARY
  5
10
102
{ACAD_REACTORS
330
C
102
}
330
C
100
AcDbDictionary
281
     1
  3
ByBlock
350
19
  3
ByLayer
350
11
  3
Global
350
21
  0
DICTIONARY
  5
66
102
{ACAD_REACTORS
330
C
102
}
330
C
100
AcDbDictionary
281
     1
  3
Standard
350
67
  0
DICTIONARY
  5
5F
102
{ACAD_REACTORS
330
C
102
}
330
C
100
AcDbDictionary
281
     1
  3
Standard
350
60
  0
DICTIONARY
  5
61
102
{ACAD_REACTORS
330
C
102
}
330
C
100
AcDbDictionary
281
     1
  0
ACDBDICTIONARYWDFLT
  5
E
102
{ACAD_REACTORS
330
C
102
}
330
C
100
AcDbDictionary
281
     1
  3
Normal
350
F
100
AcDbDictionaryWithDefault
340
F
  0
DICTIONARY
  5
42
102
{ACAD_REACTORS
330
C
102
}
330
C
100
AcDbDictionary
281
     1
  3
A0
350
43
  3
A1
350
44
  3
A2
350
45
  3
A3
350
46
  3
A4
350
47
  3
A5
350
48
  3
A6
350
49
  3
A7
350
4A
  3
A8
350
4B
  3
A9
350
4C
  3
B0
350
4D
  3
B1
350
4E
  3
B2
350
4F
  3
B3
350
50
  3
B4
350
51
  3
B5
350
52
  3
B6
350
53
  0
DICTIONARY
  5
68
102
{ACAD_REACTORS
330
C
102
}
330
C
100
AcDbDictionary
281
     1
  3
Imperial24
350
69
  0
DICTIONARY
  5
64
102
{ACAD_REACTORS
330
C
102
}
330
C
100
AcDbDictionary
281
     1
  3
Standard
350
65
  0
DICTIONARY
  5
29
102
{ACAD_REACTORS
330
C
102
}
330
C
100
AcDbDictionary
281
     1
  3
2dWireframe
350
2F
  3
Basic
350
2E
  3
Brighten
350
35
  3
ColorChange
350
39
  3
Conceptual
350
32
  3
Dim
350
34
  3
EdgeColorOff
350
41
  3
Facepattern
350
38
  3
Flat
350
2A
  3
FlatWithEdges
350
2B
  3
Gouraud
350
2C
  3
GouraudWithEdges
350
2D
  3
Hidden
350
31
  3
JitterOff
350
3F
  3
Linepattern
350
37
  3
OverhangOff
350
40
  3
Realistic
350
33
  3
Shaded
350
3E
  3
Shaded with edges
350
3D
  3
Shades of Gray
350
3A
  3
Sketchy
350
3B
  3
Thicken
350
36
  3
Wireframe
350
30
  3
X-Ray
350
3C
  0
XRECORD
  5
39A
102
{ACAD_REACTORS
330
C
102
}
330
C
100
AcDbXrecord
280
     1
 90
        1
330
65
  0
DICTIONARY
  5
392
102
{ACAD_REACTORS
330
C
102
}
330
C
100
AcDbDictionary
281
     1
  3
CANNOSCALE
350
397
  3
CMLEADERSTYLE
350
394
  3
CTABLESTYLE
350
393
  3
CVIEWDETAILSTYLE
350
395
  3
CVIEWSECTIONSTYLE
350
396
  0
ACDBDETAILVIEWSTYLE
  5
6B
102
{ACAD_REACTORS
330
6A
102
}
330
6A
100
AcDbModelDocViewStyle
 70
     0
  3
Imperial24
290
     1
300
Imperial24
 90
        0
100
AcDbDetailViewStyle
 70
     0
 71
     0
 90
        3
 71
     1
340
55
 62
   256
 40
0.24
340
0
 62
   256
 40
0.24
300

 40
0.36
280
     3
 71
     2
340
5D
 90
       25
 62
   256
 71
     3
340
55
 62
   256
 40
0.24
 90
        1
 40
0.75
 90
        1
300
%<\AcVar ViewType \f "%tc1">% %<\AcVar ViewDetailId>%\PSCALE %<\AcVar ViewScale \f "%sn">%
 71
     4
340
5D
 90
       25
 62
   256
340
5D
 90
       25
 62
   256
280
     0
  0
LAYOUT
  5
6F
102
{ACAD_REACTORS
330
62
102
}
330
62
100
AcDbPlotSettings
  1

  2

  4

  6

 40
0.0
 41
0.0
 42
0.0
 43
0.0
 44
0.0
 45
0.0
 46
0.0
 47
0.0
 48
0.0
 49
0.0
140
0.0
141
0.0
142
1.0
143
1.0
 70
   688
 72
     0
 73
     0
 74
     5
  7

 75
    16
147
1.0
 76
     0
 77
     2
 78
   300
148
0.0
149
0.0
100
AcDbLayout
  1
Layout1
 70
     1
 71
     1
 10
0.0
 20
0.0
 11
12.0
 21
9.0
 12
0.0
 22
0.0
 32
0.0
 14
0.0
 24
0.0
 34
0.0
 15
0.0
 25
0.0
 35
0.0
146
0.0
 13
0.0
 23
0.0
 33
0.0
 16
1.0
 26
0.0
 36
0.0
 17
0.0
 27
1.0
 37
0.0
 76
     0
330
6C
  0
LAYOUT
  5
77
102
{ACAD_REACTORS
330
62
102
}
330
62
100
AcDbPlotSettings
  1

  2

  4

  6

 40
0.0
 41
0.0
 42
0.0
 43
0.0
 44
0.0
 45
0.0
 46
0.0
 47
0.0
 48
0.0
 49
0.0
140
0.0
141
0.0
142
1.0
143
1.0
 70
   688
 72
     0
 73
     0
 74
     5
  7

 75
    16
147
1.0
 76
     0
 77
     2
 78
   300
148
0.0
149
0.0
100
AcDbLayout
  1
Layout2
 70
     1
 71
     2
 10
0.0
 20
0.0
 11
12.0
 21
9.0
 12
0.0
 22
0.0
 32
0.0
 14
0.0
 24
0.0
 34
0.0
 15
0.0
 25
0.0
 35
0.0
146
0.0
 13
0.0
 23
0.0
 33
0.0
 16
1.0
 26
0.0
 36
0.0
 17
0.0
 27
1.0
 37
0.0
 76
     0
330
74
  0
LAYOUT
  5
73
102
{ACAD_REACTORS
330
62
102
}
330
62
100
AcDbPlotSettings
  1

  2

  4

  6

 40
0.0
 41
0.0
 42
0.0
 43
0.0
 44
0.0
 45
0.0
 46
0.0
 47
0.0
 48
0.0
 49
0.0
140
0.0
141
0.0
142
1.0
143
1.0
 70
  1712
 72
     0
 73
     0
 74
     0
  7

 75
     0
147
1.0
 76
     0
 77
     2
 78
   300
148
0.0
149
0.0
100
AcDbLayout
  1
Model
 70
     1
 71
     0
 10
0.0
 20
0.0
 11
12.0
 21
9.0
 12
0.0
 22
0.0
 32
0.0
 14
0.0
 24
0.0
 34
0.0
 15
0.0
 25
0.0
 35
0.0
146
0.0
 13
0.0
 23
0.0
 33
0.0
 16
1.0
 26
0.0
 36
0.0
 17
0.0
 27
1.0
 37
0.0
 76
     0
330
70
  0
MATERIAL
  5
19
102
{ACAD_XDICTIONARY
360
1A
102
}
102
{ACAD_REACTORS
330
10
102
}
330
10
100
AcDbMaterial
  1
ByBlock
 72
     0
 43
0.0208333333333333
 43
0.0
 43
0.0
 43
0.0
 43
0.0
 43
0.0208333333333333
 43
0.0
 43
0.0
 43
0.0
 43
0.0
 43
1.0
 43
0.0
 43
0.0
 43
0.0
 43
0.0
 43
1.0
 77
     0
 47
0.0208333333333333
 47
0.0
 47
0.0
 47
0.0
 47
0.0
 47
0.0208333333333333
 47
0.0
 47
0.0
 47
0.0
 47
0.0
 47
1.0
 47
0.0
 47
0.0
 47
0.0
 47
0.0
 47
1.0
171
     0
 49
0.0208333333333333
 49
0.0
 49
0.0
 49
0.0
 49
0.0
 49
0.0208333333333333
 49
0.0
 49
0.0
 49
0.0
 49
0.0
 49
1.0
 49
0.0
 49
0.0
 49
0.0
 49
0.0
 49
1.0
175
     0
142
0.0208333333333333
142
0.0
142
0.0
142
0.0
142
0.0
142
0.0208333333333333
142
0.0
142
0.0
142
0.0
142
0.0
142
1.0
142
0.0
142
0.0
142
0.0
142
0.0
142
1.0
179
     0
144
0.0208333333333333
144
0.0
144
0.0
144
0.0
144
0.0
144
0.0208333333333333
144
0.0
144
0.0
144
0.0
144
0.0
144
1.0
144
0.0
144
0.0
144
0.0
144
0.0
144
1.0
147
0.0208333333333333
147
0.0
147
0.0
147
0.0
147
0.0
147
0.0208333333333333
147
0.0
147
0.0
147
0.0
147
0.0
147
1.0
147
0.0
147
0.0
147
0.0
147
0.0
147
1.0
  0
MATERIAL
  5
11
102
{ACAD_XDICTIONARY
360
12
102
}
102
{ACAD_REACTORS
330
10
102
}
330
10
100
AcDbMaterial
  1
ByLayer
 72
     0
 43
0.0208333333333333
 43
0.0
 43
0.0
 43
0.0
 43
0.0
 43
0.0208333333333333
 43
0.0
 43
0.0
 43
0.0
 43
0.0
 43
1.0
 43
0.0
 43
0.0
 43
0.0
 43
0.0
 43
1.0
 77
     0
 47
0.0208333333333333
 47
0.0
 47
0.0
 47
0.0
 47
0.0
 47
0.0208333333333333
 47
0.0
 47
0.0
 47
0.0
 47
0.0
 47
1.0
 47
0.0
 47
0.0
 47
0.0
 47
0.0
 47
1.0
171
     0
 49
0.0208333333333333
 49
0.0
 49
0.0
 49
0.0
 49
0.0
 49
0.0208333333333333
 49
0.0
 49
0.0
 49
0.0
 49
0.0
 49
1.0
 49
0.0
 49
0.0
 49
0.0
 49
0.0
 49
1.0
175
     0
142
0.0208333333333333
142
0.0
142
0.0
142
0.0
142
0.0
142
0.0208333333333333
142
0.0
142
0.0
142
0.0
142
0.0
142
1.0
142
0.0
142
0.0
142
0.0
142
0.0
142
1.0
179
     0
144
0.0208333333333333
144
0.0
144
0.0
144
0.0
144
0.0
144
0.0208333333333333
144
0.0
144
0.0
144
0.0
144
0.0
144
1.0
144
0.0
144
0.0
144
0.0
144
0.0
144
1.0
147
0.0208333333333333
147
0.0
147
0.0
147
0.0
147
0.0
147
0.0208333333333333
147
0.0
147
0.0
147
0.0
147
0.0
147
1.0
147
0.0
147
0.0
147
0.0
147
0.0
147
1.0
  0
MATERIAL
  5
21
102
{ACAD_XDICTIONARY
360
22
102
}
102
{ACAD_REACTORS
330
10
102
}
330
10
100
AcDbMaterial
  1
Global
 72
     0
 43
0.0208333333333333
 43
0.0
 43
0.0
 43
0.0
 43
0.0
 43
0.0208333333333333
 43
0.0
 43
0.0
 43
0.0
 43
0.0
 43
1.0
 43
0.0
 43
0.0
 43
0.0
 43
0.0
 43
1.0
 77
     0
 47
0.0208333333333333
 47
0.0
 47
0.0
 47
0.0
 47
0.0
 47
0.0208333333333333
 47
0.0
 47
0.0
 47
0.0
 47
0.0
 47
1.0
 47
0.0
 47
0.0
 47
0.0
 47
0.0
 47
1.0
171
     0
 49
0.0208333333333333
 49
0.0
 49
0.0
 49
0.0
 49
0.0
 49
0.0208333333333333
 49
0.0
 49
0.0
 49
0.0
 49
0.0
 49
1.0
 49
0.0
 49
0.0
 49
0.0
 49
0.0
 49
1.0
175
     0
142
0.0208333333333333
142
0.0
142
0.0
142
0.0
142
0.0
142
0.0208333333333333
142
0.0
142
0.0
142
0.0
142
0.0
142
1.0
142
0.0
142
0.0
142
0.0
142
0.0
142
1.0
179
     0
144
0.0208333333333333
144
0.0
144
0.0
144
0.0
144
0.0
144
0.0208333333333333
144
0.0
144
0.0
144
0.0
144
0.0
144
1.0
144
0.0
144
0.0
144
0.0
144
0.0
144
1.0
147
0.0208333333333333
147
0.0
147
0.0
147
0.0
147
0.0
147
0.0208333333333333
147
0.0
147
0.0
147
0.0
147
0.0
147
1.0
147
0.0
147
0.0
147
0.0
147
0.0
147
1.0
  0
MLEADERSTYLE
  5
67
102
{ACAD_REACTORS
330
66
102
}
330
66
100
AcDbMLeaderStyle
179
     2
170
     2
171
     1
172
     0
 90
        2
 40
0.0
 41
0.0
173
     1
 91
-1056964608
340
5B
 92
       -2
290
     1
 42
0.09
291
     1
 43
0.36
  3
Standard
 44
0.18
300

342
55
174
     1
178
     6
175
     1
176
     0
 93
-1056964608
 45
0.18
292
     0
297
     0
 46
0.18
 94
-1056964608
 47
1.0
 49
1.0
140
1.0
293
     1
141
0.0
294
     1
177
     0
142
1.0
295
     1
296
     0
143
0.125
271
     0
272
     9
273
     9
298
     1
  0
MLINESTYLE
  5
60
102
{ACAD_REACTORS
330
5F
102
}
330
5F
100
AcDbMlineStyle
  2
STANDARD
 70
     0
  3

 62
   256
 51
90.0
 52
90.0
 71
     2
 49
0.5
 62
   256
  6
BYLAYER
 49
-0.5
 62
   256
  6
BYLAYER
  0
ACDBPLACEHOLDER
  5
F
102
{ACAD_REACTORS
330
E
102
}
330
E
  0
SCALE
  5
43
102
{ACAD_REACTORS
330
42
102
}
330
42
100
AcDbScale
 70
     0
300
1:1
140
1.0
141
1.0
290
     1
  0
SCALE
  5
44
102
{ACAD_REACTORS
330
42
102
}
330
42
100
AcDbScale
 70
     0
300
1/128" = 1'-0"
140
0.0078125
141
12.0
290
     0
  0
SCALE
  5
45
102
{ACAD_REACTORS
330
42
102
}
330
42
100
AcDbScale
 70
     0
300
1/64" = 1'-0"
140
0.015625
141
12.0
290
     0
  0
SCALE
  5
46
102
{ACAD_REACTORS
330
42
102
}
330
42
100
AcDbScale
 70
     0
300
1/32" = 1'-0"
140
0.03125
141
12.0
290
     0
  0
SCALE
  5
47
102
{ACAD_REACTORS
330
42
102
}
330
42
100
AcDbScale
 70
     0
300
1/16" = 1'-0"
140
0.0625
141
12.0
290
     0
  0
SCALE
  5
48
102
{ACAD_REACTORS
330
42
102
}
330
42
100
AcDbScale
 70
     0
300
3/32" = 1'-0"
140
0.09375
141
12.0
290
     0
  0
SCALE
  5
49
102
{ACAD_REACTORS
330
42
102
}
330
42
100
AcDbScale
 70
     0
300
1/8" = 1'-0"
140
0.125
141
12.0
290
     0
  0
SCALE
  5
4A
102
{ACAD_REACTORS
330
42
102
}
330
42
100
AcDbScale
 70
     0
300
3/16" = 1'-0"
140
0.1875
141
12.0
290
     0
  0
SCALE
  5
4B
102
{ACAD_REACTORS
330
42
102
}
330
42
100
AcDbScale
 70
     0
300
1/4" = 1'-0"
140
0.25
141
12.0
290
     0
  0
SCALE
  5
4C
102
{ACAD_REACTORS
330
42
102
}
330
42
100
AcDbScale
 70
     0
300
3/8" = 1'-0"
140
0.375
141
12.0
290
     0
  0
SCALE
  5
4D
102
{ACAD_REACTORS
330
42
102
}
330
42
100
AcDbScale
 70
     0
300
1/2" = 1'-0"
140
0.5
141
12.0
290
     0
  0
SCALE
  5
4E
102
{ACAD_REACTORS
330
42
102
}
330
42
100
AcDbScale
 70
     0
300
3/4" = 1'-0"
140
0.75
141
12.0
290
     0
  0
SCALE
  5
4F
102
{ACAD_REACTORS
330
42
102
}
330
42
100
AcDbScale
 70
     0
300
1" = 1'-0"
140
1.0
141
12.0
290
     0
  0
SCALE
  5
50
102
{ACAD_REACTORS
330
42
102
}
330
42
100
AcDbScale
 70
     0
300
1-1/2" = 1'-0"
140
1.5
141
12.0
290
     0
  0
SCALE
  5
51
102
{ACAD_REACTORS
330
42
102
}
330
42
100
AcDbScale
 70
     0
300
3" = 1'-0"
140
3.0
141
12.0
290
     0
  0
SCALE
  5
52
102
{ACAD_REACTORS
330
42
102
}
330
42
100
AcDbScale
 70
     0
300
6" = 1'-0"
140
6.0
141
12.0
290
     0
  0
SCALE
  5
53
102
{ACAD_REACTORS
330
42
102
}
330
42
100
AcDbScale
 70
     0
300
1'-0" = 1'-0"
140
12.0
141
12.0
290
     0
  0
ACDBSECTIONVIEWSTYLE
  5
69
102
{ACAD_REACTORS
330
68
102
}
330
68
100
AcDbModelDocViewStyle
 70
     0
  3
Imperial24
290
     1
300
Imperial24
 90
        0
100
AcDbSectionViewStyle
 70
     0
 71
     0
 90
       78
 71
     1
340
55
 62
   256
 40
0.24
340
0
340
0
 62
   256
 40
0.24
300
I, O, Q, S, X, Z
 40
0.48
 90
        3
 40
0.18
 90
        1
 71
     2
340
5D
 90
       25
 62
   256
340
5D
 90
       50
 62
   256
 40
0.24
 40
0.0
 40
0.24
 71
     3
340
55
 62
   256
 40
0.24
 90
        1
 40
0.75
 90
        1
300
%<\AcVar ViewType \f "%tc1">% %<\AcVar ViewSectionStartId>%-%<\AcVar ViewSectionEndId>%\PSCALE %<\AcVar ViewScale \f "%sn">%
 71
     4
 62
   256
 62
   257
300
ANSI31
 40
1.0
 90
        0
290
     0
290
     0
 90
        6
 40
0.0
 40
1.570796326794896
 40
0.2617993877991494
 40
1.308996938995747
 40
-0.2617993877991494
 40
1.832595714594046
  0
TABLESTYLE
  5
65
102
{ACAD_XDICTIONARY
360
398
102
}
102
{ACAD_REACTORS
330
64
102
}
330
64
100
AcDbTableStyle
280
     0
  3
Standard
 70
     0
 71
     0
 40
0.06
 41
0.06
280
     0
281
     0
  7
Standard
140
0.18
170
     2
 62
     0
 63
     7
283
     0
 90
      512
 91
        0
  1

274
    -2
284
     1
 64
     0
275
    -2
285
     1
 65
     0
276
    -2
286
     1
 66
     0
277
    -2
287
     1
 67
     0
278
    -2
288
     1
 68
     0
279
    -2
289
     1
 69
     0
  7
Standard
140
0.25
170
     5
 62
     0
 63
     7
283
     0
 90
      512
 91
        0
  1

274
    -2
284
     1
 64
     0
275
    -2
285
     1
 65
     0
276
    -2
286
     1
 66
     0
277
    -2
287
     1
 67
     0
278
    -2
288
     1
 68
     0
279
    -2
289
     1
 69
     0
  7
Standard
140
0.18
170
     5
 62
     0
 63
     7
283
     0
 90
      512
 91
        0
  1

274
    -2
284
     1
 64
     0
275
    -2
285
     1
 65
     0
276
    -2
286
     1
 66
     0
277
    -2
287
     1
 67
     0
278
    -2
288
     1
 68
     0
279
    -2
289
     1
 69
     0
  0
VISUALSTYLE
  5
2F
102
{ACAD_REACTORS
330
29
102
}
330
29
100
AcDbVisualStyle
  2
2dWireframe
 70
     4
177
     3
291
     0
 70
    58
 90
        0
176
     1
 90
        2
176
     1
 90
        0
176
     1
 90
        0
176
     1
 40
0.6
176
     1
 40
30.0
176
     1
 62
     7
420
 16777215
176
     1
 90
        1
176
     1
 90
        4
176
     1
 62
     7
176
     1
 62
   257
176
     1
 90
        1
176
     1
 90
        1
176
     1
 40
1.0
176
     1
 90
        0
176
     1
 62
   257
176
     1
 40
1.0
176
     1
 90
        1
176
     1
 90
        6
176
     1
 90
        2
176
     1
 62
     7
176
     1
 90
        5
176
     1
 90
        0
176
     1
 90
        0
176
     1
290
     0
176
     1
 90
        1
176
     1
 40
0.0
176
     1
 90
        0
176
     1
290
     1
176
     1
290
     1
176
     1
290
     0
176
     1
290
     0
176
     1
290
     0
176
     1
290
     0
176
     1
290
     0
176
     1
290
     0
176
     1
290
     0
176
     1
 90
       50
176
     1
 40
0.0
176
     1
 40
1.0
176
     1
 90
        0
176
     1
 62
    18
420
        0
176
     1
 90
       50
176
     1
 90
        3
176
     1
 62
     5
420
      255
176
     1
290
     0
176
     1
 90
       50
176
     1
 90
       50
176
     1
 90
       50
176
     1
290
     0
176
     1
 90
       50
176
     1
 62
   256
176
     0
 40
1.0
176
     0
 90
        2
176
     1
  1
strokes_ogs.tif
176
     1
290
     0
176
     1
 40
1.0
176
     1
 40
1.0
176
     1
  0
VISUALSTYLE
  5
2E
102
{ACAD_REACTORS
330
29
102
}
330
29
100
AcDbVisualStyle
  2
Basic
 70
     7
177
     3
291
     1
 70
    58
 90
        1
176
     1
 90
        0
176
     1
 90
        1
176
     1
 90
        0
176
     1
 40
0.6
176
     1
 40
30.0
176
     1
 62
     7
420
 16777215
176
     1
 90
        0
176
     1
 90
        4
176
     1
 62
     7
176
     1
 62
   257
176
     1
 90
        1
176
     1
 90
        1
176
     1
 40
1.0
176
     1
 90
        8
176
     1
 62
     7
176
     1
 40
1.0
176
     1
 90
        1
176
     1
 90
        6
176
     1
 90
        2
176
     1
 62
     7
176
     1
 90
        5
176
     1
 90
        0
176
     1
 90
        0
176
     1
290
     0
176
     1
 90
        1
176
     1
 40
0.0
176
     1
 90
        0
176
     1
290
     0
176
     1
290
     1
176
     1
290
     1
176
     1
290
     0
176
     1
290
     0
176
     1
290
     0
176
     1
290
     0
176
     1
290
     0
176
     1
290
     0
176
     1
 90
       50
176
     1
 40
0.0
176
     1
 40
1.0
176
     1
 90
        0
176
     1
 62
    18
420
        0
176
     1
 90
       50
176
     1
 90
        3
176
     1
 62
     5
420
      255
176
     1
290
     0
176
     1
 90
       50
176
     1
 90
       50
176
     1
 90
       50
176
     1
290
     0
176
     1
 90
       50
176
     1
 62
   256
176
     0
 40
1.0
176
     0
 90
        2
176
     1
  1
strokes_ogs.tif
176
     1
290
     0
176
     1
 40
1.0
176
     1
 40
1.0
176
     1
  0
VISUALSTYLE
  5
35
102
{ACAD_REACTORS
330
29
102
}
330
29
100
AcDbVisualStyle
  2
Brighten
 70
    12
177
     3
291
     1
 70
    58
 90
        2
176
     1
 90
        2
176
     1
 90
        0
176
     1
 90
        0
176
     1
 40
0.6
176
     1
 40
30.0
176
     1
 62
     7
420
 16777215
176
     1
 90
        1
176
     1
 90
        4
176
     1
 62
     7
176
     1
 62
   257
176
     1
 90
        1
176
     1
 90
        1
176
     1
 40
1.0
176
     1
 90
        8
176
     1
 62
     7
176
     1
 40
1.0
176
     1
 90
        1
176
     1
 90
        6
176
     1
 90
        2
176
     1
 62
     7
176
     1
 90
        5
176
     1
 90
        0
176
     1
 90
        0
176
     1
290
     0
176
     1
 90
        1
176
     1
 40
50.0
176
     1
 90
        0
176
     1
290
     0
176
     1
290
     1
176
     1
290
     1
176
     1
290
     0
176
     1
290
     0
176
     1
290
     0
176
     1
290
     0
176
     1
290
     0
176
     1
290
     0
176
     1
 90
       50
176
     1
 40
0.0
176
     1
 40
1.0
176
     1
 90
        0
176
     1
 62
    18
420
        0
176
     1
 90
       50
176
     1
 90
        3
176
     1
 62
     5
420
      255
176
     1
290
     0
176
     1
 90
       50
176
     1
 90
       50
176
     1
 90
       50
176
     1
290
     0
176
     1
 90
       50
176
     1
 62
   256
176
     0
 40
1.0
176
     0
 90
        2
176
     1
  1
strokes_ogs.tif
176
     1
290
     0
176
     1
 40
1.0
176
     1
 40
1.0
176
     1
  0
VISUALSTYLE
  5
39
102
{ACAD_REACTORS
330
29
102
}
330
29
100
AcDbVisualStyle
  2
ColorChange
 70
    16
177
     3
291
     1
 70
    58
 90
        2
176
     1
 90
        2
176
     1
 90
        3
176
     1
 90
        0
176
     1
 40
0.6
176
     1
 40
30.0
176
     1
 62
     8
420
  8421504
176
     1
 90
        1
176
     1
 90
        4
176
     1
 62
     7
176
     1
 62
   257
176
     1
 90
        1
176
     1
 90
        1
176
     1
 40
1.0
176
     1
 90
        8
176
     1
 62
     8
420
  8421504
176
     1
 40
1.0
176
     1
 90
        1
176
     1
 90
        6
176
     1
 90
        2
176
     1
 62
     7
176
     1
 90
        5
176
     1
 90
        0
176
     1
 90
        0
176
     1
290
     0
176
     1
 90
        1
176
     1
 40
0.0
176
     1
 90
        0
176
     1
290
     0
176
     1
290
     1
176
     1
290
     1
176
     1
290
     0
176
     1
290
     0
176
     1
290
     0
176
     1
290
     0
176
     1
290
     0
176
     1
290
     0
176
     1
 90
       50
176
     1
 40
0.0
176
     1
 40
1.0
176
     1
 90
        0
176
     1
 62
    18
420
        0
176
     1
 90
       50
176
     1
 90
        3
176
     1
 62
     5
420
      255
176
     1
290
     0
176
     1
 90
       50
176
     1
 90
       50
176
     1
 90
       50
176
     1
290
     0
176
     1
 90
       50
176
     1
 62
   256
176
     0
 40
1.0
176
     0
 90
        2
176
     1
  1
strokes_ogs.tif
176
     1
290
     0
176
     1
 40
1.0
176
     1
 40
1.0
176
     1
  0
VISUALSTYLE
  5
32
102
{ACAD_REACTORS
330
29
102
}
330
29
100
AcDbVisualStyle
  2
Conceptual
 70
     9
177
     3
291
     0
 70
    58
 90
        3
176
     1
 90
        2
176
     1
 90
        0
176
     1
 90
        0
176
     1
 40
0.6
176
     1
 40
30.0
176
     1
 62
     7
420
 16777215
176
     1
 90
        2
176
     1
 90
        2
176
     1
 62
     7
176
     1
 62
   257
176
     1
 90
        1
176
     1
 90
        1
176
     1
 40
179.0
176
     1
 90
        8
176
     1
 62
     7
176
     1
 40
1.0
176
     1
 90
        1
176
     1
 90
        6
176
     1
 90
        2
176
     1
 62
     7
176
     1
 90
        3
176
     1
 90
        0
176
     1
 90
        0
176
     1
290
     0
176
     1
 90
        1
176
     1
 40
0.0
176
     1
 90
        0
176
     1
290
     0
176
     1
290
     1
176
     1
290
     1
176
     1
290
     0
176
     1
290
     0
176
     1
290
     0
176
     1
290
     0
176
     1
290
     0
176
     1
290
     0
176
     1
 90
       50
176
     1
 40
0.0
176
     1
 40
1.0
176
     1
 90
        0
176
     1
 62
    18
420
        0
176
     1
 90
       50
176
     1
 90
        3
176
     1
 62
     5
420
      255
176
     1
290
     0
176
     1
 90
       50
176
     1
 90
       50
176
     1
 90
       50
176
     1
290
     0
176
     1
 90
       50
176
     1
 62
   256
176
     0
 40
1.0
176
     0
 90
        2
176
     1
  1
strokes_ogs.tif
176
     1
290
     0
176
     1
 40
1.0
176
     1
 40
1.0
176
     1
  0
VISUALSTYLE
  5
34
102
{ACAD_REACTORS
330
29
102
}
330
29
100
AcDbVisualStyle
  2
Dim
 70
    11
177
     3
291
     1
 70
    58
 90
        2
176
     1
 90
        2
176
     1
 90
        0
176
     1
 90
        0
176
     1
 40
0.6
176
     1
 40
30.0
176
     1
 62
     7
420
 16777215
176
     1
 90
        1
176
     1
 90
        4
176
     1
 62
     7
176
     1
 62
   257
176
     1
 90
        1
176
     1
 90
        1
176
     1
 40
1.0
176
     1
 90
        8
176
     1
 62
     7
176
     1
 40
1.0
176
     1
 90
        1
176
     1
 90
        6
176
     1
 90
        2
176
     1
 62
     7
176
     1
 90
        5
176
     1
 90
        0
176
     1
 90
        0
176
     1
290
     0
176
     1
 90
        1
176
     1
 40
-50.0
176
     1
 90
        0
176
     1
290
     0
176
     1
290
     1
176
     1
290
     1
176
     1
290
     0
176
     1
290
     0
176
     1
290
     0
176
     1
290
     0
176
     1
290
     0
176
     1
290
     0
176
     1
 90
       50
176
     1
 40
0.0
176
     1
 40
1.0
176
     1
 90
        0
176
     1
 62
    18
420
        0
176
     1
 90
       50
176
     1
 90
        3
176
     1
 62
     5
420
      255
176
     1
290
     0
176
     1
 90
       50
176
     1
 90
       50
176
     1
 90
       50
176
     1
290
     0
176
     1
 90
       50
176
     1
 62
   256
176
     0
 40
1.0
176
     0
 90
        2
176
     1
  1
strokes_ogs.tif
176
     1
290
     0
176
     1
 40
1.0
176
     1
 40
1.0
176
     1
  0
VISUALSTYLE
  5
41
102
{ACAD_REACTORS
330
29
102
}
330
29
100
AcDbVisualStyle
  2
EdgeColorOff
 70
    22
177
     3
291
     1
 70
    58
 90
        2
176
     0
 90
        2
176
     0
 90
        0
176
     0
 90
        0
176
     0
 40
0.6
176
     0
 40
30.0
176
     0
 62
     7
420
 16777215
176
     0
 90
        1
176
     0
 90
        4
176
     0
 62
     7
176
     0
 62
   257
176
     0
 90
        1
176
     0
 90
        1
176
     0
 40
1.0
176
     0
 90
        8
176
     2
 62
     7
176
     0
 40
1.0
176
     0
 90
        1
176
     0
 90
        6
176
     0
 90
        2
176
     0
 62
     7
176
     0
 90
        5
176
     0
 90
        0
176
     0
 90
        0
176
     0
290
     0
176
     0
 90
        1
176
     0
 40
0.0
176
     0
 90
        0
176
     0
290
     0
176
     0
290
     1
176
     0
290
     1
176
     0
290
     0
176
     0
290
     0
176
     0
290
     0
176
     0
290
     0
176
     0
290
     0
176
     0
290
     0
176
     0
 90
       50
176
     0
 40
0.0
176
     0
 40
1.0
176
     0
 90
        0
176
     0
 62
    18
420
        0
176
     0
 90
       50
176
     0
 90
        3
176
     0
 62
     5
420
      255
176
     0
290
     0
176
     0
 90
       50
176
     0
 90
       50
176
     0
 90
       50
176
     0
290
     0
176
     0
 90
       50
176
     0
 62
   256
176
     0
 40
1.0
176
     0
 90
        2
176
     0
  1
strokes_ogs.tif
176
     0
290
     0
176
     0
 40
1.0
176
     0
 40
1.0
176
     0
  0
VISUALSTYLE
  5
38
102
{ACAD_REACTORS
330
29
102
}
330
29
100
AcDbVisualStyle
  2
Facepattern
 70
    15
177
     3
291
     1
 70
    58
 90
        2
176
     1
 90
        2
176
     1
 90
        0
176
     1
 90
        0
176
     1
 40
0.6
176
     1
 40
30.0
176
     1
 62
     7
420
 16777215
176
     1
 90
        1
176
     1
 90
        4
176
     1
 62
     7
176
     1
 62
   257
176
     1
 90
        1
176
     1
 90
        1
176
     1
 40
1.0
176
     1
 90
        8
176
     1
 62
     7
176
     1
 40
1.0
176
     1
 90
        1
176
     1
 90
        6
176
     1
 90
        2
176
     1
 62
     7
176
     1
 90
        5
176
     1
 90
        0
176
     1
 90
        0
176
     1
290
     0
176
     1
 90
        1
176
     1
 40
0.0
176
     1
 90
        0
176
     1
290
     0
176
     1
290
     1
176
     1
290
     1
176
     1
290
     0
176
     1
290
     0
176
     1
290
     0
176
     1
290
     0
176
     1
290
     0
176
     1
290
     0
176
     1
 90
       50
176
     1
 40
0.0
176
     1
 40
1.0
176
     1
 90
        0
176
     1
 62
    18
420
        0
176
     1
 90
       50
176
     1
 90
        3
176
     1
 62
     5
420
      255
176
     1
290
     0
176
     1
 90
       50
176
     1
 90
       50
176
     1
 90
       50
176
     1
290
     0
176
     1
 90
       50
176
     1
 62
   256
176
     0
 40
1.0
176
     0
 90
        2
176
     1
  1
strokes_ogs.tif
176
     1
290
     0
176
     1
 40
1.0
176
     1
 40
1.0
176
     1
  0
VISUALSTYLE
  5
2A
102
{ACAD_REACTORS
330
29
102
}
330
29
100
AcDbVisualStyle
  2
Flat
 70
     0
177
     3
291
     1
 70
    58
 90
        2
176
     1
 90
        1
176
     1
 90
        1
176
     1
 90
        2
176
     1
 40
0.6
176
     1
 40
30.0
176
     1
 62
     7
420
 16777215
176
     1
 90
        0
176
     1
 90
        0
176
     1
 62
     7
176
     1
 62
   257
176
     1
 90
        1
176
     1
 90
        1
176
     1
 40
1.0
176
     1
 90
        8
176
     1
 62
     7
176
     1
 40
1.0
176
     1
 90
        1
176
     1
 90
        6
176
     1
 90
        2
176
     1
 62
     7
176
     1
 90
        5
176
     1
 90
        0
176
     1
 90
        0
176
     1
290
     0
176
     1
 90
       13
176
     1
 40
0.0
176
     1
 90
        0
176
     1
290
     0
176
     1
290
     1
176
     1
290
     1
176
     1
290
     0
176
     1
290
     0
176
     1
290
     0
176
     1
290
     0
176
     1
290
     0
176
     1
290
     0
176
     1
 90
       50
176
     1
 40
0.0
176
     1
 40
1.0
176
     1
 90
        0
176
     1
 62
    18
420
        0
176
     1
 90
       50
176
     1
 90
        3
176
     1
 62
     5
420
      255
176
     1
290
     0
176
     1
 90
       50
176
     1
 90
       50
176
     1
 90
       50
176
     1
290
     0
176
     1
 90
       50
176
     1
 62
   256
176
     0
 40
1.0
176
     0
 90
        2
176
     1
  1
strokes_ogs.tif
176
     1
290
     0
176
     1
 40
1.0
176
     1
 40
1.0
176
     1
  0
VISUALSTYLE
  5
2B
102
{ACAD_REACTORS
330
29
102
}
330
29
100
AcDbVisualStyle
  2
FlatWithEdges
 70
     1
177
     3
291
     1
 70
    58
 90
        2
176
     1
 90
        1
176
     1
 90
        1
176
     1
 90
        2
176
     1
 40
0.6
176
     1
 40
30.0
176
     1
 62
     7
420
 16777215
176
     1
 90
        1
176
     1
 90
        0
176
     1
 62
     7
176
     1
 62
   257
176
     1
 90
        1
176
     1
 90
        1
176
     1
 40
1.0
176
     1
 90
        0
176
     1
 62
   257
176
     1
 40
1.0
176
     1
 90
        1
176
     1
 90
        6
176
     1
 90
        2
176
     1
 62
     7
176
     1
 90
        5
176
     1
 90
        0
176
     1
 90
        0
176
     1
290
     0
176
     1
 90
       13
176
     1
 40
0.0
176
     1
 90
        0
176
     1
290
     0
176
     1
290
     1
176
     1
290
     1
176
     1
290
     0
176
     1
290
     0
176
     1
290
     0
176
     1
290
     0
176
     1
290
     0
176
     1
290
     0
176
     1
 90
       50
176
     1
 40
0.0
176
     1
 40
1.0
176
     1
 90
        0
176
     1
 62
    18
420
        0
176
     1
 90
       50
176
     1
 90
        3
176
     1
 62
     5
420
      255
176
     1
290
     0
176
     1
 90
       50
176
     1
 90
       50
176
     1
 90
       50
176
     1
290
     0
176
     1
 90
       50
176
     1
 62
   256
176
     0
 40
1.0
176
     0
 90
        2
176
     1
  1
strokes_ogs.tif
176
     1
290
     0
176
     1
 40
1.0
176
     1
 40
1.0
176
     1
  0
VISUALSTYLE
  5
2C
102
{ACAD_REACTORS
330
29
102
}
330
29
100
AcDbVisualStyle
  2
Gouraud
 70
     2
177
     3
291
     1
 70
    58
 90
        2
176
     1
 90
        2
176
     1
 90
        1
176
     1
 90
        2
176
     1
 40
0.6
176
     1
 40
30.0
176
     1
 62
     7
420
 16777215
176
     1
 90
        0
176
     1
 90
        0
176
     1
 62
     7
176
     1
 62
   257
176
     1
 90
        1
176
     1
 90
        1
176
     1
 40
1.0
176
     1
 90
        0
176
     1
 62
     7
176
     1
 40
1.0
176
     1
 90
        1
176
     1
 90
        6
176
     1
 90
        2
176
     1
 62
     7
176
     1
 90
        5
176
     1
 90
        0
176
     1
 90
        0
176
     1
290
     0
176
     1
 90
       13
176
     1
 40
0.0
176
     1
 90
        0
176
     1
290
     0
176
     1
290
     1
176
     1
290
     1
176
     1
290
     0
176
     1
290
     0
176
     1
290
     0
176
     1
290
     0
176
     1
290
     0
176
     1
290
     0
176
     1
 90
       50
176
     1
 40
0.0
176
     1
 40
1.0
176
     1
 90
        0
176
     1
 62
    18
420
        0
176
     1
 90
       50
176
     1
 90
        3
176
     1
 62
     5
420
      255
176
     1
290
     0
176
     1
 90
       50
176
     1
 90
       50
176
     1
 90
       50
176
     1
290
     0
176
     1
 90
       50
176
     1
 62
   256
176
     0
 40
1.0
176
     0
 90
        2
176
     1
  1
strokes_ogs.tif
176
     1
290
     0
176
     1
 40
1.0
176
     1
 40
1.0
176
     1
  0
VISUALSTYLE
  5
2D
102
{ACAD_REACTORS
330
29
102
}
330
29
100
AcDbVisualStyle
  2
GouraudWithEdges
 70
     3
177
     3
291
     1
 70
    58
 90
        2
176
     1
 90
        2
176
     1
 90
        1
176
     1
 90
        2
176
     1
 40
0.6
176
     1
 40
30.0
176
     1
 62
     7
420
 16777215
176
     1
 90
        1
176
     1
 90
        0
176
     1
 62
     7
176
     1
 62
   257
176
     1
 90
        1
176
     1
 90
        1
176
     1
 40
1.0
176
     1
 90
        0
176
     1
 62
   257
176
     1
 40
1.0
176
     1
 90
        1
176
     1
 90
        6
176
     1
 90
        2
176
     1
 62
     7
176
     1
 90
        5
176
     1
 90
        0
176
     1
 90
        0
176
     1
290
     0
176
     1
 90
       13
176
     1
 40
0.0
176
     1
 90
        0
176
     1
290
     0
176
     1
290
     1
176
     1
290
     1
176
     1
290
     0
176
     1
290
     0
176
     1
290
     0
176
     1
290
     0
176
     1
290
     0
176
     1
290
     0
176
     1
 90
       50
176
     1
 40
0.0
176
     1
 40
1.0
176
     1
 90
        0
176
     1
 62
    18
420
        0
176
     1
 90
       50
176
     1
 90
        3
176
     1
 62
     5
420
      255
176
     1
290
     0
176
     1
 90
       50
176
     1
 90
       50
176
     1
 90
       50
176
     1
290
     0
176
     1
 90
       50
176
     1
 62
   256
176
     0
 40
1.0
176
     0
 90
        2
176
     1
  1
strokes_ogs.tif
176
     1
290
     0
176
     1
 40
1.0
176
     1
 40
1.0
176
     1
  0
VISUALSTYLE
  5
31
102
{ACAD_REACTORS
330
29
102
}
330
29
100
AcDbVisualStyle
  2
Hidden
 70
     6
177
     3
291
     0
 70
    58
 90
        1
176
     1
 90
        2
176
     1
 90
        2
176
     1
 90
        0
176
     1
 40
0.6
176
     1
 40
30.0
176
     1
 62
     7
420
 16777215
176
     1
 90
        2
176
     1
 90
        2
176
     1
 62
     7
176
     1
 62
   257
176
     1
 90
        2
176
     1
 90
        1
176
     1
 40
40.0
176
     1
 90
        0
176
     1
 62
   257
176
     1
 40
1.0
176
     1
 90
        1
176
     1
 90
        6
176
     1
 90
        2
176
     1
 62
     7
176
     1
 90
        3
176
     1
 90
        0
176
     1
 90
        0
176
     1
290
     0
176
     1
 90
        1
176
     1
 40
0.0
176
     1
 90
        0
176
     1
290
     0
176
     1
290
     1
176
     1
290
     1
176
     1
290
     0
176
     1
290
     0
176
     1
290
     0
176
     1
290
     0
176
     1
290
     0
176
     1
290
     0
176
     1
 90
       50
176
     1
 40
0.0
176
     1
 40
1.0
176
     1
 90
        0
176
     1
 62
    18
420
        0
176
     1
 90
       50
176
     1
 90
        3
176
     1
 62
     5
420
      255
176
     1
290
     0
176
     1
 90
       50
176
     1
 90
       50
176
     1
 90
       50
176
     1
290
     0
176
     1
 90
       50
176
     1
 62
   256
176
     0
 40
1.0
176
     0
 90
        2
176
     1
  1
strokes_ogs.tif
176
     1
290
     0
176
     1
 40
1.0
176
     1
 40
1.0
176
     1
  0
VISUALSTYLE
  5
3F
102
{ACAD_REACTORS
330
29
102
}
330
29
100
AcDbVisualStyle
  2
JitterOff
 70
    20
177
     3
291
     1
 70
    58
 90
        2
176
     0
 90
        2
176
     0
 90
        0
176
     0
 90
        0
176
     0
 40
0.6
176
     0
 40
30.0
176
     0
 62
     7
420
 16777215
176
     0
 90
        1
176
     0
 90
        4
176
     0
 62
     7
176
     0
 62
   257
176
     0
 90
        1
176
     0
 90
        1
176
     0
 40
1.0
176
     0
 90
       10
176
     2
 62
     7
176
     0
 40
1.0
176
     0
 90
        1
176
     0
 90
        6
176
     0
 90
        2
176
     0
 62
     7
176
     0
 90
        5
176
     0
 90
        0
176
     0
 90
        0
176
     0
290
     0
176
     0
 90
        1
176
     0
 40
0.0
176
     0
 90
        0
176
     0
290
     0
176
     0
290
     1
176
     0
290
     1
176
     0
290
     0
176
     0
290
     0
176
     0
290
     0
176
     0
290
     0
176
     0
290
     0
176
     0
290
     0
176
     0
 90
       50
176
     0
 40
0.0
176
     0
 40
1.0
176
     0
 90
        0
176
     0
 62
    18
420
        0
176
     0
 90
       50
176
     0
 90
        3
176
     0
 62
     5
420
      255
176
     0
290
     0
176
     0
 90
       50
176
     0
 90
       50
176
     0
 90
       50
176
     0
290
     0
176
     0
 90
       50
176
     0
 62
   256
176
     0
 40
1.0
176
     0
 90
        2
176
     0
  1
strokes_ogs.tif
176
     0
290
     0
176
     0
 40
1.0
176
     0
 40
1.0
176
     0
  0
VISUALSTYLE
  5
37
102
{ACAD_REACTORS
330
29
102
}
330
29
100
AcDbVisualStyle
  2
Linepattern
 70
    14
177
     3
291
     1
 70
    58
 90
        2
176
     1
 90
        2
176
     1
 90
        0
176
     1
 90
        0
176
     1
 40
0.6
176
     1
 40
30.0
176
     1
 62
     7
420
 16777215
176
     1
 90
        1
176
     1
 90
        4
176
     1
 62
     7
176
     1
 62
   257
176
     1
 90
        7
176
     1
 90
        7
176
     1
 40
1.0
176
     1
 90
        8
176
     1
 62
     7
176
     1
 40
1.0
176
     1
 90
        1
176
     1
 90
        6
176
     1
 90
        2
176
     1
 62
     7
176
     1
 90
        5
176
     1
 90
        0
176
     1
 90
        0
176
     1
290
     0
176
     1
 90
        1
176
     1
 40
0.0
176
     1
 90
        0
176
     1
290
     0
176
     1
290
     1
176
     1
290
     1
176
     1
290
     0
176
     1
290
     0
176
     1
290
     0
176
     1
290
     0
176
     1
290
     0
176
     1
290
     0
176
     1
 90
       50
176
     1
 40
0.0
176
     1
 40
1.0
176
     1
 90
        0
176
     1
 62
    18
420
        0
176
     1
 90
       50
176
     1
 90
        3
176
     1
 62
     5
420
      255
176
     1
290
     0
176
     1
 90
       50
176
     1
 90
       50
176
     1
 90
       50
176
     1
290
     0
176
     1
 90
       50
176
     1
 62
   256
176
     0
 40
1.0
176
     0
 90
        2
176
     1
  1
strokes_ogs.tif
176
     1
290
     0
176
     1
 40
1.0
176
     1
 40
1.0
176
     1
  0
VISUALSTYLE
  5
40
102
{ACAD_REACTORS
330
29
102
}
330
29
100
AcDbVisualStyle
  2
OverhangOff
 70
    21
177
     3
291
     1
 70
    58
 90
        2
176
     0
 90
        2
176
     0
 90
        0
176
     0
 90
        0
176
     0
 40
0.6
176
     0
 40
30.0
176
     0
 62
     7
420
 16777215
176
     0
 90
        1
176
     0
 90
        4
176
     0
 62
     7
176
     0
 62
   257
176
     0
 90
        1
176
     0
 90
        1
176
     0
 40
1.0
176
     0
 90
        9
176
     2
 62
     7
176
     0
 40
1.0
176
     0
 90
        1
176
     0
 90
        6
176
     0
 90
        2
176
     0
 62
     7
176
     0
 90
        5
176
     0
 90
        0
176
     0
 90
        0
176
     0
290
     0
176
     0
 90
        1
176
     0
 40
0.0
176
     0
 90
        0
176
     0
290
     0
176
     0
290
     1
176
     0
290
     1
176
     0
290
     0
176
     0
290
     0
176
     0
290
     0
176
     0
290
     0
176
     0
290
     0
176
     0
290
     0
176
     0
 90
       50
176
     0
 40
0.0
176
     0
 40
1.0
176
     0
 90
        0
176
     0
 62
    18
420
        0
176
     0
 90
       50
176
     0
 90
        3
176
     0
 62
     5
420
      255
176
     0
290
     0
176
     0
 90
       50
176
     0
 90
       50
176
     0
 90
       50
176
     0
290
     0
176
     0
 90
       50
176
     0
 62
   256
176
     0
 40
1.0
176
     0
 90
        2
176
     0
  1
strokes_ogs.tif
176
     0
290
     0
176
     0
 40
1.0
176
     0
 40
1.0
176
     0
  0
VISUALSTYLE
  5
33
102
{ACAD_REACTORS
330
29
102
}
330
29
100
AcDbVisualStyle
  2
Realistic
 70
     8
177
     3
291
     0
 70
    58
 90
        2
176
     1
 90
        3
176
     1
 90
        0
176
     1
 90
        2
176
     1
 40
0.6
176
     1
 40
30.0
176
     1
 62
     7
420
 16777215
176
     1
 90
        0
176
     1
 90
        0
176
     1
 62
     7
176
     1
 62
   257
176
     1
 90
        1
176
     1
 90
        1
176
     1
 40
1.0
176
     1
 90
        8
176
     1
 62
   257
176
     1
 40
1.0
176
     1
 90
        1
176
     1
 90
        6
176
     1
 90
        2
176
     1
 62
     7
176
     1
 90
        3
176
     1
 90
        0
176
     1
 90
        0
176
     1
290
     0
176
     1
 90
       13
176
     1
 40
0.0
176
     1
 90
        0
176
     1
290
     0
176
     1
290
     1
176
     1
290
     1
176
     1
290
     0
176
     1
290
     0
176
     1
290
     0
176
     1
290
     0
176
     1
290
     0
176
     1
290
     0
176
     1
 90
       50
176
     1
 40
0.0
176
     1
 40
1.0
176
     1
 90
        0
176
     1
 62
    18
420
        0
176
     1
 90
       50
176
     1
 90
        3
176
     1
 62
     5
420
      255
176
     1
290
     0
176
     1
 90
       50
176
     1
 90
       50
176
     1
 90
       50
176
     1
290
     0
176
     1
 90
       50
176
     1
 62
   256
176
     0
 40
1.0
176
     0
 90
        2
176
     1
  1
strokes_ogs.tif
176
     1
290
     0
176
     1
 40
1.0
176
     1
 40
1.0
176
     1
  0
VISUALSTYLE
  5
3E
102
{ACAD_REACTORS
330
29
102
}
330
29
100
AcDbVisualStyle
  2
Shaded
 70
    27
177
     3
291
     0
 70
    58
 90
        2
176
     1
 90
        2
176
     1
 90
        1
176
     1
 90
        2
176
     1
 40
0.6
176
     1
 40
30.0
176
     1
 62
     7
420
 16777215
176
     1
 90
        0
176
     1
 90
        4
176
     1
 62
     7
176
     1
 62
   257
176
     1
 90
        1
176
     1
 90
        1
176
     1
 40
1.0
176
     1
 90
        8
176
     1
 62
   257
176
     1
 40
1.0
176
     1
 90
        1
176
     1
 90
        6
176
     1
 90
        2
176
     1
 62
     8
420
  7895160
176
     1
 90
        3
176
     1
 90
        0
176
     1
 90
        0
176
     1
290
     0
176
     1
 90
        5
176
     1
 40
0.0
176
     1
 90
        0
176
     1
290
     0
176
     1
290
     1
176
     1
290
     1
176
     1
290
     0
176
     1
290
     0
176
     1
290
     0
176
     1
290
     0
176
     1
290
     0
176
     1
290
     0
176
     1
 90
       50
176
     1
 40
0.0
176
     1
 40
1.0
176
     1
 90
        0
176
     1
 62
    18
420
        0
176
     1
 90
       50
176
     1
 90
        3
176
     1
 62
     5
420
      255
176
     1
290
     0
176
     1
 90
       50
176
     1
 90
       50
176
     1
 90
       50
176
     1
290
     0
176
     1
 90
       50
176
     1
 62
   256
176
     0
 40
1.0
176
     0
 90
        2
176
     1
  1
strokes_ogs.tif
176
     1
290
     0
176
     1
 40
1.0
176
     1
 40
1.0
176
     1
  0
VISUALSTYLE
  5
3D
102
{ACAD_REACTORS
330
29
102
}
330
29
100
AcDbVisualStyle
  2
Shaded with edges
 70
    26
177
     3
291
     0
 70
    58
 90
        2
176
     1
 90
        2
176
     1
 90
        1
176
     1
 90
        2
176
     1
 40
0.6
176
     1
 40
30.0
176
     1
 62
     7
420
 16777215
176
     1
 90
        1
176
     1
 90
        2
176
     1
 62
     7
176
     1
 62
   257
176
     1
 90
        2
176
     1
 90
        1
176
     1
 40
1.0
176
     1
 90
        8
176
     1
 62
   257
176
     1
 40
1.0
176
     1
 90
        1
176
     1
 90
        6
176
     1
 90
        2
176
     1
 62
     7
176
     1
 90
        3
176
     1
 90
        0
176
     1
 90
        0
176
     1
290
     0
176
     1
 90
        5
176
     1
 40
0.0
176
     1
 90
        0
176
     1
290
     0
176
     1
290
     1
176
     1
290
     1
176
     1
290
     0
176
     1
290
     0
176
     1
290
     0
176
     1
290
     0
176
     1
290
     0
176
     1
290
     0
176
     1
 90
       50
176
     1
 40
0.0
176
     1
 40
1.0
176
     1
 90
        0
176
     1
 62
    18
420
        0
176
     1
 90
       50
176
     1
 90
        3
176
     1
 62
     5
420
      255
176
     1
290
     0
176
     1
 90
       50
176
     1
 90
       50
176
     1
 90
       50
176
     1
290
     0
176
     1
 90
       50
176
     1
 62
   256
176
     0
 40
1.0
176
     0
 90
        2
176
     1
  1
strokes_ogs.tif
176
     1
290
     0
176
     1
 40
1.0
176
     1
 40
1.0
176
     1
  0
VISUALSTYLE
  5
3A
102
{ACAD_REACTORS
330
29
102
}
330
29
100
AcDbVisualStyle
  2
Shades of Gray
 70
    23
177
     3
291
     0
 70
    58
 90
        2
176
     1
 90
        2
176
     1
 90
        3
176
     1
 90
        0
176
     1
 40
0.6
176
     1
 40
30.0
176
     1
 62
     7
420
 16777215
176
     1
 90
        2
176
     1
 90
        2
176
     1
 62
     7
176
     1
 62
     7
176
     1
 90
        1
176
     1
 90
        1
176
     1
 40
40.0
176
     1
 90
        8
176
     1
 62
     7
176
     1
 40
1.0
176
     1
 90
        1
176
     1
 90
        6
176
     1
 90
        2
176
     1
 62
     7
176
     1
 90
        3
176
     1
 90
        0
176
     1
 90
        0
176
     1
290
     0
176
     1
 90
        1
176
     1
 40
0.0
176
     1
 90
        0
176
     1
290
     0
176
     1
290
     1
176
     1
290
     1
176
     1
290
     0
176
     1
290
     0
176
     1
290
     0
176
     1
290
     0
176
     1
290
     0
176
     1
290
     0
176
     1
 90
       50
176
     1
 40
0.0
176
     1
 40
1.0
176
     1
 90
        0
176
     1
 62
    18
420
        0
176
     1
 90
       50
176
     1
 90
        3
176
     1
 62
     5
420
      255
176
     1
290
     0
176
     1
 90
       50
176
     1
 90
       50
176
     1
 90
       50
176
     1
290
     0
176
     1
 90
       50
176
     1
 62
   256
176
     0
 40
1.0
176
     0
 90
        2
176
     1
  1
strokes_ogs.tif
176
     1
290
     0
176
     1
 40
1.0
176
     1
 40
1.0
176
     1
  0
VISUALSTYLE
  5
3B
102
{ACAD_REACTORS
330
29
102
}
330
29
100
AcDbVisualStyle
  2
Sketchy
 70
    24
177
     3
291
     0
 70
    58
 90
        1
176
     1
 90
        2
176
     1
 90
        2
176
     1
 90
        0
176
     1
 40
0.6
176
     1
 40
30.0
176
     1
 62
     7
420
 16777215
176
     1
 90
        2
176
     1
 90
        2
176
     1
 62
     7
176
     1
 62
     7
176
     1
 90
        1
176
     1
 90
        1
176
     1
 40
40.0
176
     1
 90
       11
176
     1
 62
     7
176
     1
 40
1.0
176
     1
 90
        1
176
     1
 90
        6
176
     1
 90
        2
176
     1
 62
     7
176
     1
 90
        6
176
     1
 90
        0
176
     1
 90
        0
176
     1
290
     0
176
     1
 90
        1
176
     1
 40
0.0
176
     1
 90
        0
176
     1
290
     0
176
     1
290
     1
176
     1
290
     1
176
     1
290
     0
176
     1
290
     0
176
     1
290
     0
176
     1
290
     0
176
     1
290
     0
176
     1
290
     0
176
     1
 90
       50
176
     1
 40
0.0
176
     1
 40
1.0
176
     1
 90
        0
176
     1
 62
    18
420
        0
176
     1
 90
       50
176
     1
 90
        3
176
     1
 62
     5
420
      255
176
     1
290
     0
176
     1
 90
       50
176
     1
 90
       50
176
     1
 90
       50
176
     1
290
     0
176
     1
 90
       50
176
     1
 62
   256
176
     0
 40
1.0
176
     0
 90
        2
176
     1
  1
strokes_ogs.tif
176
     1
290
     0
176
     1
 40
1.0
176
     1
 40
1.0
176
     1
  0
VISUALSTYLE
  5
36
102
{ACAD_REACTORS
330
29
102
}
330
29
100
AcDbVisualStyle
  2
Thicken
 70
    13
177
     3
291
     1
 70
    58
 90
        2
176
     1
 90
        2
176
     1
 90
        0
176
     1
 90
        0
176
     1
 40
0.6
176
     1
 40
30.0
176
     1
 62
     7
420
 16777215
176
     1
 90
        1
176
     1
 90
        4
176
     1
 62
     7
176
     1
 62
   257
176
     1
 90
        1
176
     1
 90
        1
176
     1
 40
1.0
176
     1
 90
       12
176
     1
 62
     7
176
     1
 40
1.0
176
     1
 90
        1
176
     1
 90
        6
176
     1
 90
        2
176
     1
 62
     7
176
     1
 90
        5
176
     1
 90
        0
176
     1
 90
        0
176
     1
290
     0
176
     1
 90
        1
176
     1
 40
0.0
176
     1
 90
        0
176
     1
290
     0
176
     1
290
     1
176
     1
290
     1
176
     1
290
     0
176
     1
290
     0
176
     1
290
     0
176
     1
290
     0
176
     1
290
     0
176
     1
290
     0
176
     1
 90
       50
176
     1
 40
0.0
176
     1
 40
1.0
176
     1
 90
        0
176
     1
 62
    18
420
        0
176
     1
 90
       50
176
     1
 90
        3
176
     1
 62
     5
420
      255
176
     1
290
     0
176
     1
 90
       50
176
     1
 90
       50
176
     1
 90
       50
176
     1
290
     0
176
     1
 90
       50
176
     1
 62
   256
176
     0
 40
1.0
176
     0
 90
        2
176
     1
  1
strokes_ogs.tif
176
     1
290
     0
176
     1
 40
1.0
176
     1
 40
1.0
176
     1
  0
VISUALSTYLE
  5
30
102
{ACAD_REACTORS
330
29
102
}
330
29
100
AcDbVisualStyle
  2
Wireframe
 70
     5
177
     3
291
     0
 70
    58
 90
        0
176
     1
 90
        2
176
     1
 90
        0
176
     1
 90
        0
176
     1
 40
0.6
176
     1
 40
30.0
176
     1
 62
     7
420
 16777215
176
     1
 90
        1
176
     1
 90
        4
176
     1
 62
     7
176
     1
 62
   257
176
     1
 90
        1
176
     1
 90
        1
176
     1
 40
1.0
176
     1
 90
        0
176
     1
 62
   257
176
     1
 40
1.0
176
     1
 90
        1
176
     1
 90
        6
176
     1
 90
        2
176
     1
 62
     7
176
     1
 90
        3
176
     1
 90
        0
176
     1
 90
        0
176
     1
290
     0
176
     1
 90
        1
176
     1
 40
0.0
176
     1
 90
        0
176
     1
290
     0
176
     1
290
     1
176
     1
290
     1
176
     1
290
     0
176
     1
290
     0
176
     1
290
     0
176
     1
290
     0
176
     1
290
     0
176
     1
290
     0
176
     1
 90
       50
176
     1
 40
0.0
176
     1
 40
1.0
176
     1
 90
        0
176
     1
 62
    18
420
        0
176
     1
 90
       50
176
     1
 90
        3
176
     1
 62
     5
420
      255
176
     1
290
     0
176
     1
 90
       50
176
     1
 90
       50
176
     1
 90
       50
176
     1
290
     0
176
     1
 90
       50
176
     1
 62
   256
176
     0
 40
1.0
176
     0
 90
        2
176
     1
  1
strokes_ogs.tif
176
     1
290
     0
176
     1
 40
1.0
176
     1
 40
1.0
176
     1
  0
VISUALSTYLE
  5
3C
102
{ACAD_REACTORS
330
29
102
}
330
29
100
AcDbVisualStyle
  2
X-Ray
 70
    25
177
     3
291
     0
 70
    58
 90
        2
176
     1
 90
        2
176
     1
 90
        1
176
     1
 90
        1
176
     1
 40
0.5
176
     1
 40
30.0
176
     1
 62
     7
420
 16777215
176
     1
 90
        1
176
     1
 90
        0
176
     1
 62
     7
176
     1
 62
   257
176
     1
 90
        1
176
     1
 90
        1
176
     1
 40
1.0
176
     1
 90
        8
176
     1
 62
     7
176
     1
 40
1.0
176
     1
 90
        1
176
     1
 90
        6
176
     1
 90
        2
176
     1
 62
     7
176
     1
 90
        3
176
     1
 90
        0
176
     1
 90
        0
176
     1
290
     0
176
     1
 90
       13
176
     1
 40
0.0
176
     1
 90
        0
176
     1
290
     0
176
     1
290
     1
176
     1
290
     1
176
     1
290
     0
176
     1
290
     0
176
     1
290
     0
176
     1
290
     0
176
     1
290
     0
176
     1
290
     0
176
     1
 90
       50
176
     1
 40
0.0
176
     1
 40
1.0
176
     1
 90
        0
176
     1
 62
    18
420
        0
176
     1
 90
       50
176
     1
 90
        3
176
     1
 62
     5
420
      255
176
     1
290
     0
176
     1
 90
       50
176
     1
 90
       50
176
     1
 90
       50
176
     1
290
     0
176
     1
 90
       50
176
     1
 62
   256
176
     0
 40
1.0
176
     0
 90
        2
176
     1
  1
strokes_ogs.tif
176
     1
290
     0
176
     1
 40
1.0
176
     1
 40
1.0
176
     1
  0
DICTIONARYVAR
  5
397
102
{ACAD_REACTORS
330
392
102
}
330
392
100
DictionaryVariables
280
     0
  1
1:1
  0
DICTIONARYVAR
  5
394
102
{ACAD_REACTORS
330
392
102
}
330
392
100
DictionaryVariables
280
     0
  1
STANDARD
  0
DICTIONARYVAR
  5
393
102
{ACAD_REACTORS
330
392
102
}
330
392
100
DictionaryVariables
280
     0
  1
STANDARD
  0
DICTIONARYVAR
  5
395
102
{ACAD_REACTORS
330
392
102
}
330
392
100
DictionaryVariables
280
     0
  1
Imperial24
  0
DICTIONARYVAR
  5
396
102
{ACAD_REACTORS
330
392
102
}
330
392
100
DictionaryVariables
280
     0
  1
Imperial24
  0
DICTIONARY
  5
1A
330
19
100
AcDbDictionary
280
     1
281
     1
  3
BUMPTILE
360
1C
  3
DIFFUSETILE
360
1B
  3
OPACITYTILE
360
1F
  3
REFLECTIONTILE
360
1E
  3
REFRACTIONTILE
360
20
  3
SPECULARTILE
360
1D
  0
DICTIONARY
  5
12
330
11
100
AcDbDictionary
280
     1
281
     1
  3
BUMPTILE
360
14
  3
DIFFUSETILE
360
13
  3
OPACITYTILE
360
17
  3
REFLECTIONTILE
360
16
  3
REFRACTIONTILE
360
18
  3
SPECULARTILE
360
15
  0
DICTIONARY
  5
22
330
21
100
AcDbDictionary
280
     1
281
     1
  3
BUMPTILE
360
24
  3
DIFFUSETILE
360
23
  3
OPACITYTILE
360
27
  3
REFLECTIONTILE
360
26
  3
REFRACTIONTILE
360
28
  3
SPECULARTILE
360
25
  0
DICTIONARY
  5
398
330
65
100
AcDbDictionary
280
     1
281
     1
  3
ACAD_ROUNDTRIP_2008_TABLESTYLE_CELLSTYLEMAP
360
399
  0
XRECORD
  5
1C
102
{ACAD_REACTORS
330
1A
102
}
330
1A
100
AcDbXrecord
280
     1
270
     1
271
     1
  0
XRECORD
  5
1B
102
{ACAD_REACTORS
330
1A
102
}
330
1A
100
AcDbXrecord
280
     1
270
     1
271
     1
  0
XRECORD
  5
1F
102
{ACAD_REACTORS
330
1A
102
}
330
1A
100
AcDbXrecord
280
     1
270
     1
271
     1
  0
XRECORD
  5
1E
102
{ACAD_REACTORS
330
1A
102
}
330
1A
100
AcDbXrecord
280
     1
270
     1
271
     1
  0
XRECORD
  5
20
102
{ACAD_REACTORS
330
1A
102
}
330
1A
100
AcDbXrecord
280
     1
270
     1
271
     1
  0
XRECORD
  5
1D
102
{ACAD_REACTORS
330
1A
102
}
330
1A
100
AcDbXrecord
280
     1
270
     1
271
     1
  0
XRECORD
  5
14
102
{ACAD_REACTORS
330
12
102
}
330
12
100
AcDbXrecord
280
     1
270
     1
271
     1
  0
XRECORD
  5
13
102
{ACAD_REACTORS
330
12
102
}
330
12
100
AcDbXrecord
280
     1
270
     1
271
     1
  0
XRECORD
  5
17
102
{ACAD_REACTORS
330
12
102
}
330
12
100
AcDbXrecord
280
     1
270
     1
271
     1
  0
XRECORD
  5
16
102
{ACAD_REACTORS
330
12
102
}
330
12
100
AcDbXrecord
280
     1
270
     1
271
     1
  0
XRECORD
  5
18
102
{ACAD_REACTORS
330
12
102
}
330
12
100
AcDbXrecord
280
     1
270
     1
271
     1
  0
XRECORD
  5
15
102
{ACAD_REACTORS
330
12
102
}
330
12
100
AcDbXrecord
280
     1
270
     1
271
     1
  0
XRECORD
  5
24
102
{ACAD_REACTORS
330
22
102
}
330
22
100
AcDbXrecord
280
     1
270
     1
271
     1
  0
XRECORD
  5
23
102
{ACAD_REACTORS
330
22
102
}
330
22
100
AcDbXrecord
280
     1
270
     1
271
     1
  0
XRECORD
  5
27
102
{ACAD_REACTORS
330
22
102
}
330
22
100
AcDbXrecord
280
     1
270
     1
271
     1
  0
XRECORD
  5
26
102
{ACAD_REACTORS
330
22
102
}
330
22
100
AcDbXrecord
280
     1
270
     1
271
     1
  0
XRECORD
  5
28
102
{ACAD_REACTORS
330
22
102
}
330
22
100
AcDbXrecord
280
     1
270
     1
271
     1
  0
XRECORD
  5
25
102
{ACAD_REACTORS
330
22
102
}
330
22
100
AcDbXrecord
280
     1
270
     1
271
     1
  0
CELLSTYLEMAP
  5
399
102
{ACAD_REACTORS
330
398
102
}
330
398
100
AcDbCellStyleMap
 90
        3
300
CELLSTYLE
  1
TABLEFORMAT_BEGIN
 90
        5
170
     1
 91
        0
 92
    32768
 62
   257
 93
        1
300
CONTENTFORMAT
  1
CONTENTFORMAT_BEGIN
 90
        0
 91
        0
 92
      512
 93
        0
300

 40
0.0
140
1.0
 94
        5
 62
     0
340
55
144
0.25
309
CONTENTFORMAT_END
171
     0
 94
        0
309
TABLEFORMAT_END
  1
CELLSTYLE_BEGIN
 90
        1
 91
        1
300
_TITLE
309
CELLSTYLE_END
300
CELLSTYLE
  1
TABLEFORMAT_BEGIN
 90
        5
170
     1
 91
        0
 92
        0
 62
   257
 93
        1
300
CONTENTFORMAT
  1
CONTENTFORMAT_BEGIN
 90
        0
 91
        0
 92
      512
 93
        0
300

 40
0.0
140
1.0
 94
        5
 62
     0
340
55
144
0.18
309
CONTENTFORMAT_END
171
     0
 94
        0
309
TABLEFORMAT_END
  1
CELLSTYLE_BEGIN
 90
        2
 91
        1
300
_HEADER
309
CELLSTYLE_END
300
CELLSTYLE
  1
TABLEFORMAT_BEGIN
 90
        5
170
     1
 91
        0
 92
        0
 62
   257
 93
        1
300
CONTENTFORMAT
  1
CONTENTFORMAT_BEGIN
 90
        0
 91
        0
 92
      512
 93
        0
300

 40
0.0
140
1.0
 94
        2
 62
     0
340
55
144
0.18
309
CONTENTFORMAT_END
171
     0
 94
        0
309
TABLEFORMAT_END
  1
CELLSTYLE_BEGIN
 90
        3
 91
        2
300
_DATA
309
CELLSTYLE_END
  0
ENDSEC
  0
EOF
