  0
SECTION
  2
HEADER
  9
$ACADVER
  1
AC1032
  9
$ACADMAINTVER
 90
      228
  9
$DWGCODEPAGE
  3
ANSI_1252
  9
$REQUIREDVERSIONS
160
                 0
  9
$INSBASE
 10
0.0
 20
0.0
 30
0.0
  9
$EXTMIN
 10
1.000000000000000E+20
 20
1.000000000000000E+20
 30
1.000000000000000E+20
  9
$EXTMAX
 10
-1.000000000000000E+20
 20
-1.000000000000000E+20
 30
-1.000000000000000E+20
  9
$LIMMIN
 10
0.0
 20
0.0
  9
$LIMMAX
 10
12.0
 20
9.0
  9
$ORTHOMODE
 70
     0
  9
$REGENMODE
 70
     1
  9
$FILLMODE
 70
     1
  9
$QTEXTMODE
 70
     0
  9
$MIRRTEXT
 70
     0
  9
$LTSCALE
 40
1.0
  9
$ATTMODE
 70
     1
  9
$TEXTSIZE
 40
0.2
  9
$TRACEWID
 40
0.05
  9
$TEXTSTYLE
  7
Standard
  9
$CLAYER
  8
0
  9
$CELTYPE
  6
ByLayer
  9
$CECOLOR
 62
   256
  9
$CELTSCALE
 40
1.0
  9
$DISPSILH
 70
     0
  9
$DIMSCALE
 40
1.0
  9
$DIMASZ
 40
0.18
  9
$DIMEXO
 40
0.0625
  9
$DIMDLI
 40
0.38
  9
$DIMRND
 40
0.0
  9
$DIMDLE
 40
0.0
  9
$DIMEXE
 40
0.18
  9
$DIMTP
 40
0.0
  9
$DIMTM
 40
0.0
  9
$DIMTXT
 40
0.18
  9
$DIMCEN
 40
0.09
  9
$DIMTSZ
 40
0.0
  9
$DIMTOL
 70
     0
  9
$DIMLIM
 70
     0
  9
$DIMTIH
 70
     1
  9
$DIMTOH
 70
     1
  9
$DIMSE1
 70
     0
  9
$DIMSE2
 70
     0
  9
$DIMTAD
 70
     0
  9
$DIMZIN
 70
     0
  9
$DIMBLK
  1

  9
$DIMASO
 70
     1
  9
$DIMSHO
 70
     1
  9
$DIMPOST
  1

  9
$DIMAPOST
  1

  9
$DIMALT
 70
     0
  9
$DIMALTD
 70
     2
  9
$DIMALTF
 40
25.4
  9
$DIMLFAC
 40
1.0
  9
$DIMTOFL
 70
     0
  9
$DIMTVP
 40
0.0
  9
$DIMTIX
 70
     0
  9
$DIMSOXD
 70
     0
  9
$DIMSAH
 70
     0
  9
$DIMBLK1
  1

  9
$DIMBLK2
  1

  9
$DIMSTYLE
  2
Standard
  9
$DIMCLRD
 70
     0
  9
$DIMCLRE
 70
     0
  9
$DIMCLRT
 70
     0
  9
$DIMTFAC
 40
1.0
  9
$DIMGAP
 40
0.09
  9
$DIMJUST
 70
     0
  9
$DIMSD1
 70
     0
  9
$DIMSD2
 70
     0
  9
$DIMTOLJ
 70
     1
  9
$DIMTZIN
 70
     0
  9
$DIMALTZ
 70
     0
  9
$DIMALTTZ
 70
     0
  9
$DIMUPT
 70
     0
  9
$DIMDEC
 70
     4
  9
$DIMTDEC
 70
     4
  9
$DIMALTU
 70
     2
  9
$DIMALTTD
 70
     2
  9
$DIMTXSTY
  7
Standard
  9
$DIMAUNIT
 70
     0
  9
$DIMADEC
 70
     0
  9
$DIMALTRND
 40
0.0
  9
$DIMAZIN
 70
     0
  9
$DIMDSEP
 70
    46
  9
$DIMATFIT
 70
     3
  9
$DIMFRAC
 70
     0
  9
$DIMLDRBLK
  1

  9
$DIMLUNIT
 70
     2
  9
$DIMLWD
 70
    -2
  9
$DIMLWE
 70
    -2
  9
$DIMTMOVE
 70
     0
  9
$DIMFXL
 40
1.0
  9
$DIMFXLON
 70
     0
  9
$DIMJOGANG
 40
0.7853981633974483
  9
$DIMTFILL
 70
     0
  9
$DIMTFILLCLR
 70
     0
  9
$DIMARCSYM
 70
     0
  9
$DIMLTYPE
  6

  9
$DIMLTEX1
  6

  9
$DIMLTEX2
  6

  9
$DIMTXTDIRECTION
 70
     0
  9
$LUNITS
 70
     2
  9
$LUPREC
 70
     4
  9
$SKETCHINC
 40
0.1
  9
$FILLETRAD
 40
0.0
  9
$AUNITS
 70
     0
  9
$AUPREC
 70
     0
  9
$MENU
  1
.
  9
$ELEVATION
 40
0.0
  9
$PELEVATION
 40
0.0
  9
$THICKNESS
 40
0.0
  9
$LIMCHECK
 70
     0
  9
$CHAMFERA
 40
0.0
  9
$CHAMFERB
 40
0.0
  9
$CHAMFERC
 40
0.0
  9
$CHAMFERD
 40
0.0
  9
$SKPOLY
 70
     0
  9
$TDCREATE
 40
2460185.530844908
  9
$TDUCREATE
 40
2460185.489178241
  9
$TDUPDATE
 40
2460185.530844908
  9
$TDUUPDATE
 40
2460185.489178241
  9
$TDINDWG
 40
0.0000000000
  9
$TDUSRTIMER
 40
0.0000000000
  9
$USRTIMER
 70
     1
  9
$ANGBASE
 50
0.0
  9
$ANGDIR
 70
     0
  9
$PDMODE
 70
     0
  9
$PDSIZE
 40
0.0
  9
$PLINEWID
 40
0.0
  9
$SPLFRAME
 70
     0
  9
$SPLINETYPE
 70
     6
  9
$SPLINESEGS
 70
     8
  9
$HANDSEED
  5
39B
  9
$SURFTAB1
 70
     6
  9
$SURFTAB2
 70
     6
  9
$SURFTYPE
 70
     6
  9
$SURFU
 70
     6
  9
$SURFV
 70
     6
  9
$UCSBASE
  2

  9
$UCSNAME
  2

  9
$UCSORG
 10
0.0
 20
0.0
 30
0.0
  9
$UCSXDIR
 10
1.0
 20
0.0
 30
0.0
  9
$UCSYDIR
 10
0.0
 20
1.0
 30
0.0
  9
$UCSORTHOREF
  2

  9
$UCSORTHOVIEW
 70
     0
  9
$UCSORGTOP
 10
0.0
 20
0.0
 30
0.0
  9
$UCSORGBOTTOM
 10
0.0
 20
0.0
 30
0.0
  9
$UCSORGLEFT
 10
0.0
 20
0.0
 30
0.0
  9
$UCSORGRIGHT
 10
0.0
 20
0.0
 30
0.0
  9
$UCSORGFRONT
 10
0.0
 20
0.0
 30
0.0
  9
$UCSORGBACK
 10
0.0
 20
0.0
 30
0.0
  9
$PUCSBASE
  2

  9
$PUCSNAME
  2

  9
$PUCSORG
 10
0.0
 20
0.0
 30
0.0
  9
$PUCSXDIR
 10
1.0
 20
0.0
 30
0.0
  9
$PUCSYDIR
 10
0.0
 20
1.0
 30
0.0
  9
$PUCSORTHOREF
  2

  9
$PUCSORTHOVIEW
 70
     0
  9
$PUCSORGTOP
 10
0.0
 20
0.0
 30
0.0
  9
$PUCSORGBOTTOM
 10
0.0
 20
0.0
 30
0.0
  9
$PUCSORGLEFT
 10
0.0
 20
0.0
 30
0.0
  9
$PUCSORGRIGHT
 10
0.0
 20
0.0
 30
0.0
  9
$PUCSORGFRONT
 10
0.0
 20
0.0
 30
0.0
  9
$PUCSORGBACK
 10
0.0
 20
0.0
 30
0.0
  9
$USERI1
 70
     0
  9
$USERI2
 70
     0
  9
$USERI3
 70
     0
  9
$USERI4
 70
     0
  9
$USERI5
 70
     0
  9
$USERR1
 40
0.0
  9
$USERR2
 40
0.0
  9
$USERR3
 40
0.0
  9
$USERR4
 40
0.0
  9
$USERR5
 40
0.0
  9
$WORLDVIEW
 70
     1
  9
$SHADEDGE
 70
     3
  9
$SHADEDIF
 70
    70
  9
$TILEMODE
 70
     1
  9
$MAXACTVP
 70
    64
  9
$PINSBASE
 10
0.0
 20
0.0
 30
0.0
  9
$PLIMCHECK
 70
     0
  9
$PEXTMIN
 10
1.000000000000000E+20
 20
1.000000000000000E+20
 30
1.000000000000000E+20
  9
$PEXTMAX
 10
-1.000000000000000E+20
 20
-1.000000000000000E+20
 30
-1.000000000000000E+20
  9
$PLIMMIN
 10
0.0
 20
0.0
  9
$PLIMMAX
 10
12.0
 20
9.0
  9
$UNITMODE
 70
     0
  9
$VISRETAIN
 70
     1
  9
$PLINEGEN
 70
     0
  9
$PSLTSCALE
 70
     1
  9
$TREEDEPTH
 70
  3020
  9
$CMLSTYLE
  2
Standard
  9
$CMLJUST
 70
     0
  9
$CMLSCALE
 40
1.0
  9
$PROXYGRAPHICS
 70
     1
  9
$MEASUREMENT
 70
     0
  9
$CELWEIGHT
370
    -1
  9
$ENDCAPS
280
     0
  9
$JOINSTYLE
280
     0
  9
$LWDISPLAY
290
     1
  9
$INSUNITS
 70
     4
  9
$HYPERLINKBASE
  1

  9
$STYLESHEET
  1

  9
$XEDIT
290
     1
  9
$CEPSNTYPE
380
     0
  9
$PSTYLEMODE
290
     1
  9
$FINGERPRINTGUID
  2
{FDC8181A-EFD4-6E49-B589-2B2A3EDB4366}
  9
$VERSIONGUID
  2
{1C4B8446-9529-B24C-A08C-4AFF3A38F854}
  9
$EXTNAMES
290
     1
  9
$PSVPSCALE
 40
0.0
  9
$OLESTARTUP
290
     0
  9
$SORTENTS
280
   127
  9
$INDEXCTL
280
     0
  9
$HIDETEXT
280
     1
  9
$XCLIPFRAME
280
     2
  9
$HALOGAP
280
     0
  9
$OBSCOLOR
 70
   257
  9
$OBSLTYPE
280
     0
  9
$INTERSECTIONDISPLAY
280
     0
  9
$INTERSECTIONCOLOR
 70
   257
  9
$DIMASSOC
280
     2
  9
$PROJECTNAME
  1

  9
$CAMERADISPLAY
290
     0
  9
$LENSLENGTH
 40
50.0
  9
$CAMERAHEIGHT
 40
0.0
  9
$STEPSPERSEC
 40
2.0
  9
$STEPSIZE
 40
6.0
  9
$3DDWFPREC
 40
2.0
  9
$PSOLWIDTH
 40
0.25
  9
$PSOLHEIGHT
 40
4.0
  9
$LOFTANG1
 40
1.570796326794896
  9
$LOFTANG2
 40
1.570796326794896
  9
$LOFTMAG1
 40
0.0
  9
$LOFTMAG2
 40
0.0
  9
$LOFTPARAM
 70
     7
  9
$LOFTNORMALS
280
     1
  9
$LATITUDE
 40
37.795
  9
$LONGITUDE
 40
-122.394
  9
$NORTHDIRECTION
 40
0.0
  9
$TIMEZONE
 70
 -8000
  9
$LIGHTGLYPHDISPLAY
280
     1
  9
$TILEMODELIGHTSYNCH
280
     1
  9
$CMATERIAL
347
11
  9
$SOLIDHIST
280
     0
  9
$SHOWHIST
280
     1
  9
$DWFFRAME
280
     2
  9
$DGNFRAME
280
     0
  9
$REALWORLDSCALE
290
     1
  9
$INTERFERECOLOR
 62
     1
  9
$INTERFEREOBJVS
345
33
  9
$INTERFEREVPVS
346
30
  9
$CSHADOW
280
     0
  9
$SHADOWPLANELOCATION
 40
0.0
  0
ENDSEC
  0
SECTION
  2
CLASSES
  0
CLASS
  1
ACDBDICTIONARYWDFLT
  2
AcDbDictionaryWithDefault
  3
ObjectDBX Classes
 90
        0
 91
        1
280
     0
281
     0
  0
CLASS
  1
MATERIAL
  2
AcDbMaterial
  3
ObjectDBX Classes
 90
     1153
 91
        3
280
     0
281
     0
  0
CLASS
  1
VISUALSTYLE
  2
AcDbVisualStyle
  3
ObjectDBX Classes
 90
     4095
 91
       24
280
     0
281
     0
  0
CLASS
  1
SCALE
  2
AcDbScale
  3
ObjectDBX Classes
 90
     1153
 91
       17
280
     0
281
     0
  0
CLASS
  1
TABLESTYLE
  2
AcDbTableStyle
  3
ObjectDBX Classes
 90
     4095
 91
        1
280
     0
281
     0
  0
CLASS
  1
MLEADERSTYLE
  2
AcDbMLeaderStyle
  3
ACDB_MLEADERSTYLE_CLASS
 90
     4095
 91
        1
280
     0
281
     0
  0
CLASS
  1
ACDBSECTIONVIEWSTYLE
  2
AcDbSectionViewStyle
  3
ObjectDBX Classes
 90
     1025
 91
        1
280
     0
281
     0
  0
CLASS
  1
ACDBDETAILVIEWSTYLE
  2
AcDbDetailViewStyle
  3
ObjectDBX Classes
 90
     1025
 91
        1
280
     0
281
     0
  0
CLASS
  1
DICTIONARYVAR
  2
AcDbDictionaryVar
  3
ObjectDBX Classes
 90
        0
 91
        5
280
     0
281
     0
  0
CLASS
  1
CELLSTYLEMAP
  2
AcDbCellStyleMap
  3
ObjectDBX Classes
 90
     1152
 91
        1
280
     0
281
     0
  0
ENDSEC
  0
SECTION
  2
TABLES
  0
TABLE
  2
VPORT
  5
8
330
0
100
AcDbSymbolTable
 70
     1
  0
VPORT
  5
57
330
8
100
AcDbSymbolTableRecord
100
AcDbViewportTableRecord
  2
*Active
 70
     0
 10
0.0
 20
0.0
 11
1.0
 21
1.0
 12
0.0
 22
0.0
 13
0.0
 23
0.0
 14
1.0
 24
1.0
 15
0.0
 25
0.0
 16
0.0
 26
0.0
 36
1.0
 17
49.99999998749409
 27
-49.99999998749409
 37
0.0
 40
101.9999999744879
 41
1.0
 42
50.0
 43
0.0
 44
0.0
 50
0.0
 51
0.0
 71
     0
 72
   100
 73
     1
 74
     1
 75
     0
 76
     0
 77
     0
 78
     0
281
     0
 65
     1
110
0.0
120
0.0
130
0.0
111
1.0
121
0.0
131
0.0
112
0.0
122
1.0
132
0.0
 79
     0
146
0.0
 60
     3
 61
     5
292
     1
282
     1
141
0.0
142
0.0
 63
   250
421
  3355443
  0
ENDTAB
  0
TABLE
  2
LTYPE
  5
5
330
0
100
AcDbSymbolTable
 70
     1
  0
LTYPE
  5
5B
330
5
100
AcDbSymbolTableRecord
100
AcDbLinetypeTableRecord
  2
ByBlock
 70
     0
  3

 72
    65
 73
     0
 40
0.0
  0
LTYPE
  5
5C
330
5
100
AcDbSymbolTableRecord
100
AcDbLinetypeTableRecord
  2
ByLayer
 70
     0
  3

 72
    65
 73
     0
 40
0.0
  0
LTYPE
  5
5D
330
5
100
AcDbSymbolTableRecord
100
AcDbLinetypeTableRecord
  2
Continuous
 70
     0
  3
Solid line
 72
    65
 73
     0
 40
0.0
  0
ENDTAB
  0
TABLE
  2
LAYER
  5
2
330
0
100
AcDbSymbolTable
 70
     2
  0
LAYER
  5
54
330
2
100
AcDbSymbolTableRecord
100
AcDbLayerTableRecord
  2
0
 70
     0
 62
     7
  6
Continuous
370
    -3
390
F
347
21
348
0
  0
LAYER
  5
78
330
2
100
AcDbSymbolTableRecord
100
AcDbLayerTableRecord
  2
Camada 1
 70
     0
 62
     7
  6
Continuous
370
     0
390
F
347
21
348
0
  0
ENDTAB
  0
TABLE
  2
STYLE
  5
3
330
0
100
AcDbSymbolTable
 70
     2
  0
STYLE
  5
55
330
3
100
AcDbSymbolTableRecord
100
AcDbTextStyleTableRecord
  2
Standard
 70
     0
 40
0.0
 41
1.0
 50
0.0
 71
     0
 42
0.2
  3
txt
  4

  0
STYLE
  5
5A
330
3
100
AcDbSymbolTableRecord
100
AcDbTextStyleTableRecord
  2
Annotative
 70
     0
 40
0.0
 41
1.0
 50
0.0
 71
     0
 42
0.2
  3
txt
  4

1001
AcadAnnotative
1000
AnnotativeData
1002
{
1070
     1
1070
     1
1002
}
  0
ENDTAB
  0
TABLE
  2
VIEW
  5
6
330
0
100
AcDbSymbolTable
 70
     0
  0
ENDTAB
  0
TABLE
  2
UCS
  5
7
330
0
100
AcDbSymbolTable
 70
     0
  0
ENDTAB
  0
TABLE
  2
APPID
  5
9
330
0
100
AcDbSymbolTable
 70
     2
  0
APPID
  5
56
330
9
100
AcDbSymbolTableRecord
100
AcDbRegAppTableRecord
  2
ACAD
 70
     0
  0
APPID
  5
5E
330
9
100
AcDbSymbolTableRecord
100
AcDbRegAppTableRecord
  2
AcadAnnotative
 70
     0
  0
ENDTAB
  0
TABLE
  2
DIMSTYLE
  5
A
330
0
100
AcDbSymbolTable
 70
     2
100
AcDbDimStyleTable
 71
     0
  0
DIMSTYLE
105
58
330
A
100
AcDbSymbolTableRecord
100
AcDbDimStyleTableRecord
  2
Standard
 70
     0
340
55
  0
DIMSTYLE
105
59
330
A
100
AcDbSymbolTableRecord
100
AcDbDimStyleTableRecord
  2
Annotative
 70
     0
340
55
1001
AcadAnnotative
1000
AnnotativeData
1002
{
1070
     1
1070
     1
1002
}
  0
ENDTAB
  0
TABLE
  2
BLOCK_RECORD
  5
1
330
0
100
AcDbSymbolTable
 70
     2
  0
BLOCK_RECORD
  5
70
330
1
100
AcDbSymbolTableRecord
100
AcDbBlockTableRecord
  2
*Model_Space
340
73
 70
     0
280
     1
281
     0
  0
BLOCK_RECORD
  5
6C
330
1
100
AcDbSymbolTableRecord
100
AcDbBlockTableRecord
  2
*Paper_Space
340
6F
 70
     0
280
     1
281
     0
  0
BLOCK_RECORD
  5
74
330
1
100
AcDbSymbolTableRecord
100
AcDbBlockTableRecord
  2
*Paper_Space0
340
77
 70
     0
280
     1
281
     0
  0
BLOCK_RECORD
  5
79
330
1
100
AcDbSymbolTableRecord
100
AcDbBlockTableRecord
  2
Block_0
340
0
102
{BLKREFS
331
7A
102
}
 70
     0
280
     1
281
     0
  0
ENDTAB
  0
ENDSEC
  0
SECTION
  2
BLOCKS
  0
BLOCK
  5
71
330
70
100
AcDbEntity
  8
0
100
AcDbBlockBegin
  2
*Model_Space
 70
     0
 10
0.0
 20
0.0
 30
0.0
  3
*Model_Space
  1

  0
ENDBLK
  5
72
330
70
100
AcDbEntity
  8
0
100
AcDbBlockEnd
  0
BLOCK
  5
6D
330
6C
100
AcDbEntity
 67
     1
  8
0
100
AcDbBlockBegin
  2
*Paper_Space
 70
     0
 10
0.0
 20
0.0
 30
0.0
  3
*Paper_Space
  1

  0
ENDBLK
  5
6E
330
6C
100
AcDbEntity
 67
     1
  8
0
100
AcDbBlockEnd
  0
BLOCK
  5
75
330
74
100
AcDbEntity
 67
     1
  8
0
100
AcDbBlockBegin
  2
*Paper_Space0
 70
     0
 10
0.0
 20
0.0
 30
0.0
  3
*Paper_Space0
  1

  0
ENDBLK
  5
76
330
74
100
AcDbEntity
 67
     1
  8
0
100
AcDbBlockEnd
  0
BLOCK
  5
7B
330
79
100
AcDbEntity
  8
0
100
AcDbBlockBegin
  2
Block_0
 70
     0
 10
0.0
 20
0.0
 30
0.0
  3
Block_0
  1

  0
LINE
  5
7D
330
79
100
AcDbEntity
  8
Camada 1
 62
   250
420
  1907995
370
    18
100
AcDbLine
 10
56.53813715740632
 20
-49.82705140514905
 30
0.0
 11
56.00569252301002
 21
-49.82705140514905
 31
0.0
  0
LINE
  5
7E
330
79
100
AcDbEntity
  8
Camada 1
 62
   250
420
  1907995
370
    18
100
AcDbLine
 10
56.53813715740632
 20
-49.29460677075339
 30
0.0
 11
56.53813715740632
 21
-49.82705140514905
 31
0.0
  0
LINE
  5
7F
330
79
100
AcDbEntity
  8
Camada 1
 62
   250
420
  1907995
370
    18
100
AcDbLine
 10
56.00569252301002
 20
-49.82705140514905
 30
0.0
 11
56.00569252301002
 21
-49.29460677075339
 31
0.0
  0
LINE
  5
80
330
79
100
AcDbEntity
  8
Camada 1
 62
   250
420
  1907995
370
    18
100
AcDbLine
 10
56.00569252301002
 20
-49.29460677075339
 30
0.0
 11
56.53813715740632
 21
-49.29460677075339
 31
0.0
  0
LWPOLYLINE
  5
81
330
79
100
AcDbEntity
  8
Camada 1
 62
   250
420
  1907995
370
    18
100
AcDbPolyline
 90
        9
 70
     1
 43
0.0
 10
56.3095086217344
 20
-49.59903603878004
 10
56.3095086217344
 20
-49.44651482011558
 10
56.23340130472758
 20
-49.44651482011558
 10
56.23340130472758
 20
-49.5226221371224
 10
56.15790715702367
 20
-49.5226221371224
 10
56.15790715702367
 20
-49.59903603878004
 10
56.23340130472758
 20
-49.59903603878004
 10
56.23340130472758
 20
-49.67514335578687
 10
56.3095086217344
 20
-49.67514335578687
  0
LINE
  5
82
330
79
100
AcDbEntity
  8
Camada 1
 62
   250
420
  1907995
370
    18
100
AcDbLine
 10
59.04815498581716
 20
-49.82705140514905
 30
0.0
 11
58.51571035142086
 21
-49.82705140514905
 31
0.0
  0
LINE
  5
83
330
79
100
AcDbEntity
  8
Camada 1
 62
   250
420
  1907995
370
    18
100
AcDbLine
 10
59.04815498581716
 20
-49.29460677075339
 30
0.0
 11
59.04815498581716
 21
-49.82705140514905
 31
0.0
  0
LINE
  5
84
330
79
100
AcDbEntity
  8
Camada 1
 62
   250
420
  1907995
370
    18
100
AcDbLine
 10
58.51571035142086
 20
-49.82705140514905
 30
0.0
 11
58.51571035142086
 21
-49.29460677075339
 31
0.0
  0
LINE
  5
85
330
79
100
AcDbEntity
  8
Camada 1
 62
   250
420
  1907995
370
    18
100
AcDbLine
 10
58.51571035142086
 20
-49.29460677075339
 30
0.0
 11
59.04815498581716
 21
-49.29460677075339
 31
0.0
  0
LWPOLYLINE
  5
86
330
79
100
AcDbEntity
  8
Camada 1
 62
   250
420
  1907995
370
    18
100
AcDbPolyline
 90
       11
 70
     1
 43
0.0
 10
58.89594035180351
 20
-49.59903603878004
 10
58.81983303479669
 20
-49.5226221371224
 10
58.81983303479669
 20
-49.44651482011558
 10
58.74372571778987
 20
-49.44651482011558
 10
58.74372571778987
 20
-49.5226221371224
 10
58.6679249854345
 20
-49.5226221371224
 10
58.6679249854345
 20
-49.59903603878004
 10
58.74372571778987
 20
-49.59903603878004
 10
58.74372571778987
 20
-49.67514335578687
 10
58.81983303479669
 20
-49.67514335578687
 10
58.81983303479669
 20
-49.59903603878004
  0
LINE
  5
87
330
79
100
AcDbEntity
  8
Camada 1
 62
   250
420
  1907995
370
    18
100
AcDbLine
 10
61.55817745945014
 20
-49.82705140514905
 30
0.0
 11
61.02603476448315
 21
-49.82705140514905
 31
0.0
  0
LINE
  5
88
330
79
100
AcDbEntity
  8
Camada 1
 62
   250
420
  1907995
370
    18
100
AcDbLine
 10
61.55817745945014
 20
-49.29460677075339
 30
0.0
 11
61.55817745945014
 21
-49.82705140514905
 31
0.0
  0
LINE
  5
89
330
79
100
AcDbEntity
  8
Camada 1
 62
   250
420
  1907995
370
    18
100
AcDbLine
 10
61.02603476448315
 20
-49.82705140514905
 30
0.0
 11
61.02603476448315
 21
-49.29460677075339
 31
0.0
  0
LINE
  5
8A
330
79
100
AcDbEntity
  8
Camada 1
 62
   250
420
  1907995
370
    18
100
AcDbLine
 10
61.02603476448315
 20
-49.29460677075339
 30
0.0
 11
61.55817745945014
 21
-49.29460677075339
 31
0.0
  0
LWPOLYLINE
  5
8B
330
79
100
AcDbEntity
  8
Camada 1
 62
   250
420
  1907995
370
    18
100
AcDbPolyline
 90
       12
 70
     1
 43
0.0
 10
61.40596282543649
 20
-49.59903603878004
 10
61.40596282543649
 20
-49.5226221371224
 10
61.32985550842967
 20
-49.5226221371224
 10
61.32985550842967
 20
-49.44651482011558
 10
61.25435671550234
 20
-49.44651482011558
 10
61.25435671550234
 20
-49.5226221371224
 10
61.17824939849551
 20
-49.5226221371224
 10
61.17824939849551
 20
-49.59903603878004
 10
61.25435671550234
 20
-49.59903603878004
 10
61.25435671550234
 20
-49.67514335578687
 10
61.32985550842967
 20
-49.67514335578687
 10
61.32985550842967
 20
-49.59903603878004
  0
LINE
  5
8C
330
79
100
AcDbEntity
  8
Camada 1
 62
   250
420
  1907995
370
    18
100
AcDbLine
 10
64.06850187251115
 20
-49.29460677075339
 30
0.0
 11
64.06850187251115
 21
-49.82705140514905
 31
0.0
  0
LINE
  5
8D
330
79
100
AcDbEntity
  8
Camada 1
 62
   250
420
  1907995
370
    18
100
AcDbLine
 10
64.06850187251115
 20
-49.82705140514905
 30
0.0
 11
63.53605259289399
 21
-49.82705140514905
 31
0.0
  0
LINE
  5
8E
330
79
100
AcDbEntity
  8
Camada 1
 62
   250
420
  1907995
370
    18
100
AcDbLine
 10
63.53605259289399
 20
-49.82705140514905
 30
0.0
 11
63.53605259289399
 21
-49.29460677075339
 31
0.0
  0
LINE
  5
8F
330
79
100
AcDbEntity
  8
Camada 1
 62
   250
420
  1907995
370
    18
100
AcDbLine
 10
63.53605259289399
 20
-49.29460677075339
 30
0.0
 11
64.06850187251115
 21
-49.29460677075339
 31
0.0
  0
LWPOLYLINE
  5
90
330
79
100
AcDbEntity
  8
Camada 1
 62
   250
420
  1907995
370
    18
100
AcDbPolyline
 90
       12
 70
     1
 43
0.0
 10
63.91628723849878
 20
-49.59903603878004
 10
63.91628723849878
 20
-49.5226221371224
 10
63.8398733368405
 20
-49.5226221371224
 10
63.8398733368405
 20
-49.44651482011558
 10
63.76437454391446
 20
-49.44651482011558
 10
63.76437454391446
 20
-49.5226221371224
 10
63.68826722690764
 20
-49.5226221371224
 10
63.68826722690764
 20
-49.59903603878004
 10
63.76437454391446
 20
-49.59903603878004
 10
63.76437454391446
 20
-49.67514335578687
 10
63.8398733368405
 20
-49.67514335578687
 10
63.8398733368405
 20
-49.59903603878004
  0
LINE
  5
91
330
79
100
AcDbEntity
  8
Camada 1
 62
   250
420
  1907995
370
    18
100
AcDbLine
 10
51.51779491593319
 20
-34.7696758252124
 30
0.0
 11
51.51779491593319
 21
-34.23753777546691
 31
0.0
  0
LINE
  5
92
330
79
100
AcDbEntity
  8
Camada 1
 62
   250
420
  1907995
370
    18
100
AcDbLine
 10
51.51779491593319
 20
-34.23753777546691
 30
0.0
 11
50.98534563631603
 21
-34.23753777546691
 31
0.0
  0
LINE
  5
93
330
79
100
AcDbEntity
  8
Camada 1
 62
   250
420
  1907995
370
    18
100
AcDbLine
 10
50.98534563631603
 20
-34.23753777546691
 30
0.0
 11
50.98534563631603
 21
-34.7696758252124
 31
0.0
  0
LINE
  5
94
330
79
100
AcDbEntity
  8
Camada 1
 62
   250
420
  1907995
370
    18
100
AcDbLine
 10
50.98534563631603
 20
-34.7696758252124
 30
0.0
 11
51.51779491593319
 21
-34.7696758252124
 31
0.0
  0
LWPOLYLINE
  5
95
330
79
100
AcDbEntity
  8
Camada 1
 62
   250
420
  1907995
370
    18
100
AcDbPolyline
 90
        7
 70
     1
 43
0.0
 10
51.1369517462489
 20
-34.46585972648737
 10
51.1369517462489
 20
-34.38975240948055
 10
51.21305906325573
 20
-34.38975240948055
 10
51.289472964914
 20
-34.38975240948055
 10
51.289472964914
 20
-34.54166045884274
 10
51.21305906325573
 20
-34.54166045884274
 10
51.1369517462489
 20
-34.54166045884274
  0
LINE
  5
96
330
79
100
AcDbEntity
  8
Camada 1
 62
   250
420
  1907995
370
    18
100
AcDbLine
 10
54.02781274434403
 20
-34.7696758252124
 30
0.0
 11
54.02781274434403
 21
-34.23753777546691
 31
0.0
  0
LINE
  5
97
330
79
100
AcDbEntity
  8
Camada 1
 62
   250
420
  1907995
370
    18
100
AcDbLine
 10
54.02781274434403
 20
-34.23753777546691
 30
0.0
 11
53.49536810994772
 21
-34.23753777546691
 31
0.0
  0
LINE
  5
98
330
79
100
AcDbEntity
  8
Camada 1
 62
   250
420
  1907995
370
    18
100
AcDbLine
 10
53.49536810994772
 20
-34.23753777546691
 30
0.0
 11
53.49536810994772
 21
-34.7696758252124
 31
0.0
  0
LINE
  5
99
330
79
100
AcDbEntity
  8
Camada 1
 62
   250
420
  1907995
370
    18
100
AcDbLine
 10
53.49536810994772
 20
-34.7696758252124
 30
0.0
 11
54.02781274434403
 21
-34.7696758252124
 31
0.0
  0
LWPOLYLINE
  5
9A
330
79
100
AcDbEntity
  8
Camada 1
 62
   250
420
  1907995
370
    18
100
AcDbPolyline
 90
        7
 70
     1
 43
0.0
 10
53.64788468339069
 20
-34.46585972648737
 10
53.64788468339069
 20
-34.38975240948055
 10
53.72338347631802
 20
-34.38975240948055
 10
53.79949079332484
 20
-34.38975240948055
 10
53.79949079332484
 20
-34.54166045884274
 10
53.72338347631802
 20
-34.54166045884274
 10
53.64788468339069
 20
-34.54166045884274
  0
LINE
  5
9B
330
79
100
AcDbEntity
  8
Camada 1
 62
   250
420
  1907995
370
    18
100
AcDbLine
 10
56.53813715740632
 20
-34.7696758252124
 30
0.0
 11
56.53813715740632
 21
-34.23753777546691
 31
0.0
  0
LINE
  5
9C
330
79
100
AcDbEntity
  8
Camada 1
 62
   250
420
  1907995
370
    18
100
AcDbLine
 10
56.53813715740632
 20
-34.23753777546691
 30
0.0
 11
56.00569252301002
 21
-34.23753777546691
 31
0.0
  0
LINE
  5
9D
330
79
100
AcDbEntity
  8
Camada 1
 62
   250
420
  1907995
370
    18
100
AcDbLine
 10
56.00569252301002
 20
-34.23753777546691
 30
0.0
 11
56.00569252301002
 21
-34.7696758252124
 31
0.0
  0
LINE
  5
9E
330
79
100
AcDbEntity
  8
Camada 1
 62
   250
420
  1907995
370
    18
100
AcDbLine
 10
56.00569252301002
 20
-34.7696758252124
 30
0.0
 11
56.53813715740632
 21
-34.7696758252124
 31
0.0
  0
LWPOLYLINE
  5
9F
330
79
100
AcDbEntity
  8
Camada 1
 62
   250
420
  1907995
370
    18
100
AcDbPolyline
 90
        7
 70
     1
 43
0.0
 10
56.15790715702367
 20
-34.46585972648737
 10
56.15790715702367
 20
-34.38975240948055
 10
56.23340130472758
 20
-34.38975240948055
 10
56.3095086217344
 20
-34.38975240948055
 10
56.3095086217344
 20
-34.54166045884274
 10
56.23340130472758
 20
-34.54166045884274
 10
56.15790715702367
 20
-34.54166045884274
  0
LINE
  5
A0
330
79
100
AcDbEntity
  8
Camada 1
 62
   250
420
  1907995
370
    18
100
AcDbLine
 10
59.04815498581716
 20
-34.7696758252124
 30
0.0
 11
59.04815498581716
 21
-34.23753777546691
 31
0.0
  0
LINE
  5
A1
330
79
100
AcDbEntity
  8
Camada 1
 62
   250
420
  1907995
370
    18
100
AcDbLine
 10
59.04815498581716
 20
-34.23753777546691
 30
0.0
 11
58.51571035142086
 21
-34.23753777546691
 31
0.0
  0
LINE
  5
A2
330
79
100
AcDbEntity
  8
Camada 1
 62
   250
420
  1907995
370
    18
100
AcDbLine
 10
58.51571035142086
 20
-34.23753777546691
 30
0.0
 11
58.51571035142086
 21
-34.7696758252124
 31
0.0
  0
LINE
  5
A3
330
79
100
AcDbEntity
  8
Camada 1
 62
   250
420
  1907995
370
    18
100
AcDbLine
 10
58.51571035142086
 20
-34.7696758252124
 30
0.0
 11
59.04815498581716
 21
-34.7696758252124
 31
0.0
  0
LWPOLYLINE
  5
A4
330
79
100
AcDbEntity
  8
Camada 1
 62
   250
420
  1907995
370
    18
100
AcDbPolyline
 90
       10
 70
     1
 43
0.0
 10
58.6679249854345
 20
-34.46585972648737
 10
58.6679249854345
 20
-34.38975240948055
 10
58.74372571778987
 20
-34.38975240948055
 10
58.81983303479669
 20
-34.38975240948055
 10
58.81983303479669
 20
-34.46585972648737
 10
58.89594035180351
 20
-34.46585972648737
 10
58.81983303479669
 20
-34.46585972648737
 10
58.81983303479669
 20
-34.54166045884274
 10
58.74372571778987
 20
-34.54166045884274
 10
58.6679249854345
 20
-34.54166045884274
  0
LINE
  5
A5
330
79
100
AcDbEntity
  8
Camada 1
 62
   250
420
  1907995
370
    18
100
AcDbLine
 10
61.55817745945014
 20
-34.7696758252124
 30
0.0
 11
61.55817745945014
 21
-34.23753777546691
 31
0.0
  0
LINE
  5
A6
330
79
100
AcDbEntity
  8
Camada 1
 62
   250
420
  1907995
370
    18
100
AcDbLine
 10
61.55817745945014
 20
-34.23753777546691
 30
0.0
 11
61.02603476448315
 21
-34.23753777546691
 31
0.0
  0
LINE
  5
A7
330
79
100
AcDbEntity
  8
Camada 1
 62
   250
420
  1907995
370
    18
100
AcDbLine
 10
61.02603476448315
 20
-34.23753777546691
 30
0.0
 11
61.02603476448315
 21
-34.7696758252124
 31
0.0
  0
LINE
  5
A8
330
79
100
AcDbEntity
  8
Camada 1
 62
   250
420
  1907995
370
    18
100
AcDbLine
 10
61.02603476448315
 20
-34.7696758252124
 30
0.0
 11
61.55817745945014
 21
-34.7696758252124
 31
0.0
  0
LWPOLYLINE
  5
A9
330
79
100
AcDbEntity
  8
Camada 1
 62
   250
420
  1907995
370
    18
100
AcDbPolyline
 90
        9
 70
     1
 43
0.0
 10
61.17824939849551
 20
-34.46585972648737
 10
61.17824939849551
 20
-34.38975240948055
 10
61.25435671550234
 20
-34.38975240948055
 10
61.32985550842967
 20
-34.38975240948055
 10
61.32985550842967
 20
-34.46585972648737
 10
61.40596282543649
 20
-34.46585972648737
 10
61.32985550842967
 20
-34.54166045884274
 10
61.25435671550234
 20
-34.54166045884274
 10
61.17824939849551
 20
-34.54166045884274
  0
LINE
  5
AA
330
79
100
AcDbEntity
  8
Camada 1
 62
   250
420
  1907995
370
    18
100
AcDbLine
 10
64.06850187251115
 20
-34.7696758252124
 30
0.0
 11
64.06850187251115
 21
-34.23753777546691
 31
0.0
  0
LINE
  5
AB
330
79
100
AcDbEntity
  8
Camada 1
 62
   250
420
  1907995
370
    18
100
AcDbLine
 10
64.06850187251115
 20
-34.23753777546691
 30
0.0
 11
63.53605259289399
 21
-34.23753777546691
 31
0.0
  0
LINE
  5
AC
330
79
100
AcDbEntity
  8
Camada 1
 62
   250
420
  1907995
370
    18
100
AcDbLine
 10
63.53605259289399
 20
-34.23753777546691
 30
0.0
 11
63.53605259289399
 21
-34.7696758252124
 31
0.0
  0
LINE
  5
AD
330
79
100
AcDbEntity
  8
Camada 1
 62
   250
420
  1907995
370
    18
100
AcDbLine
 10
63.53605259289399
 20
-34.7696758252124
 30
0.0
 11
64.06850187251115
 21
-34.7696758252124
 31
0.0
  0
LWPOLYLINE
  5
AE
330
79
100
AcDbEntity
  8
Camada 1
 62
   250
420
  1907995
370
    18
100
AcDbPolyline
 90
       10
 70
     1
 43
0.0
 10
63.68826722690764
 20
-34.46585972648737
 10
63.68826722690764
 20
-34.46585972648737
 10
63.76437454391446
 20
-34.38975240948055
 10
63.8398733368405
 20
-34.38975240948055
 10
63.8398733368405
 20
-34.46585972648737
 10
63.91628723849878
 20
-34.46585972648737
 10
63.91628723849878
 20
-34.54166045884274
 10
63.8398733368405
 20
-34.54166045884274
 10
63.76437454391446
 20
-34.54166045884274
 10
63.68826722690764
 20
-34.54166045884274
  0
LINE
  5
AF
330
79
100
AcDbEntity
  8
Camada 1
 62
   250
420
  1907995
370
    18
100
AcDbLine
 10
51.51779491593319
 20
-32.26027116610382
 30
0.0
 11
51.51779491593319
 21
-31.72781724126326
 31
0.0
  0
LINE
  5
B0
330
79
100
AcDbEntity
  8
Camada 1
 62
   250
420
  1907995
370
    18
100
AcDbLine
 10
51.51779491593319
 20
-31.72781724126326
 30
0.0
 11
50.98534563631603
 21
-31.72781724126326
 31
0.0
  0
LINE
  5
B1
330
79
100
AcDbEntity
  8
Camada 1
 62
   250
420
  1907995
370
    18
100
AcDbLine
 10
50.98534563631603
 20
-31.72781724126326
 30
0.0
 11
50.98534563631603
 21
-32.26027116610382
 31
0.0
  0
LINE
  5
B2
330
79
100
AcDbEntity
  8
Camada 1
 62
   250
420
  1907995
370
    18
100
AcDbLine
 10
50.98534563631603
 20
-32.26027116610382
 30
0.0
 11
51.51779491593319
 21
-32.26027116610382
 31
0.0
  0
LWPOLYLINE
  5
B3
330
79
100
AcDbEntity
  8
Camada 1
 62
   250
420
  1907995
370
    18
100
AcDbPolyline
 90
        7
 70
     1
 43
0.0
 10
51.1369517462489
 20
-31.95584189807653
 10
51.1369517462489
 20
-31.88003187527691
 10
51.21305906325573
 20
-31.88003187527691
 10
51.289472964914
 20
-31.88003187527691
 10
51.289472964914
 20
-32.03194921508336
 10
51.21305906325573
 20
-32.03194921508336
 10
51.1369517462489
 20
-32.03194921508336
  0
LINE
  5
B4
330
79
100
AcDbEntity
  8
Camada 1
 62
   250
420
  1907995
370
    18
100
AcDbLine
 10
54.02781274434403
 20
-32.26027116610382
 30
0.0
 11
54.02781274434403
 21
-31.72781724126326
 31
0.0
  0
LINE
  5
B5
330
79
100
AcDbEntity
  8
Camada 1
 62
   250
420
  1907995
370
    18
100
AcDbLine
 10
54.02781274434403
 20
-31.72781724126326
 30
0.0
 11
53.49536810994772
 21
-31.72781724126326
 31
0.0
  0
LINE
  5
B6
330
79
100
AcDbEntity
  8
Camada 1
 62
   250
420
  1907995
370
    18
100
AcDbLine
 10
53.49536810994772
 20
-31.72781724126326
 30
0.0
 11
53.49536810994772
 21
-32.26027116610382
 31
0.0
  0
LINE
  5
B7
330
79
100
AcDbEntity
  8
Camada 1
 62
   250
420
  1907995
370
    18
100
AcDbLine
 10
53.49536810994772
 20
-32.26027116610382
 30
0.0
 11
54.02781274434403
 21
-32.26027116610382
 31
0.0
  0
LWPOLYLINE
  5
B8
330
79
100
AcDbEntity
  8
Camada 1
 62
   250
420
  1907995
370
    18
100
AcDbPolyline
 90
        7
 70
     1
 43
0.0
 10
53.64788468339069
 20
-31.95584189807653
 10
53.64788468339069
 20
-31.88003187527691
 10
53.72338347631802
 20
-31.88003187527691
 10
53.79949079332484
 20
-31.88003187527691
 10
53.79949079332484
 20
-32.03194921508336
 10
53.72338347631802
 20
-32.03194921508336
 10
53.64788468339069
 20
-32.03194921508336
  0
LINE
  5
B9
330
79
100
AcDbEntity
  8
Camada 1
 62
   250
420
  1907995
370
    18
100
AcDbLine
 10
56.53813715740632
 20
-32.26027116610382
 30
0.0
 11
56.53813715740632
 21
-31.72781724126326
 31
0.0
  0
LINE
  5
BA
330
79
100
AcDbEntity
  8
Camada 1
 62
   250
420
  1907995
370
    18
100
AcDbLine
 10
56.53813715740632
 20
-31.72781724126326
 30
0.0
 11
56.00569252301002
 21
-31.72781724126326
 31
0.0
  0
LINE
  5
BB
330
79
100
AcDbEntity
  8
Camada 1
 62
   250
420
  1907995
370
    18
100
AcDbLine
 10
56.00569252301002
 20
-31.72781724126326
 30
0.0
 11
56.00569252301002
 21
-32.26027116610382
 31
0.0
  0
LINE
  5
BC
330
79
100
AcDbEntity
  8
Camada 1
 62
   250
420
  1907995
370
    18
100
AcDbLine
 10
56.00569252301002
 20
-32.26027116610382
 30
0.0
 11
56.53813715740632
 21
-32.26027116610382
 31
0.0
  0
LWPOLYLINE
  5
BD
330
79
100
AcDbEntity
  8
Camada 1
 62
   250
420
  1907995
370
    18
100
AcDbPolyline
 90
        7
 70
     1
 43
0.0
 10
56.15790715702367
 20
-31.95584189807653
 10
56.15790715702367
 20
-31.88003187527691
 10
56.23340130472758
 20
-31.88003187527691
 10
56.3095086217344
 20
-31.88003187527691
 10
56.3095086217344
 20
-32.03194921508336
 10
56.23340130472758
 20
-32.03194921508336
 10
56.15790715702367
 20
-32.03194921508336
  0
LINE
  5
BE
330
79
100
AcDbEntity
  8
Camada 1
 62
   250
420
  1907995
370
    18
100
AcDbLine
 10
59.04815498581716
 20
-32.26027116610382
 30
0.0
 11
59.04815498581716
 21
-31.72781724126326
 31
0.0
  0
LINE
  5
BF
330
79
100
AcDbEntity
  8
Camada 1
 62
   250
420
  1907995
370
    18
100
AcDbLine
 10
59.04815498581716
 20
-31.72781724126326
 30
0.0
 11
58.51571035142086
 21
-31.72781724126326
 31
0.0
  0
LINE
  5
C0
330
79
100
AcDbEntity
  8
Camada 1
 62
   250
420
  1907995
370
    18
100
AcDbLine
 10
58.51571035142086
 20
-31.72781724126326
 30
0.0
 11
58.51571035142086
 21
-32.26027116610382
 31
0.0
  0
LINE
  5
C1
330
79
100
AcDbEntity
  8
Camada 1
 62
   250
420
  1907995
370
    18
100
AcDbLine
 10
58.51571035142086
 20
-32.26027116610382
 30
0.0
 11
59.04815498581716
 21
-32.26027116610382
 31
0.0
  0
LWPOLYLINE
  5
C2
330
79
100
AcDbEntity
  8
Camada 1
 62
   250
420
  1907995
370
    18
100
AcDbPolyline
 90
       10
 70
     1
 43
0.0
 10
58.6679249854345
 20
-31.95584189807653
 10
58.6679249854345
 20
-31.88003187527691
 10
58.74372571778987
 20
-31.88003187527691
 10
58.81983303479669
 20
-31.88003187527691
 10
58.81983303479669
 20
-31.95584189807653
 10
58.89594035180351
 20
-31.95584189807653
 10
58.81983303479669
 20
-31.95584189807653
 10
58.81983303479669
 20
-32.03194921508336
 10
58.74372571778987
 20
-32.03194921508336
 10
58.6679249854345
 20
-32.03194921508336
  0
LINE
  5
C3
330
79
100
AcDbEntity
  8
Camada 1
 62
   250
420
  1907995
370
    18
100
AcDbLine
 10
61.55817745945014
 20
-32.26027116610382
 30
0.0
 11
61.55817745945014
 21
-31.72781724126326
 31
0.0
  0
LINE
  5
C4
330
79
100
AcDbEntity
  8
Camada 1
 62
   250
420
  1907995
370
    18
100
AcDbLine
 10
61.55817745945014
 20
-31.72781724126326
 30
0.0
 11
61.02603476448315
 21
-31.72781724126326
 31
0.0
  0
LINE
  5
C5
330
79
100
AcDbEntity
  8
Camada 1
 62
   250
420
  1907995
370
    18
100
AcDbLine
 10
61.02603476448315
 20
-31.72781724126326
 30
0.0
 11
61.02603476448315
 21
-32.26027116610382
 31
0.0
  0
LINE
  5
C6
330
79
100
AcDbEntity
  8
Camada 1
 62
   250
420
  1907995
370
    18
100
AcDbLine
 10
61.02603476448315
 20
-32.26027116610382
 30
0.0
 11
61.55817745945014
 21
-32.26027116610382
 31
0.0
  0
LWPOLYLINE
  5
C7
330
79
100
AcDbEntity
  8
Camada 1
 62
   250
420
  1907995
370
    18
100
AcDbPolyline
 90
        9
 70
     1
 43
0.0
 10
61.17824939849551
 20
-31.95584189807653
 10
61.17824939849551
 20
-31.88003187527691
 10
61.25435671550234
 20
-31.88003187527691
 10
61.32985550842967
 20
-31.88003187527691
 10
61.32985550842967
 20
-31.95584189807653
 10
61.40596282543649
 20
-31.95584189807653
 10
61.32985550842967
 20
-32.03194921508336
 10
61.25435671550234
 20
-32.03194921508336
 10
61.17824939849551
 20
-32.03194921508336
  0
LINE
  5
C8
330
79
100
AcDbEntity
  8
Camada 1
 62
   250
420
  1907995
370
    18
100
AcDbLine
 10
64.06850187251115
 20
-32.26027116610382
 30
0.0
 11
64.06850187251115
 21
-31.72781724126326
 31
0.0
  0
LINE
  5
C9
330
79
100
AcDbEntity
  8
Camada 1
 62
   250
420
  1907995
370
    18
100
AcDbLine
 10
64.06850187251115
 20
-31.72781724126326
 30
0.0
 11
63.53605259289399
 21
-31.72781724126326
 31
0.0
  0
LINE
  5
CA
330
79
100
AcDbEntity
  8
Camada 1
 62
   250
420
  1907995
370
    18
100
AcDbLine
 10
63.53605259289399
 20
-31.72781724126326
 30
0.0
 11
63.53605259289399
 21
-32.26027116610382
 31
0.0
  0
LINE
  5
CB
330
79
100
AcDbEntity
  8
Camada 1
 62
   250
420
  1907995
370
    18
100
AcDbLine
 10
63.53605259289399
 20
-32.26027116610382
 30
0.0
 11
64.06850187251115
 21
-32.26027116610382
 31
0.0
  0
LWPOLYLINE
  5
CC
330
79
100
AcDbEntity
  8
Camada 1
 62
   250
420
  1907995
370
    18
100
AcDbPolyline
 90
       10
 70
     1
 43
0.0
 10
63.68826722690764
 20
-31.95584189807653
 10
63.68826722690764
 20
-31.95584189807653
 10
63.76437454391446
 20
-31.88003187527691
 10
63.8398733368405
 20
-31.88003187527691
 10
63.8398733368405
 20
-31.95584189807653
 10
63.91628723849878
 20
-31.95584189807653
 10
63.91628723849878
 20
-32.03194921508336
 10
63.8398733368405
 20
-32.03194921508336
 10
63.76437454391446
 20
-32.03194921508336
 10
63.68826722690764
 20
-32.03194921508336
  0
LINE
  5
CD
330
79
100
AcDbEntity
  8
Camada 1
 62
   250
420
  1907995
370
    18
100
AcDbLine
 10
51.51779491593319
 20
-29.75055063189954
 30
0.0
 11
51.51779491593319
 21
-29.21841258215469
 31
0.0
  0
LINE
  5
CE
330
79
100
AcDbEntity
  8
Camada 1
 62
   250
420
  1907995
370
    18
100
AcDbLine
 10
51.51779491593319
 20
-29.21841258215469
 30
0.0
 11
50.98534563631603
 21
-29.21841258215469
 31
0.0
  0
LINE
  5
CF
330
79
100
AcDbEntity
  8
Camada 1
 62
   250
420
  1907995
370
    18
100
AcDbLine
 10
50.98534563631603
 20
-29.21841258215469
 30
0.0
 11
50.98534563631603
 21
-29.75055063189954
 31
0.0
  0
LINE
  5
D0
330
79
100
AcDbEntity
  8
Camada 1
 62
   250
420
  1907995
370
    18
100
AcDbLine
 10
50.98534563631603
 20
-29.75055063189954
 30
0.0
 11
51.51779491593319
 21
-29.75055063189954
 31
0.0
  0
LWPOLYLINE
  5
D1
330
79
100
AcDbEntity
  8
Camada 1
 62
   250
420
  1907995
370
    18
100
AcDbPolyline
 90
        7
 70
     1
 43
0.0
 10
51.1369517462489
 20
-29.4464279485237
 10
51.1369517462489
 20
-29.37062721616833
 10
51.21305906325573
 20
-29.37062721616833
 10
51.289472964914
 20
-29.37062721616833
 10
51.289472964914
 20
-29.52253526553052
 10
51.21305906325573
 20
-29.52253526553052
 10
51.1369517462489
 20
-29.52253526553052
  0
LINE
  5
D2
330
79
100
AcDbEntity
  8
Camada 1
 62
   250
420
  1907995
370
    18
100
AcDbLine
 10
54.02781274434403
 20
-29.75055063189954
 30
0.0
 11
54.02781274434403
 21
-29.21841258215469
 31
0.0
  0
LINE
  5
D3
330
79
100
AcDbEntity
  8
Camada 1
 62
   250
420
  1907995
370
    18
100
AcDbLine
 10
54.02781274434403
 20
-29.21841258215469
 30
0.0
 11
53.49536810994772
 21
-29.21841258215469
 31
0.0
  0
LINE
  5
D4
330
79
100
AcDbEntity
  8
Camada 1
 62
   250
420
  1907995
370
    18
100
AcDbLine
 10
53.49536810994772
 20
-29.21841258215469
 30
0.0
 11
53.49536810994772
 21
-29.75055063189954
 31
0.0
  0
LINE
  5
D5
330
79
100
AcDbEntity
  8
Camada 1
 62
   250
420
  1907995
370
    18
100
AcDbLine
 10
53.49536810994772
 20
-29.75055063189954
 30
0.0
 11
54.02781274434403
 21
-29.75055063189954
 31
0.0
  0
LWPOLYLINE
  5
D6
330
79
100
AcDbEntity
  8
Camada 1
 62
   250
420
  1907995
370
    18
100
AcDbPolyline
 90
        7
 70
     1
 43
0.0
 10
53.64788468339069
 20
-29.4464279485237
 10
53.64788468339069
 20
-29.37062721616833
 10
53.72338347631802
 20
-29.37062721616833
 10
53.79949079332484
 20
-29.37062721616833
 10
53.79949079332484
 20
-29.52253526553052
 10
53.72338347631802
 20
-29.52253526553052
 10
53.64788468339069
 20
-29.52253526553052
  0
LINE
  5
D7
330
79
100
AcDbEntity
  8
Camada 1
 62
   250
420
  1907995
370
    18
100
AcDbLine
 10
56.53813715740632
 20
-29.75055063189954
 30
0.0
 11
56.53813715740632
 21
-29.21841258215469
 31
0.0
  0
LINE
  5
D8
330
79
100
AcDbEntity
  8
Camada 1
 62
   250
420
  1907995
370
    18
100
AcDbLine
 10
56.53813715740632
 20
-29.21841258215469
 30
0.0
 11
56.00569252301002
 21
-29.21841258215469
 31
0.0
  0
LINE
  5
D9
330
79
100
AcDbEntity
  8
Camada 1
 62
   250
420
  1907995
370
    18
100
AcDbLine
 10
56.00569252301002
 20
-29.21841258215469
 30
0.0
 11
56.00569252301002
 21
-29.75055063189954
 31
0.0
  0
LINE
  5
DA
330
79
100
AcDbEntity
  8
Camada 1
 62
   250
420
  1907995
370
    18
100
AcDbLine
 10
56.00569252301002
 20
-29.75055063189954
 30
0.0
 11
56.53813715740632
 21
-29.75055063189954
 31
0.0
  0
LWPOLYLINE
  5
DB
330
79
100
AcDbEntity
  8
Camada 1
 62
   250
420
  1907995
370
    18
100
AcDbPolyline
 90
        7
 70
     1
 43
0.0
 10
56.15790715702367
 20
-29.4464279485237
 10
56.15790715702367
 20
-29.37062721616833
 10
56.23340130472758
 20
-29.37062721616833
 10
56.3095086217344
 20
-29.37062721616833
 10
56.3095086217344
 20
-29.52253526553052
 10
56.23340130472758
 20
-29.52253526553052
 10
56.15790715702367
 20
-29.52253526553052
  0
LINE
  5
DC
330
79
100
AcDbEntity
  8
Camada 1
 62
   250
420
  1907995
370
    18
100
AcDbLine
 10
59.04815498581716
 20
-29.75055063189954
 30
0.0
 11
59.04815498581716
 21
-29.21841258215469
 31
0.0
  0
LINE
  5
DD
330
79
100
AcDbEntity
  8
Camada 1
 62
   250
420
  1907995
370
    18
100
AcDbLine
 10
59.04815498581716
 20
-29.21841258215469
 30
0.0
 11
58.51571035142086
 21
-29.21841258215469
 31
0.0
  0
LINE
  5
DE
330
79
100
AcDbEntity
  8
Camada 1
 62
   250
420
  1907995
370
    18
100
AcDbLine
 10
58.51571035142086
 20
-29.21841258215469
 30
0.0
 11
58.51571035142086
 21
-29.75055063189954
 31
0.0
  0
LINE
  5
DF
330
79
100
AcDbEntity
  8
Camada 1
 62
   250
420
  1907995
370
    18
100
AcDbLine
 10
58.51571035142086
 20
-29.75055063189954
 30
0.0
 11
59.04815498581716
 21
-29.75055063189954
 31
0.0
  0
LWPOLYLINE
  5
E0
330
79
100
AcDbEntity
  8
Camada 1
 62
   250
420
  1907995
370
    18
100
AcDbPolyline
 90
       10
 70
     1
 43
0.0
 10
58.6679249854345
 20
-29.4464279485237
 10
58.6679249854345
 20
-29.37062721616833
 10
58.74372571778987
 20
-29.37062721616833
 10
58.81983303479669
 20
-29.37062721616833
 10
58.81983303479669
 20
-29.4464279485237
 10
58.89594035180351
 20
-29.4464279485237
 10
58.81983303479669
 20
-29.4464279485237
 10
58.81983303479669
 20
-29.52253526553052
 10
58.74372571778987
 20
-29.52253526553052
 10
58.6679249854345
 20
-29.52253526553052
  0
LINE
  5
E1
330
79
100
AcDbEntity
  8
Camada 1
 62
   250
420
  1907995
370
    18
100
AcDbLine
 10
61.55817745945014
 20
-29.75055063189954
 30
0.0
 11
61.55817745945014
 21
-29.21841258215469
 31
0.0
  0
LINE
  5
E2
330
79
100
AcDbEntity
  8
Camada 1
 62
   250
420
  1907995
370
    18
100
AcDbLine
 10
61.55817745945014
 20
-29.21841258215469
 30
0.0
 11
61.02603476448315
 21
-29.21841258215469
 31
0.0
  0
LINE
  5
E3
330
79
100
AcDbEntity
  8
Camada 1
 62
   250
420
  1907995
370
    18
100
AcDbLine
 10
61.02603476448315
 20
-29.21841258215469
 30
0.0
 11
61.02603476448315
 21
-29.75055063189954
 31
0.0
  0
LINE
  5
E4
330
79
100
AcDbEntity
  8
Camada 1
 62
   250
420
  1907995
370
    18
100
AcDbLine
 10
61.02603476448315
 20
-29.75055063189954
 30
0.0
 11
61.55817745945014
 21
-29.75055063189954
 31
0.0
  0
LWPOLYLINE
  5
E5
330
79
100
AcDbEntity
  8
Camada 1
 62
   250
420
  1907995
370
    18
100
AcDbPolyline
 90
        9
 70
     1
 43
0.0
 10
61.17824939849551
 20
-29.4464279485237
 10
61.17824939849551
 20
-29.37062721616833
 10
61.25435671550234
 20
-29.37062721616833
 10
61.32985550842967
 20
-29.37062721616833
 10
61.32985550842967
 20
-29.4464279485237
 10
61.40596282543649
 20
-29.4464279485237
 10
61.32985550842967
 20
-29.52253526553052
 10
61.25435671550234
 20
-29.52253526553052
 10
61.17824939849551
 20
-29.52253526553052
  0
LINE
  5
E6
330
79
100
AcDbEntity
  8
Camada 1
 62
   250
420
  1907995
370
    18
100
AcDbLine
 10
64.06850187251115
 20
-29.75055063189954
 30
0.0
 11
64.06850187251115
 21
-29.21841258215469
 31
0.0
  0
LINE
  5
E7
330
79
100
AcDbEntity
  8
Camada 1
 62
   250
420
  1907995
370
    18
100
AcDbLine
 10
64.06850187251115
 20
-29.21841258215469
 30
0.0
 11
63.53605259289399
 21
-29.21841258215469
 31
0.0
  0
LINE
  5
E8
330
79
100
AcDbEntity
  8
Camada 1
 62
   250
420
  1907995
370
    18
100
AcDbLine
 10
63.53605259289399
 20
-29.21841258215469
 30
0.0
 11
63.53605259289399
 21
-29.75055063189954
 31
0.0
  0
LINE
  5
E9
330
79
100
AcDbEntity
  8
Camada 1
 62
   250
420
  1907995
370
    18
100
AcDbLine
 10
63.53605259289399
 20
-29.75055063189954
 30
0.0
 11
64.06850187251115
 21
-29.75055063189954
 31
0.0
  0
LWPOLYLINE
  5
EA
330
79
100
AcDbEntity
  8
Camada 1
 62
   250
420
  1907995
370
    18
100
AcDbPolyline
 90
       10
 70
     1
 43
0.0
 10
63.68826722690764
 20
-29.4464279485237
 10
63.68826722690764
 20
-29.4464279485237
 10
63.76437454391446
 20
-29.37062721616833
 10
63.8398733368405
 20
-29.37062721616833
 10
63.8398733368405
 20
-29.4464279485237
 10
63.91628723849878
 20
-29.4464279485237
 10
63.91628723849878
 20
-29.52253526553052
 10
63.8398733368405
 20
-29.52253526553052
 10
63.76437454391446
 20
-29.52253526553052
 10
63.68826722690764
 20
-29.52253526553052
  0
LINE
  5
EB
330
79
100
AcDbEntity
  8
Camada 1
 62
   250
420
  1907995
370
    18
100
AcDbLine
 10
54.02781274434403
 20
-27.24114597279096
 30
0.0
 11
54.02781274434403
 21
-26.7089986326025
 31
0.0
  0
LINE
  5
EC
330
79
100
AcDbEntity
  8
Camada 1
 62
   250
420
  1907995
370
    18
100
AcDbLine
 10
54.02781274434403
 20
-26.7089986326025
 30
0.0
 11
53.49536810994772
 21
-26.7089986326025
 31
0.0
  0
LINE
  5
ED
330
79
100
AcDbEntity
  8
Camada 1
 62
   250
420
  1907995
370
    18
100
AcDbLine
 10
53.49536810994772
 20
-26.7089986326025
 30
0.0
 11
53.49536810994772
 21
-27.24114597279096
 31
0.0
  0
LINE
  5
EE
330
79
100
AcDbEntity
  8
Camada 1
 62
   250
420
  1907995
370
    18
100
AcDbLine
 10
53.49536810994772
 20
-27.24114597279096
 30
0.0
 11
54.02781274434403
 21
-27.24114597279096
 31
0.0
  0
LWPOLYLINE
  5
EF
330
79
100
AcDbEntity
  8
Camada 1
 62
   250
420
  1907995
370
    18
100
AcDbPolyline
 90
        7
 70
     1
 43
0.0
 10
53.64788468339069
 20
-26.93701399897151
 10
53.64788468339069
 20
-26.86121326661551
 10
53.72338347631802
 20
-26.86121326661551
 10
53.79949079332484
 20
-26.86121326661551
 10
53.79949079332484
 20
-27.01312131597834
 10
53.72338347631802
 20
-27.01312131597834
 10
53.64788468339069
 20
-27.01312131597834
  0
LINE
  5
F0
330
79
100
AcDbEntity
  8
Camada 1
 62
   250
420
  1907995
370
    18
100
AcDbLine
 10
56.53813715740632
 20
-27.24114597279096
 30
0.0
 11
56.53813715740632
 21
-26.7089986326025
 31
0.0
  0
LINE
  5
F1
330
79
100
AcDbEntity
  8
Camada 1
 62
   250
420
  1907995
370
    18
100
AcDbLine
 10
56.53813715740632
 20
-26.7089986326025
 30
0.0
 11
56.00569252301002
 21
-26.7089986326025
 31
0.0
  0
LINE
  5
F2
330
79
100
AcDbEntity
  8
Camada 1
 62
   250
420
  1907995
370
    18
100
AcDbLine
 10
56.00569252301002
 20
-26.7089986326025
 30
0.0
 11
56.00569252301002
 21
-27.24114597279096
 31
0.0
  0
LINE
  5
F3
330
79
100
AcDbEntity
  8
Camada 1
 62
   250
420
  1907995
370
    18
100
AcDbLine
 10
56.00569252301002
 20
-27.24114597279096
 30
0.0
 11
56.53813715740632
 21
-27.24114597279096
 31
0.0
  0
LWPOLYLINE
  5
F4
330
79
100
AcDbEntity
  8
Camada 1
 62
   250
420
  1907995
370
    18
100
AcDbPolyline
 90
        7
 70
     1
 43
0.0
 10
56.15790715702367
 20
-26.93701399897151
 10
56.15790715702367
 20
-26.86121326661551
 10
56.23340130472758
 20
-26.86121326661551
 10
56.3095086217344
 20
-26.86121326661551
 10
56.3095086217344
 20
-27.01312131597834
 10
56.23340130472758
 20
-27.01312131597834
 10
56.15790715702367
 20
-27.01312131597834
  0
LINE
  5
F5
330
79
100
AcDbEntity
  8
Camada 1
 62
   250
420
  1907995
370
    18
100
AcDbLine
 10
59.04815498581716
 20
-27.24114597279096
 30
0.0
 11
59.04815498581716
 21
-26.7089986326025
 31
0.0
  0
LINE
  5
F6
330
79
100
AcDbEntity
  8
Camada 1
 62
   250
420
  1907995
370
    18
100
AcDbLine
 10
59.04815498581716
 20
-26.7089986326025
 30
0.0
 11
58.51571035142086
 21
-26.7089986326025
 31
0.0
  0
LINE
  5
F7
330
79
100
AcDbEntity
  8
Camada 1
 62
   250
420
  1907995
370
    18
100
AcDbLine
 10
58.51571035142086
 20
-26.7089986326025
 30
0.0
 11
58.51571035142086
 21
-27.24114597279096
 31
0.0
  0
LINE
  5
F8
330
79
100
AcDbEntity
  8
Camada 1
 62
   250
420
  1907995
370
    18
100
AcDbLine
 10
58.51571035142086
 20
-27.24114597279096
 30
0.0
 11
59.04815498581716
 21
-27.24114597279096
 31
0.0
  0
LWPOLYLINE
  5
F9
330
79
100
AcDbEntity
  8
Camada 1
 62
   250
420
  1907995
370
    18
100
AcDbPolyline
 90
       10
 70
     1
 43
0.0
 10
58.6679249854345
 20
-26.93701399897151
 10
58.6679249854345
 20
-26.86121326661551
 10
58.74372571778987
 20
-26.86121326661551
 10
58.81983303479669
 20
-26.86121326661551
 10
58.81983303479669
 20
-26.93701399897151
 10
58.89594035180351
 20
-26.93701399897151
 10
58.81983303479669
 20
-26.93701399897151
 10
58.81983303479669
 20
-27.01312131597834
 10
58.74372571778987
 20
-27.01312131597834
 10
58.6679249854345
 20
-27.01312131597834
  0
LINE
  5
FA
330
79
100
AcDbEntity
  8
Camada 1
 62
   250
420
  1907995
370
    18
100
AcDbLine
 10
61.55817745945014
 20
-27.24114597279096
 30
0.0
 11
61.55817745945014
 21
-26.7089986326025
 31
0.0
  0
LINE
  5
FB
330
79
100
AcDbEntity
  8
Camada 1
 62
   250
420
  1907995
370
    18
100
AcDbLine
 10
61.55817745945014
 20
-26.7089986326025
 30
0.0
 11
61.02603476448315
 21
-26.7089986326025
 31
0.0
  0
LINE
  5
FC
330
79
100
AcDbEntity
  8
Camada 1
 62
   250
420
  1907995
370
    18
100
AcDbLine
 10
61.02603476448315
 20
-26.7089986326025
 30
0.0
 11
61.02603476448315
 21
-27.24114597279096
 31
0.0
  0
LINE
  5
FD
330
79
100
AcDbEntity
  8
Camada 1
 62
   250
420
  1907995
370
    18
100
AcDbLine
 10
61.02603476448315
 20
-27.24114597279096
 30
0.0
 11
61.55817745945014
 21
-27.24114597279096
 31
0.0
  0
LWPOLYLINE
  5
FE
330
79
100
AcDbEntity
  8
Camada 1
 62
   250
420
  1907995
370
    18
100
AcDbPolyline
 90
       10
 70
     1
 43
0.0
 10
61.17824939849551
 20
-26.93701399897151
 10
61.17824939849551
 20
-26.86121326661551
 10
61.25435671550234
 20
-26.86121326661551
 10
61.32985550842967
 20
-26.86121326661551
 10
61.32985550842967
 20
-26.93701399897151
 10
61.40596282543649
 20
-26.93701399897151
 10
61.32985550842967
 20
-26.93701399897151
 10
61.32985550842967
 20
-27.01312131597834
 10
61.25435671550234
 20
-27.01312131597834
 10
61.17824939849551
 20
-27.01312131597834
  0
LINE
  5
FF
330
79
100
AcDbEntity
  8
Camada 1
 62
   250
420
  1907995
370
    18
100
AcDbLine
 10
64.06850187251115
 20
-27.24114597279096
 30
0.0
 11
64.06850187251115
 21
-26.7089986326025
 31
0.0
  0
LINE
  5
100
330
79
100
AcDbEntity
  8
Camada 1
 62
   250
420
  1907995
370
    18
100
AcDbLine
 10
64.06850187251115
 20
-26.7089986326025
 30
0.0
 11
63.53605259289399
 21
-26.7089986326025
 31
0.0
  0
LINE
  5
101
330
79
100
AcDbEntity
  8
Camada 1
 62
   250
420
  1907995
370
    18
100
AcDbLine
 10
63.53605259289399
 20
-26.7089986326025
 30
0.0
 11
63.53605259289399
 21
-27.24114597279096
 31
0.0
  0
LINE
  5
102
330
79
100
AcDbEntity
  8
Camada 1
 62
   250
420
  1907995
370
    18
100
AcDbLine
 10
63.53605259289399
 20
-27.24114597279096
 30
0.0
 11
64.06850187251115
 21
-27.24114597279096
 31
0.0
  0
LWPOLYLINE
  5
103
330
79
100
AcDbEntity
  8
Camada 1
 62
   250
420
  1907995
370
    18
100
AcDbPolyline
 90
        9
 70
     1
 43
0.0
 10
63.68826722690764
 20
-26.93701399897151
 10
63.68826722690764
 20
-26.93701399897151
 10
63.76437454391446
 20
-26.86121326661551
 10
63.8398733368405
 20
-26.86121326661551
 10
63.8398733368405
 20
-26.93701399897151
 10
63.91628723849878
 20
-26.93701399897151
 10
63.8398733368405
 20
-27.01312131597834
 10
63.76437454391446
 20
-27.01312131597834
 10
63.68826722690764
 20
-27.01312131597834
  0
LINE
  5
104
330
79
100
AcDbEntity
  8
Camada 1
 62
   250
420
  1907995
370
    18
100
AcDbLine
 10
56.53813715740632
 20
-24.73173202323813
 30
0.0
 11
56.53813715740632
 21
-24.12318007183565
 31
0.0
  0
LINE
  5
105
330
79
100
AcDbEntity
  8
Camada 1
 62
   250
420
  1907995
370
    18
100
AcDbLine
 10
56.53813715740632
 20
-24.12318007183565
 30
0.0
 11
56.00569252301002
 21
-24.12318007183565
 31
0.0
  0
LINE
  5
106
330
79
100
AcDbEntity
  8
Camada 1
 62
   250
420
  1907995
370
    18
100
AcDbLine
 10
56.00569252301002
 20
-24.12318007183565
 30
0.0
 11
56.00569252301002
 21
-24.73173202323813
 31
0.0
  0
LINE
  5
107
330
79
100
AcDbEntity
  8
Camada 1
 62
   250
420
  1907995
370
    18
100
AcDbLine
 10
56.00569252301002
 20
-24.73173202323813
 30
0.0
 11
56.53813715740632
 21
-24.73173202323813
 31
0.0
  0
LWPOLYLINE
  5
108
330
79
100
AcDbEntity
  8
Camada 1
 62
   250
420
  1907995
370
    18
100
AcDbPolyline
 90
        7
 70
     1
 43
0.0
 10
56.15790715702367
 20
-24.42730275521148
 10
56.15790715702367
 20
-24.35119543820466
 10
56.23340130472758
 20
-24.35119543820466
 10
56.3095086217344
 20
-24.35119543820466
 10
56.3095086217344
 20
-24.50341007221831
 10
56.23340130472758
 20
-24.50341007221831
 10
56.15790715702367
 20
-24.50341007221831
  0
LINE
  5
109
330
79
100
AcDbEntity
  8
Camada 1
 62
   250
420
  1907995
370
    18
100
AcDbLine
 10
59.04815498581716
 20
-24.73173202323813
 30
0.0
 11
59.04815498581716
 21
-24.12318007183565
 31
0.0
  0
LINE
  5
10A
330
79
100
AcDbEntity
  8
Camada 1
 62
   250
420
  1907995
370
    18
100
AcDbLine
 10
59.04815498581716
 20
-24.12318007183565
 30
0.0
 11
58.51571035142086
 21
-24.12318007183565
 31
0.0
  0
LINE
  5
10B
330
79
100
AcDbEntity
  8
Camada 1
 62
   250
420
  1907995
370
    18
100
AcDbLine
 10
58.51571035142086
 20
-24.12318007183565
 30
0.0
 11
58.51571035142086
 21
-24.73173202323813
 31
0.0
  0
LINE
  5
10C
330
79
100
AcDbEntity
  8
Camada 1
 62
   250
420
  1907995
370
    18
100
AcDbLine
 10
58.51571035142086
 20
-24.73173202323813
 30
0.0
 11
59.04815498581716
 21
-24.73173202323813
 31
0.0
  0
LWPOLYLINE
  5
10D
330
79
100
AcDbEntity
  8
Camada 1
 62
   250
420
  1907995
370
    18
100
AcDbPolyline
 90
       10
 70
     1
 43
0.0
 10
58.6679249854345
 20
-24.42730275521148
 10
58.6679249854345
 20
-24.35119543820466
 10
58.74372571778987
 20
-24.35119543820466
 10
58.81983303479669
 20
-24.35119543820466
 10
58.81983303479669
 20
-24.42730275521148
 10
58.89594035180351
 20
-24.42730275521148
 10
58.81983303479669
 20
-24.42730275521148
 10
58.81983303479669
 20
-24.50341007221831
 10
58.74372571778987
 20
-24.50341007221831
 10
58.6679249854345
 20
-24.50341007221831
  0
LINE
  5
10E
330
79
100
AcDbEntity
  8
Camada 1
 62
   250
420
  1907995
370
    18
100
AcDbLine
 10
61.55817745945014
 20
-24.73173202323813
 30
0.0
 11
61.55817745945014
 21
-24.12318007183565
 31
0.0
  0
LINE
  5
10F
330
79
100
AcDbEntity
  8
Camada 1
 62
   250
420
  1907995
370
    18
100
AcDbLine
 10
61.55817745945014
 20
-24.12318007183565
 30
0.0
 11
61.02603476448315
 21
-24.12318007183565
 31
0.0
  0
LINE
  5
110
330
79
100
AcDbEntity
  8
Camada 1
 62
   250
420
  1907995
370
    18
100
AcDbLine
 10
61.02603476448315
 20
-24.12318007183565
 30
0.0
 11
61.02603476448315
 21
-24.73173202323813
 31
0.0
  0
LINE
  5
111
330
79
100
AcDbEntity
  8
Camada 1
 62
   250
420
  1907995
370
    18
100
AcDbLine
 10
61.02603476448315
 20
-24.73173202323813
 30
0.0
 11
61.55817745945014
 21
-24.73173202323813
 31
0.0
  0
LWPOLYLINE
  5
112
330
79
100
AcDbEntity
  8
Camada 1
 62
   250
420
  1907995
370
    18
100
AcDbPolyline
 90
       10
 70
     1
 43
0.0
 10
61.17824939849551
 20
-24.42730275521148
 10
61.17824939849551
 20
-24.35119543820466
 10
61.25435671550234
 20
-24.35119543820466
 10
61.32985550842967
 20
-24.35119543820466
 10
61.32985550842967
 20
-24.42730275521148
 10
61.40596282543649
 20
-24.42730275521148
 10
61.32985550842967
 20
-24.42730275521148
 10
61.32985550842967
 20
-24.50341007221831
 10
61.25435671550234
 20
-24.50341007221831
 10
61.17824939849551
 20
-24.50341007221831
  0
LINE
  5
113
330
79
100
AcDbEntity
  8
Camada 1
 62
   250
420
  1907995
370
    18
100
AcDbLine
 10
64.06850187251115
 20
-24.73173202323813
 30
0.0
 11
64.06850187251115
 21
-24.12318007183565
 31
0.0
  0
LINE
  5
114
330
79
100
AcDbEntity
  8
Camada 1
 62
   250
420
  1907995
370
    18
100
AcDbLine
 10
64.06850187251115
 20
-24.12318007183565
 30
0.0
 11
63.53605259289399
 21
-24.12318007183565
 31
0.0
  0
LINE
  5
115
330
79
100
AcDbEntity
  8
Camada 1
 62
   250
420
  1907995
370
    18
100
AcDbLine
 10
63.53605259289399
 20
-24.12318007183565
 30
0.0
 11
63.53605259289399
 21
-24.73173202323813
 31
0.0
  0
LINE
  5
116
330
79
100
AcDbEntity
  8
Camada 1
 62
   250
420
  1907995
370
    18
100
AcDbLine
 10
63.53605259289399
 20
-24.73173202323813
 30
0.0
 11
64.06850187251115
 21
-24.73173202323813
 31
0.0
  0
LWPOLYLINE
  5
117
330
79
100
AcDbEntity
  8
Camada 1
 62
   250
420
  1907995
370
    18
100
AcDbPolyline
 90
        8
 70
     1
 43
0.0
 10
63.68826722690764
 20
-24.42730275521148
 10
63.68826722690764
 20
-24.35119543820466
 10
63.76437454391446
 20
-24.35119543820466
 10
63.8398733368405
 20
-24.35119543820466
 10
63.91628723849878
 20
-24.42730275521148
 10
63.8398733368405
 20
-24.50341007221831
 10
63.76437454391446
 20
-24.50341007221831
 10
63.68826722690764
 20
-24.50341007221831
  0
LINE
  5
118
330
79
100
AcDbEntity
  8
Camada 1
 62
   250
420
  1907995
370
    18
100
AcDbLine
 10
59.04815498581716
 20
-22.22202077947875
 30
0.0
 11
59.04815498581716
 21
-21.61376612228282
 31
0.0
  0
LINE
  5
119
330
79
100
AcDbEntity
  8
Camada 1
 62
   250
420
  1907995
370
    18
100
AcDbLine
 10
59.04815498581716
 20
-21.61376612228282
 30
0.0
 11
58.51571035142086
 21
-21.61376612228282
 31
0.0
  0
LINE
  5
11A
330
79
100
AcDbEntity
  8
Camada 1
 62
   250
420
  1907995
370
    18
100
AcDbLine
 10
58.51571035142086
 20
-21.61376612228282
 30
0.0
 11
58.51571035142086
 21
-22.22202077947875
 31
0.0
  0
LINE
  5
11B
330
79
100
AcDbEntity
  8
Camada 1
 62
   250
420
  1907995
370
    18
100
AcDbLine
 10
58.51571035142086
 20
-22.22202077947875
 30
0.0
 11
59.04815498581716
 21
-22.22202077947875
 31
0.0
  0
LWPOLYLINE
  5
11C
330
79
100
AcDbEntity
  8
Camada 1
 62
   250
420
  1907995
370
    18
100
AcDbPolyline
 90
       10
 70
     1
 43
0.0
 10
58.6679249854345
 20
-21.9178888056593
 10
58.6679249854345
 20
-21.84178148865247
 10
58.74372571778987
 20
-21.84178148865247
 10
58.81983303479669
 20
-21.84178148865247
 10
58.81983303479669
 20
-21.9178888056593
 10
58.89594035180351
 20
-21.9178888056593
 10
58.81983303479669
 20
-21.9178888056593
 10
58.81983303479669
 20
-21.99399612266548
 10
58.74372571778987
 20
-21.99399612266548
 10
58.6679249854345
 20
-21.99399612266548
  0
LINE
  5
11D
330
79
100
AcDbEntity
  8
Camada 1
 62
   250
420
  1907995
370
    18
100
AcDbLine
 10
61.55817745945014
 20
-22.22202077947875
 30
0.0
 11
61.55817745945014
 21
-21.61376612228282
 31
0.0
  0
LINE
  5
11E
330
79
100
AcDbEntity
  8
Camada 1
 62
   250
420
  1907995
370
    18
100
AcDbLine
 10
61.55817745945014
 20
-21.61376612228282
 30
0.0
 11
61.02603476448315
 21
-21.61376612228282
 31
0.0
  0
LINE
  5
11F
330
79
100
AcDbEntity
  8
Camada 1
 62
   250
420
  1907995
370
    18
100
AcDbLine
 10
61.02603476448315
 20
-21.61376612228282
 30
0.0
 11
61.02603476448315
 21
-22.22202077947875
 31
0.0
  0
LINE
  5
120
330
79
100
AcDbEntity
  8
Camada 1
 62
   250
420
  1907995
370
    18
100
AcDbLine
 10
61.02603476448315
 20
-22.22202077947875
 30
0.0
 11
61.55817745945014
 21
-22.22202077947875
 31
0.0
  0
LWPOLYLINE
  5
121
330
79
100
AcDbEntity
  8
Camada 1
 62
   250
420
  1907995
370
    18
100
AcDbPolyline
 90
       10
 70
     1
 43
0.0
 10
61.17824939849551
 20
-21.9178888056593
 10
61.17824939849551
 20
-21.84178148865247
 10
61.25435671550234
 20
-21.84178148865247
 10
61.32985550842967
 20
-21.84178148865247
 10
61.32985550842967
 20
-21.9178888056593
 10
61.40596282543649
 20
-21.9178888056593
 10
61.32985550842967
 20
-21.9178888056593
 10
61.32985550842967
 20
-21.99399612266548
 10
61.25435671550234
 20
-21.99399612266548
 10
61.17824939849551
 20
-21.99399612266548
  0
LINE
  5
122
330
79
100
AcDbEntity
  8
Camada 1
 62
   250
420
  1907995
370
    18
100
AcDbLine
 10
64.06850187251115
 20
-22.22202077947875
 30
0.0
 11
64.06850187251115
 21
-21.61376612228282
 31
0.0
  0
LINE
  5
123
330
79
100
AcDbEntity
  8
Camada 1
 62
   250
420
  1907995
370
    18
100
AcDbLine
 10
64.06850187251115
 20
-21.61376612228282
 30
0.0
 11
63.53605259289399
 21
-21.61376612228282
 31
0.0
  0
LINE
  5
124
330
79
100
AcDbEntity
  8
Camada 1
 62
   250
420
  1907995
370
    18
100
AcDbLine
 10
63.53605259289399
 20
-21.61376612228282
 30
0.0
 11
63.53605259289399
 21
-22.22202077947875
 31
0.0
  0
LINE
  5
125
330
79
100
AcDbEntity
  8
Camada 1
 62
   250
420
  1907995
370
    18
100
AcDbLine
 10
63.53605259289399
 20
-22.22202077947875
 30
0.0
 11
64.06850187251115
 21
-22.22202077947875
 31
0.0
  0
LWPOLYLINE
  5
126
330
79
100
AcDbEntity
  8
Camada 1
 62
   250
420
  1907995
370
    18
100
AcDbPolyline
 90
        8
 70
     1
 43
0.0
 10
63.68826722690764
 20
-21.9178888056593
 10
63.68826722690764
 20
-21.84178148865247
 10
63.76437454391446
 20
-21.84178148865247
 10
63.8398733368405
 20
-21.84178148865247
 10
63.91628723849878
 20
-21.9178888056593
 10
63.8398733368405
 20
-21.99399612266548
 10
63.76437454391446
 20
-21.99399612266548
 10
63.68826722690764
 20
-21.99399612266548
  0
LINE
  5
127
330
79
100
AcDbEntity
  8
Camada 1
 62
   250
420
  1907995
370
    18
100
AcDbLine
 10
51.51779491593319
 20
-22.22202077947875
 30
0.0
 11
51.51779491593319
 21
-21.61376612228282
 31
0.0
  0
LINE
  5
128
330
79
100
AcDbEntity
  8
Camada 1
 62
   250
420
  1907995
370
    18
100
AcDbLine
 10
51.51779491593319
 20
-21.61376612228282
 30
0.0
 11
50.98534563631603
 21
-21.61376612228282
 31
0.0
  0
LINE
  5
129
330
79
100
AcDbEntity
  8
Camada 1
 62
   250
420
  1907995
370
    18
100
AcDbLine
 10
50.98534563631603
 20
-21.61376612228282
 30
0.0
 11
50.98534563631603
 21
-22.22202077947875
 31
0.0
  0
LINE
  5
12A
330
79
100
AcDbEntity
  8
Camada 1
 62
   250
420
  1907995
370
    18
100
AcDbLine
 10
50.98534563631603
 20
-22.22202077947875
 30
0.0
 11
51.51779491593319
 21
-22.22202077947875
 31
0.0
  0
LWPOLYLINE
  5
12B
330
79
100
AcDbEntity
  8
Camada 1
 62
   250
420
  1907995
370
    18
100
AcDbPolyline
 90
        7
 70
     1
 43
0.0
 10
51.1369517462489
 20
-21.9178888056593
 10
51.1369517462489
 20
-21.84178148865247
 10
51.21305906325573
 20
-21.84178148865247
 10
51.289472964914
 20
-21.84178148865247
 10
51.289472964914
 20
-21.99399612266548
 10
51.21305906325573
 20
-21.99399612266548
 10
51.1369517462489
 20
-21.99399612266548
  0
LINE
  5
12C
330
79
100
AcDbEntity
  8
Camada 1
 62
   250
420
  1907995
370
    18
100
AcDbLine
 10
51.51779491593319
 20
-24.73173202323813
 30
0.0
 11
51.51779491593319
 21
-24.12318007183565
 31
0.0
  0
LINE
  5
12D
330
79
100
AcDbEntity
  8
Camada 1
 62
   250
420
  1907995
370
    18
100
AcDbLine
 10
51.51779491593319
 20
-24.12318007183565
 30
0.0
 11
50.98534563631603
 21
-24.12318007183565
 31
0.0
  0
LINE
  5
12E
330
79
100
AcDbEntity
  8
Camada 1
 62
   250
420
  1907995
370
    18
100
AcDbLine
 10
50.98534563631603
 20
-24.12318007183565
 30
0.0
 11
50.98534563631603
 21
-24.73173202323813
 31
0.0
  0
LINE
  5
12F
330
79
100
AcDbEntity
  8
Camada 1
 62
   250
420
  1907995
370
    18
100
AcDbLine
 10
50.98534563631603
 20
-24.73173202323813
 30
0.0
 11
51.51779491593319
 21
-24.73173202323813
 31
0.0
  0
LWPOLYLINE
  5
130
330
79
100
AcDbEntity
  8
Camada 1
 62
   250
420
  1907995
370
    18
100
AcDbPolyline
 90
        7
 70
     1
 43
0.0
 10
51.1369517462489
 20
-24.42730275521148
 10
51.1369517462489
 20
-24.35119543820466
 10
51.21305906325573
 20
-24.35119543820466
 10
51.289472964914
 20
-24.35119543820466
 10
51.289472964914
 20
-24.50341007221831
 10
51.21305906325573
 20
-24.50341007221831
 10
51.1369517462489
 20
-24.50341007221831
  0
LINE
  5
131
330
79
100
AcDbEntity
  8
Camada 1
 62
   250
420
  1907995
370
    18
100
AcDbLine
 10
51.51779491593319
 20
-27.24114597279096
 30
0.0
 11
51.51779491593319
 21
-26.7089986326025
 31
0.0
  0
LINE
  5
132
330
79
100
AcDbEntity
  8
Camada 1
 62
   250
420
  1907995
370
    18
100
AcDbLine
 10
51.51779491593319
 20
-26.7089986326025
 30
0.0
 11
50.98534563631603
 21
-26.7089986326025
 31
0.0
  0
LINE
  5
133
330
79
100
AcDbEntity
  8
Camada 1
 62
   250
420
  1907995
370
    18
100
AcDbLine
 10
50.98534563631603
 20
-26.7089986326025
 30
0.0
 11
50.98534563631603
 21
-27.24114597279096
 31
0.0
  0
LINE
  5
134
330
79
100
AcDbEntity
  8
Camada 1
 62
   250
420
  1907995
370
    18
100
AcDbLine
 10
50.98534563631603
 20
-27.24114597279096
 30
0.0
 11
51.51779491593319
 21
-27.24114597279096
 31
0.0
  0
LWPOLYLINE
  5
135
330
79
100
AcDbEntity
  8
Camada 1
 62
   250
420
  1907995
370
    18
100
AcDbPolyline
 90
        7
 70
     1
 43
0.0
 10
51.1369517462489
 20
-26.93701399897151
 10
51.1369517462489
 20
-26.86121326661551
 10
51.21305906325573
 20
-26.86121326661551
 10
51.289472964914
 20
-26.86121326661551
 10
51.289472964914
 20
-27.01312131597834
 10
51.21305906325573
 20
-27.01312131597834
 10
51.1369517462489
 20
-27.01312131597834
  0
LINE
  5
136
330
79
100
AcDbEntity
  8
Camada 1
 62
   250
420
  1907995
370
    18
100
AcDbLine
 10
54.02781274434403
 20
-22.22202077947875
 30
0.0
 11
54.02781274434403
 21
-21.61376612228282
 31
0.0
  0
LINE
  5
137
330
79
100
AcDbEntity
  8
Camada 1
 62
   250
420
  1907995
370
    18
100
AcDbLine
 10
54.02781274434403
 20
-21.61376612228282
 30
0.0
 11
53.49536810994772
 21
-21.61376612228282
 31
0.0
  0
LINE
  5
138
330
79
100
AcDbEntity
  8
Camada 1
 62
   250
420
  1907995
370
    18
100
AcDbLine
 10
53.49536810994772
 20
-21.61376612228282
 30
0.0
 11
53.49536810994772
 21
-22.22202077947875
 31
0.0
  0
LINE
  5
139
330
79
100
AcDbEntity
  8
Camada 1
 62
   250
420
  1907995
370
    18
100
AcDbLine
 10
53.49536810994772
 20
-22.22202077947875
 30
0.0
 11
54.02781274434403
 21
-22.22202077947875
 31
0.0
  0
LWPOLYLINE
  5
13A
330
79
100
AcDbEntity
  8
Camada 1
 62
   250
420
  1907995
370
    18
100
AcDbPolyline
 90
        7
 70
     1
 43
0.0
 10
53.64788468339069
 20
-21.9178888056593
 10
53.64788468339069
 20
-21.84178148865247
 10
53.72338347631802
 20
-21.84178148865247
 10
53.79949079332484
 20
-21.84178148865247
 10
53.79949079332484
 20
-21.99399612266548
 10
53.72338347631802
 20
-21.99399612266548
 10
53.64788468339069
 20
-21.99399612266548
  0
LINE
  5
13B
330
79
100
AcDbEntity
  8
Camada 1
 62
   250
420
  1907995
370
    18
100
AcDbLine
 10
54.02781274434403
 20
-24.73173202323813
 30
0.0
 11
54.02781274434403
 21
-24.12318007183565
 31
0.0
  0
LINE
  5
13C
330
79
100
AcDbEntity
  8
Camada 1
 62
   250
420
  1907995
370
    18
100
AcDbLine
 10
54.02781274434403
 20
-24.12318007183565
 30
0.0
 11
53.49536810994772
 21
-24.12318007183565
 31
0.0
  0
LINE
  5
13D
330
79
100
AcDbEntity
  8
Camada 1
 62
   250
420
  1907995
370
    18
100
AcDbLine
 10
53.49536810994772
 20
-24.12318007183565
 30
0.0
 11
53.49536810994772
 21
-24.73173202323813
 31
0.0
  0
LINE
  5
13E
330
79
100
AcDbEntity
  8
Camada 1
 62
   250
420
  1907995
370
    18
100
AcDbLine
 10
53.49536810994772
 20
-24.73173202323813
 30
0.0
 11
54.02781274434403
 21
-24.73173202323813
 31
0.0
  0
LWPOLYLINE
  5
13F
330
79
100
AcDbEntity
  8
Camada 1
 62
   250
420
  1907995
370
    18
100
AcDbPolyline
 90
        7
 70
     1
 43
0.0
 10
53.64788468339069
 20
-24.42730275521148
 10
53.64788468339069
 20
-24.35119543820466
 10
53.72338347631802
 20
-24.35119543820466
 10
53.79949079332484
 20
-24.35119543820466
 10
53.79949079332484
 20
-24.50341007221831
 10
53.72338347631802
 20
-24.50341007221831
 10
53.64788468339069
 20
-24.50341007221831
  0
LINE
  5
140
330
79
100
AcDbEntity
  8
Camada 1
 62
   250
420
  1907995
370
    18
100
AcDbLine
 10
56.53813715740632
 20
-22.22202077947875
 30
0.0
 11
56.53813715740632
 21
-21.61376612228282
 31
0.0
  0
LINE
  5
141
330
79
100
AcDbEntity
  8
Camada 1
 62
   250
420
  1907995
370
    18
100
AcDbLine
 10
56.53813715740632
 20
-21.61376612228282
 30
0.0
 11
56.00569252301002
 21
-21.61376612228282
 31
0.0
  0
LINE
  5
142
330
79
100
AcDbEntity
  8
Camada 1
 62
   250
420
  1907995
370
    18
100
AcDbLine
 10
56.00569252301002
 20
-21.61376612228282
 30
0.0
 11
56.00569252301002
 21
-22.22202077947875
 31
0.0
  0
LINE
  5
143
330
79
100
AcDbEntity
  8
Camada 1
 62
   250
420
  1907995
370
    18
100
AcDbLine
 10
56.00569252301002
 20
-22.22202077947875
 30
0.0
 11
56.53813715740632
 21
-22.22202077947875
 31
0.0
  0
LWPOLYLINE
  5
144
330
79
100
AcDbEntity
  8
Camada 1
 62
   250
420
  1907995
370
    18
100
AcDbPolyline
 90
        7
 70
     1
 43
0.0
 10
56.15790715702367
 20
-21.9178888056593
 10
56.15790715702367
 20
-21.84178148865247
 10
56.23340130472758
 20
-21.84178148865247
 10
56.3095086217344
 20
-21.84178148865247
 10
56.3095086217344
 20
-21.99399612266548
 10
56.23340130472758
 20
-21.99399612266548
 10
56.15790715702367
 20
-21.99399612266548
  0
LWPOLYLINE
  5
145
330
79
100
AcDbEntity
  8
Camada 1
 62
   250
420
  1907995
370
    18
100
AcDbPolyline
 90
        7
 70
     1
 43
0.0
 10
38.74500686407325
 20
-24.42748856409082
 10
38.74500686407325
 20
-24.35138124708464
 10
38.66889954706643
 20
-24.35138124708464
 10
38.59279223005961
 20
-24.35138124708464
 10
38.59279223005961
 20
-24.50359588109765
 10
38.66889954706643
 20
-24.50359588109765
 10
38.74500686407325
 20
-24.50359588109765
  0
LINE
  5
146
330
79
100
AcDbEntity
  8
Camada 1
 62
   250
420
  1907995
370
    18
100
AcDbLine
 10
38.36507880311928
 20
-24.12335659027137
 30
0.0
 11
38.89722149808625
 21
-24.12335659027137
 31
0.0
  0
LINE
  5
147
330
79
100
AcDbEntity
  8
Camada 1
 62
   250
420
  1907995
370
    18
100
AcDbLine
 10
38.36507880311928
 20
-24.73161124746666
 30
0.0
 11
38.36507880311928
 21
-24.12335659027137
 31
0.0
  0
LINE
  5
148
330
79
100
AcDbEntity
  8
Camada 1
 62
   250
420
  1907995
370
    18
100
AcDbLine
 10
38.89722149808625
 20
-24.12335659027137
 30
0.0
 11
38.89722149808625
 21
-24.73161124746666
 31
0.0
  0
LINE
  5
149
330
79
100
AcDbEntity
  8
Camada 1
 62
   250
420
  1907995
370
    18
100
AcDbLine
 10
38.89722149808625
 20
-24.73161124746666
 30
0.0
 11
38.36507880311928
 21
-24.73161124746666
 31
0.0
  0
LWPOLYLINE
  5
14A
330
79
100
AcDbEntity
  8
Camada 1
 62
   250
420
  1907995
370
    18
100
AcDbPolyline
 90
        7
 70
     1
 43
0.0
 10
36.23559523713149
 20
-24.42748856409082
 10
36.23559523713149
 20
-24.35138124708464
 10
36.15948792012466
 20
-24.35138124708464
 10
36.08338060311784
 20
-24.35138124708464
 10
36.08338060311784
 20
-24.50359588109765
 10
36.15948792012466
 20
-24.50359588109765
 10
36.23559523713149
 20
-24.50359588109765
  0
LINE
  5
14B
330
79
100
AcDbEntity
  8
Camada 1
 62
   250
420
  1907995
370
    18
100
AcDbLine
 10
35.85566717617815
 20
-24.12335659027137
 30
0.0
 11
36.38780987114513
 21
-24.12335659027137
 31
0.0
  0
LINE
  5
14C
330
79
100
AcDbEntity
  8
Camada 1
 62
   250
420
  1907995
370
    18
100
AcDbLine
 10
35.85566717617815
 20
-24.73161124746666
 30
0.0
 11
35.85566717617815
 21
-24.12335659027137
 31
0.0
  0
LINE
  5
14D
330
79
100
AcDbEntity
  8
Camada 1
 62
   250
420
  1907995
370
    18
100
AcDbLine
 10
36.38780987114513
 20
-24.12335659027137
 30
0.0
 11
36.38780987114513
 21
-24.73161124746666
 31
0.0
  0
LINE
  5
14E
330
79
100
AcDbEntity
  8
Camada 1
 62
   250
420
  1907995
370
    18
100
AcDbLine
 10
36.38780987114513
 20
-24.73161124746666
 30
0.0
 11
35.85566717617815
 21
-24.73161124746666
 31
0.0
  0
LWPOLYLINE
  5
14F
330
79
100
AcDbEntity
  8
Camada 1
 62
   250
420
  1907995
370
    18
100
AcDbPolyline
 90
        7
 70
     1
 43
0.0
 10
48.78295298865793
 20
-21.91776802988718
 10
48.78295298865793
 20
-21.84196729753181
 10
48.70684567165111
 20
-21.84196729753181
 10
48.6307383546443
 20
-21.84196729753181
 10
48.6307383546443
 20
-21.993875346894
 10
48.70684567165111
 20
-21.993875346894
 10
48.78295298865793
 20
-21.993875346894
  0
LINE
  5
150
330
79
100
AcDbEntity
  8
Camada 1
 62
   250
420
  1907995
370
    18
100
AcDbLine
 10
48.47913224471079
 20
-21.61364534651134
 30
0.0
 11
49.01127029445564
 21
-21.61364534651134
 31
0.0
  0
LINE
  5
151
330
79
100
AcDbEntity
  8
Camada 1
 62
   250
420
  1907995
370
    18
100
AcDbLine
 10
48.47913224471079
 20
-22.22219729791383
 30
0.0
 11
48.47913224471079
 21
-21.61364534651134
 31
0.0
  0
LINE
  5
152
330
79
100
AcDbEntity
  8
Camada 1
 62
   250
420
  1907995
370
    18
100
AcDbLine
 10
49.01127029445564
 20
-21.61364534651134
 30
0.0
 11
49.01127029445564
 21
-22.22219729791383
 31
0.0
  0
LINE
  5
153
330
79
100
AcDbEntity
  8
Camada 1
 62
   250
420
  1907995
370
    18
100
AcDbLine
 10
49.01127029445564
 20
-22.22219729791383
 30
0.0
 11
48.47913224471079
 21
-22.22219729791383
 31
0.0
  0
LWPOLYLINE
  5
154
330
79
100
AcDbEntity
  8
Camada 1
 62
   250
420
  1907995
370
    18
100
AcDbPolyline
 90
        7
 70
     1
 43
0.0
 10
46.27354136171617
 20
-21.91776802988718
 10
46.27354136171617
 20
-21.84196729753181
 10
46.19743404470935
 20
-21.84196729753181
 10
46.12132672770253
 20
-21.84196729753181
 10
46.12132672770253
 20
-21.993875346894
 10
46.19743404470935
 20
-21.993875346894
 10
46.27354136171617
 20
-21.993875346894
  0
LINE
  5
155
330
79
100
AcDbEntity
  8
Camada 1
 62
   250
420
  1907995
370
    18
100
AcDbLine
 10
45.96972061776901
 20
-21.61364534651134
 30
0.0
 11
46.501863312736
 21
-21.61364534651134
 31
0.0
  0
LINE
  5
156
330
79
100
AcDbEntity
  8
Camada 1
 62
   250
420
  1907995
370
    18
100
AcDbLine
 10
45.96972061776901
 20
-22.22219729791383
 30
0.0
 11
45.96972061776901
 21
-21.61364534651134
 31
0.0
  0
LINE
  5
157
330
79
100
AcDbEntity
  8
Camada 1
 62
   250
420
  1907995
370
    18
100
AcDbLine
 10
46.501863312736
 20
-21.61364534651134
 30
0.0
 11
46.501863312736
 21
-22.22219729791383
 31
0.0
  0
LINE
  5
158
330
79
100
AcDbEntity
  8
Camada 1
 62
   250
420
  1907995
370
    18
100
AcDbLine
 10
46.501863312736
 20
-22.22219729791383
 30
0.0
 11
45.96972061776901
 21
-22.22219729791383
 31
0.0
  0
LWPOLYLINE
  5
159
330
79
100
AcDbEntity
  8
Camada 1
 62
   250
420
  1907995
370
    18
100
AcDbPolyline
 90
        7
 70
     1
 43
0.0
 10
43.76413205738547
 20
-21.91776802988718
 10
43.76413205738547
 20
-21.84196729753181
 10
43.68802474037865
 20
-21.84196729753181
 10
43.61191742337182
 20
-21.84196729753181
 10
43.61191742337182
 20
-21.993875346894
 10
43.68802474037865
 20
-21.993875346894
 10
43.76413205738547
 20
-21.993875346894
  0
LINE
  5
15A
330
79
100
AcDbEntity
  8
Camada 1
 62
   250
420
  1907995
370
    18
100
AcDbLine
 10
43.38420399643214
 20
-21.61364534651134
 30
0.0
 11
43.9924540084053
 21
-21.61364534651134
 31
0.0
  0
LINE
  5
15B
330
79
100
AcDbEntity
  8
Camada 1
 62
   250
420
  1907995
370
    18
100
AcDbLine
 10
43.38420399643214
 20
-22.22219729791383
 30
0.0
 11
43.38420399643214
 21
-21.61364534651134
 31
0.0
  0
LINE
  5
15C
330
79
100
AcDbEntity
  8
Camada 1
 62
   250
420
  1907995
370
    18
100
AcDbLine
 10
43.9924540084053
 20
-21.61364534651134
 30
0.0
 11
43.9924540084053
 21
-22.22219729791383
 31
0.0
  0
LINE
  5
15D
330
79
100
AcDbEntity
  8
Camada 1
 62
   250
420
  1907995
370
    18
100
AcDbLine
 10
43.9924540084053
 20
-22.22219729791383
 30
0.0
 11
43.38420399643214
 21
-22.22219729791383
 31
0.0
  0
LWPOLYLINE
  5
15E
330
79
100
AcDbEntity
  8
Camada 1
 62
   250
420
  1907995
370
    18
100
AcDbPolyline
 90
        7
 70
     1
 43
0.0
 10
41.25441616840396
 20
-21.91776802988718
 10
41.25441616840396
 20
-21.84196729753181
 10
41.17830885139713
 20
-21.84196729753181
 10
41.10220153439031
 20
-21.84196729753181
 10
41.10220153439031
 20
-21.993875346894
 10
41.17830885139713
 20
-21.993875346894
 10
41.25441616840396
 20
-21.993875346894
  0
LINE
  5
15F
330
79
100
AcDbEntity
  8
Camada 1
 62
   250
420
  1907995
370
    18
100
AcDbLine
 10
40.87448810744998
 20
-21.61364534651134
 30
0.0
 11
41.40663080241695
 21
-21.61364534651134
 31
0.0
  0
LINE
  5
160
330
79
100
AcDbEntity
  8
Camada 1
 62
   250
420
  1907995
370
    18
100
AcDbLine
 10
40.87448810744998
 20
-22.22219729791383
 30
0.0
 11
40.87448810744998
 21
-21.61364534651134
 31
0.0
  0
LINE
  5
161
330
79
100
AcDbEntity
  8
Camada 1
 62
   250
420
  1907995
370
    18
100
AcDbLine
 10
41.40663080241695
 20
-21.61364534651134
 30
0.0
 11
41.40663080241695
 21
-22.22219729791383
 31
0.0
  0
LINE
  5
162
330
79
100
AcDbEntity
  8
Camada 1
 62
   250
420
  1907995
370
    18
100
AcDbLine
 10
41.40663080241695
 20
-22.22219729791383
 30
0.0
 11
40.87448810744998
 21
-22.22219729791383
 31
0.0
  0
LWPOLYLINE
  5
163
330
79
100
AcDbEntity
  8
Camada 1
 62
   250
420
  1907995
370
    18
100
AcDbPolyline
 90
        7
 70
     1
 43
0.0
 10
38.74500686407325
 20
-21.91776802988718
 10
38.74500686407325
 20
-21.84196729753181
 10
38.66889954706643
 20
-21.84196729753181
 10
38.59279223005961
 20
-21.84196729753181
 10
38.59279223005961
 20
-21.993875346894
 10
38.66889954706643
 20
-21.993875346894
 10
38.74500686407325
 20
-21.993875346894
  0
LINE
  5
164
330
79
100
AcDbEntity
  8
Camada 1
 62
   250
420
  1907995
370
    18
100
AcDbLine
 10
38.36507880311928
 20
-21.61364534651134
 30
0.0
 11
38.89722149808625
 21
-21.61364534651134
 31
0.0
  0
LINE
  5
165
330
79
100
AcDbEntity
  8
Camada 1
 62
   250
420
  1907995
370
    18
100
AcDbLine
 10
38.36507880311928
 20
-22.22219729791383
 30
0.0
 11
38.36507880311928
 21
-21.61364534651134
 31
0.0
  0
LINE
  5
166
330
79
100
AcDbEntity
  8
Camada 1
 62
   250
420
  1907995
370
    18
100
AcDbLine
 10
38.89722149808625
 20
-21.61364534651134
 30
0.0
 11
38.89722149808625
 21
-22.22219729791383
 31
0.0
  0
LINE
  5
167
330
79
100
AcDbEntity
  8
Camada 1
 62
   250
420
  1907995
370
    18
100
AcDbLine
 10
38.89722149808625
 20
-22.22219729791383
 30
0.0
 11
38.36507880311928
 21
-22.22219729791383
 31
0.0
  0
LINE
  5
168
330
79
100
AcDbEntity
  8
Camada 1
 62
   250
420
  1907995
370
    18
100
AcDbLine
 10
35.85566717617815
 20
-21.61364534651134
 30
0.0
 11
36.38780987114513
 21
-21.61364534651134
 31
0.0
  0
LINE
  5
169
330
79
100
AcDbEntity
  8
Camada 1
 62
   250
420
  1907995
370
    18
100
AcDbLine
 10
35.85566717617815
 20
-22.22219729791383
 30
0.0
 11
35.85566717617815
 21
-21.61364534651134
 31
0.0
  0
LINE
  5
16A
330
79
100
AcDbEntity
  8
Camada 1
 62
   250
420
  1907995
370
    18
100
AcDbLine
 10
36.38780987114513
 20
-21.61364534651134
 30
0.0
 11
36.38780987114513
 21
-22.22219729791383
 31
0.0
  0
LINE
  5
16B
330
79
100
AcDbEntity
  8
Camada 1
 62
   250
420
  1907995
370
    18
100
AcDbLine
 10
36.38780987114513
 20
-22.22219729791383
 30
0.0
 11
35.85566717617815
 21
-22.22219729791383
 31
0.0
  0
LWPOLYLINE
  5
16C
330
79
100
AcDbEntity
  8
Camada 1
 62
   250
420
  1907995
370
    18
100
AcDbPolyline
 90
        7
 70
     1
 43
0.0
 10
36.23559523713149
 20
-21.91776802988718
 10
36.23559523713149
 20
-21.84196729753181
 10
36.15948792012466
 20
-21.84196729753181
 10
36.08338060311784
 20
-21.84196729753181
 10
36.08338060311784
 20
-21.993875346894
 10
36.15948792012466
 20
-21.993875346894
 10
36.23559523713149
 20
-21.993875346894
  0
LINE
  5
16D
330
79
100
AcDbEntity
  8
Camada 1
 62
   250
420
  1907995
370
    18
100
AcDbLine
 10
51.52098618343747
 20
-37.27957287785113
 30
0.0
 11
50.9888434884705
 21
-37.27957287785113
 31
0.0
  0
LINE
  5
16E
330
79
100
AcDbEntity
  8
Camada 1
 62
   250
420
  1907995
370
    18
100
AcDbLine
 10
51.52098618343747
 20
-36.74682165880401
 30
0.0
 11
51.52098618343747
 21
-37.27957287785113
 31
0.0
  0
LINE
  5
16F
330
79
100
AcDbEntity
  8
Camada 1
 62
   250
420
  1907995
370
    18
100
AcDbLine
 10
50.9888434884705
 20
-37.27957287785113
 30
0.0
 11
50.9888434884705
 21
-36.74682165880401
 31
0.0
  0
LINE
  5
170
330
79
100
AcDbEntity
  8
Camada 1
 62
   250
420
  1907995
370
    18
100
AcDbLine
 10
50.9888434884705
 20
-36.74682165880401
 30
0.0
 11
51.52098618343747
 21
-36.74682165880401
 31
0.0
  0
LWPOLYLINE
  5
171
330
79
100
AcDbEntity
  8
Camada 1
 62
   250
420
  1907995
370
    18
100
AcDbPolyline
 90
        7
 70
     1
 43
0.0
 10
51.29266423241701
 20
-36.97514360982448
 10
51.29266423241701
 20
-36.89903629281765
 10
51.21655691541018
 20
-36.89903629281765
 10
51.14044959840336
 20
-36.89903629281765
 10
51.14044959840336
 20
-37.0509536326241
 10
51.21655691541018
 20
-37.0509536326241
 10
51.29266423241701
 20
-37.0509536326241
  0
LINE
  5
172
330
79
100
AcDbEntity
  8
Camada 1
 62
   250
420
  1907995
370
    18
100
AcDbLine
 10
54.03040013298966
 20
-37.27957287785113
 30
0.0
 11
53.49825743802269
 21
-37.27957287785113
 31
0.0
  0
LINE
  5
173
330
79
100
AcDbEntity
  8
Camada 1
 62
   250
420
  1907995
370
    18
100
AcDbLine
 10
54.03040013298966
 20
-36.74682165880401
 30
0.0
 11
54.03040013298966
 21
-37.27957287785113
 31
0.0
  0
LINE
  5
174
330
79
100
AcDbEntity
  8
Camada 1
 62
   250
420
  1907995
370
    18
100
AcDbLine
 10
53.49825743802269
 20
-37.27957287785113
 30
0.0
 11
53.49825743802269
 21
-36.74682165880401
 31
0.0
  0
LINE
  5
175
330
79
100
AcDbEntity
  8
Camada 1
 62
   250
420
  1907995
370
    18
100
AcDbLine
 10
53.49825743802269
 20
-36.74682165880401
 30
0.0
 11
54.03040013298966
 21
-36.74682165880401
 31
0.0
  0
LWPOLYLINE
  5
176
330
79
100
AcDbEntity
  8
Camada 1
 62
   250
420
  1907995
370
    18
100
AcDbPolyline
 90
        7
 70
     1
 43
0.0
 10
53.80207818197048
 20
-36.97514360982448
 10
53.80207818197048
 20
-36.89903629281765
 10
53.72597086496366
 20
-36.89903629281765
 10
53.65047207203633
 20
-36.89903629281765
 10
53.65047207203633
 20
-37.0509536326241
 10
53.72597086496366
 20
-37.0509536326241
 10
53.80207818197048
 20
-37.0509536326241
  0
LINE
  5
177
330
79
100
AcDbEntity
  8
Camada 1
 62
   250
420
  1907995
370
    18
100
AcDbLine
 10
56.53980943732101
 20
-37.27957287785113
 30
0.0
 11
56.00766674235403
 21
-37.27957287785113
 31
0.0
  0
LINE
  5
178
330
79
100
AcDbEntity
  8
Camada 1
 62
   250
420
  1907995
370
    18
100
AcDbLine
 10
56.53980943732101
 20
-36.74682165880401
 30
0.0
 11
56.53980943732101
 21
-37.27957287785113
 31
0.0
  0
LINE
  5
179
330
79
100
AcDbEntity
  8
Camada 1
 62
   250
420
  1907995
370
    18
100
AcDbLine
 10
56.00766674235403
 20
-37.27957287785113
 30
0.0
 11
56.00766674235403
 21
-36.74682165880401
 31
0.0
  0
LINE
  5
17A
330
79
100
AcDbEntity
  8
Camada 1
 62
   250
420
  1907995
370
    18
100
AcDbLine
 10
56.00766674235403
 20
-36.74682165880401
 30
0.0
 11
56.53980943732101
 21
-36.74682165880401
 31
0.0
  0
LWPOLYLINE
  5
17B
330
79
100
AcDbEntity
  8
Camada 1
 62
   250
420
  1907995
370
    18
100
AcDbPolyline
 90
        7
 70
     1
 43
0.0
 10
56.31148748630054
 20
-36.97514360982448
 10
56.31148748630054
 20
-36.89903629281765
 10
56.23538016929372
 20
-36.89903629281765
 10
56.15988137636768
 20
-36.97514360982448
 10
56.15988137636768
 20
-37.0509536326241
 10
56.23538016929372
 20
-37.0509536326241
 10
56.31148748630054
 20
-37.0509536326241
  0
LINE
  5
17C
330
79
100
AcDbEntity
  8
Camada 1
 62
   250
420
  1907995
370
    18
100
AcDbLine
 10
59.04952532630252
 20
-37.27957287785113
 30
0.0
 11
58.51738263133555
 21
-37.27957287785113
 31
0.0
  0
LINE
  5
17D
330
79
100
AcDbEntity
  8
Camada 1
 62
   250
420
  1907995
370
    18
100
AcDbLine
 10
59.04952532630252
 20
-36.74682165880401
 30
0.0
 11
59.04952532630252
 21
-37.27957287785113
 31
0.0
  0
LINE
  5
17E
330
79
100
AcDbEntity
  8
Camada 1
 62
   250
420
  1907995
370
    18
100
AcDbLine
 10
58.51738263133555
 20
-37.27957287785113
 30
0.0
 11
58.51738263133555
 21
-36.74682165880401
 31
0.0
  0
LINE
  5
17F
330
79
100
AcDbEntity
  8
Camada 1
 62
   250
420
  1907995
370
    18
100
AcDbLine
 10
58.51738263133555
 20
-36.74682165880401
 30
0.0
 11
59.04952532630252
 21
-36.74682165880401
 31
0.0
  0
LWPOLYLINE
  5
180
330
79
100
AcDbEntity
  8
Camada 1
 62
   250
420
  1907995
370
    18
100
AcDbPolyline
 90
        8
 70
     1
 43
0.0
 10
58.89731069228888
 20
-36.97514360982448
 10
58.82120337528206
 20
-36.97514360982448
 10
58.82120337528206
 20
-36.89903629281765
 10
58.74509605827523
 20
-36.89903629281765
 10
58.66959726534918
 20
-36.97514360982448
 10
58.66959726534918
 20
-37.0509536326241
 10
58.74509605827523
 20
-37.0509536326241
 10
58.82120337528206
 20
-37.0509536326241
  0
LINE
  5
181
330
79
100
AcDbEntity
  8
Camada 1
 62
   250
420
  1907995
370
    18
100
AcDbLine
 10
61.55893463063258
 20
-37.27957287785113
 30
0.0
 11
61.02679193566561
 21
-37.27957287785113
 31
0.0
  0
LINE
  5
182
330
79
100
AcDbEntity
  8
Camada 1
 62
   250
420
  1907995
370
    18
100
AcDbLine
 10
61.55893463063258
 20
-36.74682165880401
 30
0.0
 11
61.55893463063258
 21
-37.27957287785113
 31
0.0
  0
LINE
  5
183
330
79
100
AcDbEntity
  8
Camada 1
 62
   250
420
  1907995
370
    18
100
AcDbLine
 10
61.02679193566561
 20
-37.27957287785113
 30
0.0
 11
61.02679193566561
 21
-36.74682165880401
 31
0.0
  0
LINE
  5
184
330
79
100
AcDbEntity
  8
Camada 1
 62
   250
420
  1907995
370
    18
100
AcDbLine
 10
61.02679193566561
 20
-36.74682165880401
 30
0.0
 11
61.55893463063258
 21
-36.74682165880401
 31
0.0
  0
LWPOLYLINE
  5
185
330
79
100
AcDbEntity
  8
Camada 1
 62
   250
420
  1907995
370
    18
100
AcDbPolyline
 90
        9
 70
     1
 43
0.0
 10
61.40671999662022
 20
-36.97514360982448
 10
61.3306126796134
 20
-36.97514360982448
 10
61.3306126796134
 20
-36.89903629281765
 10
61.25511388668607
 20
-36.89903629281765
 10
61.17900656967925
 20
-36.97514360982448
 10
61.17900656967925
 20
-37.0509536326241
 10
61.25511388668607
 20
-37.0509536326241
 10
61.3306126796134
 20
-37.0509536326241
 10
61.40671999662022
 20
-37.0509536326241
  0
LINE
  5
186
330
79
100
AcDbEntity
  8
Camada 1
 62
   250
420
  1907995
370
    18
100
AcDbLine
 10
64.06834393496393
 20
-37.27957287785113
 30
0.0
 11
63.53620123999696
 21
-37.27957287785113
 31
0.0
  0
LINE
  5
187
330
79
100
AcDbEntity
  8
Camada 1
 62
   250
420
  1907995
370
    18
100
AcDbLine
 10
64.06834393496393
 20
-36.74682165880401
 30
0.0
 11
64.06834393496393
 21
-37.27957287785113
 31
0.0
  0
LINE
  5
188
330
79
100
AcDbEntity
  8
Camada 1
 62
   250
420
  1907995
370
    18
100
AcDbLine
 10
63.53620123999696
 20
-37.27957287785113
 30
0.0
 11
63.53620123999696
 21
-36.74682165880401
 31
0.0
  0
LINE
  5
189
330
79
100
AcDbEntity
  8
Camada 1
 62
   250
420
  1907995
370
    18
100
AcDbLine
 10
63.53620123999696
 20
-36.74682165880401
 30
0.0
 11
64.06834393496393
 21
-36.74682165880401
 31
0.0
  0
LWPOLYLINE
  5
18A
330
79
100
AcDbEntity
  8
Camada 1
 62
   250
420
  1907995
370
    18
100
AcDbPolyline
 90
       10
 70
     1
 43
0.0
 10
63.91612930095028
 20
-36.97514360982448
 10
63.84002198394346
 20
-36.97514360982448
 10
63.84002198394346
 20
-36.89903629281765
 10
63.76452319101742
 20
-36.89903629281765
 10
63.76452319101742
 20
-36.97514360982448
 10
63.6884158740106
 20
-36.97514360982448
 10
63.6884158740106
 20
-37.0509536326241
 10
63.76452319101742
 20
-37.0509536326241
 10
63.84002198394346
 20
-37.0509536326241
 10
63.91612930095028
 20
-37.0509536326241
  0
LINE
  5
18B
330
79
100
AcDbEntity
  8
Camada 1
 62
   250
420
  1907995
370
    18
100
AcDbLine
 10
51.52098618343747
 20
-39.78898218218183
 30
0.0
 11
50.9888434884705
 21
-39.78898218218183
 31
0.0
  0
LINE
  5
18C
330
79
100
AcDbEntity
  8
Camada 1
 62
   250
420
  1907995
370
    18
100
AcDbLine
 10
51.52098618343747
 20
-39.25623096313471
 30
0.0
 11
51.52098618343747
 21
-39.78898218218183
 31
0.0
  0
LINE
  5
18D
330
79
100
AcDbEntity
  8
Camada 1
 62
   250
420
  1907995
370
    18
100
AcDbLine
 10
50.9888434884705
 20
-39.78898218218183
 30
0.0
 11
50.9888434884705
 21
-39.25623096313471
 31
0.0
  0
LINE
  5
18E
330
79
100
AcDbEntity
  8
Camada 1
 62
   250
420
  1907995
370
    18
100
AcDbLine
 10
50.9888434884705
 20
-39.25623096313471
 30
0.0
 11
51.52098618343747
 21
-39.25623096313471
 31
0.0
  0
LWPOLYLINE
  5
18F
330
79
100
AcDbEntity
  8
Camada 1
 62
   250
420
  1907995
370
    18
100
AcDbPolyline
 90
        8
 70
     1
 43
0.0
 10
51.29266423241701
 20
-39.48455291415518
 10
51.29266423241701
 20
-39.40875218179917
 10
51.21655691541018
 20
-39.40875218179917
 10
51.14044959840336
 20
-39.40875218179917
 10
51.14044959840336
 20
-39.560660231162
 10
51.21655691541018
 20
-39.560660231162
 10
51.21655691541018
 20
-39.63676754816818
 10
51.29266423241701
 20
-39.560660231162
  0
LINE
  5
190
330
79
100
AcDbEntity
  8
Camada 1
 62
   250
420
  1907995
370
    18
100
AcDbLine
 10
54.03040013298966
 20
-39.78898218218183
 30
0.0
 11
53.49825743802269
 21
-39.78898218218183
 31
0.0
  0
LINE
  5
191
330
79
100
AcDbEntity
  8
Camada 1
 62
   250
420
  1907995
370
    18
100
AcDbLine
 10
54.03040013298966
 20
-39.25623096313471
 30
0.0
 11
54.03040013298966
 21
-39.78898218218183
 31
0.0
  0
LINE
  5
192
330
79
100
AcDbEntity
  8
Camada 1
 62
   250
420
  1907995
370
    18
100
AcDbLine
 10
53.49825743802269
 20
-39.78898218218183
 30
0.0
 11
53.49825743802269
 21
-39.25623096313471
 31
0.0
  0
LINE
  5
193
330
79
100
AcDbEntity
  8
Camada 1
 62
   250
420
  1907995
370
    18
100
AcDbLine
 10
53.49825743802269
 20
-39.25623096313471
 30
0.0
 11
54.03040013298966
 21
-39.25623096313471
 31
0.0
  0
LWPOLYLINE
  5
194
330
79
100
AcDbEntity
  8
Camada 1
 62
   250
420
  1907995
370
    18
100
AcDbPolyline
 90
        8
 70
     1
 43
0.0
 10
53.80207818197048
 20
-39.48455291415518
 10
53.80207818197048
 20
-39.40875218179917
 10
53.72597086496366
 20
-39.40875218179917
 10
53.65047207203633
 20
-39.40875218179917
 10
53.65047207203633
 20
-39.560660231162
 10
53.72597086496366
 20
-39.560660231162
 10
53.72597086496366
 20
-39.63676754816818
 10
53.80207818197048
 20
-39.560660231162
  0
LINE
  5
195
330
79
100
AcDbEntity
  8
Camada 1
 62
   250
420
  1907995
370
    18
100
AcDbLine
 10
56.53980943732101
 20
-39.78898218218183
 30
0.0
 11
56.00766674235403
 21
-39.78898218218183
 31
0.0
  0
LINE
  5
196
330
79
100
AcDbEntity
  8
Camada 1
 62
   250
420
  1907995
370
    18
100
AcDbLine
 10
56.53980943732101
 20
-39.25623096313471
 30
0.0
 11
56.53980943732101
 21
-39.78898218218183
 31
0.0
  0
LINE
  5
197
330
79
100
AcDbEntity
  8
Camada 1
 62
   250
420
  1907995
370
    18
100
AcDbLine
 10
56.00766674235403
 20
-39.78898218218183
 30
0.0
 11
56.00766674235403
 21
-39.25623096313471
 31
0.0
  0
LINE
  5
198
330
79
100
AcDbEntity
  8
Camada 1
 62
   250
420
  1907995
370
    18
100
AcDbLine
 10
56.00766674235403
 20
-39.25623096313471
 30
0.0
 11
56.53980943732101
 21
-39.25623096313471
 31
0.0
  0
LWPOLYLINE
  5
199
330
79
100
AcDbEntity
  8
Camada 1
 62
   250
420
  1907995
370
    18
100
AcDbPolyline
 90
        8
 70
     1
 43
0.0
 10
56.31148748630054
 20
-39.48455291415518
 10
56.31148748630054
 20
-39.40875218179917
 10
56.23538016929372
 20
-39.40875218179917
 10
56.15988137636768
 20
-39.48455291415518
 10
56.15988137636768
 20
-39.560660231162
 10
56.23538016929372
 20
-39.560660231162
 10
56.23538016929372
 20
-39.63676754816818
 10
56.31148748630054
 20
-39.560660231162
  0
LINE
  5
19A
330
79
100
AcDbEntity
  8
Camada 1
 62
   250
420
  1907995
370
    18
100
AcDbLine
 10
59.04952532630252
 20
-39.78898218218183
 30
0.0
 11
58.51738263133555
 21
-39.78898218218183
 31
0.0
  0
LINE
  5
19B
330
79
100
AcDbEntity
  8
Camada 1
 62
   250
420
  1907995
370
    18
100
AcDbLine
 10
59.04952532630252
 20
-39.25623096313471
 30
0.0
 11
59.04952532630252
 21
-39.78898218218183
 31
0.0
  0
LINE
  5
19C
330
79
100
AcDbEntity
  8
Camada 1
 62
   250
420
  1907995
370
    18
100
AcDbLine
 10
58.51738263133555
 20
-39.78898218218183
 30
0.0
 11
58.51738263133555
 21
-39.25623096313471
 31
0.0
  0
LINE
  5
19D
330
79
100
AcDbEntity
  8
Camada 1
 62
   250
420
  1907995
370
    18
100
AcDbLine
 10
58.51738263133555
 20
-39.25623096313471
 30
0.0
 11
59.04952532630252
 21
-39.25623096313471
 31
0.0
  0
LWPOLYLINE
  5
19E
330
79
100
AcDbEntity
  8
Camada 1
 62
   250
420
  1907995
370
    18
100
AcDbPolyline
 90
       10
 70
     1
 43
0.0
 10
58.89731069228888
 20
-39.48455291415518
 10
58.82120337528206
 20
-39.48455291415518
 10
58.82120337528206
 20
-39.40875218179917
 10
58.74509605827523
 20
-39.40875218179917
 10
58.66959726534918
 20
-39.48455291415518
 10
58.66959726534918
 20
-39.560660231162
 10
58.74509605827523
 20
-39.560660231162
 10
58.74509605827523
 20
-39.63676754816818
 10
58.82120337528206
 20
-39.63676754816818
 10
58.82120337528206
 20
-39.560660231162
  0
LINE
  5
19F
330
79
100
AcDbEntity
  8
Camada 1
 62
   250
420
  1907995
370
    18
100
AcDbLine
 10
61.55893463063258
 20
-39.78898218218183
 30
0.0
 11
61.02679193566561
 21
-39.78898218218183
 31
0.0
  0
LINE
  5
1A0
330
79
100
AcDbEntity
  8
Camada 1
 62
   250
420
  1907995
370
    18
100
AcDbLine
 10
61.55893463063258
 20
-39.25623096313471
 30
0.0
 11
61.55893463063258
 21
-39.78898218218183
 31
0.0
  0
LINE
  5
1A1
330
79
100
AcDbEntity
  8
Camada 1
 62
   250
420
  1907995
370
    18
100
AcDbLine
 10
61.02679193566561
 20
-39.78898218218183
 30
0.0
 11
61.02679193566561
 21
-39.25623096313471
 31
0.0
  0
LINE
  5
1A2
330
79
100
AcDbEntity
  8
Camada 1
 62
   250
420
  1907995
370
    18
100
AcDbLine
 10
61.02679193566561
 20
-39.25623096313471
 30
0.0
 11
61.55893463063258
 21
-39.25623096313471
 31
0.0
  0
LWPOLYLINE
  5
1A3
330
79
100
AcDbEntity
  8
Camada 1
 62
   250
420
  1907995
370
    18
100
AcDbPolyline
 90
       11
 70
     1
 43
0.0
 10
61.40671999662022
 20
-39.48455291415518
 10
61.3306126796134
 20
-39.48455291415518
 10
61.3306126796134
 20
-39.40875218179917
 10
61.25511388668607
 20
-39.40875218179917
 10
61.17900656967925
 20
-39.48455291415518
 10
61.17900656967925
 20
-39.560660231162
 10
61.25511388668607
 20
-39.560660231162
 10
61.25511388668607
 20
-39.63676754816818
 10
61.3306126796134
 20
-39.63676754816818
 10
61.3306126796134
 20
-39.560660231162
 10
61.40671999662022
 20
-39.560660231162
  0
LINE
  5
1A4
330
79
100
AcDbEntity
  8
Camada 1
 62
   250
420
  1907995
370
    18
100
AcDbLine
 10
64.06834393496393
 20
-39.78898218218183
 30
0.0
 11
63.53620123999696
 21
-39.78898218218183
 31
0.0
  0
LINE
  5
1A5
330
79
100
AcDbEntity
  8
Camada 1
 62
   250
420
  1907995
370
    18
100
AcDbLine
 10
64.06834393496393
 20
-39.25623096313471
 30
0.0
 11
64.06834393496393
 21
-39.78898218218183
 31
0.0
  0
LINE
  5
1A6
330
79
100
AcDbEntity
  8
Camada 1
 62
   250
420
  1907995
370
    18
100
AcDbLine
 10
63.53620123999696
 20
-39.78898218218183
 30
0.0
 11
63.53620123999696
 21
-39.25623096313471
 31
0.0
  0
LINE
  5
1A7
330
79
100
AcDbEntity
  8
Camada 1
 62
   250
420
  1907995
370
    18
100
AcDbLine
 10
63.53620123999696
 20
-39.25623096313471
 30
0.0
 11
64.06834393496393
 21
-39.25623096313471
 31
0.0
  0
LWPOLYLINE
  5
1A8
330
79
100
AcDbEntity
  8
Camada 1
 62
   250
420
  1907995
370
    18
100
AcDbPolyline
 90
       12
 70
     1
 43
0.0
 10
63.91612930095028
 20
-39.48455291415518
 10
63.84002198394346
 20
-39.48455291415518
 10
63.84002198394346
 20
-39.40875218179917
 10
63.76452319101742
 20
-39.40875218179917
 10
63.76452319101742
 20
-39.48455291415518
 10
63.6884158740106
 20
-39.48455291415518
 10
63.6884158740106
 20
-39.560660231162
 10
63.76452319101742
 20
-39.560660231162
 10
63.76452319101742
 20
-39.63676754816818
 10
63.84002198394346
 20
-39.63676754816818
 10
63.84002198394346
 20
-39.560660231162
 10
63.91612930095028
 20
-39.560660231162
  0
LINE
  5
1A9
330
79
100
AcDbEntity
  8
Camada 1
 62
   250
420
  1907995
370
    18
100
AcDbLine
 10
51.52098618343747
 20
-42.29839613173465
 30
0.0
 11
50.9888434884705
 21
-42.29839613173465
 31
0.0
  0
LINE
  5
1AA
330
79
100
AcDbEntity
  8
Camada 1
 62
   250
420
  1907995
370
    18
100
AcDbLine
 10
51.52098618343747
 20
-41.76594685211623
 30
0.0
 11
51.52098618343747
 21
-42.29839613173465
 31
0.0
  0
LINE
  5
1AB
330
79
100
AcDbEntity
  8
Camada 1
 62
   250
420
  1907995
370
    18
100
AcDbLine
 10
50.9888434884705
 20
-42.29839613173465
 30
0.0
 11
50.9888434884705
 21
-41.76594685211623
 31
0.0
  0
LINE
  5
1AC
330
79
100
AcDbEntity
  8
Camada 1
 62
   250
420
  1907995
370
    18
100
AcDbLine
 10
50.9888434884705
 20
-41.76594685211623
 30
0.0
 11
51.52098618343747
 21
-41.76594685211623
 31
0.0
  0
LWPOLYLINE
  5
1AD
330
79
100
AcDbEntity
  8
Camada 1
 62
   250
420
  1907995
370
    18
100
AcDbPolyline
 90
        8
 70
     1
 43
0.0
 10
51.29266423241701
 20
-41.99426880313668
 10
51.29266423241701
 20
-41.91816148612987
 10
51.21655691541018
 20
-41.91816148612987
 10
51.14044959840336
 20
-41.99426880313668
 10
51.14044959840336
 20
-42.07037612014287
 10
51.21655691541018
 20
-42.07037612014287
 10
51.21655691541018
 20
-42.14618149772101
 10
51.29266423241701
 20
-42.14618149772101
  0
LINE
  5
1AE
330
79
100
AcDbEntity
  8
Camada 1
 62
   250
420
  1907995
370
    18
100
AcDbLine
 10
54.03040013298966
 20
-42.29839613173465
 30
0.0
 11
53.49825743802269
 21
-42.29839613173465
 31
0.0
  0
LINE
  5
1AF
330
79
100
AcDbEntity
  8
Camada 1
 62
   250
420
  1907995
370
    18
100
AcDbLine
 10
54.03040013298966
 20
-41.76594685211623
 30
0.0
 11
54.03040013298966
 21
-42.29839613173465
 31
0.0
  0
LINE
  5
1B0
330
79
100
AcDbEntity
  8
Camada 1
 62
   250
420
  1907995
370
    18
100
AcDbLine
 10
53.49825743802269
 20
-42.29839613173465
 30
0.0
 11
53.49825743802269
 21
-41.76594685211623
 31
0.0
  0
LINE
  5
1B1
330
79
100
AcDbEntity
  8
Camada 1
 62
   250
420
  1907995
370
    18
100
AcDbLine
 10
53.49825743802269
 20
-41.76594685211623
 30
0.0
 11
54.03040013298966
 21
-41.76594685211623
 31
0.0
  0
LWPOLYLINE
  5
1B2
330
79
100
AcDbEntity
  8
Camada 1
 62
   250
420
  1907995
370
    18
100
AcDbPolyline
 90
        8
 70
     1
 43
0.0
 10
53.80207818197048
 20
-41.99426880313668
 10
53.80207818197048
 20
-41.91816148612987
 10
53.72597086496366
 20
-41.91816148612987
 10
53.65047207203633
 20
-41.99426880313668
 10
53.65047207203633
 20
-42.07037612014287
 10
53.72597086496366
 20
-42.07037612014287
 10
53.72597086496366
 20
-42.14618149772101
 10
53.80207818197048
 20
-42.14618149772101
  0
LINE
  5
1B3
330
79
100
AcDbEntity
  8
Camada 1
 62
   250
420
  1907995
370
    18
100
AcDbLine
 10
56.53980943732101
 20
-42.29839613173465
 30
0.0
 11
56.00766674235403
 21
-42.29839613173465
 31
0.0
  0
LINE
  5
1B4
330
79
100
AcDbEntity
  8
Camada 1
 62
   250
420
  1907995
370
    18
100
AcDbLine
 10
56.53980943732101
 20
-41.76594685211623
 30
0.0
 11
56.53980943732101
 21
-42.29839613173465
 31
0.0
  0
LINE
  5
1B5
330
79
100
AcDbEntity
  8
Camada 1
 62
   250
420
  1907995
370
    18
100
AcDbLine
 10
56.00766674235403
 20
-42.29839613173465
 30
0.0
 11
56.00766674235403
 21
-41.76594685211623
 31
0.0
  0
LINE
  5
1B6
330
79
100
AcDbEntity
  8
Camada 1
 62
   250
420
  1907995
370
    18
100
AcDbLine
 10
56.00766674235403
 20
-41.76594685211623
 30
0.0
 11
56.53980943732101
 21
-41.76594685211623
 31
0.0
  0
LWPOLYLINE
  5
1B7
330
79
100
AcDbEntity
  8
Camada 1
 62
   250
420
  1907995
370
    18
100
AcDbPolyline
 90
        9
 70
     1
 43
0.0
 10
56.31148748630054
 20
-41.99426880313668
 10
56.31148748630054
 20
-41.91816148612987
 10
56.23538016929372
 20
-41.91816148612987
 10
56.23538016929372
 20
-41.99426880313668
 10
56.15988137636768
 20
-41.99426880313668
 10
56.15988137636768
 20
-42.07037612014287
 10
56.23538016929372
 20
-42.07037612014287
 10
56.23538016929372
 20
-42.14618149772101
 10
56.31148748630054
 20
-42.14618149772101
  0
LINE
  5
1B8
330
79
100
AcDbEntity
  8
Camada 1
 62
   250
420
  1907995
370
    18
100
AcDbLine
 10
59.04952532630252
 20
-42.29839613173465
 30
0.0
 11
58.51738263133555
 21
-42.29839613173465
 31
0.0
  0
LINE
  5
1B9
330
79
100
AcDbEntity
  8
Camada 1
 62
   250
420
  1907995
370
    18
100
AcDbLine
 10
59.04952532630252
 20
-41.76594685211623
 30
0.0
 11
59.04952532630252
 21
-42.29839613173465
 31
0.0
  0
LINE
  5
1BA
330
79
100
AcDbEntity
  8
Camada 1
 62
   250
420
  1907995
370
    18
100
AcDbLine
 10
58.51738263133555
 20
-42.29839613173465
 30
0.0
 11
58.51738263133555
 21
-41.76594685211623
 31
0.0
  0
LINE
  5
1BB
330
79
100
AcDbEntity
  8
Camada 1
 62
   250
420
  1907995
370
    18
100
AcDbLine
 10
58.51738263133555
 20
-41.76594685211623
 30
0.0
 11
59.04952532630252
 21
-41.76594685211623
 31
0.0
  0
LWPOLYLINE
  5
1BC
330
79
100
AcDbEntity
  8
Camada 1
 62
   250
420
  1907995
370
    18
100
AcDbPolyline
 90
       11
 70
     1
 43
0.0
 10
58.89731069228888
 20
-41.99426880313668
 10
58.82120337528206
 20
-41.99426880313668
 10
58.82120337528206
 20
-41.91816148612987
 10
58.74509605827523
 20
-41.91816148612987
 10
58.74509605827523
 20
-41.99426880313668
 10
58.66959726534918
 20
-41.99426880313668
 10
58.66959726534918
 20
-42.07037612014287
 10
58.74509605827523
 20
-42.07037612014287
 10
58.74509605827523
 20
-42.14618149772101
 10
58.82120337528206
 20
-42.14618149772101
 10
58.82120337528206
 20
-42.07037612014287
  0
LINE
  5
1BD
330
79
100
AcDbEntity
  8
Camada 1
 62
   250
420
  1907995
370
    18
100
AcDbLine
 10
61.55893463063258
 20
-42.29839613173465
 30
0.0
 11
61.02679193566561
 21
-42.29839613173465
 31
0.0
  0
LINE
  5
1BE
330
79
100
AcDbEntity
  8
Camada 1
 62
   250
420
  1907995
370
    18
100
AcDbLine
 10
61.55893463063258
 20
-41.76594685211623
 30
0.0
 11
61.55893463063258
 21
-42.29839613173465
 31
0.0
  0
LINE
  5
1BF
330
79
100
AcDbEntity
  8
Camada 1
 62
   250
420
  1907995
370
    18
100
AcDbLine
 10
61.02679193566561
 20
-42.29839613173465
 30
0.0
 11
61.02679193566561
 21
-41.76594685211623
 31
0.0
  0
LINE
  5
1C0
330
79
100
AcDbEntity
  8
Camada 1
 62
   250
420
  1907995
370
    18
100
AcDbLine
 10
61.02679193566561
 20
-41.76594685211623
 30
0.0
 11
61.55893463063258
 21
-41.76594685211623
 31
0.0
  0
LWPOLYLINE
  5
1C1
330
79
100
AcDbEntity
  8
Camada 1
 62
   250
420
  1907995
370
    18
100
AcDbPolyline
 90
       12
 70
     1
 43
0.0
 10
61.40671999662022
 20
-41.99426880313668
 10
61.3306126796134
 20
-41.99426880313668
 10
61.3306126796134
 20
-41.91816148612987
 10
61.25511388668607
 20
-41.91816148612987
 10
61.25511388668607
 20
-41.99426880313668
 10
61.17900656967925
 20
-41.99426880313668
 10
61.17900656967925
 20
-42.07037612014287
 10
61.25511388668607
 20
-42.07037612014287
 10
61.25511388668607
 20
-42.14618149772101
 10
61.3306126796134
 20
-42.14618149772101
 10
61.3306126796134
 20
-42.07037612014287
 10
61.40671999662022
 20
-42.07037612014287
  0
LINE
  5
1C2
330
79
100
AcDbEntity
  8
Camada 1
 62
   250
420
  1907995
370
    18
100
AcDbLine
 10
64.06834393496393
 20
-42.29839613173465
 30
0.0
 11
63.53620123999696
 21
-42.29839613173465
 31
0.0
  0
LINE
  5
1C3
330
79
100
AcDbEntity
  8
Camada 1
 62
   250
420
  1907995
370
    18
100
AcDbLine
 10
64.06834393496393
 20
-41.76594685211623
 30
0.0
 11
64.06834393496393
 21
-42.29839613173465
 31
0.0
  0
LINE
  5
1C4
330
79
100
AcDbEntity
  8
Camada 1
 62
   250
420
  1907995
370
    18
100
AcDbLine
 10
63.53620123999696
 20
-42.29839613173465
 30
0.0
 11
63.53620123999696
 21
-41.76594685211623
 31
0.0
  0
LINE
  5
1C5
330
79
100
AcDbEntity
  8
Camada 1
 62
   250
420
  1907995
370
    18
100
AcDbLine
 10
63.53620123999696
 20
-41.76594685211623
 30
0.0
 11
64.06834393496393
 21
-41.76594685211623
 31
0.0
  0
LWPOLYLINE
  5
1C6
330
79
100
AcDbEntity
  8
Camada 1
 62
   250
420
  1907995
370
    18
100
AcDbPolyline
 90
       12
 70
     1
 43
0.0
 10
63.91612930095028
 20
-41.99426880313668
 10
63.84002198394346
 20
-41.99426880313668
 10
63.84002198394346
 20
-41.91816148612987
 10
63.76452319101742
 20
-41.91816148612987
 10
63.76452319101742
 20
-41.99426880313668
 10
63.6884158740106
 20
-41.99426880313668
 10
63.6884158740106
 20
-42.07037612014287
 10
63.76452319101742
 20
-42.07037612014287
 10
63.76452319101742
 20
-42.14618149772101
 10
63.84002198394346
 20
-42.14618149772101
 10
63.84002198394346
 20
-42.07037612014287
 10
63.91612930095028
 20
-42.07037612014287
  0
LINE
  5
1C7
330
79
100
AcDbEntity
  8
Camada 1
 62
   250
420
  1907995
370
    18
100
AcDbLine
 10
51.52098618343747
 20
-44.80780543606535
 30
0.0
 11
50.9888434884705
 21
-44.80780543606535
 31
0.0
  0
LINE
  5
1C8
330
79
100
AcDbEntity
  8
Camada 1
 62
   250
420
  1907995
370
    18
100
AcDbLine
 10
51.52098618343747
 20
-44.27535615644693
 30
0.0
 11
51.52098618343747
 21
-44.80780543606535
 31
0.0
  0
LINE
  5
1C9
330
79
100
AcDbEntity
  8
Camada 1
 62
   250
420
  1907995
370
    18
100
AcDbLine
 10
50.9888434884705
 20
-44.80780543606535
 30
0.0
 11
50.9888434884705
 21
-44.27535615644693
 31
0.0
  0
LINE
  5
1CA
330
79
100
AcDbEntity
  8
Camada 1
 62
   250
420
  1907995
370
    18
100
AcDbLine
 10
50.9888434884705
 20
-44.27535615644693
 30
0.0
 11
51.52098618343747
 21
-44.27535615644693
 31
0.0
  0
LWPOLYLINE
  5
1CB
330
79
100
AcDbEntity
  8
Camada 1
 62
   250
420
  1907995
370
    18
100
AcDbPolyline
 90
        8
 70
     1
 43
0.0
 10
51.29266423241701
 20
-44.50367810746739
 10
51.29266423241701
 20
-44.42757079046057
 10
51.21655691541018
 20
-44.42757079046057
 10
51.14044959840336
 20
-44.50367810746739
 10
51.14044959840336
 20
-44.57978542447421
 10
51.21655691541018
 20
-44.57978542447421
 10
51.21655691541018
 20
-44.65559080205172
 10
51.29266423241701
 20
-44.65559080205172
  0
LINE
  5
1CC
330
79
100
AcDbEntity
  8
Camada 1
 62
   250
420
  1907995
370
    18
100
AcDbLine
 10
54.03040013298966
 20
-44.80780543606535
 30
0.0
 11
53.49825743802269
 21
-44.80780543606535
 31
0.0
  0
LINE
  5
1CD
330
79
100
AcDbEntity
  8
Camada 1
 62
   250
420
  1907995
370
    18
100
AcDbLine
 10
54.03040013298966
 20
-44.27535615644693
 30
0.0
 11
54.03040013298966
 21
-44.80780543606535
 31
0.0
  0
LINE
  5
1CE
330
79
100
AcDbEntity
  8
Camada 1
 62
   250
420
  1907995
370
    18
100
AcDbLine
 10
53.49825743802269
 20
-44.80780543606535
 30
0.0
 11
53.49825743802269
 21
-44.27535615644693
 31
0.0
  0
LINE
  5
1CF
330
79
100
AcDbEntity
  8
Camada 1
 62
   250
420
  1907995
370
    18
100
AcDbLine
 10
53.49825743802269
 20
-44.27535615644693
 30
0.0
 11
54.03040013298966
 21
-44.27535615644693
 31
0.0
  0
LWPOLYLINE
  5
1D0
330
79
100
AcDbEntity
  8
Camada 1
 62
   250
420
  1907995
370
    18
100
AcDbPolyline
 90
        8
 70
     1
 43
0.0
 10
53.80207818197048
 20
-44.50367810746739
 10
53.80207818197048
 20
-44.42757079046057
 10
53.72597086496366
 20
-44.42757079046057
 10
53.65047207203633
 20
-44.50367810746739
 10
53.65047207203633
 20
-44.57978542447421
 10
53.72597086496366
 20
-44.57978542447421
 10
53.72597086496366
 20
-44.65559080205172
 10
53.80207818197048
 20
-44.65559080205172
  0
LINE
  5
1D1
330
79
100
AcDbEntity
  8
Camada 1
 62
   250
420
  1907995
370
    18
100
AcDbLine
 10
56.53980943732101
 20
-44.80780543606535
 30
0.0
 11
56.00766674235403
 21
-44.80780543606535
 31
0.0
  0
LINE
  5
1D2
330
79
100
AcDbEntity
  8
Camada 1
 62
   250
420
  1907995
370
    18
100
AcDbLine
 10
56.53980943732101
 20
-44.27535615644693
 30
0.0
 11
56.53980943732101
 21
-44.80780543606535
 31
0.0
  0
LINE
  5
1D3
330
79
100
AcDbEntity
  8
Camada 1
 62
   250
420
  1907995
370
    18
100
AcDbLine
 10
56.00766674235403
 20
-44.80780543606535
 30
0.0
 11
56.00766674235403
 21
-44.27535615644693
 31
0.0
  0
LINE
  5
1D4
330
79
100
AcDbEntity
  8
Camada 1
 62
   250
420
  1907995
370
    18
100
AcDbLine
 10
56.00766674235403
 20
-44.27535615644693
 30
0.0
 11
56.53980943732101
 21
-44.27535615644693
 31
0.0
  0
LWPOLYLINE
  5
1D5
330
79
100
AcDbEntity
  8
Camada 1
 62
   250
420
  1907995
370
    18
100
AcDbPolyline
 90
        9
 70
     1
 43
0.0
 10
56.31148748630054
 20
-44.50367810746739
 10
56.31148748630054
 20
-44.42757079046057
 10
56.23538016929372
 20
-44.42757079046057
 10
56.23538016929372
 20
-44.50367810746739
 10
56.15988137636768
 20
-44.50367810746739
 10
56.15988137636768
 20
-44.57978542447421
 10
56.23538016929372
 20
-44.57978542447421
 10
56.23538016929372
 20
-44.65559080205172
 10
56.31148748630054
 20
-44.65559080205172
  0
LINE
  5
1D6
330
79
100
AcDbEntity
  8
Camada 1
 62
   250
420
  1907995
370
    18
100
AcDbLine
 10
59.04952532630252
 20
-44.80780543606535
 30
0.0
 11
58.51738263133555
 21
-44.80780543606535
 31
0.0
  0
LINE
  5
1D7
330
79
100
AcDbEntity
  8
Camada 1
 62
   250
420
  1907995
370
    18
100
AcDbLine
 10
59.04952532630252
 20
-44.27535615644693
 30
0.0
 11
59.04952532630252
 21
-44.80780543606535
 31
0.0
  0
LINE
  5
1D8
330
79
100
AcDbEntity
  8
Camada 1
 62
   250
420
  1907995
370
    18
100
AcDbLine
 10
58.51738263133555
 20
-44.80780543606535
 30
0.0
 11
58.51738263133555
 21
-44.27535615644693
 31
0.0
  0
LINE
  5
1D9
330
79
100
AcDbEntity
  8
Camada 1
 62
   250
420
  1907995
370
    18
100
AcDbLine
 10
58.51738263133555
 20
-44.27535615644693
 30
0.0
 11
59.04952532630252
 21
-44.27535615644693
 31
0.0
  0
LWPOLYLINE
  5
1DA
330
79
100
AcDbEntity
  8
Camada 1
 62
   250
420
  1907995
370
    18
100
AcDbPolyline
 90
       11
 70
     1
 43
0.0
 10
58.89731069228888
 20
-44.50367810746739
 10
58.82120337528206
 20
-44.50367810746739
 10
58.82120337528206
 20
-44.42757079046057
 10
58.74509605827523
 20
-44.42757079046057
 10
58.74509605827523
 20
-44.50367810746739
 10
58.66959726534918
 20
-44.50367810746739
 10
58.66959726534918
 20
-44.57978542447421
 10
58.74509605827523
 20
-44.57978542447421
 10
58.74509605827523
 20
-44.65559080205172
 10
58.82120337528206
 20
-44.65559080205172
 10
58.82120337528206
 20
-44.57978542447421
  0
LINE
  5
1DB
330
79
100
AcDbEntity
  8
Camada 1
 62
   250
420
  1907995
370
    18
100
AcDbLine
 10
61.55893463063258
 20
-44.80780543606535
 30
0.0
 11
61.02679193566561
 21
-44.80780543606535
 31
0.0
  0
LINE
  5
1DC
330
79
100
AcDbEntity
  8
Camada 1
 62
   250
420
  1907995
370
    18
100
AcDbLine
 10
61.55893463063258
 20
-44.27535615644693
 30
0.0
 11
61.55893463063258
 21
-44.80780543606535
 31
0.0
  0
LINE
  5
1DD
330
79
100
AcDbEntity
  8
Camada 1
 62
   250
420
  1907995
370
    18
100
AcDbLine
 10
61.02679193566561
 20
-44.80780543606535
 30
0.0
 11
61.02679193566561
 21
-44.27535615644693
 31
0.0
  0
LINE
  5
1DE
330
79
100
AcDbEntity
  8
Camada 1
 62
   250
420
  1907995
370
    18
100
AcDbLine
 10
61.02679193566561
 20
-44.27535615644693
 30
0.0
 11
61.55893463063258
 21
-44.27535615644693
 31
0.0
  0
LWPOLYLINE
  5
1DF
330
79
100
AcDbEntity
  8
Camada 1
 62
   250
420
  1907995
370
    18
100
AcDbPolyline
 90
       12
 70
     1
 43
0.0
 10
61.40671999662022
 20
-44.50367810746739
 10
61.3306126796134
 20
-44.50367810746739
 10
61.3306126796134
 20
-44.42757079046057
 10
61.25511388668607
 20
-44.42757079046057
 10
61.25511388668607
 20
-44.50367810746739
 10
61.17900656967925
 20
-44.50367810746739
 10
61.17900656967925
 20
-44.57978542447421
 10
61.25511388668607
 20
-44.57978542447421
 10
61.25511388668607
 20
-44.65559080205172
 10
61.3306126796134
 20
-44.65559080205172
 10
61.3306126796134
 20
-44.57978542447421
 10
61.40671999662022
 20
-44.57978542447421
  0
LINE
  5
1E0
330
79
100
AcDbEntity
  8
Camada 1
 62
   250
420
  1907995
370
    18
100
AcDbLine
 10
64.06834393496393
 20
-44.80780543606535
 30
0.0
 11
63.53620123999696
 21
-44.80780543606535
 31
0.0
  0
LINE
  5
1E1
330
79
100
AcDbEntity
  8
Camada 1
 62
   250
420
  1907995
370
    18
100
AcDbLine
 10
64.06834393496393
 20
-44.27535615644693
 30
0.0
 11
64.06834393496393
 21
-44.80780543606535
 31
0.0
  0
LINE
  5
1E2
330
79
100
AcDbEntity
  8
Camada 1
 62
   250
420
  1907995
370
    18
100
AcDbLine
 10
63.53620123999696
 20
-44.80780543606535
 30
0.0
 11
63.53620123999696
 21
-44.27535615644693
 31
0.0
  0
LINE
  5
1E3
330
79
100
AcDbEntity
  8
Camada 1
 62
   250
420
  1907995
370
    18
100
AcDbLine
 10
63.53620123999696
 20
-44.27535615644693
 30
0.0
 11
64.06834393496393
 21
-44.27535615644693
 31
0.0
  0
LWPOLYLINE
  5
1E4
330
79
100
AcDbEntity
  8
Camada 1
 62
   250
420
  1907995
370
    18
100
AcDbPolyline
 90
       12
 70
     1
 43
0.0
 10
63.91612930095028
 20
-44.50367810746739
 10
63.84002198394346
 20
-44.50367810746739
 10
63.84002198394346
 20
-44.42757079046057
 10
63.76452319101742
 20
-44.42757079046057
 10
63.76452319101742
 20
-44.50367810746739
 10
63.6884158740106
 20
-44.50367810746739
 10
63.6884158740106
 20
-44.57978542447421
 10
63.76452319101742
 20
-44.57978542447421
 10
63.76452319101742
 20
-44.65559080205172
 10
63.84002198394346
 20
-44.65559080205172
 10
63.84002198394346
 20
-44.57978542447421
 10
63.91612930095028
 20
-44.57978542447421
  0
LINE
  5
1E5
330
79
100
AcDbEntity
  8
Camada 1
 62
   250
420
  1907995
370
    18
100
AcDbLine
 10
51.52098618343747
 20
-47.31752132504687
 30
0.0
 11
50.9888434884705
 21
-47.31752132504687
 31
0.0
  0
LINE
  5
1E6
330
79
100
AcDbEntity
  8
Camada 1
 62
   250
420
  1907995
370
    18
100
AcDbLine
 10
51.52098618343747
 20
-46.78537863007989
 30
0.0
 11
51.52098618343747
 21
-47.31752132504687
 31
0.0
  0
LINE
  5
1E7
330
79
100
AcDbEntity
  8
Camada 1
 62
   250
420
  1907995
370
    18
100
AcDbLine
 10
50.9888434884705
 20
-47.31752132504687
 30
0.0
 11
50.9888434884705
 21
-46.78537863007989
 31
0.0
  0
LINE
  5
1E8
330
79
100
AcDbEntity
  8
Camada 1
 62
   250
420
  1907995
370
    18
100
AcDbLine
 10
50.9888434884705
 20
-46.78537863007989
 30
0.0
 11
51.52098618343747
 21
-46.78537863007989
 31
0.0
  0
LWPOLYLINE
  5
1E9
330
79
100
AcDbEntity
  8
Camada 1
 62
   250
420
  1907995
370
    18
100
AcDbPolyline
 90
        7
 70
     1
 43
0.0
 10
51.29266423241701
 20
-47.08919937402705
 10
51.29266423241701
 20
-46.93728667944209
 10
51.21655691541018
 20
-46.93728667944209
 10
51.14044959840336
 20
-47.01339399644891
 10
51.14044959840336
 20
-47.08919937402705
 10
51.21655691541018
 20
-47.16530669103323
 10
51.29266423241701
 20
-47.16530669103323
  0
LINE
  5
1EA
330
79
100
AcDbEntity
  8
Camada 1
 62
   250
420
  1907995
370
    18
100
AcDbLine
 10
54.03040013298966
 20
-47.31752132504687
 30
0.0
 11
53.49825743802269
 21
-47.31752132504687
 31
0.0
  0
LINE
  5
1EB
330
79
100
AcDbEntity
  8
Camada 1
 62
   250
420
  1907995
370
    18
100
AcDbLine
 10
54.03040013298966
 20
-46.78537863007989
 30
0.0
 11
54.03040013298966
 21
-47.31752132504687
 31
0.0
  0
LINE
  5
1EC
330
79
100
AcDbEntity
  8
Camada 1
 62
   250
420
  1907995
370
    18
100
AcDbLine
 10
53.49825743802269
 20
-47.31752132504687
 30
0.0
 11
53.49825743802269
 21
-46.78537863007989
 31
0.0
  0
LINE
  5
1ED
330
79
100
AcDbEntity
  8
Camada 1
 62
   250
420
  1907995
370
    18
100
AcDbLine
 10
53.49825743802269
 20
-46.78537863007989
 30
0.0
 11
54.03040013298966
 21
-46.78537863007989
 31
0.0
  0
LWPOLYLINE
  5
1EE
330
79
100
AcDbEntity
  8
Camada 1
 62
   250
420
  1907995
370
    18
100
AcDbPolyline
 90
        7
 70
     1
 43
0.0
 10
53.80207818197048
 20
-47.08919937402705
 10
53.80207818197048
 20
-46.93728667944209
 10
53.72597086496366
 20
-46.93728667944209
 10
53.65047207203633
 20
-47.01339399644891
 10
53.65047207203633
 20
-47.08919937402705
 10
53.72597086496366
 20
-47.16530669103323
 10
53.80207818197048
 20
-47.16530669103323
  0
LINE
  5
1EF
330
79
100
AcDbEntity
  8
Camada 1
 62
   250
420
  1907995
370
    18
100
AcDbLine
 10
56.53980943732101
 20
-47.31752132504687
 30
0.0
 11
56.00766674235403
 21
-47.31752132504687
 31
0.0
  0
LINE
  5
1F0
330
79
100
AcDbEntity
  8
Camada 1
 62
   250
420
  1907995
370
    18
100
AcDbLine
 10
56.53980943732101
 20
-46.78537863007989
 30
0.0
 11
56.53980943732101
 21
-47.31752132504687
 31
0.0
  0
LINE
  5
1F1
330
79
100
AcDbEntity
  8
Camada 1
 62
   250
420
  1907995
370
    18
100
AcDbLine
 10
56.00766674235403
 20
-47.31752132504687
 30
0.0
 11
56.00766674235403
 21
-46.78537863007989
 31
0.0
  0
LINE
  5
1F2
330
79
100
AcDbEntity
  8
Camada 1
 62
   250
420
  1907995
370
    18
100
AcDbLine
 10
56.00766674235403
 20
-46.78537863007989
 30
0.0
 11
56.53980943732101
 21
-46.78537863007989
 31
0.0
  0
LWPOLYLINE
  5
1F3
330
79
100
AcDbEntity
  8
Camada 1
 62
   250
420
  1907995
370
    18
100
AcDbPolyline
 90
        9
 70
     1
 43
0.0
 10
56.31148748630054
 20
-47.08919937402705
 10
56.31148748630054
 20
-46.93728667944209
 10
56.23538016929372
 20
-46.93728667944209
 10
56.23538016929372
 20
-47.01339399644891
 10
56.15988137636768
 20
-47.01339399644891
 10
56.15988137636768
 20
-47.08919937402705
 10
56.23538016929372
 20
-47.08919937402705
 10
56.23538016929372
 20
-47.16530669103323
 10
56.31148748630054
 20
-47.16530669103323
  0
LINE
  5
1F4
330
79
100
AcDbEntity
  8
Camada 1
 62
   250
420
  1907995
370
    18
100
AcDbLine
 10
59.04952532630252
 20
-47.31752132504687
 30
0.0
 11
58.51738263133555
 21
-47.31752132504687
 31
0.0
  0
LINE
  5
1F5
330
79
100
AcDbEntity
  8
Camada 1
 62
   250
420
  1907995
370
    18
100
AcDbLine
 10
59.04952532630252
 20
-46.78537863007989
 30
0.0
 11
59.04952532630252
 21
-47.31752132504687
 31
0.0
  0
LINE
  5
1F6
330
79
100
AcDbEntity
  8
Camada 1
 62
   250
420
  1907995
370
    18
100
AcDbLine
 10
58.51738263133555
 20
-47.31752132504687
 30
0.0
 11
58.51738263133555
 21
-46.78537863007989
 31
0.0
  0
LINE
  5
1F7
330
79
100
AcDbEntity
  8
Camada 1
 62
   250
420
  1907995
370
    18
100
AcDbLine
 10
58.51738263133555
 20
-46.78537863007989
 30
0.0
 11
59.04952532630252
 21
-46.78537863007989
 31
0.0
  0
LWPOLYLINE
  5
1F8
330
79
100
AcDbEntity
  8
Camada 1
 62
   250
420
  1907995
370
    18
100
AcDbPolyline
 90
       11
 70
     1
 43
0.0
 10
58.89731069228888
 20
-47.08919937402705
 10
58.82120337528206
 20
-47.01339399644891
 10
58.82120337528206
 20
-46.93728667944209
 10
58.74509605827523
 20
-46.93728667944209
 10
58.74509605827523
 20
-47.01339399644891
 10
58.66959726534918
 20
-47.01339399644891
 10
58.66959726534918
 20
-47.08919937402705
 10
58.74509605827523
 20
-47.08919937402705
 10
58.74509605827523
 20
-47.16530669103323
 10
58.82120337528206
 20
-47.16530669103323
 10
58.82120337528206
 20
-47.08919937402705
  0
LINE
  5
1F9
330
79
100
AcDbEntity
  8
Camada 1
 62
   250
420
  1907995
370
    18
100
AcDbLine
 10
61.55893463063258
 20
-47.31752132504687
 30
0.0
 11
61.02679193566561
 21
-47.31752132504687
 31
0.0
  0
LINE
  5
1FA
330
79
100
AcDbEntity
  8
Camada 1
 62
   250
420
  1907995
370
    18
100
AcDbLine
 10
61.55893463063258
 20
-46.78537863007989
 30
0.0
 11
61.55893463063258
 21
-47.31752132504687
 31
0.0
  0
LINE
  5
1FB
330
79
100
AcDbEntity
  8
Camada 1
 62
   250
420
  1907995
370
    18
100
AcDbLine
 10
61.02679193566561
 20
-47.31752132504687
 30
0.0
 11
61.02679193566561
 21
-46.78537863007989
 31
0.0
  0
LINE
  5
1FC
330
79
100
AcDbEntity
  8
Camada 1
 62
   250
420
  1907995
370
    18
100
AcDbLine
 10
61.02679193566561
 20
-46.78537863007989
 30
0.0
 11
61.55893463063258
 21
-46.78537863007989
 31
0.0
  0
LWPOLYLINE
  5
1FD
330
79
100
AcDbEntity
  8
Camada 1
 62
   250
420
  1907995
370
    18
100
AcDbPolyline
 90
       12
 70
     1
 43
0.0
 10
61.40671999662022
 20
-47.08919937402705
 10
61.40671999662022
 20
-47.01339399644891
 10
61.3306126796134
 20
-47.01339399644891
 10
61.3306126796134
 20
-46.93728667944209
 10
61.25511388668607
 20
-46.93728667944209
 10
61.25511388668607
 20
-47.01339399644891
 10
61.17900656967925
 20
-47.01339399644891
 10
61.17900656967925
 20
-47.08919937402705
 10
61.25511388668607
 20
-47.08919937402705
 10
61.25511388668607
 20
-47.16530669103323
 10
61.3306126796134
 20
-47.16530669103323
 10
61.3306126796134
 20
-47.08919937402705
  0
LINE
  5
1FE
330
79
100
AcDbEntity
  8
Camada 1
 62
   250
420
  1907995
370
    18
100
AcDbLine
 10
64.06834393496393
 20
-47.31752132504687
 30
0.0
 11
63.53620123999696
 21
-47.31752132504687
 31
0.0
  0
LINE
  5
1FF
330
79
100
AcDbEntity
  8
Camada 1
 62
   250
420
  1907995
370
    18
100
AcDbLine
 10
64.06834393496393
 20
-46.78537863007989
 30
0.0
 11
64.06834393496393
 21
-47.31752132504687
 31
0.0
  0
LINE
  5
200
330
79
100
AcDbEntity
  8
Camada 1
 62
   250
420
  1907995
370
    18
100
AcDbLine
 10
63.53620123999696
 20
-47.31752132504687
 30
0.0
 11
63.53620123999696
 21
-46.78537863007989
 31
0.0
  0
LINE
  5
201
330
79
100
AcDbEntity
  8
Camada 1
 62
   250
420
  1907995
370
    18
100
AcDbLine
 10
63.53620123999696
 20
-46.78537863007989
 30
0.0
 11
64.06834393496393
 21
-46.78537863007989
 31
0.0
  0
LWPOLYLINE
  5
202
330
79
100
AcDbEntity
  8
Camada 1
 62
   250
420
  1907995
370
    18
100
AcDbPolyline
 90
       12
 70
     1
 43
0.0
 10
63.91612930095028
 20
-47.08919937402705
 10
63.91612930095028
 20
-47.01339399644891
 10
63.84002198394346
 20
-47.01339399644891
 10
63.84002198394346
 20
-46.93728667944209
 10
63.76452319101742
 20
-46.93728667944209
 10
63.76452319101742
 20
-47.01339399644891
 10
63.6884158740106
 20
-47.01339399644891
 10
63.6884158740106
 20
-47.08919937402705
 10
63.76452319101742
 20
-47.08919937402705
 10
63.76452319101742
 20
-47.16530669103323
 10
63.84002198394346
 20
-47.16530669103323
 10
63.84002198394346
 20
-47.08919937402705
  0
LINE
  5
203
330
79
100
AcDbEntity
  8
Camada 1
 62
   250
420
  1907995
370
    18
100
AcDbLine
 10
51.52098618343747
 20
-49.82693062937758
 30
0.0
 11
50.9888434884705
 21
-49.82693062937758
 31
0.0
  0
LINE
  5
204
330
79
100
AcDbEntity
  8
Camada 1
 62
   250
420
  1907995
370
    18
100
AcDbLine
 10
51.52098618343747
 20
-49.29478793441059
 30
0.0
 11
51.52098618343747
 21
-49.82693062937758
 31
0.0
  0
LINE
  5
205
330
79
100
AcDbEntity
  8
Camada 1
 62
   250
420
  1907995
370
    18
100
AcDbLine
 10
50.9888434884705
 20
-49.82693062937758
 30
0.0
 11
50.9888434884705
 21
-49.29478793441059
 31
0.0
  0
LINE
  5
206
330
79
100
AcDbEntity
  8
Camada 1
 62
   250
420
  1907995
370
    18
100
AcDbLine
 10
50.9888434884705
 20
-49.29478793441059
 30
0.0
 11
51.52098618343747
 21
-49.29478793441059
 31
0.0
  0
LWPOLYLINE
  5
207
330
79
100
AcDbEntity
  8
Camada 1
 62
   250
420
  1907995
370
    18
100
AcDbPolyline
 90
        8
 70
     1
 43
0.0
 10
51.29266423241701
 20
-49.59891061778644
 10
51.29266423241701
 20
-49.44669598377344
 10
51.21655691541018
 20
-49.44669598377344
 10
51.21655691541018
 20
-49.52280330077961
 10
51.14044959840336
 20
-49.52280330077961
 10
51.14044959840336
 20
-49.59891061778644
 10
51.21655691541018
 20
-49.67501793479326
 10
51.29266423241701
 20
-49.67501793479326
  0
LINE
  5
208
330
79
100
AcDbEntity
  8
Camada 1
 62
   250
420
  1907995
370
    18
100
AcDbLine
 10
54.03040013298966
 20
-49.82693062937758
 30
0.0
 11
53.49825743802269
 21
-49.82693062937758
 31
0.0
  0
LINE
  5
209
330
79
100
AcDbEntity
  8
Camada 1
 62
   250
420
  1907995
370
    18
100
AcDbLine
 10
54.03040013298966
 20
-49.29478793441059
 30
0.0
 11
54.03040013298966
 21
-49.82693062937758
 31
0.0
  0
LINE
  5
20A
330
79
100
AcDbEntity
  8
Camada 1
 62
   250
420
  1907995
370
    18
100
AcDbLine
 10
53.49825743802269
 20
-49.82693062937758
 30
0.0
 11
53.49825743802269
 21
-49.29478793441059
 31
0.0
  0
LINE
  5
20B
330
79
100
AcDbEntity
  8
Camada 1
 62
   250
420
  1907995
370
    18
100
AcDbLine
 10
53.49825743802269
 20
-49.29478793441059
 30
0.0
 11
54.03040013298966
 21
-49.29478793441059
 31
0.0
  0
LWPOLYLINE
  5
20C
330
79
100
AcDbEntity
  8
Camada 1
 62
   250
420
  1907995
370
    18
100
AcDbPolyline
 90
        8
 70
     1
 43
0.0
 10
53.80207818197048
 20
-49.59891061778644
 10
53.80207818197048
 20
-49.44669598377344
 10
53.72597086496366
 20
-49.44669598377344
 10
53.72597086496366
 20
-49.52280330077961
 10
53.65047207203633
 20
-49.52280330077961
 10
53.65047207203633
 20
-49.59891061778644
 10
53.72597086496366
 20
-49.67501793479326
 10
53.80207818197048
 20
-49.67501793479326
  0
LINE
  5
20D
330
79
100
AcDbEntity
  8
Camada 1
 62
   250
420
  1907995
370
    18
100
AcDbLine
 10
48.48250932109442
 20
-47.31727048305967
 30
0.0
 11
49.01465201606139
 21
-47.31727048305967
 31
0.0
  0
LWPOLYLINE
  5
20E
330
79
100
AcDbEntity
  8
Camada 1
 62
   250
420
  1907995
370
    18
100
AcDbPolyline
 90
        6
 70
     1
 43
0.0
 10
48.63411543102728
 20
-47.08925511669066
 10
48.63411543102728
 20
-47.01314779968384
 10
48.71022274803411
 20
-46.93704048267701
 10
48.78633006504093
 20
-46.93704048267701
 10
48.78633006504093
 20
-47.16505584904602
 10
48.71022274803411
 20
-47.16505584904602
  0
LINE
  5
20F
330
79
100
AcDbEntity
  8
Camada 1
 62
   250
420
  1907995
370
    18
100
AcDbLine
 10
49.01465201606139
 20
-47.31727048305967
 30
0.0
 11
49.01465201606139
 21
-46.78512778809269
 31
0.0
  0
LINE
  5
210
330
79
100
AcDbEntity
  8
Camada 1
 62
   250
420
  1907995
370
    18
100
AcDbLine
 10
49.01465201606139
 20
-46.78512778809269
 30
0.0
 11
48.48250932109442
 21
-46.78512778809269
 31
0.0
  0
LINE
  5
211
330
79
100
AcDbEntity
  8
Camada 1
 62
   250
420
  1907995
370
    18
100
AcDbLine
 10
48.48250932109442
 20
-46.78512778809269
 30
0.0
 11
48.48250932109442
 21
-47.31727048305967
 31
0.0
  0
LINE
  5
212
330
79
100
AcDbEntity
  8
Camada 1
 62
   250
420
  1907995
370
    18
100
AcDbLine
 10
45.97218723064318
 20
-47.31727048305967
 30
0.0
 11
46.50463418765055
 21
-47.31727048305967
 31
0.0
  0
LWPOLYLINE
  5
213
330
79
100
AcDbEntity
  8
Camada 1
 62
   250
420
  1907995
370
    18
100
AcDbPolyline
 90
        7
 70
     1
 43
0.0
 10
46.1237933405767
 20
-47.08925511669066
 10
46.1237933405767
 20
-46.93704048267701
 10
46.19990065758352
 20
-46.93704048267701
 10
46.27600797459034
 20
-46.93704048267701
 10
46.27600797459034
 20
-47.16505584904602
 10
46.19990065758352
 20
-47.16505584904602
 10
46.1237933405767
 20
-47.16505584904602
  0
LINE
  5
214
330
79
100
AcDbEntity
  8
Camada 1
 62
   250
420
  1907995
370
    18
100
AcDbLine
 10
46.50463418765055
 20
-47.31727048305967
 30
0.0
 11
46.50463418765055
 21
-46.78512778809269
 31
0.0
  0
LINE
  5
215
330
79
100
AcDbEntity
  8
Camada 1
 62
   250
420
  1907995
370
    18
100
AcDbLine
 10
46.50463418765055
 20
-46.78512778809269
 30
0.0
 11
45.97218723064318
 21
-46.78512778809269
 31
0.0
  0
LINE
  5
216
330
79
100
AcDbEntity
  8
Camada 1
 62
   250
420
  1907995
370
    18
100
AcDbLine
 10
45.97218723064318
 20
-46.78512778809269
 30
0.0
 11
45.97218723064318
 21
-47.31727048305967
 31
0.0
  0
LINE
  5
217
330
79
100
AcDbEntity
  8
Camada 1
 62
   250
420
  1907995
370
    18
100
AcDbLine
 10
43.38605976261511
 20
-47.31727048305967
 30
0.0
 11
43.9943097745889
 21
-47.31727048305967
 31
0.0
  0
LWPOLYLINE
  5
218
330
79
100
AcDbEntity
  8
Camada 1
 62
   250
420
  1907995
370
    18
100
AcDbPolyline
 90
        7
 70
     1
 43
0.0
 10
43.61377318955478
 20
-47.08925511669066
 10
43.61377318955478
 20
-46.93704048267701
 10
43.68988050656161
 20
-46.93704048267701
 10
43.76598782356842
 20
-46.93704048267701
 10
43.76598782356842
 20
-47.16505584904602
 10
43.68988050656161
 20
-47.16505584904602
 10
43.61377318955478
 20
-47.16505584904602
  0
LINE
  5
219
330
79
100
AcDbEntity
  8
Camada 1
 62
   250
420
  1907995
370
    18
100
AcDbLine
 10
43.9943097745889
 20
-47.31727048305967
 30
0.0
 11
43.9943097745889
 21
-46.78512778809269
 31
0.0
  0
LINE
  5
21A
330
79
100
AcDbEntity
  8
Camada 1
 62
   250
420
  1907995
370
    18
100
AcDbLine
 10
43.9943097745889
 20
-46.78512778809269
 30
0.0
 11
43.38605976261511
 21
-46.78512778809269
 31
0.0
  0
LINE
  5
21B
330
79
100
AcDbEntity
  8
Camada 1
 62
   250
420
  1907995
370
    18
100
AcDbLine
 10
43.38605976261511
 20
-46.78512778809269
 30
0.0
 11
43.38605976261511
 21
-47.31727048305967
 31
0.0
  0
LINE
  5
21C
330
79
100
AcDbEntity
  8
Camada 1
 62
   250
420
  1907995
370
    18
100
AcDbLine
 10
40.87573767216451
 20
-47.31727048305967
 30
0.0
 11
41.40818462917123
 21
-47.31727048305967
 31
0.0
  0
LWPOLYLINE
  5
21D
330
79
100
AcDbEntity
  8
Camada 1
 62
   250
420
  1907995
370
    18
100
AcDbPolyline
 90
        7
 70
     1
 43
0.0
 10
41.10375536114458
 20
-47.08925511669066
 10
41.10375536114458
 20
-46.93704048267701
 10
41.17986267815076
 20
-46.93704048267701
 10
41.25596999515759
 20
-46.93704048267701
 10
41.25596999515759
 20
-47.16505584904602
 10
41.17986267815076
 20
-47.16505584904602
 10
41.10375536114458
 20
-47.16505584904602
  0
LINE
  5
21E
330
79
100
AcDbEntity
  8
Camada 1
 62
   250
420
  1907995
370
    18
100
AcDbLine
 10
41.40818462917123
 20
-47.31727048305967
 30
0.0
 11
41.40818462917123
 21
-46.78512778809269
 31
0.0
  0
LINE
  5
21F
330
79
100
AcDbEntity
  8
Camada 1
 62
   250
420
  1907995
370
    18
100
AcDbLine
 10
41.40818462917123
 20
-46.78512778809269
 30
0.0
 11
40.87573767216451
 21
-46.78512778809269
 31
0.0
  0
LINE
  5
220
330
79
100
AcDbEntity
  8
Camada 1
 62
   250
420
  1907995
370
    18
100
AcDbLine
 10
40.87573767216451
 20
-46.78512778809269
 30
0.0
 11
40.87573767216451
 21
-47.31727048305967
 31
0.0
  0
LINE
  5
221
330
79
100
AcDbEntity
  8
Camada 1
 62
   250
420
  1907995
370
    18
100
AcDbLine
 10
38.36571752114261
 20
-47.31727048305967
 30
0.0
 11
38.89816447814933
 21
-47.31727048305967
 31
0.0
  0
LWPOLYLINE
  5
222
330
79
100
AcDbEntity
  8
Camada 1
 62
   250
420
  1907995
370
    18
100
AcDbPolyline
 90
        7
 70
     1
 43
0.0
 10
38.5934309480823
 20
-47.08925511669066
 10
38.5934309480823
 20
-46.93704048267701
 10
38.66953826508911
 20
-46.93704048267701
 10
38.74564558209594
 20
-47.01314779968384
 10
38.74564558209594
 20
-47.08925511669066
 10
38.66953826508911
 20
-47.16505584904602
 10
38.5934309480823
 20
-47.16505584904602
  0
LINE
  5
223
330
79
100
AcDbEntity
  8
Camada 1
 62
   250
420
  1907995
370
    18
100
AcDbLine
 10
38.89816447814933
 20
-47.31727048305967
 30
0.0
 11
38.89816447814933
 21
-46.78512778809269
 31
0.0
  0
LINE
  5
224
330
79
100
AcDbEntity
  8
Camada 1
 62
   250
420
  1907995
370
    18
100
AcDbLine
 10
38.89816447814933
 20
-46.78512778809269
 30
0.0
 11
38.36571752114261
 21
-46.78512778809269
 31
0.0
  0
LINE
  5
225
330
79
100
AcDbEntity
  8
Camada 1
 62
   250
420
  1907995
370
    18
100
AcDbLine
 10
38.36571752114261
 20
-46.78512778809269
 30
0.0
 11
38.36571752114261
 21
-47.31727048305967
 31
0.0
  0
LINE
  5
226
330
79
100
AcDbEntity
  8
Camada 1
 62
   250
420
  1907995
370
    18
100
AcDbLine
 10
35.85539310808095
 20
-47.31727048305967
 30
0.0
 11
36.38784006508768
 21
-47.31727048305967
 31
0.0
  0
LWPOLYLINE
  5
227
330
79
100
AcDbEntity
  8
Camada 1
 62
   250
420
  1907995
370
    18
100
AcDbPolyline
 90
        7
 70
     1
 43
0.0
 10
36.08341079706103
 20
-47.08925511669066
 10
36.08341079706103
 20
-46.93704048267701
 10
36.15951811406785
 20
-46.93704048267701
 10
36.23562543107404
 20
-47.01314779968384
 10
36.23562543107404
 20
-47.08925511669066
 10
36.15951811406785
 20
-47.16505584904602
 10
36.08341079706103
 20
-47.16505584904602
  0
LINE
  5
228
330
79
100
AcDbEntity
  8
Camada 1
 62
   250
420
  1907995
370
    18
100
AcDbLine
 10
36.38784006508768
 20
-47.31727048305967
 30
0.0
 11
36.38784006508768
 21
-46.78512778809269
 31
0.0
  0
LINE
  5
229
330
79
100
AcDbEntity
  8
Camada 1
 62
   250
420
  1907995
370
    18
100
AcDbLine
 10
36.38784006508768
 20
-46.78512778809269
 30
0.0
 11
35.85539310808095
 21
-46.78512778809269
 31
0.0
  0
LINE
  5
22A
330
79
100
AcDbEntity
  8
Camada 1
 62
   250
420
  1907995
370
    18
100
AcDbLine
 10
35.85539310808095
 20
-46.78512778809269
 30
0.0
 11
35.85539310808095
 21
-47.31727048305967
 31
0.0
  0
LINE
  5
22B
330
79
100
AcDbEntity
  8
Camada 1
 62
   250
420
  1907995
370
    18
100
AcDbLine
 10
48.48250932109442
 20
-49.82698637204183
 30
0.0
 11
49.01465201606139
 21
-49.82698637204183
 31
0.0
  0
LWPOLYLINE
  5
22C
330
79
100
AcDbEntity
  8
Camada 1
 62
   250
420
  1907995
370
    18
100
AcDbPolyline
 90
        7
 70
     1
 43
0.0
 10
48.63411543102728
 20
-49.59896636045069
 10
48.63411543102728
 20
-49.52285904344386
 10
48.71022274803411
 20
-49.52285904344386
 10
48.71022274803411
 20
-49.44675172643704
 10
48.78633006504093
 20
-49.44675172643704
 10
48.78633006504093
 20
-49.67507367745687
 10
48.71022274803411
 20
-49.67507367745687
  0
LINE
  5
22D
330
79
100
AcDbEntity
  8
Camada 1
 62
   250
420
  1907995
370
    18
100
AcDbLine
 10
49.01465201606139
 20
-49.82698637204183
 30
0.0
 11
49.01465201606139
 21
-49.29484367707485
 31
0.0
  0
LINE
  5
22E
330
79
100
AcDbEntity
  8
Camada 1
 62
   250
420
  1907995
370
    18
100
AcDbLine
 10
49.01465201606139
 20
-49.29484367707485
 30
0.0
 11
48.48250932109442
 21
-49.29484367707485
 31
0.0
  0
LINE
  5
22F
330
79
100
AcDbEntity
  8
Camada 1
 62
   250
420
  1907995
370
    18
100
AcDbLine
 10
48.48250932109442
 20
-49.29484367707485
 30
0.0
 11
48.48250932109442
 21
-49.82698637204183
 31
0.0
  0
LINE
  5
230
330
79
100
AcDbEntity
  8
Camada 1
 62
   250
420
  1907995
370
    18
100
AcDbLine
 10
45.97218723064318
 20
-49.82698637204183
 30
0.0
 11
46.50463418765055
 21
-49.82698637204183
 31
0.0
  0
LWPOLYLINE
  5
231
330
79
100
AcDbEntity
  8
Camada 1
 62
   250
420
  1907995
370
    18
100
AcDbPolyline
 90
        7
 70
     1
 43
0.0
 10
46.1237933405767
 20
-49.59896636045069
 10
46.1237933405767
 20
-49.52285904344386
 10
46.19990065758352
 20
-49.44675172643704
 10
46.27600797459034
 20
-49.52285904344386
 10
46.27600797459034
 20
-49.67507367745687
 10
46.19990065758352
 20
-49.67507367745687
 10
46.1237933405767
 20
-49.67507367745687
  0
LINE
  5
232
330
79
100
AcDbEntity
  8
Camada 1
 62
   250
420
  1907995
370
    18
100
AcDbLine
 10
46.50463418765055
 20
-49.82698637204183
 30
0.0
 11
46.50463418765055
 21
-49.29484367707485
 31
0.0
  0
LINE
  5
233
330
79
100
AcDbEntity
  8
Camada 1
 62
   250
420
  1907995
370
    18
100
AcDbLine
 10
46.50463418765055
 20
-49.29484367707485
 30
0.0
 11
45.97218723064318
 21
-49.29484367707485
 31
0.0
  0
LINE
  5
234
330
79
100
AcDbEntity
  8
Camada 1
 62
   250
420
  1907995
370
    18
100
AcDbLine
 10
45.97218723064318
 20
-49.29484367707485
 30
0.0
 11
45.97218723064318
 21
-49.82698637204183
 31
0.0
  0
LINE
  5
235
330
79
100
AcDbEntity
  8
Camada 1
 62
   250
420
  1907995
370
    18
100
AcDbLine
 10
43.38605976261511
 20
-49.82698637204183
 30
0.0
 11
43.9943097745889
 21
-49.82698637204183
 31
0.0
  0
LWPOLYLINE
  5
236
330
79
100
AcDbEntity
  8
Camada 1
 62
   250
420
  1907995
370
    18
100
AcDbPolyline
 90
        7
 70
     1
 43
0.0
 10
43.61377318955478
 20
-49.59896636045069
 10
43.61377318955478
 20
-49.52285904344386
 10
43.68988050656161
 20
-49.44675172643704
 10
43.76598782356842
 20
-49.52285904344386
 10
43.76598782356842
 20
-49.67507367745687
 10
43.68988050656161
 20
-49.67507367745687
 10
43.61377318955478
 20
-49.67507367745687
  0
LINE
  5
237
330
79
100
AcDbEntity
  8
Camada 1
 62
   250
420
  1907995
370
    18
100
AcDbLine
 10
43.9943097745889
 20
-49.82698637204183
 30
0.0
 11
43.9943097745889
 21
-49.29484367707485
 31
0.0
  0
LINE
  5
238
330
79
100
AcDbEntity
  8
Camada 1
 62
   250
420
  1907995
370
    18
100
AcDbLine
 10
43.9943097745889
 20
-49.29484367707485
 30
0.0
 11
43.38605976261511
 21
-49.29484367707485
 31
0.0
  0
LINE
  5
239
330
79
100
AcDbEntity
  8
Camada 1
 62
   250
420
  1907995
370
    18
100
AcDbLine
 10
43.38605976261511
 20
-49.29484367707485
 30
0.0
 11
43.38605976261511
 21
-49.82698637204183
 31
0.0
  0
LINE
  5
23A
330
79
100
AcDbEntity
  8
Camada 1
 62
   250
420
  1907995
370
    18
100
AcDbLine
 10
40.87573767216451
 20
-49.82698637204183
 30
0.0
 11
41.40818462917123
 21
-49.82698637204183
 31
0.0
  0
LWPOLYLINE
  5
23B
330
79
100
AcDbEntity
  8
Camada 1
 62
   250
420
  1907995
370
    18
100
AcDbPolyline
 90
        7
 70
     1
 43
0.0
 10
41.10375536114458
 20
-49.59896636045069
 10
41.10375536114458
 20
-49.52285904344386
 10
41.17986267815076
 20
-49.44675172643704
 10
41.25596999515759
 20
-49.52285904344386
 10
41.25596999515759
 20
-49.67507367745687
 10
41.17986267815076
 20
-49.67507367745687
 10
41.10375536114458
 20
-49.67507367745687
  0
LINE
  5
23C
330
79
100
AcDbEntity
  8
Camada 1
 62
   250
420
  1907995
370
    18
100
AcDbLine
 10
41.40818462917123
 20
-49.82698637204183
 30
0.0
 11
41.40818462917123
 21
-49.29484367707485
 31
0.0
  0
LINE
  5
23D
330
79
100
AcDbEntity
  8
Camada 1
 62
   250
420
  1907995
370
    18
100
AcDbLine
 10
41.40818462917123
 20
-49.29484367707485
 30
0.0
 11
40.87573767216451
 21
-49.29484367707485
 31
0.0
  0
LINE
  5
23E
330
79
100
AcDbEntity
  8
Camada 1
 62
   250
420
  1907995
370
    18
100
AcDbLine
 10
40.87573767216451
 20
-49.29484367707485
 30
0.0
 11
40.87573767216451
 21
-49.82698637204183
 31
0.0
  0
LWPOLYLINE
  5
23F
330
79
100
AcDbEntity
  8
Camada 1
 62
   250
420
  1907995
370
    18
100
AcDbPolyline
 90
        8
 70
     1
 43
0.0
 10
38.5934309480823
 20
-49.59896636045069
 10
38.5934309480823
 20
-49.44675172643704
 10
38.66953826508911
 20
-49.44675172643704
 10
38.66953826508911
 20
-49.52285904344386
 10
38.74564558209594
 20
-49.52285904344386
 10
38.74564558209594
 20
-49.59896636045069
 10
38.66953826508911
 20
-49.67507367745687
 10
38.5934309480823
 20
-49.67507367745687
  0
LINE
  5
240
330
79
100
AcDbEntity
  8
Camada 1
 62
   250
420
  1907995
370
    18
100
AcDbLine
 10
38.36571752114261
 20
-49.82698637204183
 30
0.0
 11
38.89816447814933
 21
-49.82698637204183
 31
0.0
  0
LINE
  5
241
330
79
100
AcDbEntity
  8
Camada 1
 62
   250
420
  1907995
370
    18
100
AcDbLine
 10
38.89816447814933
 20
-49.82698637204183
 30
0.0
 11
38.89816447814933
 21
-49.29484367707485
 31
0.0
  0
LINE
  5
242
330
79
100
AcDbEntity
  8
Camada 1
 62
   250
420
  1907995
370
    18
100
AcDbLine
 10
38.89816447814933
 20
-49.29484367707485
 30
0.0
 11
38.36571752114261
 21
-49.29484367707485
 31
0.0
  0
LINE
  5
243
330
79
100
AcDbEntity
  8
Camada 1
 62
   250
420
  1907995
370
    18
100
AcDbLine
 10
38.36571752114261
 20
-49.29484367707485
 30
0.0
 11
38.36571752114261
 21
-49.82698637204183
 31
0.0
  0
LWPOLYLINE
  5
244
330
79
100
AcDbEntity
  8
Camada 1
 62
   250
420
  1907995
370
    18
100
AcDbPolyline
 90
        8
 70
     1
 43
0.0
 10
36.08341079706103
 20
-49.59896636045069
 10
36.08341079706103
 20
-49.44675172643704
 10
36.15951811406785
 20
-49.44675172643704
 10
36.15951811406785
 20
-49.52285904344386
 10
36.23562543107404
 20
-49.52285904344386
 10
36.23562543107404
 20
-49.59896636045069
 10
36.15951811406785
 20
-49.67507367745687
 10
36.08341079706103
 20
-49.67507367745687
  0
LINE
  5
245
330
79
100
AcDbEntity
  8
Camada 1
 62
   250
420
  1907995
370
    18
100
AcDbLine
 10
35.85539310808095
 20
-49.82698637204183
 30
0.0
 11
36.38784006508768
 21
-49.82698637204183
 31
0.0
  0
LINE
  5
246
330
79
100
AcDbEntity
  8
Camada 1
 62
   250
420
  1907995
370
    18
100
AcDbLine
 10
36.38784006508768
 20
-49.82698637204183
 30
0.0
 11
36.38784006508768
 21
-49.29484367707485
 31
0.0
  0
LINE
  5
247
330
79
100
AcDbEntity
  8
Camada 1
 62
   250
420
  1907995
370
    18
100
AcDbLine
 10
36.38784006508768
 20
-49.29484367707485
 30
0.0
 11
35.85539310808095
 21
-49.29484367707485
 31
0.0
  0
LINE
  5
248
330
79
100
AcDbEntity
  8
Camada 1
 62
   250
420
  1907995
370
    18
100
AcDbLine
 10
35.85539310808095
 20
-49.29484367707485
 30
0.0
 11
35.85539310808095
 21
-49.82698637204183
 31
0.0
  0
LWPOLYLINE
  5
249
330
79
100
AcDbEntity
  8
Camada 1
 62
   250
420
  1907995
370
    18
100
AcDbPolyline
 90
        7
 70
     1
 43
0.0
 10
48.78633006504093
 20
-34.4654881087287
 10
48.78633006504093
 20
-34.38938079172188
 10
48.71022274803411
 20
-34.38938079172188
 10
48.63411543102728
 20
-34.38938079172188
 10
48.63411543102728
 20
-34.54128884108407
 10
48.71022274803411
 20
-34.54128884108407
 10
48.78633006504093
 20
-34.54128884108407
  0
LINE
  5
24A
330
79
100
AcDbEntity
  8
Camada 1
 62
   250
420
  1907995
370
    18
100
AcDbLine
 10
48.48250932109442
 20
-34.23716615770823
 30
0.0
 11
49.01465201606139
 21
-34.23716615770823
 31
0.0
  0
LINE
  5
24B
330
79
100
AcDbEntity
  8
Camada 1
 62
   250
420
  1907995
370
    18
100
AcDbLine
 10
49.01465201606139
 20
-34.76930420745308
 30
0.0
 11
48.48250932109442
 21
-34.76930420745308
 31
0.0
  0
LINE
  5
24C
330
79
100
AcDbEntity
  8
Camada 1
 62
   250
420
  1907995
370
    18
100
AcDbLine
 10
48.48250932109442
 20
-34.76930420745308
 30
0.0
 11
48.48250932109442
 21
-34.23716615770823
 31
0.0
  0
LINE
  5
24D
330
79
100
AcDbEntity
  8
Camada 1
 62
   250
420
  1907995
370
    18
100
AcDbLine
 10
49.01465201606139
 20
-34.23716615770823
 30
0.0
 11
49.01465201606139
 21
-34.76930420745308
 31
0.0
  0
LWPOLYLINE
  5
24E
330
79
100
AcDbEntity
  8
Camada 1
 62
   250
420
  1907995
370
    18
100
AcDbPolyline
 90
        7
 70
     1
 43
0.0
 10
46.27600797459034
 20
-34.4654881087287
 10
46.27600797459034
 20
-34.38938079172188
 10
46.19990065758352
 20
-34.38938079172188
 10
46.1237933405767
 20
-34.38938079172188
 10
46.1237933405767
 20
-34.54128884108407
 10
46.19990065758352
 20
-34.54128884108407
 10
46.27600797459034
 20
-34.54128884108407
  0
LINE
  5
24F
330
79
100
AcDbEntity
  8
Camada 1
 62
   250
420
  1907995
370
    18
100
AcDbLine
 10
45.97218723064318
 20
-34.23716615770823
 30
0.0
 11
46.50463418765055
 21
-34.23716615770823
 31
0.0
  0
LINE
  5
250
330
79
100
AcDbEntity
  8
Camada 1
 62
   250
420
  1907995
370
    18
100
AcDbLine
 10
46.50463418765055
 20
-34.76930420745308
 30
0.0
 11
45.97218723064318
 21
-34.76930420745308
 31
0.0
  0
LINE
  5
251
330
79
100
AcDbEntity
  8
Camada 1
 62
   250
420
  1907995
370
    18
100
AcDbLine
 10
45.97218723064318
 20
-34.76930420745308
 30
0.0
 11
45.97218723064318
 21
-34.23716615770823
 31
0.0
  0
LINE
  5
252
330
79
100
AcDbEntity
  8
Camada 1
 62
   250
420
  1907995
370
    18
100
AcDbLine
 10
46.50463418765055
 20
-34.23716615770823
 30
0.0
 11
46.50463418765055
 21
-34.76930420745308
 31
0.0
  0
LWPOLYLINE
  5
253
330
79
100
AcDbEntity
  8
Camada 1
 62
   250
420
  1907995
370
    18
100
AcDbPolyline
 90
        7
 70
     1
 43
0.0
 10
43.76598782356842
 20
-34.4654881087287
 10
43.76598782356842
 20
-34.38938079172188
 10
43.68988050656161
 20
-34.38938079172188
 10
43.61377318955478
 20
-34.38938079172188
 10
43.61377318955478
 20
-34.54128884108407
 10
43.68988050656161
 20
-34.54128884108407
 10
43.76598782356842
 20
-34.54128884108407
  0
LINE
  5
254
330
79
100
AcDbEntity
  8
Camada 1
 62
   250
420
  1907995
370
    18
100
AcDbLine
 10
43.38605976261511
 20
-34.23716615770823
 30
0.0
 11
43.9943097745889
 21
-34.23716615770823
 31
0.0
  0
LINE
  5
255
330
79
100
AcDbEntity
  8
Camada 1
 62
   250
420
  1907995
370
    18
100
AcDbLine
 10
43.9943097745889
 20
-34.76930420745308
 30
0.0
 11
43.38605976261511
 21
-34.76930420745308
 31
0.0
  0
LINE
  5
256
330
79
100
AcDbEntity
  8
Camada 1
 62
   250
420
  1907995
370
    18
100
AcDbLine
 10
43.38605976261511
 20
-34.76930420745308
 30
0.0
 11
43.38605976261511
 21
-34.23716615770823
 31
0.0
  0
LINE
  5
257
330
79
100
AcDbEntity
  8
Camada 1
 62
   250
420
  1907995
370
    18
100
AcDbLine
 10
43.9943097745889
 20
-34.23716615770823
 30
0.0
 11
43.9943097745889
 21
-34.76930420745308
 31
0.0
  0
LWPOLYLINE
  5
258
330
79
100
AcDbEntity
  8
Camada 1
 62
   250
420
  1907995
370
    18
100
AcDbPolyline
 90
        7
 70
     1
 43
0.0
 10
41.25596999515759
 20
-34.4654881087287
 10
41.25596999515759
 20
-34.38938079172188
 10
41.17986267815076
 20
-34.38938079172188
 10
41.10375536114458
 20
-34.38938079172188
 10
41.10375536114458
 20
-34.54128884108407
 10
41.17986267815076
 20
-34.54128884108407
 10
41.25596999515759
 20
-34.54128884108407
  0
LINE
  5
259
330
79
100
AcDbEntity
  8
Camada 1
 62
   250
420
  1907995
370
    18
100
AcDbLine
 10
40.87573767216451
 20
-34.23716615770823
 30
0.0
 11
41.40818462917123
 21
-34.23716615770823
 31
0.0
  0
LINE
  5
25A
330
79
100
AcDbEntity
  8
Camada 1
 62
   250
420
  1907995
370
    18
100
AcDbLine
 10
41.40818462917123
 20
-34.76930420745308
 30
0.0
 11
40.87573767216451
 21
-34.76930420745308
 31
0.0
  0
LINE
  5
25B
330
79
100
AcDbEntity
  8
Camada 1
 62
   250
420
  1907995
370
    18
100
AcDbLine
 10
40.87573767216451
 20
-34.76930420745308
 30
0.0
 11
40.87573767216451
 21
-34.23716615770823
 31
0.0
  0
LINE
  5
25C
330
79
100
AcDbEntity
  8
Camada 1
 62
   250
420
  1907995
370
    18
100
AcDbLine
 10
41.40818462917123
 20
-34.23716615770823
 30
0.0
 11
41.40818462917123
 21
-34.76930420745308
 31
0.0
  0
LWPOLYLINE
  5
25D
330
79
100
AcDbEntity
  8
Camada 1
 62
   250
420
  1907995
370
    18
100
AcDbPolyline
 90
        7
 70
     1
 43
0.0
 10
38.74564558209594
 20
-34.4654881087287
 10
38.74564558209594
 20
-34.38938079172188
 10
38.66953826508911
 20
-34.38938079172188
 10
38.5934309480823
 20
-34.38938079172188
 10
38.5934309480823
 20
-34.54128884108407
 10
38.66953826508911
 20
-34.54128884108407
 10
38.74564558209594
 20
-34.54128884108407
  0
LINE
  5
25E
330
79
100
AcDbEntity
  8
Camada 1
 62
   250
420
  1907995
370
    18
100
AcDbLine
 10
38.36571752114261
 20
-34.23716615770823
 30
0.0
 11
38.89816447814933
 21
-34.23716615770823
 31
0.0
  0
LINE
  5
25F
330
79
100
AcDbEntity
  8
Camada 1
 62
   250
420
  1907995
370
    18
100
AcDbLine
 10
38.89816447814933
 20
-34.76930420745308
 30
0.0
 11
38.36571752114261
 21
-34.76930420745308
 31
0.0
  0
LINE
  5
260
330
79
100
AcDbEntity
  8
Camada 1
 62
   250
420
  1907995
370
    18
100
AcDbLine
 10
38.36571752114261
 20
-34.76930420745308
 30
0.0
 11
38.36571752114261
 21
-34.23716615770823
 31
0.0
  0
LINE
  5
261
330
79
100
AcDbEntity
  8
Camada 1
 62
   250
420
  1907995
370
    18
100
AcDbLine
 10
38.89816447814933
 20
-34.23716615770823
 30
0.0
 11
38.89816447814933
 21
-34.76930420745308
 31
0.0
  0
LWPOLYLINE
  5
262
330
79
100
AcDbEntity
  8
Camada 1
 62
   250
420
  1907995
370
    18
100
AcDbPolyline
 90
        7
 70
     1
 43
0.0
 10
36.23562543107404
 20
-34.4654881087287
 10
36.23562543107404
 20
-34.38938079172188
 10
36.15951811406785
 20
-34.38938079172188
 10
36.08341079706103
 20
-34.38938079172188
 10
36.08341079706103
 20
-34.54128884108407
 10
36.15951811406785
 20
-34.54128884108407
 10
36.23562543107404
 20
-34.54128884108407
  0
LINE
  5
263
330
79
100
AcDbEntity
  8
Camada 1
 62
   250
420
  1907995
370
    18
100
AcDbLine
 10
35.85539310808095
 20
-34.23716615770823
 30
0.0
 11
36.38784006508768
 21
-34.23716615770823
 31
0.0
  0
LINE
  5
264
330
79
100
AcDbEntity
  8
Camada 1
 62
   250
420
  1907995
370
    18
100
AcDbLine
 10
36.38784006508768
 20
-34.76930420745308
 30
0.0
 11
35.85539310808095
 21
-34.76930420745308
 31
0.0
  0
LINE
  5
265
330
79
100
AcDbEntity
  8
Camada 1
 62
   250
420
  1907995
370
    18
100
AcDbLine
 10
35.85539310808095
 20
-34.76930420745308
 30
0.0
 11
35.85539310808095
 21
-34.23716615770823
 31
0.0
  0
LINE
  5
266
330
79
100
AcDbEntity
  8
Camada 1
 62
   250
420
  1907995
370
    18
100
AcDbLine
 10
36.38784006508768
 20
-34.23716615770823
 30
0.0
 11
36.38784006508768
 21
-34.76930420745308
 31
0.0
  0
LWPOLYLINE
  5
267
330
79
100
AcDbEntity
  8
Camada 1
 62
   250
420
  1907995
370
    18
100
AcDbPolyline
 90
        7
 70
     1
 43
0.0
 10
48.78633006504093
 20
-31.95547028031786
 10
48.78633006504093
 20
-31.87966954796185
 10
48.71022274803411
 20
-31.87966954796185
 10
48.63411543102728
 20
-31.87966954796185
 10
48.63411543102728
 20
-32.03157759732468
 10
48.71022274803411
 20
-32.03157759732468
 10
48.78633006504093
 20
-32.03157759732468
  0
LINE
  5
268
330
79
100
AcDbEntity
  8
Camada 1
 62
   250
420
  1907995
370
    18
100
AcDbLine
 10
48.48250932109442
 20
-31.72745491394885
 30
0.0
 11
49.01465201606139
 21
-31.72745491394885
 31
0.0
  0
LINE
  5
269
330
79
100
AcDbEntity
  8
Camada 1
 62
   250
420
  1907995
370
    18
100
AcDbLine
 10
49.01465201606139
 20
-32.25989954834451
 30
0.0
 11
48.48250932109442
 21
-32.25989954834451
 31
0.0
  0
LINE
  5
26A
330
79
100
AcDbEntity
  8
Camada 1
 62
   250
420
  1907995
370
    18
100
AcDbLine
 10
48.48250932109442
 20
-32.25989954834451
 30
0.0
 11
48.48250932109442
 21
-31.72745491394885
 31
0.0
  0
LINE
  5
26B
330
79
100
AcDbEntity
  8
Camada 1
 62
   250
420
  1907995
370
    18
100
AcDbLine
 10
49.01465201606139
 20
-31.72745491394885
 30
0.0
 11
49.01465201606139
 21
-32.25989954834451
 31
0.0
  0
LWPOLYLINE
  5
26C
330
79
100
AcDbEntity
  8
Camada 1
 62
   250
420
  1907995
370
    18
100
AcDbPolyline
 90
        7
 70
     1
 43
0.0
 10
46.27600797459034
 20
-31.95547028031786
 10
46.27600797459034
 20
-31.87966954796185
 10
46.19990065758352
 20
-31.87966954796185
 10
46.1237933405767
 20
-31.87966954796185
 10
46.1237933405767
 20
-32.03157759732468
 10
46.19990065758352
 20
-32.03157759732468
 10
46.27600797459034
 20
-32.03157759732468
  0
LINE
  5
26D
330
79
100
AcDbEntity
  8
Camada 1
 62
   250
420
  1907995
370
    18
100
AcDbLine
 10
45.97218723064318
 20
-31.72745491394885
 30
0.0
 11
46.50463418765055
 21
-31.72745491394885
 31
0.0
  0
LINE
  5
26E
330
79
100
AcDbEntity
  8
Camada 1
 62
   250
420
  1907995
370
    18
100
AcDbLine
 10
46.50463418765055
 20
-32.25989954834451
 30
0.0
 11
45.97218723064318
 21
-32.25989954834451
 31
0.0
  0
LINE
  5
26F
330
79
100
AcDbEntity
  8
Camada 1
 62
   250
420
  1907995
370
    18
100
AcDbLine
 10
45.97218723064318
 20
-32.25989954834451
 30
0.0
 11
45.97218723064318
 21
-31.72745491394885
 31
0.0
  0
LINE
  5
270
330
79
100
AcDbEntity
  8
Camada 1
 62
   250
420
  1907995
370
    18
100
AcDbLine
 10
46.50463418765055
 20
-31.72745491394885
 30
0.0
 11
46.50463418765055
 21
-32.25989954834451
 31
0.0
  0
LWPOLYLINE
  5
271
330
79
100
AcDbEntity
  8
Camada 1
 62
   250
420
  1907995
370
    18
100
AcDbPolyline
 90
        7
 70
     1
 43
0.0
 10
43.76598782356842
 20
-31.95547028031786
 10
43.76598782356842
 20
-31.87966954796185
 10
43.68988050656161
 20
-31.87966954796185
 10
43.61377318955478
 20
-31.87966954796185
 10
43.61377318955478
 20
-32.03157759732468
 10
43.68988050656161
 20
-32.03157759732468
 10
43.76598782356842
 20
-32.03157759732468
  0
LINE
  5
272
330
79
100
AcDbEntity
  8
Camada 1
 62
   250
420
  1907995
370
    18
100
AcDbLine
 10
43.38605976261511
 20
-31.72745491394885
 30
0.0
 11
43.9943097745889
 21
-31.72745491394885
 31
0.0
  0
LINE
  5
273
330
79
100
AcDbEntity
  8
Camada 1
 62
   250
420
  1907995
370
    18
100
AcDbLine
 10
43.9943097745889
 20
-32.25989954834451
 30
0.0
 11
43.38605976261511
 21
-32.25989954834451
 31
0.0
  0
LINE
  5
274
330
79
100
AcDbEntity
  8
Camada 1
 62
   250
420
  1907995
370
    18
100
AcDbLine
 10
43.38605976261511
 20
-32.25989954834451
 30
0.0
 11
43.38605976261511
 21
-31.72745491394885
 31
0.0
  0
LINE
  5
275
330
79
100
AcDbEntity
  8
Camada 1
 62
   250
420
  1907995
370
    18
100
AcDbLine
 10
43.9943097745889
 20
-31.72745491394885
 30
0.0
 11
43.9943097745889
 21
-32.25989954834451
 31
0.0
  0
LWPOLYLINE
  5
276
330
79
100
AcDbEntity
  8
Camada 1
 62
   250
420
  1907995
370
    18
100
AcDbPolyline
 90
        7
 70
     1
 43
0.0
 10
41.25596999515759
 20
-31.95547028031786
 10
41.25596999515759
 20
-31.87966954796185
 10
41.17986267815076
 20
-31.87966954796185
 10
41.10375536114458
 20
-31.87966954796185
 10
41.10375536114458
 20
-32.03157759732468
 10
41.17986267815076
 20
-32.03157759732468
 10
41.25596999515759
 20
-32.03157759732468
  0
LINE
  5
277
330
79
100
AcDbEntity
  8
Camada 1
 62
   250
420
  1907995
370
    18
100
AcDbLine
 10
40.87573767216451
 20
-31.72745491394885
 30
0.0
 11
41.40818462917123
 21
-31.72745491394885
 31
0.0
  0
LINE
  5
278
330
79
100
AcDbEntity
  8
Camada 1
 62
   250
420
  1907995
370
    18
100
AcDbLine
 10
41.40818462917123
 20
-32.25989954834451
 30
0.0
 11
40.87573767216451
 21
-32.25989954834451
 31
0.0
  0
LINE
  5
279
330
79
100
AcDbEntity
  8
Camada 1
 62
   250
420
  1907995
370
    18
100
AcDbLine
 10
40.87573767216451
 20
-32.25989954834451
 30
0.0
 11
40.87573767216451
 21
-31.72745491394885
 31
0.0
  0
LINE
  5
27A
330
79
100
AcDbEntity
  8
Camada 1
 62
   250
420
  1907995
370
    18
100
AcDbLine
 10
41.40818462917123
 20
-31.72745491394885
 30
0.0
 11
41.40818462917123
 21
-32.25989954834451
 31
0.0
  0
LWPOLYLINE
  5
27B
330
79
100
AcDbEntity
  8
Camada 1
 62
   250
420
  1907995
370
    18
100
AcDbPolyline
 90
        7
 70
     1
 43
0.0
 10
38.74564558209594
 20
-31.95547028031786
 10
38.74564558209594
 20
-31.87966954796185
 10
38.66953826508911
 20
-31.87966954796185
 10
38.5934309480823
 20
-31.87966954796185
 10
38.5934309480823
 20
-32.03157759732468
 10
38.66953826508911
 20
-32.03157759732468
 10
38.74564558209594
 20
-32.03157759732468
  0
LINE
  5
27C
330
79
100
AcDbEntity
  8
Camada 1
 62
   250
420
  1907995
370
    18
100
AcDbLine
 10
38.36571752114261
 20
-31.72745491394885
 30
0.0
 11
38.89816447814933
 21
-31.72745491394885
 31
0.0
  0
LINE
  5
27D
330
79
100
AcDbEntity
  8
Camada 1
 62
   250
420
  1907995
370
    18
100
AcDbLine
 10
38.89816447814933
 20
-32.25989954834451
 30
0.0
 11
38.36571752114261
 21
-32.25989954834451
 31
0.0
  0
LINE
  5
27E
330
79
100
AcDbEntity
  8
Camada 1
 62
   250
420
  1907995
370
    18
100
AcDbLine
 10
38.36571752114261
 20
-32.25989954834451
 30
0.0
 11
38.36571752114261
 21
-31.72745491394885
 31
0.0
  0
LINE
  5
27F
330
79
100
AcDbEntity
  8
Camada 1
 62
   250
420
  1907995
370
    18
100
AcDbLine
 10
38.89816447814933
 20
-31.72745491394885
 30
0.0
 11
38.89816447814933
 21
-32.25989954834451
 31
0.0
  0
LWPOLYLINE
  5
280
330
79
100
AcDbEntity
  8
Camada 1
 62
   250
420
  1907995
370
    18
100
AcDbPolyline
 90
        7
 70
     1
 43
0.0
 10
36.23562543107404
 20
-31.95547028031786
 10
36.23562543107404
 20
-31.87966954796185
 10
36.15951811406785
 20
-31.87966954796185
 10
36.08341079706103
 20
-31.87966954796185
 10
36.08341079706103
 20
-32.03157759732468
 10
36.15951811406785
 20
-32.03157759732468
 10
36.23562543107404
 20
-32.03157759732468
  0
LINE
  5
281
330
79
100
AcDbEntity
  8
Camada 1
 62
   250
420
  1907995
370
    18
100
AcDbLine
 10
35.85539310808095
 20
-31.72745491394885
 30
0.0
 11
36.38784006508768
 21
-31.72745491394885
 31
0.0
  0
LINE
  5
282
330
79
100
AcDbEntity
  8
Camada 1
 62
   250
420
  1907995
370
    18
100
AcDbLine
 10
36.38784006508768
 20
-32.25989954834451
 30
0.0
 11
35.85539310808095
 21
-32.25989954834451
 31
0.0
  0
LINE
  5
283
330
79
100
AcDbEntity
  8
Camada 1
 62
   250
420
  1907995
370
    18
100
AcDbLine
 10
35.85539310808095
 20
-32.25989954834451
 30
0.0
 11
35.85539310808095
 21
-31.72745491394885
 31
0.0
  0
LINE
  5
284
330
79
100
AcDbEntity
  8
Camada 1
 62
   250
420
  1907995
370
    18
100
AcDbLine
 10
36.38784006508768
 20
-31.72745491394885
 30
0.0
 11
36.38784006508768
 21
-32.25989954834451
 31
0.0
  0
LWPOLYLINE
  5
285
330
79
100
AcDbEntity
  8
Camada 1
 62
   250
420
  1907995
370
    18
100
AcDbPolyline
 90
        7
 70
     1
 43
0.0
 10
48.78633006504093
 20
-29.44605633076502
 10
48.78633006504093
 20
-29.37025559840966
 10
48.71022274803411
 20
-29.37025559840966
 10
48.63411543102728
 20
-29.37025559840966
 10
48.63411543102728
 20
-29.52216364777185
 10
48.71022274803411
 20
-29.52216364777185
 10
48.78633006504093
 20
-29.52216364777185
  0
LINE
  5
286
330
79
100
AcDbEntity
  8
Camada 1
 62
   250
420
  1907995
370
    18
100
AcDbLine
 10
48.48250932109442
 20
-29.21804096439601
 30
0.0
 11
49.01465201606139
 21
-29.21804096439601
 31
0.0
  0
LINE
  5
287
330
79
100
AcDbEntity
  8
Camada 1
 62
   250
420
  1907995
370
    18
100
AcDbLine
 10
49.01465201606139
 20
-29.75017901414086
 30
0.0
 11
48.48250932109442
 21
-29.75017901414086
 31
0.0
  0
LINE
  5
288
330
79
100
AcDbEntity
  8
Camada 1
 62
   250
420
  1907995
370
    18
100
AcDbLine
 10
48.48250932109442
 20
-29.75017901414086
 30
0.0
 11
48.48250932109442
 21
-29.21804096439601
 31
0.0
  0
LINE
  5
289
330
79
100
AcDbEntity
  8
Camada 1
 62
   250
420
  1907995
370
    18
100
AcDbLine
 10
49.01465201606139
 20
-29.21804096439601
 30
0.0
 11
49.01465201606139
 21
-29.75017901414086
 31
0.0
  0
LWPOLYLINE
  5
28A
330
79
100
AcDbEntity
  8
Camada 1
 62
   250
420
  1907995
370
    18
100
AcDbPolyline
 90
        7
 70
     1
 43
0.0
 10
46.27600797459034
 20
-29.44605633076502
 10
46.27600797459034
 20
-29.37025559840966
 10
46.19990065758352
 20
-29.37025559840966
 10
46.1237933405767
 20
-29.37025559840966
 10
46.1237933405767
 20
-29.52216364777185
 10
46.19990065758352
 20
-29.52216364777185
 10
46.27600797459034
 20
-29.52216364777185
  0
LINE
  5
28B
330
79
100
AcDbEntity
  8
Camada 1
 62
   250
420
  1907995
370
    18
100
AcDbLine
 10
45.97218723064318
 20
-29.21804096439601
 30
0.0
 11
46.50463418765055
 21
-29.21804096439601
 31
0.0
  0
LINE
  5
28C
330
79
100
AcDbEntity
  8
Camada 1
 62
   250
420
  1907995
370
    18
100
AcDbLine
 10
46.50463418765055
 20
-29.75017901414086
 30
0.0
 11
45.97218723064318
 21
-29.75017901414086
 31
0.0
  0
LINE
  5
28D
330
79
100
AcDbEntity
  8
Camada 1
 62
   250
420
  1907995
370
    18
100
AcDbLine
 10
45.97218723064318
 20
-29.75017901414086
 30
0.0
 11
45.97218723064318
 21
-29.21804096439601
 31
0.0
  0
LINE
  5
28E
330
79
100
AcDbEntity
  8
Camada 1
 62
   250
420
  1907995
370
    18
100
AcDbLine
 10
46.50463418765055
 20
-29.21804096439601
 30
0.0
 11
46.50463418765055
 21
-29.75017901414086
 31
0.0
  0
LWPOLYLINE
  5
28F
330
79
100
AcDbEntity
  8
Camada 1
 62
   250
420
  1907995
370
    18
100
AcDbPolyline
 90
        7
 70
     1
 43
0.0
 10
43.76598782356842
 20
-29.44605633076502
 10
43.76598782356842
 20
-29.37025559840966
 10
43.68988050656161
 20
-29.37025559840966
 10
43.61377318955478
 20
-29.37025559840966
 10
43.61377318955478
 20
-29.52216364777185
 10
43.68988050656161
 20
-29.52216364777185
 10
43.76598782356842
 20
-29.52216364777185
  0
LINE
  5
290
330
79
100
AcDbEntity
  8
Camada 1
 62
   250
420
  1907995
370
    18
100
AcDbLine
 10
43.38605976261511
 20
-29.21804096439601
 30
0.0
 11
43.9943097745889
 21
-29.21804096439601
 31
0.0
  0
LINE
  5
291
330
79
100
AcDbEntity
  8
Camada 1
 62
   250
420
  1907995
370
    18
100
AcDbLine
 10
43.9943097745889
 20
-29.75017901414086
 30
0.0
 11
43.38605976261511
 21
-29.75017901414086
 31
0.0
  0
LINE
  5
292
330
79
100
AcDbEntity
  8
Camada 1
 62
   250
420
  1907995
370
    18
100
AcDbLine
 10
43.38605976261511
 20
-29.75017901414086
 30
0.0
 11
43.38605976261511
 21
-29.21804096439601
 31
0.0
  0
LINE
  5
293
330
79
100
AcDbEntity
  8
Camada 1
 62
   250
420
  1907995
370
    18
100
AcDbLine
 10
43.9943097745889
 20
-29.21804096439601
 30
0.0
 11
43.9943097745889
 21
-29.75017901414086
 31
0.0
  0
LWPOLYLINE
  5
294
330
79
100
AcDbEntity
  8
Camada 1
 62
   250
420
  1907995
370
    18
100
AcDbPolyline
 90
        7
 70
     1
 43
0.0
 10
41.25596999515759
 20
-29.44605633076502
 10
41.25596999515759
 20
-29.37025559840966
 10
41.17986267815076
 20
-29.37025559840966
 10
41.10375536114458
 20
-29.37025559840966
 10
41.10375536114458
 20
-29.52216364777185
 10
41.17986267815076
 20
-29.52216364777185
 10
41.25596999515759
 20
-29.52216364777185
  0
LINE
  5
295
330
79
100
AcDbEntity
  8
Camada 1
 62
   250
420
  1907995
370
    18
100
AcDbLine
 10
40.87573767216451
 20
-29.21804096439601
 30
0.0
 11
41.40818462917123
 21
-29.21804096439601
 31
0.0
  0
LINE
  5
296
330
79
100
AcDbEntity
  8
Camada 1
 62
   250
420
  1907995
370
    18
100
AcDbLine
 10
41.40818462917123
 20
-29.75017901414086
 30
0.0
 11
40.87573767216451
 21
-29.75017901414086
 31
0.0
  0
LINE
  5
297
330
79
100
AcDbEntity
  8
Camada 1
 62
   250
420
  1907995
370
    18
100
AcDbLine
 10
40.87573767216451
 20
-29.75017901414086
 30
0.0
 11
40.87573767216451
 21
-29.21804096439601
 31
0.0
  0
LINE
  5
298
330
79
100
AcDbEntity
  8
Camada 1
 62
   250
420
  1907995
370
    18
100
AcDbLine
 10
41.40818462917123
 20
-29.21804096439601
 30
0.0
 11
41.40818462917123
 21
-29.75017901414086
 31
0.0
  0
LWPOLYLINE
  5
299
330
79
100
AcDbEntity
  8
Camada 1
 62
   250
420
  1907995
370
    18
100
AcDbPolyline
 90
        7
 70
     1
 43
0.0
 10
38.74564558209594
 20
-29.44605633076502
 10
38.74564558209594
 20
-29.37025559840966
 10
38.66953826508911
 20
-29.37025559840966
 10
38.5934309480823
 20
-29.37025559840966
 10
38.5934309480823
 20
-29.52216364777185
 10
38.66953826508911
 20
-29.52216364777185
 10
38.74564558209594
 20
-29.52216364777185
  0
LINE
  5
29A
330
79
100
AcDbEntity
  8
Camada 1
 62
   250
420
  1907995
370
    18
100
AcDbLine
 10
38.36571752114261
 20
-29.21804096439601
 30
0.0
 11
38.89816447814933
 21
-29.21804096439601
 31
0.0
  0
LINE
  5
29B
330
79
100
AcDbEntity
  8
Camada 1
 62
   250
420
  1907995
370
    18
100
AcDbLine
 10
38.89816447814933
 20
-29.75017901414086
 30
0.0
 11
38.36571752114261
 21
-29.75017901414086
 31
0.0
  0
LINE
  5
29C
330
79
100
AcDbEntity
  8
Camada 1
 62
   250
420
  1907995
370
    18
100
AcDbLine
 10
38.36571752114261
 20
-29.75017901414086
 30
0.0
 11
38.36571752114261
 21
-29.21804096439601
 31
0.0
  0
LINE
  5
29D
330
79
100
AcDbEntity
  8
Camada 1
 62
   250
420
  1907995
370
    18
100
AcDbLine
 10
38.89816447814933
 20
-29.21804096439601
 30
0.0
 11
38.89816447814933
 21
-29.75017901414086
 31
0.0
  0
LWPOLYLINE
  5
29E
330
79
100
AcDbEntity
  8
Camada 1
 62
   250
420
  1907995
370
    18
100
AcDbPolyline
 90
        7
 70
     1
 43
0.0
 10
36.23562543107404
 20
-29.44605633076502
 10
36.23562543107404
 20
-29.37025559840966
 10
36.15951811406785
 20
-29.37025559840966
 10
36.08341079706103
 20
-29.37025559840966
 10
36.08341079706103
 20
-29.52216364777185
 10
36.15951811406785
 20
-29.52216364777185
 10
36.23562543107404
 20
-29.52216364777185
  0
LINE
  5
29F
330
79
100
AcDbEntity
  8
Camada 1
 62
   250
420
  1907995
370
    18
100
AcDbLine
 10
35.85539310808095
 20
-29.21804096439601
 30
0.0
 11
36.38784006508768
 21
-29.21804096439601
 31
0.0
  0
LINE
  5
2A0
330
79
100
AcDbEntity
  8
Camada 1
 62
   250
420
  1907995
370
    18
100
AcDbLine
 10
36.38784006508768
 20
-29.75017901414086
 30
0.0
 11
35.85539310808095
 21
-29.75017901414086
 31
0.0
  0
LINE
  5
2A1
330
79
100
AcDbEntity
  8
Camada 1
 62
   250
420
  1907995
370
    18
100
AcDbLine
 10
35.85539310808095
 20
-29.75017901414086
 30
0.0
 11
35.85539310808095
 21
-29.21804096439601
 31
0.0
  0
LINE
  5
2A2
330
79
100
AcDbEntity
  8
Camada 1
 62
   250
420
  1907995
370
    18
100
AcDbLine
 10
36.38784006508768
 20
-29.21804096439601
 30
0.0
 11
36.38784006508768
 21
-29.75017901414086
 31
0.0
  0
LWPOLYLINE
  5
2A3
330
79
100
AcDbEntity
  8
Camada 1
 62
   250
420
  1907995
370
    18
100
AcDbPolyline
 90
        7
 70
     1
 43
0.0
 10
48.78633006504093
 20
-26.93634508700564
 10
48.78633006504093
 20
-26.86054435464963
 10
48.71022274803411
 20
-26.86054435464963
 10
48.63411543102728
 20
-26.86054435464963
 10
48.63411543102728
 20
-27.01245240401246
 10
48.71022274803411
 20
-27.01245240401246
 10
48.78633006504093
 20
-27.01245240401246
  0
LINE
  5
2A4
330
79
100
AcDbEntity
  8
Camada 1
 62
   250
420
  1907995
370
    18
100
AcDbLine
 10
48.48250932109442
 20
-26.70832972063662
 30
0.0
 11
49.01465201606139
 21
-26.70832972063662
 31
0.0
  0
LINE
  5
2A5
330
79
100
AcDbEntity
  8
Camada 1
 62
   250
420
  1907995
370
    18
100
AcDbLine
 10
49.01465201606139
 20
-27.24046777038147
 30
0.0
 11
48.48250932109442
 21
-27.24046777038147
 31
0.0
  0
LINE
  5
2A6
330
79
100
AcDbEntity
  8
Camada 1
 62
   250
420
  1907995
370
    18
100
AcDbLine
 10
48.48250932109442
 20
-27.24046777038147
 30
0.0
 11
48.48250932109442
 21
-26.70832972063662
 31
0.0
  0
LINE
  5
2A7
330
79
100
AcDbEntity
  8
Camada 1
 62
   250
420
  1907995
370
    18
100
AcDbLine
 10
49.01465201606139
 20
-26.70832972063662
 30
0.0
 11
49.01465201606139
 21
-27.24046777038147
 31
0.0
  0
LWPOLYLINE
  5
2A8
330
79
100
AcDbEntity
  8
Camada 1
 62
   250
420
  1907995
370
    18
100
AcDbPolyline
 90
        7
 70
     1
 43
0.0
 10
46.27600797459034
 20
-26.93634508700564
 10
46.27600797459034
 20
-26.86054435464963
 10
46.19990065758352
 20
-26.86054435464963
 10
46.1237933405767
 20
-26.86054435464963
 10
46.1237933405767
 20
-27.01245240401246
 10
46.19990065758352
 20
-27.01245240401246
 10
46.27600797459034
 20
-27.01245240401246
  0
LINE
  5
2A9
330
79
100
AcDbEntity
  8
Camada 1
 62
   250
420
  1907995
370
    18
100
AcDbLine
 10
45.97218723064318
 20
-26.70832972063662
 30
0.0
 11
46.50463418765055
 21
-26.70832972063662
 31
0.0
  0
LINE
  5
2AA
330
79
100
AcDbEntity
  8
Camada 1
 62
   250
420
  1907995
370
    18
100
AcDbLine
 10
45.97218723064318
 20
-27.24046777038147
 30
0.0
 11
45.97218723064318
 21
-26.70832972063662
 31
0.0
  0
LINE
  5
2AB
330
79
100
AcDbEntity
  8
Camada 1
 62
   250
420
  1907995
370
    18
100
AcDbLine
 10
46.50463418765055
 20
-26.70832972063662
 30
0.0
 11
46.50463418765055
 21
-27.24046777038147
 31
0.0
  0
LINE
  5
2AC
330
79
100
AcDbEntity
  8
Camada 1
 62
   250
420
  1907995
370
    18
100
AcDbLine
 10
46.50463418765055
 20
-27.24046777038147
 30
0.0
 11
45.97218723064318
 21
-27.24046777038147
 31
0.0
  0
LWPOLYLINE
  5
2AD
330
79
100
AcDbEntity
  8
Camada 1
 62
   250
420
  1907995
370
    18
100
AcDbPolyline
 90
        7
 70
     1
 43
0.0
 10
43.76598782356842
 20
-26.93634508700564
 10
43.76598782356842
 20
-26.86054435464963
 10
43.68988050656161
 20
-26.86054435464963
 10
43.61377318955478
 20
-26.86054435464963
 10
43.61377318955478
 20
-27.01245240401246
 10
43.68988050656161
 20
-27.01245240401246
 10
43.76598782356842
 20
-27.01245240401246
  0
LINE
  5
2AE
330
79
100
AcDbEntity
  8
Camada 1
 62
   250
420
  1907995
370
    18
100
AcDbLine
 10
43.38605976261511
 20
-26.70832972063662
 30
0.0
 11
43.9943097745889
 21
-26.70832972063662
 31
0.0
  0
LINE
  5
2AF
330
79
100
AcDbEntity
  8
Camada 1
 62
   250
420
  1907995
370
    18
100
AcDbLine
 10
43.38605976261511
 20
-27.24046777038147
 30
0.0
 11
43.38605976261511
 21
-26.70832972063662
 31
0.0
  0
LINE
  5
2B0
330
79
100
AcDbEntity
  8
Camada 1
 62
   250
420
  1907995
370
    18
100
AcDbLine
 10
43.9943097745889
 20
-26.70832972063662
 30
0.0
 11
43.9943097745889
 21
-27.24046777038147
 31
0.0
  0
LINE
  5
2B1
330
79
100
AcDbEntity
  8
Camada 1
 62
   250
420
  1907995
370
    18
100
AcDbLine
 10
43.9943097745889
 20
-27.24046777038147
 30
0.0
 11
43.38605976261511
 21
-27.24046777038147
 31
0.0
  0
LWPOLYLINE
  5
2B2
330
79
100
AcDbEntity
  8
Camada 1
 62
   250
420
  1907995
370
    18
100
AcDbPolyline
 90
        7
 70
     1
 43
0.0
 10
41.25596999515759
 20
-26.93634508700564
 10
41.25596999515759
 20
-26.86054435464963
 10
41.17986267815076
 20
-26.86054435464963
 10
41.10375536114458
 20
-26.86054435464963
 10
41.10375536114458
 20
-27.01245240401246
 10
41.17986267815076
 20
-27.01245240401246
 10
41.25596999515759
 20
-27.01245240401246
  0
LINE
  5
2B3
330
79
100
AcDbEntity
  8
Camada 1
 62
   250
420
  1907995
370
    18
100
AcDbLine
 10
40.87573767216451
 20
-26.70832972063662
 30
0.0
 11
41.40818462917123
 21
-26.70832972063662
 31
0.0
  0
LINE
  5
2B4
330
79
100
AcDbEntity
  8
Camada 1
 62
   250
420
  1907995
370
    18
100
AcDbLine
 10
40.87573767216451
 20
-27.24046777038147
 30
0.0
 11
40.87573767216451
 21
-26.70832972063662
 31
0.0
  0
LINE
  5
2B5
330
79
100
AcDbEntity
  8
Camada 1
 62
   250
420
  1907995
370
    18
100
AcDbLine
 10
41.40818462917123
 20
-26.70832972063662
 30
0.0
 11
41.40818462917123
 21
-27.24046777038147
 31
0.0
  0
LINE
  5
2B6
330
79
100
AcDbEntity
  8
Camada 1
 62
   250
420
  1907995
370
    18
100
AcDbLine
 10
41.40818462917123
 20
-27.24046777038147
 30
0.0
 11
40.87573767216451
 21
-27.24046777038147
 31
0.0
  0
LWPOLYLINE
  5
2B7
330
79
100
AcDbEntity
  8
Camada 1
 62
   250
420
  1907995
370
    18
100
AcDbPolyline
 90
        7
 70
     1
 43
0.0
 10
38.74564558209594
 20
-26.93634508700564
 10
38.74564558209594
 20
-26.86054435464963
 10
38.66953826508911
 20
-26.86054435464963
 10
38.5934309480823
 20
-26.86054435464963
 10
38.5934309480823
 20
-27.01245240401246
 10
38.66953826508911
 20
-27.01245240401246
 10
38.74564558209594
 20
-27.01245240401246
  0
LINE
  5
2B8
330
79
100
AcDbEntity
  8
Camada 1
 62
   250
420
  1907995
370
    18
100
AcDbLine
 10
38.36571752114261
 20
-26.70832972063662
 30
0.0
 11
38.89816447814933
 21
-26.70832972063662
 31
0.0
  0
LINE
  5
2B9
330
79
100
AcDbEntity
  8
Camada 1
 62
   250
420
  1907995
370
    18
100
AcDbLine
 10
38.36571752114261
 20
-27.24046777038147
 30
0.0
 11
38.36571752114261
 21
-26.70832972063662
 31
0.0
  0
LINE
  5
2BA
330
79
100
AcDbEntity
  8
Camada 1
 62
   250
420
  1907995
370
    18
100
AcDbLine
 10
38.89816447814933
 20
-26.70832972063662
 30
0.0
 11
38.89816447814933
 21
-27.24046777038147
 31
0.0
  0
LINE
  5
2BB
330
79
100
AcDbEntity
  8
Camada 1
 62
   250
420
  1907995
370
    18
100
AcDbLine
 10
38.89816447814933
 20
-27.24046777038147
 30
0.0
 11
38.36571752114261
 21
-27.24046777038147
 31
0.0
  0
LWPOLYLINE
  5
2BC
330
79
100
AcDbEntity
  8
Camada 1
 62
   250
420
  1907995
370
    18
100
AcDbPolyline
 90
        7
 70
     1
 43
0.0
 10
36.23562543107404
 20
-26.93634508700564
 10
36.23562543107404
 20
-26.86054435464963
 10
36.15951811406785
 20
-26.86054435464963
 10
36.08341079706103
 20
-26.86054435464963
 10
36.08341079706103
 20
-27.01245240401246
 10
36.15951811406785
 20
-27.01245240401246
 10
36.23562543107404
 20
-27.01245240401246
  0
LINE
  5
2BD
330
79
100
AcDbEntity
  8
Camada 1
 62
   250
420
  1907995
370
    18
100
AcDbLine
 10
35.85539310808095
 20
-26.70832972063662
 30
0.0
 11
36.38784006508768
 21
-26.70832972063662
 31
0.0
  0
LINE
  5
2BE
330
79
100
AcDbEntity
  8
Camada 1
 62
   250
420
  1907995
370
    18
100
AcDbLine
 10
35.85539310808095
 20
-27.24046777038147
 30
0.0
 11
35.85539310808095
 21
-26.70832972063662
 31
0.0
  0
LINE
  5
2BF
330
79
100
AcDbEntity
  8
Camada 1
 62
   250
420
  1907995
370
    18
100
AcDbLine
 10
36.38784006508768
 20
-26.70832972063662
 30
0.0
 11
36.38784006508768
 21
-27.24046777038147
 31
0.0
  0
LINE
  5
2C0
330
79
100
AcDbEntity
  8
Camada 1
 62
   250
420
  1907995
370
    18
100
AcDbLine
 10
36.38784006508768
 20
-27.24046777038147
 30
0.0
 11
35.85539310808095
 21
-27.24046777038147
 31
0.0
  0
LWPOLYLINE
  5
2C1
330
79
100
AcDbEntity
  8
Camada 1
 62
   250
420
  1907995
370
    18
100
AcDbPolyline
 90
        7
 70
     1
 43
0.0
 10
48.78633006504093
 20
-24.42693113745281
 10
48.78633006504093
 20
-24.35082382044599
 10
48.71022274803411
 20
-24.35082382044599
 10
48.63411543102728
 20
-24.35082382044599
 10
48.63411543102728
 20
-24.50303845445899
 10
48.71022274803411
 20
-24.50303845445899
 10
48.78633006504093
 20
-24.50303845445899
  0
LINE
  5
2C2
330
79
100
AcDbEntity
  8
Camada 1
 62
   250
420
  1907995
370
    18
100
AcDbLine
 10
48.48250932109442
 20
-24.12280845407697
 30
0.0
 11
49.01465201606139
 21
-24.12280845407697
 31
0.0
  0
LINE
  5
2C3
330
79
100
AcDbEntity
  8
Camada 1
 62
   250
420
  1907995
370
    18
100
AcDbLine
 10
48.48250932109442
 20
-24.73105382082864
 30
0.0
 11
48.48250932109442
 21
-24.12280845407697
 31
0.0
  0
LINE
  5
2C4
330
79
100
AcDbEntity
  8
Camada 1
 62
   250
420
  1907995
370
    18
100
AcDbLine
 10
49.01465201606139
 20
-24.12280845407697
 30
0.0
 11
49.01465201606139
 21
-24.73105382082864
 31
0.0
  0
LINE
  5
2C5
330
79
100
AcDbEntity
  8
Camada 1
 62
   250
420
  1907995
370
    18
100
AcDbLine
 10
49.01465201606139
 20
-24.73105382082864
 30
0.0
 11
48.48250932109442
 21
-24.73105382082864
 31
0.0
  0
LWPOLYLINE
  5
2C6
330
79
100
AcDbEntity
  8
Camada 1
 62
   250
420
  1907995
370
    18
100
AcDbPolyline
 90
        7
 70
     1
 43
0.0
 10
46.27600797459034
 20
-24.42693113745281
 10
46.27600797459034
 20
-24.35082382044599
 10
46.19990065758352
 20
-24.35082382044599
 10
46.1237933405767
 20
-24.35082382044599
 10
46.1237933405767
 20
-24.50303845445899
 10
46.19990065758352
 20
-24.50303845445899
 10
46.27600797459034
 20
-24.50303845445899
  0
LINE
  5
2C7
330
79
100
AcDbEntity
  8
Camada 1
 62
   250
420
  1907995
370
    18
100
AcDbLine
 10
45.97218723064318
 20
-24.12280845407697
 30
0.0
 11
46.50463418765055
 21
-24.12280845407697
 31
0.0
  0
LINE
  5
2C8
330
79
100
AcDbEntity
  8
Camada 1
 62
   250
420
  1907995
370
    18
100
AcDbLine
 10
45.97218723064318
 20
-24.73105382082864
 30
0.0
 11
45.97218723064318
 21
-24.12280845407697
 31
0.0
  0
LINE
  5
2C9
330
79
100
AcDbEntity
  8
Camada 1
 62
   250
420
  1907995
370
    18
100
AcDbLine
 10
46.50463418765055
 20
-24.12280845407697
 30
0.0
 11
46.50463418765055
 21
-24.73105382082864
 31
0.0
  0
LINE
  5
2CA
330
79
100
AcDbEntity
  8
Camada 1
 62
   250
420
  1907995
370
    18
100
AcDbLine
 10
46.50463418765055
 20
-24.73105382082864
 30
0.0
 11
45.97218723064318
 21
-24.73105382082864
 31
0.0
  0
LWPOLYLINE
  5
2CB
330
79
100
AcDbEntity
  8
Camada 1
 62
   250
420
  1907995
370
    18
100
AcDbPolyline
 90
        7
 70
     1
 43
0.0
 10
43.76598782356842
 20
-24.42693113745281
 10
43.76598782356842
 20
-24.35082382044599
 10
43.68988050656161
 20
-24.35082382044599
 10
43.61377318955478
 20
-24.35082382044599
 10
43.61377318955478
 20
-24.50303845445899
 10
43.68988050656161
 20
-24.50303845445899
 10
43.76598782356842
 20
-24.50303845445899
  0
LINE
  5
2CC
330
79
100
AcDbEntity
  8
Camada 1
 62
   250
420
  1907995
370
    18
100
AcDbLine
 10
43.38605976261511
 20
-24.12280845407697
 30
0.0
 11
43.9943097745889
 21
-24.12280845407697
 31
0.0
  0
LINE
  5
2CD
330
79
100
AcDbEntity
  8
Camada 1
 62
   250
420
  1907995
370
    18
100
AcDbLine
 10
43.38605976261511
 20
-24.73105382082864
 30
0.0
 11
43.38605976261511
 21
-24.12280845407697
 31
0.0
  0
LINE
  5
2CE
330
79
100
AcDbEntity
  8
Camada 1
 62
   250
420
  1907995
370
    18
100
AcDbLine
 10
43.9943097745889
 20
-24.12280845407697
 30
0.0
 11
43.9943097745889
 21
-24.73105382082864
 31
0.0
  0
LINE
  5
2CF
330
79
100
AcDbEntity
  8
Camada 1
 62
   250
420
  1907995
370
    18
100
AcDbLine
 10
43.9943097745889
 20
-24.73105382082864
 30
0.0
 11
43.38605976261511
 21
-24.73105382082864
 31
0.0
  0
LWPOLYLINE
  5
2D0
330
79
100
AcDbEntity
  8
Camada 1
 62
   250
420
  1907995
370
    18
100
AcDbPolyline
 90
        7
 70
     1
 43
0.0
 10
41.25596999515759
 20
-24.42693113745281
 10
41.25596999515759
 20
-24.35082382044599
 10
41.17986267815076
 20
-24.35082382044599
 10
41.10375536114458
 20
-24.35082382044599
 10
41.10375536114458
 20
-24.50303845445899
 10
41.17986267815076
 20
-24.50303845445899
 10
41.25596999515759
 20
-24.50303845445899
  0
LINE
  5
2D1
330
79
100
AcDbEntity
  8
Camada 1
 62
   250
420
  1907995
370
    18
100
AcDbLine
 10
40.87573767216451
 20
-24.12280845407697
 30
0.0
 11
41.40818462917123
 21
-24.12280845407697
 31
0.0
  0
LINE
  5
2D2
330
79
100
AcDbEntity
  8
Camada 1
 62
   250
420
  1907995
370
    18
100
AcDbLine
 10
40.87573767216451
 20
-24.73105382082864
 30
0.0
 11
40.87573767216451
 21
-24.12280845407697
 31
0.0
  0
LINE
  5
2D3
330
79
100
AcDbEntity
  8
Camada 1
 62
   250
420
  1907995
370
    18
100
AcDbLine
 10
41.40818462917123
 20
-24.12280845407697
 30
0.0
 11
41.40818462917123
 21
-24.73105382082864
 31
0.0
  0
LINE
  5
2D4
330
79
100
AcDbEntity
  8
Camada 1
 62
   250
420
  1907995
370
    18
100
AcDbLine
 10
41.40818462917123
 20
-24.73105382082864
 30
0.0
 11
40.87573767216451
 21
-24.73105382082864
 31
0.0
  0
LINE
  5
2D5
330
79
100
AcDbEntity
  8
Camada 1
 62
   250
420
  1907995
370
    18
100
AcDbLine
 10
48.47937379625438
 20
-74.65998542322136
 30
0.0
 11
48.47937379625438
 21
-75.49655738621561
 31
0.0
  0
LINE
  5
2D6
330
79
100
AcDbEntity
  8
Camada 1
 62
   250
420
  1907995
370
    18
100
AcDbLine
 10
51.52093044077322
 20
-75.49655738621561
 30
0.0
 11
51.52093044077322
 21
-74.65998542322136
 31
0.0
  0
LINE
  5
2D7
330
79
100
AcDbEntity
  8
Camada 1
 62
   250
420
  1907995
370
    18
100
AcDbLine
 10
48.47937379625438
 20
-75.49655738621561
 30
0.0
 11
51.52093044077322
 21
-75.49655738621561
 31
0.0
  0
LWPOLYLINE
  5
2D8
330
79
100
AcDbEntity
  8
Camada 1
 62
   250
420
  1907995
370
    18
100
AcDbPolyline
 90
        3
 70
     0
 43
0.0
 10
51.82474653949888
 20
-75.95289470360509
 10
51.67314507478686
 20
-75.64877202022926
 10
51.52093044077322
 20
-75.49655738621561
  0
LWPOLYLINE
  5
2D9
330
79
100
AcDbEntity
  8
Camada 1
 62
   250
420
  1907995
370
    18
100
AcDbPolyline
 90
        3
 70
     0
 43
0.0
 10
48.47937379625438
 20
-75.49655738621561
 10
48.2510518452339
 20
-75.64877202022926
 10
48.09853527179158
 20
-75.95289470360509
  0
LINE
  5
2DA
330
79
100
AcDbEntity
  8
Camada 1
 62
   250
420
  1907995
370
    18
100
AcDbLine
 10
47.87082184485125
 20
-74.65998542322136
 30
0.0
 11
52.05306849051936
 21
-74.65998542322136
 31
0.0
  0
LINE
  5
2DB
330
79
100
AcDbEntity
  8
Camada 1
 62
   250
420
  1907995
370
    18
100
AcDbLine
 10
52.05306849051936
 20
-72.15087805831934
 30
0.0
 11
47.87082184485125
 21
-72.15087805831934
 31
0.0
  0
LINE
  5
2DC
330
79
100
AcDbEntity
  8
Camada 1
 62
   250
420
  1907995
370
    18
100
AcDbLine
 10
47.87082184485125
 20
-72.15087805831934
 30
0.0
 11
47.87082184485125
 21
-74.65998542322136
 31
0.0
  0
LINE
  5
2DD
330
79
100
AcDbEntity
  8
Camada 1
 62
   250
420
  1907995
370
    18
100
AcDbLine
 10
52.05306849051936
 20
-74.65998542322136
 30
0.0
 11
52.05306849051936
 21
-72.15087805831934
 31
0.0
  0
LINE
  5
2DE
330
79
100
AcDbEntity
  8
Camada 1
 62
   250
420
  1907995
370
    18
100
AcDbLine
 10
46.65432414351472
 20
-75.95289470360509
 30
0.0
 11
53.26956851446567
 21
-75.95289470360509
 31
0.0
  0
LWPOLYLINE
  5
2DF
330
79
100
AcDbEntity
  8
Camada 1
 62
   250
420
  1907995
370
    18
100
AcDbPolyline
 90
        3
 70
     0
 43
0.0
 10
53.34567583147249
 20
-76.02870008118259
 10
53.34567583147249
 20
-75.95289470360509
 10
53.26956851446567
 20
-75.95289470360509
  0
LWPOLYLINE
  5
2E0
330
79
100
AcDbEntity
  8
Camada 1
 62
   250
420
  1907995
370
    18
100
AcDbPolyline
 90
        3
 70
     0
 43
0.0
 10
46.65432414351472
 20
-75.95289470360509
 10
46.5782168265079
 20
-75.95289470360509
 10
46.5782168265079
 20
-76.02870008118259
  0
LINE
  5
2E1
330
79
100
AcDbEntity
  8
Camada 1
 62
   250
420
  1907995
370
    18
100
AcDbLine
 10
46.5782168265079
 20
-76.02870008118259
 30
0.0
 11
46.5782168265079
 21
-79.83041246442732
 31
0.0
  0
LINE
  5
2E2
330
79
100
AcDbEntity
  8
Camada 1
 62
   250
420
  1907995
370
    18
100
AcDbLine
 10
53.34567583147249
 20
-79.83041246442732
 30
0.0
 11
53.34567583147249
 21
-76.02870008118259
 31
0.0
  0
LINE
  5
2E3
330
79
100
AcDbEntity
  8
Camada 1
 62
   250
420
  1907995
370
    18
100
AcDbLine
 10
53.34567583147249
 20
-76.02870008118259
 30
0.0
 11
46.5782168265079
 21
-76.02870008118259
 31
0.0
  0
LINE
  5
2E4
330
79
100
AcDbEntity
  8
Camada 1
 62
   250
420
  1907995
370
    18
100
AcDbLine
 10
32.20580477702094
 20
-79.83041246442732
 30
0.0
 11
67.71778361892035
 21
-79.83041246442732
 31
0.0
  0
LINE
  5
2E5
330
79
100
AcDbEntity
  8
Camada 1
 62
   250
420
  1907995
370
    18
100
AcDbLine
 10
67.71778361892035
 20
-81.6557687018178
 30
0.0
 11
32.20580477702094
 21
-81.6557687018178
 31
0.0
  0
LINE
  5
2E6
330
79
100
AcDbEntity
  8
Camada 1
 62
   250
420
  1907995
370
     9
100
AcDbLine
 10
32.05389440504704
 20
-79.83041246442732
 30
0.0
 11
32.20580477702094
 21
-79.83041246442732
 31
0.0
  0
LINE
  5
2E7
330
79
100
AcDbEntity
  8
Camada 1
 62
   250
420
  1907995
370
     9
100
AcDbLine
 10
32.05389440504704
 20
-81.6557687018178
 30
0.0
 11
32.05389440504704
 21
-79.83041246442732
 31
0.0
  0
LINE
  5
2E8
330
79
100
AcDbEntity
  8
Camada 1
 62
   250
420
  1907995
370
     9
100
AcDbLine
 10
32.20580477702094
 20
-81.6557687018178
 30
0.0
 11
32.05389440504704
 21
-81.6557687018178
 31
0.0
  0
LINE
  5
2E9
330
79
100
AcDbEntity
  8
Camada 1
 62
   250
420
  1907995
370
     9
100
AcDbLine
 10
32.20580477702094
 20
-79.83041246442732
 30
0.0
 11
32.20580477702094
 21
-81.6557687018178
 31
0.0
  0
LINE
  5
2EA
330
79
100
AcDbEntity
  8
Camada 1
 62
   250
420
  1907995
370
    18
100
AcDbLine
 10
67.71778361892035
 20
-79.83041246442732
 30
0.0
 11
67.94610556994081
 21
-79.83041246442732
 31
0.0
  0
LINE
  5
2EB
330
79
100
AcDbEntity
  8
Camada 1
 62
   250
420
  1907995
370
    18
100
AcDbLine
 10
67.71778361892035
 20
-81.6557687018178
 30
0.0
 11
67.71778361892035
 21
-79.83041246442732
 31
0.0
  0
LINE
  5
2EC
330
79
100
AcDbEntity
  8
Camada 1
 62
   250
420
  1907995
370
    18
100
AcDbLine
 10
67.94610556994081
 20
-81.6557687018178
 30
0.0
 11
67.71778361892035
 21
-81.6557687018178
 31
0.0
  0
LINE
  5
2ED
330
79
100
AcDbEntity
  8
Camada 1
 62
   250
420
  1907995
370
    18
100
AcDbLine
 10
67.94610556994081
 20
-79.83041246442732
 30
0.0
 11
67.94610556994081
 21
-81.6557687018178
 31
0.0
  0
LINE
  5
2EE
330
79
100
AcDbEntity
  8
Camada 1
 62
   250
420
  1907995
370
    18
100
AcDbLine
 10
48.47937379625438
 20
-82.18791139678478
 30
0.0
 11
49.01151649122136
 21
-82.18791139678478
 31
0.0
  0
LINE
  5
2EF
330
79
100
AcDbEntity
  8
Camada 1
 62
   250
420
  1907995
370
    18
100
AcDbLine
 10
48.47937379625438
 20
-82.18791139678478
 30
0.0
 11
48.47937379625438
 21
-81.6557687018178
 31
0.0
  0
LINE
  5
2F0
330
79
100
AcDbEntity
  8
Camada 1
 62
   250
420
  1907995
370
    18
100
AcDbLine
 10
49.01151649122136
 20
-82.18791139678478
 30
0.0
 11
49.01151649122136
 21
-81.6557687018178
 31
0.0
  0
LINE
  5
2F1
330
79
100
AcDbEntity
  8
Camada 1
 62
   250
420
  1907995
370
    18
100
AcDbLine
 10
45.96996681453474
 20
-82.18791139678478
 30
0.0
 11
45.96996681453474
 21
-81.6557687018178
 31
0.0
  0
LINE
  5
2F2
330
79
100
AcDbEntity
  8
Camada 1
 62
   250
420
  1907995
370
    18
100
AcDbLine
 10
45.96996681453474
 20
-82.18791139678478
 30
0.0
 11
46.50210950950171
 21
-82.18791139678478
 31
0.0
  0
LINE
  5
2F3
330
79
100
AcDbEntity
  8
Camada 1
 62
   250
420
  1907995
370
    18
100
AcDbLine
 10
46.50210950950171
 20
-82.18791139678478
 30
0.0
 11
46.50210950950171
 21
-81.6557687018178
 31
0.0
  0
LINE
  5
2F4
330
79
100
AcDbEntity
  8
Camada 1
 62
   250
420
  1907995
370
    18
100
AcDbLine
 10
43.38444787058615
 20
-82.18791139678478
 30
0.0
 11
43.99269788255995
 21
-82.18791139678478
 31
0.0
  0
LINE
  5
2F5
330
79
100
AcDbEntity
  8
Camada 1
 62
   250
420
  1907995
370
    18
100
AcDbLine
 10
43.38444787058615
 20
-82.18791139678478
 30
0.0
 11
43.38444787058615
 21
-81.6557687018178
 31
0.0
  0
LINE
  5
2F6
330
79
100
AcDbEntity
  8
Camada 1
 62
   250
420
  1907995
370
    18
100
AcDbLine
 10
43.99269788255995
 20
-82.18791139678478
 30
0.0
 11
43.99269788255995
 21
-81.6557687018178
 31
0.0
  0
LINE
  5
2F7
330
79
100
AcDbEntity
  8
Camada 1
 62
   250
420
  1907995
370
    18
100
AcDbLine
 10
40.87503856625544
 20
-82.18791139678478
 30
0.0
 11
40.87503856625544
 21
-81.6557687018178
 31
0.0
  0
LINE
  5
2F8
330
79
100
AcDbEntity
  8
Camada 1
 62
   250
420
  1907995
370
    18
100
AcDbLine
 10
40.87503856625544
 20
-82.18791139678478
 30
0.0
 11
41.40717893861135
 21
-82.18791139678478
 31
0.0
  0
LINE
  5
2F9
330
79
100
AcDbEntity
  8
Camada 1
 62
   250
420
  1907995
370
    18
100
AcDbLine
 10
41.40717893861135
 20
-82.18791139678478
 30
0.0
 11
41.40717893861135
 21
-81.6557687018178
 31
0.0
  0
LINE
  5
2FA
330
79
100
AcDbEntity
  8
Camada 1
 62
   250
420
  1907995
370
    18
100
AcDbLine
 10
38.36562693931368
 20
-82.18791139678478
 30
0.0
 11
38.89776963428066
 21
-82.18791139678478
 31
0.0
  0
LINE
  5
2FB
330
79
100
AcDbEntity
  8
Camada 1
 62
   250
420
  1907995
370
    18
100
AcDbLine
 10
38.36562693931368
 20
-82.18791139678478
 30
0.0
 11
38.36562693931368
 21
-81.6557687018178
 31
0.0
  0
LINE
  5
2FC
330
79
100
AcDbEntity
  8
Camada 1
 62
   250
420
  1907995
370
    18
100
AcDbLine
 10
38.89776963428066
 20
-82.18791139678478
 30
0.0
 11
38.89776963428066
 21
-81.6557687018178
 31
0.0
  0
LINE
  5
2FD
330
79
100
AcDbEntity
  8
Camada 1
 62
   250
420
  1907995
370
    18
100
AcDbLine
 10
35.85621763498298
 20
-82.18791139678478
 30
0.0
 11
36.38835800733889
 21
-82.18791139678478
 31
0.0
  0
LINE
  5
2FE
330
79
100
AcDbEntity
  8
Camada 1
 62
   250
420
  1907995
370
    18
100
AcDbLine
 10
35.85621763498298
 20
-82.18791139678478
 30
0.0
 11
35.85621763498298
 21
-81.6557687018178
 31
0.0
  0
LINE
  5
2FF
330
79
100
AcDbEntity
  8
Camada 1
 62
   250
420
  1907995
370
    18
100
AcDbLine
 10
36.38835800733889
 20
-82.18791139678478
 30
0.0
 11
36.38835800733889
 21
-81.6557687018178
 31
0.0
  0
LINE
  5
300
330
79
100
AcDbEntity
  8
Camada 1
 62
   250
420
  1907995
370
    18
100
AcDbLine
 10
59.04915835376598
 20
-82.18791139678478
 30
0.0
 11
59.04915835376598
 21
-81.6557687018178
 31
0.0
  0
LINE
  5
301
330
79
100
AcDbEntity
  8
Camada 1
 62
   250
420
  1907995
370
    18
100
AcDbLine
 10
58.51671371936967
 20
-82.18791139678478
 30
0.0
 11
58.51671371936967
 21
-81.6557687018178
 31
0.0
  0
LINE
  5
302
330
79
100
AcDbEntity
  8
Camada 1
 62
   250
420
  1907995
370
    18
100
AcDbLine
 10
59.04915835376598
 20
-82.18791139678478
 30
0.0
 11
58.51671371936967
 21
-82.18791139678478
 31
0.0
  0
LINE
  5
303
330
79
100
AcDbEntity
  8
Camada 1
 62
   250
420
  1907995
370
    18
100
AcDbLine
 10
61.02612302369973
 20
-82.18791139678478
 30
0.0
 11
61.02612302369973
 21
-81.6557687018178
 31
0.0
  0
LINE
  5
304
330
79
100
AcDbEntity
  8
Camada 1
 62
   250
420
  1907995
370
    18
100
AcDbLine
 10
61.55826571866671
 20
-82.18791139678478
 30
0.0
 11
61.02612302369973
 21
-82.18791139678478
 31
0.0
  0
LINE
  5
305
330
79
100
AcDbEntity
  8
Camada 1
 62
   250
420
  1907995
370
    18
100
AcDbLine
 10
61.55826571866671
 20
-82.18791139678478
 30
0.0
 11
61.55826571866671
 21
-81.6557687018178
 31
0.0
  0
LINE
  5
306
330
79
100
AcDbEntity
  8
Camada 1
 62
   250
420
  1907995
370
    18
100
AcDbLine
 10
63.53553232803108
 20
-82.18791139678478
 30
0.0
 11
63.53553232803108
 21
-81.6557687018178
 31
0.0
  0
LINE
  5
307
330
79
100
AcDbEntity
  8
Camada 1
 62
   250
420
  1907995
370
    18
100
AcDbLine
 10
64.06767502299806
 20
-82.18791139678478
 30
0.0
 11
63.53553232803108
 21
-82.18791139678478
 31
0.0
  0
LINE
  5
308
330
79
100
AcDbEntity
  8
Camada 1
 62
   250
420
  1907995
370
    18
100
AcDbLine
 10
64.06767502299806
 20
-82.18791139678478
 30
0.0
 11
64.06767502299806
 21
-81.6557687018178
 31
0.0
  0
LINE
  5
309
330
79
100
AcDbEntity
  8
Camada 1
 62
   250
420
  1907995
370
    18
100
AcDbLine
 10
50.98878774580625
 20
-82.18791139678478
 30
0.0
 11
50.98878774580625
 21
-81.6557687018178
 31
0.0
  0
LINE
  5
30A
330
79
100
AcDbEntity
  8
Camada 1
 62
   250
420
  1907995
370
    18
100
AcDbLine
 10
51.52093044077322
 20
-82.18791139678478
 30
0.0
 11
50.98878774580625
 21
-82.18791139678478
 31
0.0
  0
LINE
  5
30B
330
79
100
AcDbEntity
  8
Camada 1
 62
   250
420
  1907995
370
    18
100
AcDbLine
 10
51.52093044077322
 20
-82.18791139678478
 30
0.0
 11
51.52093044077322
 21
-81.6557687018178
 31
0.0
  0
LINE
  5
30C
330
79
100
AcDbEntity
  8
Camada 1
 62
   250
420
  1907995
370
    18
100
AcDbLine
 10
54.03033974510456
 20
-82.18791139678478
 30
0.0
 11
54.03033974510456
 21
-81.6557687018178
 31
0.0
  0
LINE
  5
30D
330
79
100
AcDbEntity
  8
Camada 1
 62
   250
420
  1907995
370
    18
100
AcDbLine
 10
53.49789046548614
 20
-82.18791139678478
 30
0.0
 11
53.49789046548614
 21
-81.6557687018178
 31
0.0
  0
LINE
  5
30E
330
79
100
AcDbEntity
  8
Camada 1
 62
   250
420
  1907995
370
    18
100
AcDbLine
 10
54.03033974510456
 20
-82.18791139678478
 30
0.0
 11
53.49789046548614
 21
-82.18791139678478
 31
0.0
  0
LINE
  5
30F
330
79
100
AcDbEntity
  8
Camada 1
 62
   250
420
  1907995
370
    18
100
AcDbLine
 10
56.00730441503961
 20
-82.18791139678478
 30
0.0
 11
56.00730441503961
 21
-81.6557687018178
 31
0.0
  0
LINE
  5
310
330
79
100
AcDbEntity
  8
Camada 1
 62
   250
420
  1907995
370
    18
100
AcDbLine
 10
56.53974904943463
 20
-82.18791139678478
 30
0.0
 11
56.00730441503961
 21
-82.18791139678478
 31
0.0
  0
LINE
  5
311
330
79
100
AcDbEntity
  8
Camada 1
 62
   250
420
  1907995
370
    18
100
AcDbLine
 10
56.53974904943463
 20
-82.18791139678478
 30
0.0
 11
56.53974904943463
 21
-81.6557687018178
 31
0.0
  0
LINE
  5
312
330
79
100
AcDbEntity
  8
Camada 1
 62
   250
420
  1907995
370
    18
100
AcDbLine
 10
32.20580477702094
 20
-53.70246720302325
 30
0.0
 11
67.71778361892035
 21
-53.70246720302325
 31
0.0
  0
LINE
  5
313
330
79
100
AcDbEntity
  8
Camada 1
 62
   250
420
  1907995
370
    18
100
AcDbLine
 10
67.94610556994081
 20
-53.5502525690096
 30
0.0
 11
67.94610556994081
 21
-17.9646005064236
 31
0.0
  0
LINE
  5
314
330
79
100
AcDbEntity
  8
Camada 1
 62
   250
420
  1907995
370
    18
100
AcDbLine
 10
67.71778361892035
 20
-17.8120885782034
 30
0.0
 11
32.20580477702094
 21
-17.8120885782034
 31
0.0
  0
LINE
  5
315
330
79
100
AcDbEntity
  8
Camada 1
 62
   250
420
  1907995
370
    18
100
AcDbLine
 10
32.05389440504704
 20
-17.9646005064236
 30
0.0
 11
32.05389440504704
 21
-53.5502525690096
 31
0.0
  0
LWPOLYLINE
  5
316
330
79
100
AcDbEntity
  8
Camada 1
 62
   250
420
  1907995
370
    18
100
AcDbPolyline
 90
        6
 70
     0
 43
0.0
 10
67.94610556994081
 20
-17.9646005064236
 10
67.94610556994081
 20
-17.88849318941678
 10
67.86999825293399
 20
-17.88849318941678
 10
67.86999825293399
 20
-17.8120885782034
 10
67.79389093592716
 20
-17.8120885782034
 10
67.71778361892035
 20
-17.8120885782034
  0
LWPOLYLINE
  5
317
330
79
100
AcDbEntity
  8
Camada 1
 62
   250
420
  1907995
370
    18
100
AcDbPolyline
 90
        4
 70
     0
 43
0.0
 10
32.20580477702094
 20
-17.8120885782034
 10
32.12969746001411
 20
-17.8120885782034
 10
32.05389440504704
 20
-17.8120885782034
 10
32.05389440504704
 20
-17.9646005064236
  0
LWPOLYLINE
  5
318
330
79
100
AcDbEntity
  8
Camada 1
 62
   250
420
  1907995
370
    18
100
AcDbPolyline
 90
        4
 70
     0
 43
0.0
 10
32.05389440504704
 20
-53.5502525690096
 10
32.05389440504704
 20
-53.62635988601642
 10
32.12969746001411
 20
-53.70246720302325
 10
32.20580477702094
 20
-53.70246720302325
  0
LWPOLYLINE
  5
319
330
79
100
AcDbEntity
  8
Camada 1
 62
   250
420
  1907995
370
    18
100
AcDbPolyline
 90
        5
 70
     0
 43
0.0
 10
67.71778361892035
 20
-53.70246720302325
 10
67.79389093592716
 20
-53.70246720302325
 10
67.86999825293399
 20
-53.70246720302325
 10
67.86999825293399
 20
-53.62635988601642
 10
67.94610556994081
 20
-53.5502525690096
  0
LINE
  5
31A
330
79
100
AcDbEntity
  8
Camada 1
 62
   250
420
  1907995
370
    18
100
AcDbLine
 10
48.47937379625438
 20
-37.27820718258789
 30
0.0
 11
49.01151649122136
 21
-37.27820718258789
 31
0.0
  0
LWPOLYLINE
  5
31B
330
79
100
AcDbEntity
  8
Camada 1
 62
   250
420
  1907995
370
    18
100
AcDbPolyline
 90
        7
 70
     1
 43
0.0
 10
48.63097990618789
 20
-36.97408449921141
 10
48.63097990618789
 20
-36.89797718220459
 10
48.7070872231947
 20
-36.89797718220459
 10
48.78319454020089
 20
-36.89797718220459
 10
48.78319454020089
 20
-37.04988523156742
 10
48.7070872231947
 20
-37.04988523156742
 10
48.63097990618789
 20
-37.04988523156742
  0
LINE
  5
31C
330
79
100
AcDbEntity
  8
Camada 1
 62
   250
420
  1907995
370
    18
100
AcDbLine
 10
49.01151649122136
 20
-36.74576254819159
 30
0.0
 11
48.47937379625438
 21
-36.74576254819159
 31
0.0
  0
LINE
  5
31D
330
79
100
AcDbEntity
  8
Camada 1
 62
   250
420
  1907995
370
    18
100
AcDbLine
 10
49.01151649122136
 20
-37.27820718258789
 30
0.0
 11
49.01151649122136
 21
-36.74576254819159
 31
0.0
  0
LINE
  5
31E
330
79
100
AcDbEntity
  8
Camada 1
 62
   250
420
  1907995
370
    18
100
AcDbLine
 10
48.47937379625438
 20
-36.74576254819159
 30
0.0
 11
48.47937379625438
 21
-37.27820718258789
 31
0.0
  0
LINE
  5
31F
330
79
100
AcDbEntity
  8
Camada 1
 62
   250
420
  1907995
370
    18
100
AcDbLine
 10
45.96996681453474
 20
-37.27820718258789
 30
0.0
 11
46.50210950950171
 21
-37.27820718258789
 31
0.0
  0
LWPOLYLINE
  5
320
330
79
100
AcDbEntity
  8
Camada 1
 62
   250
420
  1907995
370
    18
100
AcDbPolyline
 90
        7
 70
     1
 43
0.0
 10
46.1215729244676
 20
-36.97408449921141
 10
46.1215729244676
 20
-36.89797718220459
 10
46.19768024147442
 20
-36.89797718220459
 10
46.27378755848125
 20
-36.89797718220459
 10
46.27378755848125
 20
-37.04988523156742
 10
46.19768024147442
 20
-37.04988523156742
 10
46.1215729244676
 20
-37.04988523156742
  0
LINE
  5
321
330
79
100
AcDbEntity
  8
Camada 1
 62
   250
420
  1907995
370
    18
100
AcDbLine
 10
46.50210950950171
 20
-36.74576254819159
 30
0.0
 11
45.96996681453474
 21
-36.74576254819159
 31
0.0
  0
LINE
  5
322
330
79
100
AcDbEntity
  8
Camada 1
 62
   250
420
  1907995
370
    18
100
AcDbLine
 10
46.50210950950171
 20
-37.27820718258789
 30
0.0
 11
46.50210950950171
 21
-36.74576254819159
 31
0.0
  0
LINE
  5
323
330
79
100
AcDbEntity
  8
Camada 1
 62
   250
420
  1907995
370
    18
100
AcDbLine
 10
45.96996681453474
 20
-36.74576254819159
 30
0.0
 11
45.96996681453474
 21
-37.27820718258789
 31
0.0
  0
LINE
  5
324
330
79
100
AcDbEntity
  8
Camada 1
 62
   250
420
  1907995
370
    18
100
AcDbLine
 10
43.38444787058615
 20
-37.27820718258789
 30
0.0
 11
43.99269788255995
 21
-37.27820718258789
 31
0.0
  0
LWPOLYLINE
  5
325
330
79
100
AcDbEntity
  8
Camada 1
 62
   250
420
  1907995
370
    18
100
AcDbPolyline
 90
        7
 70
     1
 43
0.0
 10
43.61216129752647
 20
-36.97408449921141
 10
43.61216129752647
 20
-36.89797718220459
 10
43.68826861453266
 20
-36.89797718220459
 10
43.76437593153948
 20
-36.89797718220459
 10
43.76437593153948
 20
-37.04988523156742
 10
43.68826861453266
 20
-37.04988523156742
 10
43.61216129752647
 20
-37.04988523156742
  0
LINE
  5
326
330
79
100
AcDbEntity
  8
Camada 1
 62
   250
420
  1907995
370
    18
100
AcDbLine
 10
43.99269788255995
 20
-36.74576254819159
 30
0.0
 11
43.38444787058615
 21
-36.74576254819159
 31
0.0
  0
LINE
  5
327
330
79
100
AcDbEntity
  8
Camada 1
 62
   250
420
  1907995
370
    18
100
AcDbLine
 10
43.99269788255995
 20
-37.27820718258789
 30
0.0
 11
43.99269788255995
 21
-36.74576254819159
 31
0.0
  0
LINE
  5
328
330
79
100
AcDbEntity
  8
Camada 1
 62
   250
420
  1907995
370
    18
100
AcDbLine
 10
43.38444787058615
 20
-36.74576254819159
 30
0.0
 11
43.38444787058615
 21
-37.27820718258789
 31
0.0
  0
LINE
  5
329
330
79
100
AcDbEntity
  8
Camada 1
 62
   250
420
  1907995
370
    18
100
AcDbLine
 10
40.87503856625544
 20
-37.27820718258789
 30
0.0
 11
41.40717893861135
 21
-37.27820718258789
 31
0.0
  0
LWPOLYLINE
  5
32A
330
79
100
AcDbEntity
  8
Camada 1
 62
   250
420
  1907995
370
    18
100
AcDbPolyline
 90
        7
 70
     1
 43
0.0
 10
41.10274967058471
 20
-36.97408449921141
 10
41.10274967058471
 20
-36.89797718220459
 10
41.17885698759153
 20
-36.89797718220459
 10
41.25496430459771
 20
-36.89797718220459
 10
41.25496430459771
 20
-37.04988523156742
 10
41.17885698759153
 20
-37.04988523156742
 10
41.10274967058471
 20
-37.04988523156742
  0
LINE
  5
32B
330
79
100
AcDbEntity
  8
Camada 1
 62
   250
420
  1907995
370
    18
100
AcDbLine
 10
41.40717893861135
 20
-36.74576254819159
 30
0.0
 11
40.87503856625544
 21
-36.74576254819159
 31
0.0
  0
LINE
  5
32C
330
79
100
AcDbEntity
  8
Camada 1
 62
   250
420
  1907995
370
    18
100
AcDbLine
 10
41.40717893861135
 20
-37.27820718258789
 30
0.0
 11
41.40717893861135
 21
-36.74576254819159
 31
0.0
  0
LINE
  5
32D
330
79
100
AcDbEntity
  8
Camada 1
 62
   250
420
  1907995
370
    18
100
AcDbLine
 10
40.87503856625544
 20
-36.74576254819159
 30
0.0
 11
40.87503856625544
 21
-37.27820718258789
 31
0.0
  0
LINE
  5
32E
330
79
100
AcDbEntity
  8
Camada 1
 62
   250
420
  1907995
370
    18
100
AcDbLine
 10
38.36562693931368
 20
-37.27820718258789
 30
0.0
 11
38.89776963428066
 21
-37.27820718258789
 31
0.0
  0
LWPOLYLINE
  5
32F
330
79
100
AcDbEntity
  8
Camada 1
 62
   250
420
  1907995
370
    18
100
AcDbPolyline
 90
        7
 70
     1
 43
0.0
 10
38.59334036625401
 20
-36.97408449921141
 10
38.59334036625401
 20
-36.89797718220459
 10
38.66944768326084
 20
-36.89797718220459
 10
38.74555500026701
 20
-36.89797718220459
 10
38.74555500026701
 20
-37.04988523156742
 10
38.66944768326084
 20
-37.04988523156742
 10
38.59334036625401
 20
-37.04988523156742
  0
LINE
  5
330
330
79
100
AcDbEntity
  8
Camada 1
 62
   250
420
  1907995
370
    18
100
AcDbLine
 10
38.89776963428066
 20
-36.74576254819159
 30
0.0
 11
38.36562693931368
 21
-36.74576254819159
 31
0.0
  0
LINE
  5
331
330
79
100
AcDbEntity
  8
Camada 1
 62
   250
420
  1907995
370
    18
100
AcDbLine
 10
38.89776963428066
 20
-37.27820718258789
 30
0.0
 11
38.89776963428066
 21
-36.74576254819159
 31
0.0
  0
LINE
  5
332
330
79
100
AcDbEntity
  8
Camada 1
 62
   250
420
  1907995
370
    18
100
AcDbLine
 10
38.36562693931368
 20
-36.74576254819159
 30
0.0
 11
38.36562693931368
 21
-37.27820718258789
 31
0.0
  0
LINE
  5
333
330
79
100
AcDbEntity
  8
Camada 1
 62
   250
420
  1907995
370
    18
100
AcDbLine
 10
35.85621763498298
 20
-37.27820718258789
 30
0.0
 11
36.38835800733889
 21
-37.27820718258789
 31
0.0
  0
LWPOLYLINE
  5
334
330
79
100
AcDbEntity
  8
Camada 1
 62
   250
420
  1907995
370
    18
100
AcDbPolyline
 90
        7
 70
     1
 43
0.0
 10
36.08392873931224
 20
-36.97408449921141
 10
36.08392873931224
 20
-36.89797718220459
 10
36.16003605631906
 20
-36.89797718220459
 10
36.23614337332589
 20
-36.89797718220459
 10
36.23614337332589
 20
-37.04988523156742
 10
36.16003605631906
 20
-37.04988523156742
 10
36.08392873931224
 20
-37.04988523156742
  0
LINE
  5
335
330
79
100
AcDbEntity
  8
Camada 1
 62
   250
420
  1907995
370
    18
100
AcDbLine
 10
36.38835800733889
 20
-36.74576254819159
 30
0.0
 11
35.85621763498298
 21
-36.74576254819159
 31
0.0
  0
LINE
  5
336
330
79
100
AcDbEntity
  8
Camada 1
 62
   250
420
  1907995
370
    18
100
AcDbLine
 10
36.38835800733889
 20
-37.27820718258789
 30
0.0
 11
36.38835800733889
 21
-36.74576254819159
 31
0.0
  0
LINE
  5
337
330
79
100
AcDbEntity
  8
Camada 1
 62
   250
420
  1907995
370
    18
100
AcDbLine
 10
35.85621763498298
 20
-36.74576254819159
 30
0.0
 11
35.85621763498298
 21
-37.27820718258789
 31
0.0
  0
LINE
  5
338
330
79
100
AcDbEntity
  8
Camada 1
 62
   250
420
  1907995
370
    18
100
AcDbLine
 10
48.47937379625438
 20
-39.78730990226714
 30
0.0
 11
49.01151649122136
 21
-39.78730990226714
 31
0.0
  0
LWPOLYLINE
  5
339
330
79
100
AcDbEntity
  8
Camada 1
 62
   250
420
  1907995
370
    18
100
AcDbPolyline
 90
        8
 70
     1
 43
0.0
 10
48.63097990618789
 20
-39.4831872188913
 10
48.63097990618789
 20
-39.40707990188448
 10
48.7070872231947
 20
-39.40707990188448
 10
48.78319454020089
 20
-39.40707990188448
 10
48.78319454020089
 20
-39.55898795124731
 10
48.7070872231947
 20
-39.6350952682535
 10
48.7070872231947
 20
-39.55898795124731
 10
48.63097990618789
 20
-39.55898795124731
  0
LINE
  5
33A
330
79
100
AcDbEntity
  8
Camada 1
 62
   250
420
  1907995
370
    18
100
AcDbLine
 10
49.01151649122136
 20
-39.25486062264935
 30
0.0
 11
48.47937379625438
 21
-39.25486062264935
 31
0.0
  0
LINE
  5
33B
330
79
100
AcDbEntity
  8
Camada 1
 62
   250
420
  1907995
370
    18
100
AcDbLine
 10
49.01151649122136
 20
-39.78730990226714
 30
0.0
 11
49.01151649122136
 21
-39.25486062264935
 31
0.0
  0
LINE
  5
33C
330
79
100
AcDbEntity
  8
Camada 1
 62
   250
420
  1907995
370
    18
100
AcDbLine
 10
48.47937379625438
 20
-39.25486062264935
 30
0.0
 11
48.47937379625438
 21
-39.78730990226714
 31
0.0
  0
LINE
  5
33D
330
79
100
AcDbEntity
  8
Camada 1
 62
   250
420
  1907995
370
    18
100
AcDbLine
 10
45.96996681453474
 20
-39.78730990226714
 30
0.0
 11
46.50210950950171
 21
-39.78730990226714
 31
0.0
  0
LWPOLYLINE
  5
33E
330
79
100
AcDbEntity
  8
Camada 1
 62
   250
420
  1907995
370
    18
100
AcDbPolyline
 90
        9
 70
     1
 43
0.0
 10
46.1215729244676
 20
-39.4831872188913
 10
46.1215729244676
 20
-39.40707990188448
 10
46.19768024147442
 20
-39.40707990188448
 10
46.27378755848125
 20
-39.40707990188448
 10
46.27378755848125
 20
-39.55898795124731
 10
46.19768024147442
 20
-39.55898795124731
 10
46.19768024147442
 20
-39.6350952682535
 10
46.19768024147442
 20
-39.55898795124731
 10
46.1215729244676
 20
-39.55898795124731
  0
LINE
  5
33F
330
79
100
AcDbEntity
  8
Camada 1
 62
   250
420
  1907995
370
    18
100
AcDbLine
 10
46.50210950950171
 20
-39.25486062264935
 30
0.0
 11
45.96996681453474
 21
-39.25486062264935
 31
0.0
  0
LINE
  5
340
330
79
100
AcDbEntity
  8
Camada 1
 62
   250
420
  1907995
370
    18
100
AcDbLine
 10
46.50210950950171
 20
-39.78730990226714
 30
0.0
 11
46.50210950950171
 21
-39.25486062264935
 31
0.0
  0
LINE
  5
341
330
79
100
AcDbEntity
  8
Camada 1
 62
   250
420
  1907995
370
    18
100
AcDbLine
 10
45.96996681453474
 20
-39.25486062264935
 30
0.0
 11
45.96996681453474
 21
-39.78730990226714
 31
0.0
  0
LINE
  5
342
330
79
100
AcDbEntity
  8
Camada 1
 62
   250
420
  1907995
370
    18
100
AcDbLine
 10
43.38444787058615
 20
-39.78730990226714
 30
0.0
 11
43.99269788255995
 21
-39.78730990226714
 31
0.0
  0
LWPOLYLINE
  5
343
330
79
100
AcDbEntity
  8
Camada 1
 62
   250
420
  1907995
370
    18
100
AcDbPolyline
 90
        9
 70
     1
 43
0.0
 10
43.61216129752647
 20
-39.4831872188913
 10
43.61216129752647
 20
-39.40707990188448
 10
43.68826861453266
 20
-39.40707990188448
 10
43.76437593153948
 20
-39.40707990188448
 10
43.76437593153948
 20
-39.55898795124731
 10
43.68826861453266
 20
-39.55898795124731
 10
43.68826861453266
 20
-39.6350952682535
 10
43.68826861453266
 20
-39.55898795124731
 10
43.61216129752647
 20
-39.55898795124731
  0
LINE
  5
344
330
79
100
AcDbEntity
  8
Camada 1
 62
   250
420
  1907995
370
    18
100
AcDbLine
 10
43.99269788255995
 20
-39.25486062264935
 30
0.0
 11
43.38444787058615
 21
-39.25486062264935
 31
0.0
  0
LINE
  5
345
330
79
100
AcDbEntity
  8
Camada 1
 62
   250
420
  1907995
370
    18
100
AcDbLine
 10
43.99269788255995
 20
-39.78730990226714
 30
0.0
 11
43.99269788255995
 21
-39.25486062264935
 31
0.0
  0
LINE
  5
346
330
79
100
AcDbEntity
  8
Camada 1
 62
   250
420
  1907995
370
    18
100
AcDbLine
 10
43.38444787058615
 20
-39.25486062264935
 30
0.0
 11
43.38444787058615
 21
-39.78730990226714
 31
0.0
  0
LINE
  5
347
330
79
100
AcDbEntity
  8
Camada 1
 62
   250
420
  1907995
370
    18
100
AcDbLine
 10
40.87503856625544
 20
-39.78730990226714
 30
0.0
 11
41.40717893861135
 21
-39.78730990226714
 31
0.0
  0
LWPOLYLINE
  5
348
330
79
100
AcDbEntity
  8
Camada 1
 62
   250
420
  1907995
370
    18
100
AcDbPolyline
 90
        9
 70
     1
 43
0.0
 10
41.10274967058471
 20
-39.4831872188913
 10
41.10274967058471
 20
-39.40707990188448
 10
41.17885698759153
 20
-39.40707990188448
 10
41.25496430459771
 20
-39.40707990188448
 10
41.25496430459771
 20
-39.55898795124731
 10
41.17885698759153
 20
-39.55898795124731
 10
41.17885698759153
 20
-39.6350952682535
 10
41.17885698759153
 20
-39.55898795124731
 10
41.10274967058471
 20
-39.55898795124731
  0
LINE
  5
349
330
79
100
AcDbEntity
  8
Camada 1
 62
   250
420
  1907995
370
    18
100
AcDbLine
 10
41.40717893861135
 20
-39.25486062264935
 30
0.0
 11
40.87503856625544
 21
-39.25486062264935
 31
0.0
  0
LINE
  5
34A
330
79
100
AcDbEntity
  8
Camada 1
 62
   250
420
  1907995
370
    18
100
AcDbLine
 10
41.40717893861135
 20
-39.78730990226714
 30
0.0
 11
41.40717893861135
 21
-39.25486062264935
 31
0.0
  0
LINE
  5
34B
330
79
100
AcDbEntity
  8
Camada 1
 62
   250
420
  1907995
370
    18
100
AcDbLine
 10
40.87503856625544
 20
-39.25486062264935
 30
0.0
 11
40.87503856625544
 21
-39.78730990226714
 31
0.0
  0
LINE
  5
34C
330
79
100
AcDbEntity
  8
Camada 1
 62
   250
420
  1907995
370
    18
100
AcDbLine
 10
38.36562693931368
 20
-39.78730990226714
 30
0.0
 11
38.89776963428066
 21
-39.78730990226714
 31
0.0
  0
LWPOLYLINE
  5
34D
330
79
100
AcDbEntity
  8
Camada 1
 62
   250
420
  1907995
370
    18
100
AcDbPolyline
 90
        8
 70
     1
 43
0.0
 10
38.59334036625401
 20
-39.4831872188913
 10
38.59334036625401
 20
-39.40707990188448
 10
38.66944768326084
 20
-39.40707990188448
 10
38.74555500026701
 20
-39.40707990188448
 10
38.74555500026701
 20
-39.55898795124731
 10
38.66944768326084
 20
-39.55898795124731
 10
38.66944768326084
 20
-39.6350952682535
 10
38.59334036625401
 20
-39.55898795124731
  0
LINE
  5
34E
330
79
100
AcDbEntity
  8
Camada 1
 62
   250
420
  1907995
370
    18
100
AcDbLine
 10
38.89776963428066
 20
-39.25486062264935
 30
0.0
 11
38.36562693931368
 21
-39.25486062264935
 31
0.0
  0
LINE
  5
34F
330
79
100
AcDbEntity
  8
Camada 1
 62
   250
420
  1907995
370
    18
100
AcDbLine
 10
38.89776963428066
 20
-39.78730990226714
 30
0.0
 11
38.89776963428066
 21
-39.25486062264935
 31
0.0
  0
LINE
  5
350
330
79
100
AcDbEntity
  8
Camada 1
 62
   250
420
  1907995
370
    18
100
AcDbLine
 10
38.36562693931368
 20
-39.25486062264935
 30
0.0
 11
38.36562693931368
 21
-39.78730990226714
 31
0.0
  0
LINE
  5
351
330
79
100
AcDbEntity
  8
Camada 1
 62
   250
420
  1907995
370
    18
100
AcDbLine
 10
35.85621763498298
 20
-39.78730990226714
 30
0.0
 11
36.38835800733889
 21
-39.78730990226714
 31
0.0
  0
LWPOLYLINE
  5
352
330
79
100
AcDbEntity
  8
Camada 1
 62
   250
420
  1907995
370
    18
100
AcDbPolyline
 90
        8
 70
     1
 43
0.0
 10
36.08392873931224
 20
-39.4831872188913
 10
36.08392873931224
 20
-39.40707990188448
 10
36.16003605631906
 20
-39.40707990188448
 10
36.23614337332589
 20
-39.40707990188448
 10
36.23614337332589
 20
-39.55898795124731
 10
36.16003605631906
 20
-39.55898795124731
 10
36.16003605631906
 20
-39.6350952682535
 10
36.08392873931224
 20
-39.55898795124731
  0
LINE
  5
353
330
79
100
AcDbEntity
  8
Camada 1
 62
   250
420
  1907995
370
    18
100
AcDbLine
 10
36.38835800733889
 20
-39.25486062264935
 30
0.0
 11
35.85621763498298
 21
-39.25486062264935
 31
0.0
  0
LINE
  5
354
330
79
100
AcDbEntity
  8
Camada 1
 62
   250
420
  1907995
370
    18
100
AcDbLine
 10
36.38835800733889
 20
-39.78730990226714
 30
0.0
 11
36.38835800733889
 21
-39.25486062264935
 31
0.0
  0
LINE
  5
355
330
79
100
AcDbEntity
  8
Camada 1
 62
   250
420
  1907995
370
    18
100
AcDbLine
 10
35.85621763498298
 20
-39.25486062264935
 30
0.0
 11
35.85621763498298
 21
-39.78730990226714
 31
0.0
  0
LINE
  5
356
330
79
100
AcDbEntity
  8
Camada 1
 62
   250
420
  1907995
370
    18
100
AcDbLine
 10
48.47937379625438
 20
-42.29671920659784
 30
0.0
 11
49.01151649122136
 21
-42.29671920659784
 31
0.0
  0
LWPOLYLINE
  5
357
330
79
100
AcDbEntity
  8
Camada 1
 62
   250
420
  1907995
370
    18
100
AcDbPolyline
 90
        8
 70
     1
 43
0.0
 10
48.63097990618789
 20
-41.992596523222
 10
48.63097990618789
 20
-41.992596523222
 10
48.7070872231947
 20
-41.91648920621518
 10
48.78319454020089
 20
-41.91648920621518
 10
48.78319454020089
 20
-42.14450457258419
 10
48.7070872231947
 20
-42.14450457258419
 10
48.7070872231947
 20
-42.06870384022883
 10
48.63097990618789
 20
-42.06870384022883
  0
LINE
  5
358
330
79
100
AcDbEntity
  8
Camada 1
 62
   250
420
  1907995
370
    18
100
AcDbLine
 10
49.01151649122136
 20
-41.76427457220153
 30
0.0
 11
48.47937379625438
 21
-41.76427457220153
 31
0.0
  0
LINE
  5
359
330
79
100
AcDbEntity
  8
Camada 1
 62
   250
420
  1907995
370
    18
100
AcDbLine
 10
49.01151649122136
 20
-42.29671920659784
 30
0.0
 11
49.01151649122136
 21
-41.76427457220153
 31
0.0
  0
LINE
  5
35A
330
79
100
AcDbEntity
  8
Camada 1
 62
   250
420
  1907995
370
    18
100
AcDbLine
 10
48.47937379625438
 20
-41.76427457220153
 30
0.0
 11
48.47937379625438
 21
-42.29671920659784
 31
0.0
  0
LINE
  5
35B
330
79
100
AcDbEntity
  8
Camada 1
 62
   250
420
  1907995
370
    18
100
AcDbLine
 10
45.96996681453474
 20
-42.29671920659784
 30
0.0
 11
46.50210950950171
 21
-42.29671920659784
 31
0.0
  0
LWPOLYLINE
  5
35C
330
79
100
AcDbEntity
  8
Camada 1
 62
   250
420
  1907995
370
    18
100
AcDbPolyline
 90
        7
 70
     1
 43
0.0
 10
46.1215729244676
 20
-41.992596523222
 10
46.1215729244676
 20
-41.91648920621518
 10
46.19768024147442
 20
-41.91648920621518
 10
46.27378755848125
 20
-41.91648920621518
 10
46.27378755848125
 20
-42.06870384022883
 10
46.19768024147442
 20
-42.14450457258419
 10
46.1215729244676
 20
-42.06870384022883
  0
LINE
  5
35D
330
79
100
AcDbEntity
  8
Camada 1
 62
   250
420
  1907995
370
    18
100
AcDbLine
 10
46.50210950950171
 20
-41.76427457220153
 30
0.0
 11
45.96996681453474
 21
-41.76427457220153
 31
0.0
  0
LINE
  5
35E
330
79
100
AcDbEntity
  8
Camada 1
 62
   250
420
  1907995
370
    18
100
AcDbLine
 10
46.50210950950171
 20
-42.29671920659784
 30
0.0
 11
46.50210950950171
 21
-41.76427457220153
 31
0.0
  0
LINE
  5
35F
330
79
100
AcDbEntity
  8
Camada 1
 62
   250
420
  1907995
370
    18
100
AcDbLine
 10
45.96996681453474
 20
-41.76427457220153
 30
0.0
 11
45.96996681453474
 21
-42.29671920659784
 31
0.0
  0
LINE
  5
360
330
79
100
AcDbEntity
  8
Camada 1
 62
   250
420
  1907995
370
    18
100
AcDbLine
 10
43.38444787058615
 20
-42.29671920659784
 30
0.0
 11
43.99269788255995
 21
-42.29671920659784
 31
0.0
  0
LWPOLYLINE
  5
361
330
79
100
AcDbEntity
  8
Camada 1
 62
   250
420
  1907995
370
    18
100
AcDbPolyline
 90
        7
 70
     1
 43
0.0
 10
43.61216129752647
 20
-41.992596523222
 10
43.61216129752647
 20
-41.91648920621518
 10
43.68826861453266
 20
-41.91648920621518
 10
43.76437593153948
 20
-41.91648920621518
 10
43.76437593153948
 20
-42.06870384022883
 10
43.68826861453266
 20
-42.14450457258419
 10
43.61216129752647
 20
-42.06870384022883
  0
LINE
  5
362
330
79
100
AcDbEntity
  8
Camada 1
 62
   250
420
  1907995
370
    18
100
AcDbLine
 10
43.99269788255995
 20
-41.76427457220153
 30
0.0
 11
43.38444787058615
 21
-41.76427457220153
 31
0.0
  0
LINE
  5
363
330
79
100
AcDbEntity
  8
Camada 1
 62
   250
420
  1907995
370
    18
100
AcDbLine
 10
43.99269788255995
 20
-42.29671920659784
 30
0.0
 11
43.99269788255995
 21
-41.76427457220153
 31
0.0
  0
LINE
  5
364
330
79
100
AcDbEntity
  8
Camada 1
 62
   250
420
  1907995
370
    18
100
AcDbLine
 10
43.38444787058615
 20
-41.76427457220153
 30
0.0
 11
43.38444787058615
 21
-42.29671920659784
 31
0.0
  0
LINE
  5
365
330
79
100
AcDbEntity
  8
Camada 1
 62
   250
420
  1907995
370
    18
100
AcDbLine
 10
40.87503856625544
 20
-42.29671920659784
 30
0.0
 11
41.40717893861135
 21
-42.29671920659784
 31
0.0
  0
LWPOLYLINE
  5
366
330
79
100
AcDbEntity
  8
Camada 1
 62
   250
420
  1907995
370
    18
100
AcDbPolyline
 90
        7
 70
     1
 43
0.0
 10
41.10274967058471
 20
-41.992596523222
 10
41.10274967058471
 20
-41.91648920621518
 10
41.17885698759153
 20
-41.91648920621518
 10
41.25496430459771
 20
-41.91648920621518
 10
41.25496430459771
 20
-42.06870384022883
 10
41.17885698759153
 20
-42.14450457258419
 10
41.10274967058471
 20
-42.06870384022883
  0
LINE
  5
367
330
79
100
AcDbEntity
  8
Camada 1
 62
   250
420
  1907995
370
    18
100
AcDbLine
 10
41.40717893861135
 20
-41.76427457220153
 30
0.0
 11
40.87503856625544
 21
-41.76427457220153
 31
0.0
  0
LINE
  5
368
330
79
100
AcDbEntity
  8
Camada 1
 62
   250
420
  1907995
370
    18
100
AcDbLine
 10
41.40717893861135
 20
-42.29671920659784
 30
0.0
 11
41.40717893861135
 21
-41.76427457220153
 31
0.0
  0
LINE
  5
369
330
79
100
AcDbEntity
  8
Camada 1
 62
   250
420
  1907995
370
    18
100
AcDbLine
 10
40.87503856625544
 20
-41.76427457220153
 30
0.0
 11
40.87503856625544
 21
-42.29671920659784
 31
0.0
  0
LINE
  5
36A
330
79
100
AcDbEntity
  8
Camada 1
 62
   250
420
  1907995
370
    18
100
AcDbLine
 10
38.36562693931368
 20
-42.29671920659784
 30
0.0
 11
38.89776963428066
 21
-42.29671920659784
 31
0.0
  0
LWPOLYLINE
  5
36B
330
79
100
AcDbEntity
  8
Camada 1
 62
   250
420
  1907995
370
    18
100
AcDbPolyline
 90
        8
 70
     1
 43
0.0
 10
38.59334036625401
 20
-41.992596523222
 10
38.59334036625401
 20
-41.91648920621518
 10
38.66944768326084
 20
-41.91648920621518
 10
38.74555500026701
 20
-41.992596523222
 10
38.74555500026701
 20
-42.06870384022883
 10
38.66944768326084
 20
-42.06870384022883
 10
38.66944768326084
 20
-42.14450457258419
 10
38.59334036625401
 20
-42.14450457258419
  0
LINE
  5
36C
330
79
100
AcDbEntity
  8
Camada 1
 62
   250
420
  1907995
370
    18
100
AcDbLine
 10
38.89776963428066
 20
-42.29671920659784
 30
0.0
 11
38.89776963428066
 21
-41.76427457220153
 31
0.0
  0
LINE
  5
36D
330
79
100
AcDbEntity
  8
Camada 1
 62
   250
420
  1907995
370
    18
100
AcDbLine
 10
38.89776963428066
 20
-41.76427457220153
 30
0.0
 11
38.36562693931368
 21
-41.76427457220153
 31
0.0
  0
LINE
  5
36E
330
79
100
AcDbEntity
  8
Camada 1
 62
   250
420
  1907995
370
    18
100
AcDbLine
 10
38.36562693931368
 20
-41.76427457220153
 30
0.0
 11
38.36562693931368
 21
-42.29671920659784
 31
0.0
  0
LINE
  5
36F
330
79
100
AcDbEntity
  8
Camada 1
 62
   250
420
  1907995
370
    18
100
AcDbLine
 10
35.85621763498298
 20
-42.29671920659784
 30
0.0
 11
36.38835800733889
 21
-42.29671920659784
 31
0.0
  0
LWPOLYLINE
  5
370
330
79
100
AcDbEntity
  8
Camada 1
 62
   250
420
  1907995
370
    18
100
AcDbPolyline
 90
        8
 70
     1
 43
0.0
 10
36.08392873931224
 20
-41.992596523222
 10
36.08392873931224
 20
-41.91648920621518
 10
36.16003605631906
 20
-41.91648920621518
 10
36.23614337332589
 20
-41.992596523222
 10
36.23614337332589
 20
-42.06870384022883
 10
36.16003605631906
 20
-42.06870384022883
 10
36.16003605631906
 20
-42.14450457258419
 10
36.08392873931224
 20
-42.14450457258419
  0
LINE
  5
371
330
79
100
AcDbEntity
  8
Camada 1
 62
   250
420
  1907995
370
    18
100
AcDbLine
 10
36.38835800733889
 20
-42.29671920659784
 30
0.0
 11
36.38835800733889
 21
-41.76427457220153
 31
0.0
  0
LINE
  5
372
330
79
100
AcDbEntity
  8
Camada 1
 62
   250
420
  1907995
370
    18
100
AcDbLine
 10
36.38835800733889
 20
-41.76427457220153
 30
0.0
 11
35.85621763498298
 21
-41.76427457220153
 31
0.0
  0
LINE
  5
373
330
79
100
AcDbEntity
  8
Camada 1
 62
   250
420
  1907995
370
    18
100
AcDbLine
 10
35.85621763498298
 20
-41.76427457220153
 30
0.0
 11
35.85621763498298
 21
-42.29671920659784
 31
0.0
  0
LINE
  5
374
330
79
100
AcDbEntity
  8
Camada 1
 62
   250
420
  1907995
370
    18
100
AcDbLine
 10
48.47937379625438
 20
-44.80582657149922
 30
0.0
 11
49.01151649122136
 21
-44.80582657149922
 31
0.0
  0
LWPOLYLINE
  5
375
330
79
100
AcDbEntity
  8
Camada 1
 62
   250
420
  1907995
370
    18
100
AcDbPolyline
 90
        8
 70
     1
 43
0.0
 10
48.63097990618789
 20
-44.50169924290189
 10
48.63097990618789
 20
-44.50169924290189
 10
48.7070872231947
 20
-44.42559192589508
 10
48.78319454020089
 20
-44.42559192589508
 10
48.78319454020089
 20
-44.65361193748622
 10
48.7070872231947
 20
-44.65361193748622
 10
48.7070872231947
 20
-44.57780655990807
 10
48.63097990618789
 20
-44.57780655990807
  0
LINE
  5
376
330
79
100
AcDbEntity
  8
Camada 1
 62
   250
420
  1907995
370
    18
100
AcDbLine
 10
49.01151649122136
 20
-44.80582657149922
 30
0.0
 11
49.01151649122136
 21
-44.27337729188143
 31
0.0
  0
LINE
  5
377
330
79
100
AcDbEntity
  8
Camada 1
 62
   250
420
  1907995
370
    18
100
AcDbLine
 10
49.01151649122136
 20
-44.27337729188143
 30
0.0
 11
48.47937379625438
 21
-44.27337729188143
 31
0.0
  0
LINE
  5
378
330
79
100
AcDbEntity
  8
Camada 1
 62
   250
420
  1907995
370
    18
100
AcDbLine
 10
48.47937379625438
 20
-44.27337729188143
 30
0.0
 11
48.47937379625438
 21
-44.80582657149922
 31
0.0
  0
LINE
  5
379
330
79
100
AcDbEntity
  8
Camada 1
 62
   250
420
  1907995
370
    18
100
AcDbLine
 10
45.96996681453474
 20
-44.80582657149922
 30
0.0
 11
46.50210950950171
 21
-44.80582657149922
 31
0.0
  0
LWPOLYLINE
  5
37A
330
79
100
AcDbEntity
  8
Camada 1
 62
   250
420
  1907995
370
    18
100
AcDbPolyline
 90
        7
 70
     1
 43
0.0
 10
46.1215729244676
 20
-44.50169924290189
 10
46.1215729244676
 20
-44.42559192589508
 10
46.19768024147442
 20
-44.42559192589508
 10
46.27378755848125
 20
-44.42559192589508
 10
46.27378755848125
 20
-44.57780655990807
 10
46.19768024147442
 20
-44.65361193748622
 10
46.1215729244676
 20
-44.57780655990807
  0
LINE
  5
37B
330
79
100
AcDbEntity
  8
Camada 1
 62
   250
420
  1907995
370
    18
100
AcDbLine
 10
46.50210950950171
 20
-44.80582657149922
 30
0.0
 11
46.50210950950171
 21
-44.27337729188143
 31
0.0
  0
LINE
  5
37C
330
79
100
AcDbEntity
  8
Camada 1
 62
   250
420
  1907995
370
    18
100
AcDbLine
 10
46.50210950950171
 20
-44.27337729188143
 30
0.0
 11
45.96996681453474
 21
-44.27337729188143
 31
0.0
  0
LINE
  5
37D
330
79
100
AcDbEntity
  8
Camada 1
 62
   250
420
  1907995
370
    18
100
AcDbLine
 10
45.96996681453474
 20
-44.27337729188143
 30
0.0
 11
45.96996681453474
 21
-44.80582657149922
 31
0.0
  0
LINE
  5
37E
330
79
100
AcDbEntity
  8
Camada 1
 62
   250
420
  1907995
370
    18
100
AcDbLine
 10
43.38444787058615
 20
-44.80582657149922
 30
0.0
 11
43.99269788255995
 21
-44.80582657149922
 31
0.0
  0
LWPOLYLINE
  5
37F
330
79
100
AcDbEntity
  8
Camada 1
 62
   250
420
  1907995
370
    18
100
AcDbPolyline
 90
        7
 70
     1
 43
0.0
 10
43.61216129752647
 20
-44.50169924290189
 10
43.61216129752647
 20
-44.42559192589508
 10
43.68826861453266
 20
-44.42559192589508
 10
43.76437593153948
 20
-44.42559192589508
 10
43.76437593153948
 20
-44.57780655990807
 10
43.68826861453266
 20
-44.65361193748622
 10
43.61216129752647
 20
-44.57780655990807
  0
LINE
  5
380
330
79
100
AcDbEntity
  8
Camada 1
 62
   250
420
  1907995
370
    18
100
AcDbLine
 10
43.99269788255995
 20
-44.80582657149922
 30
0.0
 11
43.99269788255995
 21
-44.27337729188143
 31
0.0
  0
LINE
  5
381
330
79
100
AcDbEntity
  8
Camada 1
 62
   250
420
  1907995
370
    18
100
AcDbLine
 10
43.99269788255995
 20
-44.27337729188143
 30
0.0
 11
43.38444787058615
 21
-44.27337729188143
 31
0.0
  0
LINE
  5
382
330
79
100
AcDbEntity
  8
Camada 1
 62
   250
420
  1907995
370
    18
100
AcDbLine
 10
43.38444787058615
 20
-44.27337729188143
 30
0.0
 11
43.38444787058615
 21
-44.80582657149922
 31
0.0
  0
LINE
  5
383
330
79
100
AcDbEntity
  8
Camada 1
 62
   250
420
  1907995
370
    18
100
AcDbLine
 10
40.87503856625544
 20
-44.80582657149922
 30
0.0
 11
41.40717893861135
 21
-44.80582657149922
 31
0.0
  0
LWPOLYLINE
  5
384
330
79
100
AcDbEntity
  8
Camada 1
 62
   250
420
  1907995
370
    18
100
AcDbPolyline
 90
        7
 70
     1
 43
0.0
 10
41.10274967058471
 20
-44.50169924290189
 10
41.10274967058471
 20
-44.42559192589508
 10
41.17885698759153
 20
-44.42559192589508
 10
41.25496430459771
 20
-44.42559192589508
 10
41.25496430459771
 20
-44.57780655990807
 10
41.17885698759153
 20
-44.65361193748622
 10
41.10274967058471
 20
-44.57780655990807
  0
LINE
  5
385
330
79
100
AcDbEntity
  8
Camada 1
 62
   250
420
  1907995
370
    18
100
AcDbLine
 10
41.40717893861135
 20
-44.80582657149922
 30
0.0
 11
41.40717893861135
 21
-44.27337729188143
 31
0.0
  0
LINE
  5
386
330
79
100
AcDbEntity
  8
Camada 1
 62
   250
420
  1907995
370
    18
100
AcDbLine
 10
41.40717893861135
 20
-44.27337729188143
 30
0.0
 11
40.87503856625544
 21
-44.27337729188143
 31
0.0
  0
LINE
  5
387
330
79
100
AcDbEntity
  8
Camada 1
 62
   250
420
  1907995
370
    18
100
AcDbLine
 10
40.87503856625544
 20
-44.27337729188143
 30
0.0
 11
40.87503856625544
 21
-44.80582657149922
 31
0.0
  0
LINE
  5
388
330
79
100
AcDbEntity
  8
Camada 1
 62
   250
420
  1907995
370
    18
100
AcDbLine
 10
38.36562693931368
 20
-44.80582657149922
 30
0.0
 11
38.89776963428066
 21
-44.80582657149922
 31
0.0
  0
LWPOLYLINE
  5
389
330
79
100
AcDbEntity
  8
Camada 1
 62
   250
420
  1907995
370
    18
100
AcDbPolyline
 90
        8
 70
     1
 43
0.0
 10
38.59334036625401
 20
-44.50169924290189
 10
38.59334036625401
 20
-44.42559192589508
 10
38.66944768326084
 20
-44.42559192589508
 10
38.74555500026701
 20
-44.50169924290189
 10
38.74555500026701
 20
-44.57780655990807
 10
38.66944768326084
 20
-44.57780655990807
 10
38.66944768326084
 20
-44.65361193748622
 10
38.59334036625401
 20
-44.65361193748622
  0
LINE
  5
38A
330
79
100
AcDbEntity
  8
Camada 1
 62
   250
420
  1907995
370
    18
100
AcDbLine
 10
38.89776963428066
 20
-44.80582657149922
 30
0.0
 11
38.89776963428066
 21
-44.27337729188143
 31
0.0
  0
LINE
  5
38B
330
79
100
AcDbEntity
  8
Camada 1
 62
   250
420
  1907995
370
    18
100
AcDbLine
 10
38.89776963428066
 20
-44.27337729188143
 30
0.0
 11
38.36562693931368
 21
-44.27337729188143
 31
0.0
  0
LINE
  5
38C
330
79
100
AcDbEntity
  8
Camada 1
 62
   250
420
  1907995
370
    18
100
AcDbLine
 10
38.36562693931368
 20
-44.27337729188143
 30
0.0
 11
38.36562693931368
 21
-44.80582657149922
 31
0.0
  0
LINE
  5
38D
330
79
100
AcDbEntity
  8
Camada 1
 62
   250
420
  1907995
370
    18
100
AcDbLine
 10
35.85621763498298
 20
-44.80582657149922
 30
0.0
 11
36.38835800733889
 21
-44.80582657149922
 31
0.0
  0
LWPOLYLINE
  5
38E
330
79
100
AcDbEntity
  8
Camada 1
 62
   250
420
  1907995
370
    18
100
AcDbPolyline
 90
        8
 70
     1
 43
0.0
 10
36.08392873931224
 20
-44.50169924290189
 10
36.08392873931224
 20
-44.42559192589508
 10
36.16003605631906
 20
-44.42559192589508
 10
36.23614337332589
 20
-44.50169924290189
 10
36.23614337332589
 20
-44.57780655990807
 10
36.16003605631906
 20
-44.57780655990807
 10
36.16003605631906
 20
-44.65361193748622
 10
36.08392873931224
 20
-44.65361193748622
  0
LINE
  5
38F
330
79
100
AcDbEntity
  8
Camada 1
 62
   250
420
  1907995
370
    18
100
AcDbLine
 10
36.38835800733889
 20
-44.80582657149922
 30
0.0
 11
36.38835800733889
 21
-44.27337729188143
 31
0.0
  0
LINE
  5
390
330
79
100
AcDbEntity
  8
Camada 1
 62
   250
420
  1907995
370
    18
100
AcDbLine
 10
36.38835800733889
 20
-44.27337729188143
 30
0.0
 11
35.85621763498298
 21
-44.27337729188143
 31
0.0
  0
LINE
  5
391
330
79
100
AcDbEntity
  8
Camada 1
 62
   250
420
  1907995
370
    18
100
AcDbLine
 10
35.85621763498298
 20
-44.27337729188143
 30
0.0
 11
35.85621763498298
 21
-44.80582657149922
 31
0.0
  0
ENDBLK
  5
7C
330
79
100
AcDbEntity
  8
0
100
AcDbBlockEnd
  0
ENDSEC
  0
SECTION
  2
ENTITIES
  0
INSERT
  5
7A
330
70
100
AcDbEntity
  8
Camada 1
100
AcDbBlockReference
  2
Block_0
 10
0.0
 20
0.0
 30
0.0
  0
ENDSEC
  0
SECTION
  2
OBJECTS
  0
DICTIONARY
  5
C
330
0
100
AcDbDictionary
281
     1
  3
ACAD_COLOR
350
63
  3
ACAD_DETAILVIEWSTYLE
350
6A
  3
ACAD_GROUP
350
D
  3
ACAD_LAYOUT
350
62
  3
ACAD_MATERIAL
350
10
  3
ACAD_MLEADERSTYLE
350
66
  3
ACAD_MLINESTYLE
350
5F
  3
ACAD_PLOTSETTINGS
350
61
  3
ACAD_PLOTSTYLENAME
350
E
  3
ACAD_SCALELIST
350
42
  3
ACAD_SECTIONVIEWSTYLE
350
68
  3
ACAD_TABLESTYLE
350
64
  3
ACAD_VISUALSTYLE
350
29
  3
ACDB_RECOMPOSE_DATA
350
39A
  3
AcDbVariableDictionary
350
392
  0
DICTIONARY
  5
63
102
{ACAD_REACTORS
330
C
102
}
330
C
100
AcDbDictionary
281
     1
  0
DICTIONARY
  5
6A
102
{ACAD_REACTORS
330
C
102
}
330
C
100
AcDbDictionary
281
     1
  3
Imperial24
350
6B
  0
DICTIONARY
  5
D
102
{ACAD_REACTORS
330
C
102
}
330
C
100
AcDbDictionary
281
     1
  0
DICTIONARY
  5
62
102
{ACAD_REACTORS
330
C
102
}
330
C
100
AcDbDictionary
281
     1
  3
Layout1
350
6F
  3
Layout2
350
77
  3
Model
350
73
  0
DICTIONARY
  5
10
102
{ACAD_REACTORS
330
C
102
}
330
C
100
AcDbDictionary
281
     1
  3
ByBlock
350
19
  3
ByLayer
350
11
  3
Global
350
21
  0
DICTIONARY
  5
66
102
{ACAD_REACTORS
330
C
102
}
330
C
100
AcDbDictionary
281
     1
  3
Standard
350
67
  0
DICTIONARY
  5
5F
102
{ACAD_REACTORS
330
C
102
}
330
C
100
AcDbDictionary
281
     1
  3
Standard
350
60
  0
DICTIONARY
  5
61
102
{ACAD_REACTORS
330
C
102
}
330
C
100
AcDbDictionary
281
     1
  0
ACDBDICTIONARYWDFLT
  5
E
102
{ACAD_REACTORS
330
C
102
}
330
C
100
AcDbDictionary
281
     1
  3
Normal
350
F
100
AcDbDictionaryWithDefault
340
F
  0
DICTIONARY
  5
42
102
{ACAD_REACTORS
330
C
102
}
330
C
100
AcDbDictionary
281
     1
  3
A0
350
43
  3
A1
350
44
  3
A2
350
45
  3
A3
350
46
  3
A4
350
47
  3
A5
350
48
  3
A6
350
49
  3
A7
350
4A
  3
A8
350
4B
  3
A9
350
4C
  3
B0
350
4D
  3
B1
350
4E
  3
B2
350
4F
  3
B3
350
50
  3
B4
350
51
  3
B5
350
52
  3
B6
350
53
  0
DICTIONARY
  5
68
102
{ACAD_REACTORS
330
C
102
}
330
C
100
AcDbDictionary
281
     1
  3
Imperial24
350
69
  0
DICTIONARY
  5
64
102
{ACAD_REACTORS
330
C
102
}
330
C
100
AcDbDictionary
281
     1
  3
Standard
350
65
  0
DICTIONARY
  5
29
102
{ACAD_REACTORS
330
C
102
}
330
C
100
AcDbDictionary
281
     1
  3
2dWireframe
350
2F
  3
Basic
350
2E
  3
Brighten
350
35
  3
ColorChange
350
39
  3
Conceptual
350
32
  3
Dim
350
34
  3
EdgeColorOff
350
41
  3
Facepattern
350
38
  3
Flat
350
2A
  3
FlatWithEdges
350
2B
  3
Gouraud
350
2C
  3
GouraudWithEdges
350
2D
  3
Hidden
350
31
  3
JitterOff
350
3F
  3
Linepattern
350
37
  3
OverhangOff
350
40
  3
Realistic
350
33
  3
Shaded
350
3E
  3
Shaded with edges
350
3D
  3
Shades of Gray
350
3A
  3
Sketchy
350
3B
  3
Thicken
350
36
  3
Wireframe
350
30
  3
X-Ray
350
3C
  0
XRECORD
  5
39A
102
{ACAD_REACTORS
330
C
102
}
330
C
100
AcDbXrecord
280
     1
 90
        1
330
65
  0
DICTIONARY
  5
392
102
{ACAD_REACTORS
330
C
102
}
330
C
100
AcDbDictionary
281
     1
  3
CANNOSCALE
350
397
  3
CMLEADERSTYLE
350
394
  3
CTABLESTYLE
350
393
  3
CVIEWDETAILSTYLE
350
395
  3
CVIEWSECTIONSTYLE
350
396
  0
ACDBDETAILVIEWSTYLE
  5
6B
102
{ACAD_REACTORS
330
6A
102
}
330
6A
100
AcDbModelDocViewStyle
 70
     0
  3
Imperial24
290
     1
300
Imperial24
 90
        0
100
AcDbDetailViewStyle
 70
     0
 71
     0
 90
        3
 71
     1
340
55
 62
   256
 40
0.24
340
0
 62
   256
 40
0.24
300

 40
0.36
280
     3
 71
     2
340
5D
 90
       25
 62
   256
 71
     3
340
55
 62
   256
 40
0.24
 90
        1
 40
0.75
 90
        1
300
%<\AcVar ViewType \f "%tc1">% %<\AcVar ViewDetailId>%\PSCALE %<\AcVar ViewScale \f "%sn">%
 71
     4
340
5D
 90
       25
 62
   256
340
5D
 90
       25
 62
   256
280
     0
  0
LAYOUT
  5
6F
102
{ACAD_REACTORS
330
62
102
}
330
62
100
AcDbPlotSettings
  1

  2

  4

  6

 40
0.0
 41
0.0
 42
0.0
 43
0.0
 44
0.0
 45
0.0
 46
0.0
 47
0.0
 48
0.0
 49
0.0
140
0.0
141
0.0
142
1.0
143
1.0
 70
   688
 72
     0
 73
     0
 74
     5
  7

 75
    16
147
1.0
 76
     0
 77
     2
 78
   300
148
0.0
149
0.0
100
AcDbLayout
  1
Layout1
 70
     1
 71
     1
 10
0.0
 20
0.0
 11
12.0
 21
9.0
 12
0.0
 22
0.0
 32
0.0
 14
0.0
 24
0.0
 34
0.0
 15
0.0
 25
0.0
 35
0.0
146
0.0
 13
0.0
 23
0.0
 33
0.0
 16
1.0
 26
0.0
 36
0.0
 17
0.0
 27
1.0
 37
0.0
 76
     0
330
6C
  0
LAYOUT
  5
77
102
{ACAD_REACTORS
330
62
102
}
330
62
100
AcDbPlotSettings
  1

  2

  4

  6

 40
0.0
 41
0.0
 42
0.0
 43
0.0
 44
0.0
 45
0.0
 46
0.0
 47
0.0
 48
0.0
 49
0.0
140
0.0
141
0.0
142
1.0
143
1.0
 70
   688
 72
     0
 73
     0
 74
     5
  7

 75
    16
147
1.0
 76
     0
 77
     2
 78
   300
148
0.0
149
0.0
100
AcDbLayout
  1
Layout2
 70
     1
 71
     2
 10
0.0
 20
0.0
 11
12.0
 21
9.0
 12
0.0
 22
0.0
 32
0.0
 14
0.0
 24
0.0
 34
0.0
 15
0.0
 25
0.0
 35
0.0
146
0.0
 13
0.0
 23
0.0
 33
0.0
 16
1.0
 26
0.0
 36
0.0
 17
0.0
 27
1.0
 37
0.0
 76
     0
330
74
  0
LAYOUT
  5
73
102
{ACAD_REACTORS
330
62
102
}
330
62
100
AcDbPlotSettings
  1

  2

  4

  6

 40
0.0
 41
0.0
 42
0.0
 43
0.0
 44
0.0
 45
0.0
 46
0.0
 47
0.0
 48
0.0
 49
0.0
140
0.0
141
0.0
142
1.0
143
1.0
 70
  1712
 72
     0
 73
     0
 74
     0
  7

 75
     0
147
1.0
 76
     0
 77
     2
 78
   300
148
0.0
149
0.0
100
AcDbLayout
  1
Model
 70
     1
 71
     0
 10
0.0
 20
0.0
 11
12.0
 21
9.0
 12
0.0
 22
0.0
 32
0.0
 14
0.0
 24
0.0
 34
0.0
 15
0.0
 25
0.0
 35
0.0
146
0.0
 13
0.0
 23
0.0
 33
0.0
 16
1.0
 26
0.0
 36
0.0
 17
0.0
 27
1.0
 37
0.0
 76
     0
330
70
  0
MATERIAL
  5
19
102
{ACAD_XDICTIONARY
360
1A
102
}
102
{ACAD_REACTORS
330
10
102
}
330
10
100
AcDbMaterial
  1
ByBlock
 72
     0
 43
0.0208333333333333
 43
0.0
 43
0.0
 43
0.0
 43
0.0
 43
0.0208333333333333
 43
0.0
 43
0.0
 43
0.0
 43
0.0
 43
1.0
 43
0.0
 43
0.0
 43
0.0
 43
0.0
 43
1.0
 77
     0
 47
0.0208333333333333
 47
0.0
 47
0.0
 47
0.0
 47
0.0
 47
0.0208333333333333
 47
0.0
 47
0.0
 47
0.0
 47
0.0
 47
1.0
 47
0.0
 47
0.0
 47
0.0
 47
0.0
 47
1.0
171
     0
 49
0.0208333333333333
 49
0.0
 49
0.0
 49
0.0
 49
0.0
 49
0.0208333333333333
 49
0.0
 49
0.0
 49
0.0
 49
0.0
 49
1.0
 49
0.0
 49
0.0
 49
0.0
 49
0.0
 49
1.0
175
     0
142
0.0208333333333333
142
0.0
142
0.0
142
0.0
142
0.0
142
0.0208333333333333
142
0.0
142
0.0
142
0.0
142
0.0
142
1.0
142
0.0
142
0.0
142
0.0
142
0.0
142
1.0
179
     0
144
0.0208333333333333
144
0.0
144
0.0
144
0.0
144
0.0
144
0.0208333333333333
144
0.0
144
0.0
144
0.0
144
0.0
144
1.0
144
0.0
144
0.0
144
0.0
144
0.0
144
1.0
147
0.0208333333333333
147
0.0
147
0.0
147
0.0
147
0.0
147
0.0208333333333333
147
0.0
147
0.0
147
0.0
147
0.0
147
1.0
147
0.0
147
0.0
147
0.0
147
0.0
147
1.0
  0
MATERIAL
  5
11
102
{ACAD_XDICTIONARY
360
12
102
}
102
{ACAD_REACTORS
330
10
102
}
330
10
100
AcDbMaterial
  1
ByLayer
 72
     0
 43
0.0208333333333333
 43
0.0
 43
0.0
 43
0.0
 43
0.0
 43
0.0208333333333333
 43
0.0
 43
0.0
 43
0.0
 43
0.0
 43
1.0
 43
0.0
 43
0.0
 43
0.0
 43
0.0
 43
1.0
 77
     0
 47
0.0208333333333333
 47
0.0
 47
0.0
 47
0.0
 47
0.0
 47
0.0208333333333333
 47
0.0
 47
0.0
 47
0.0
 47
0.0
 47
1.0
 47
0.0
 47
0.0
 47
0.0
 47
0.0
 47
1.0
171
     0
 49
0.0208333333333333
 49
0.0
 49
0.0
 49
0.0
 49
0.0
 49
0.0208333333333333
 49
0.0
 49
0.0
 49
0.0
 49
0.0
 49
1.0
 49
0.0
 49
0.0
 49
0.0
 49
0.0
 49
1.0
175
     0
142
0.0208333333333333
142
0.0
142
0.0
142
0.0
142
0.0
142
0.0208333333333333
142
0.0
142
0.0
142
0.0
142
0.0
142
1.0
142
0.0
142
0.0
142
0.0
142
0.0
142
1.0
179
     0
144
0.0208333333333333
144
0.0
144
0.0
144
0.0
144
0.0
144
0.0208333333333333
144
0.0
144
0.0
144
0.0
144
0.0
144
1.0
144
0.0
144
0.0
144
0.0
144
0.0
144
1.0
147
0.0208333333333333
147
0.0
147
0.0
147
0.0
147
0.0
147
0.0208333333333333
147
0.0
147
0.0
147
0.0
147
0.0
147
1.0
147
0.0
147
0.0
147
0.0
147
0.0
147
1.0
  0
MATERIAL
  5
21
102
{ACAD_XDICTIONARY
360
22
102
}
102
{ACAD_REACTORS
330
10
102
}
330
10
100
AcDbMaterial
  1
Global
 72
     0
 43
0.0208333333333333
 43
0.0
 43
0.0
 43
0.0
 43
0.0
 43
0.0208333333333333
 43
0.0
 43
0.0
 43
0.0
 43
0.0
 43
1.0
 43
0.0
 43
0.0
 43
0.0
 43
0.0
 43
1.0
 77
     0
 47
0.0208333333333333
 47
0.0
 47
0.0
 47
0.0
 47
0.0
 47
0.0208333333333333
 47
0.0
 47
0.0
 47
0.0
 47
0.0
 47
1.0
 47
0.0
 47
0.0
 47
0.0
 47
0.0
 47
1.0
171
     0
 49
0.0208333333333333
 49
0.0
 49
0.0
 49
0.0
 49
0.0
 49
0.0208333333333333
 49
0.0
 49
0.0
 49
0.0
 49
0.0
 49
1.0
 49
0.0
 49
0.0
 49
0.0
 49
0.0
 49
1.0
175
     0
142
0.0208333333333333
142
0.0
142
0.0
142
0.0
142
0.0
142
0.0208333333333333
142
0.0
142
0.0
142
0.0
142
0.0
142
1.0
142
0.0
142
0.0
142
0.0
142
0.0
142
1.0
179
     0
144
0.0208333333333333
144
0.0
144
0.0
144
0.0
144
0.0
144
0.0208333333333333
144
0.0
144
0.0
144
0.0
144
0.0
144
1.0
144
0.0
144
0.0
144
0.0
144
0.0
144
1.0
147
0.0208333333333333
147
0.0
147
0.0
147
0.0
147
0.0
147
0.0208333333333333
147
0.0
147
0.0
147
0.0
147
0.0
147
1.0
147
0.0
147
0.0
147
0.0
147
0.0
147
1.0
  0
MLEADERSTYLE
  5
67
102
{ACAD_REACTORS
330
66
102
}
330
66
100
AcDbMLeaderStyle
179
     2
170
     2
171
     1
172
     0
 90
        2
 40
0.0
 41
0.0
173
     1
 91
-1056964608
340
5B
 92
       -2
290
     1
 42
0.09
291
     1
 43
0.36
  3
Standard
 44
0.18
300

342
55
174
     1
178
     6
175
     1
176
     0
 93
-1056964608
 45
0.18
292
     0
297
     0
 46
0.18
 94
-1056964608
 47
1.0
 49
1.0
140
1.0
293
     1
141
0.0
294
     1
177
     0
142
1.0
295
     1
296
     0
143
0.125
271
     0
272
     9
273
     9
298
     1
  0
MLINESTYLE
  5
60
102
{ACAD_REACTORS
330
5F
102
}
330
5F
100
AcDbMlineStyle
  2
STANDARD
 70
     0
  3

 62
   256
 51
90.0
 52
90.0
 71
     2
 49
0.5
 62
   256
  6
BYLAYER
 49
-0.5
 62
   256
  6
BYLAYER
  0
ACDBPLACEHOLDER
  5
F
102
{ACAD_REACTORS
330
E
102
}
330
E
  0
SCALE
  5
43
102
{ACAD_REACTORS
330
42
102
}
330
42
100
AcDbScale
 70
     0
300
1:1
140
1.0
141
1.0
290
     1
  0
SCALE
  5
44
102
{ACAD_REACTORS
330
42
102
}
330
42
100
AcDbScale
 70
     0
300
1/128" = 1'-0"
140
0.0078125
141
12.0
290
     0
  0
SCALE
  5
45
102
{ACAD_REACTORS
330
42
102
}
330
42
100
AcDbScale
 70
     0
300
1/64" = 1'-0"
140
0.015625
141
12.0
290
     0
  0
SCALE
  5
46
102
{ACAD_REACTORS
330
42
102
}
330
42
100
AcDbScale
 70
     0
300
1/32" = 1'-0"
140
0.03125
141
12.0
290
     0
  0
SCALE
  5
47
102
{ACAD_REACTORS
330
42
102
}
330
42
100
AcDbScale
 70
     0
300
1/16" = 1'-0"
140
0.0625
141
12.0
290
     0
  0
SCALE
  5
48
102
{ACAD_REACTORS
330
42
102
}
330
42
100
AcDbScale
 70
     0
300
3/32" = 1'-0"
140
0.09375
141
12.0
290
     0
  0
SCALE
  5
49
102
{ACAD_REACTORS
330
42
102
}
330
42
100
AcDbScale
 70
     0
300
1/8" = 1'-0"
140
0.125
141
12.0
290
     0
  0
SCALE
  5
4A
102
{ACAD_REACTORS
330
42
102
}
330
42
100
AcDbScale
 70
     0
300
3/16" = 1'-0"
140
0.1875
141
12.0
290
     0
  0
SCALE
  5
4B
102
{ACAD_REACTORS
330
42
102
}
330
42
100
AcDbScale
 70
     0
300
1/4" = 1'-0"
140
0.25
141
12.0
290
     0
  0
SCALE
  5
4C
102
{ACAD_REACTORS
330
42
102
}
330
42
100
AcDbScale
 70
     0
300
3/8" = 1'-0"
140
0.375
141
12.0
290
     0
  0
SCALE
  5
4D
102
{ACAD_REACTORS
330
42
102
}
330
42
100
AcDbScale
 70
     0
300
1/2" = 1'-0"
140
0.5
141
12.0
290
     0
  0
SCALE
  5
4E
102
{ACAD_REACTORS
330
42
102
}
330
42
100
AcDbScale
 70
     0
300
3/4" = 1'-0"
140
0.75
141
12.0
290
     0
  0
SCALE
  5
4F
102
{ACAD_REACTORS
330
42
102
}
330
42
100
AcDbScale
 70
     0
300
1" = 1'-0"
140
1.0
141
12.0
290
     0
  0
SCALE
  5
50
102
{ACAD_REACTORS
330
42
102
}
330
42
100
AcDbScale
 70
     0
300
1-1/2" = 1'-0"
140
1.5
141
12.0
290
     0
  0
SCALE
  5
51
102
{ACAD_REACTORS
330
42
102
}
330
42
100
AcDbScale
 70
     0
300
3" = 1'-0"
140
3.0
141
12.0
290
     0
  0
SCALE
  5
52
102
{ACAD_REACTORS
330
42
102
}
330
42
100
AcDbScale
 70
     0
300
6" = 1'-0"
140
6.0
141
12.0
290
     0
  0
SCALE
  5
53
102
{ACAD_REACTORS
330
42
102
}
330
42
100
AcDbScale
 70
     0
300
1'-0" = 1'-0"
140
12.0
141
12.0
290
     0
  0
ACDBSECTIONVIEWSTYLE
  5
69
102
{ACAD_REACTORS
330
68
102
}
330
68
100
AcDbModelDocViewStyle
 70
     0
  3
Imperial24
290
     1
300
Imperial24
 90
        0
100
AcDbSectionViewStyle
 70
     0
 71
     0
 90
       78
 71
     1
340
55
 62
   256
 40
0.24
340
0
340
0
 62
   256
 40
0.24
300
I, O, Q, S, X, Z
 40
0.48
 90
        3
 40
0.18
 90
        1
 71
     2
340
5D
 90
       25
 62
   256
340
5D
 90
       50
 62
   256
 40
0.24
 40
0.0
 40
0.24
 71
     3
340
55
 62
   256
 40
0.24
 90
        1
 40
0.75
 90
        1
300
%<\AcVar ViewType \f "%tc1">% %<\AcVar ViewSectionStartId>%-%<\AcVar ViewSectionEndId>%\PSCALE %<\AcVar ViewScale \f "%sn">%
 71
     4
 62
   256
 62
   257
300
ANSI31
 40
1.0
 90
        0
290
     0
290
     0
 90
        6
 40
0.0
 40
1.570796326794896
 40
0.2617993877991494
 40
1.308996938995747
 40
-0.2617993877991494
 40
1.832595714594046
  0
TABLESTYLE
  5
65
102
{ACAD_XDICTIONARY
360
398
102
}
102
{ACAD_REACTORS
330
64
102
}
330
64
100
AcDbTableStyle
280
     0
  3
Standard
 70
     0
 71
     0
 40
0.06
 41
0.06
280
     0
281
     0
  7
Standard
140
0.18
170
     2
 62
     0
 63
     7
283
     0
 90
      512
 91
        0
  1

274
    -2
284
     1
 64
     0
275
    -2
285
     1
 65
     0
276
    -2
286
     1
 66
     0
277
    -2
287
     1
 67
     0
278
    -2
288
     1
 68
     0
279
    -2
289
     1
 69
     0
  7
Standard
140
0.25
170
     5
 62
     0
 63
     7
283
     0
 90
      512
 91
        0
  1

274
    -2
284
     1
 64
     0
275
    -2
285
     1
 65
     0
276
    -2
286
     1
 66
     0
277
    -2
287
     1
 67
     0
278
    -2
288
     1
 68
     0
279
    -2
289
     1
 69
     0
  7
Standard
140
0.18
170
     5
 62
     0
 63
     7
283
     0
 90
      512
 91
        0
  1

274
    -2
284
     1
 64
     0
275
    -2
285
     1
 65
     0
276
    -2
286
     1
 66
     0
277
    -2
287
     1
 67
     0
278
    -2
288
     1
 68
     0
279
    -2
289
     1
 69
     0
  0
VISUALSTYLE
  5
2F
102
{ACAD_REACTORS
330
29
102
}
330
29
100
AcDbVisualStyle
  2
2dWireframe
 70
     4
177
     3
291
     0
 70
    58
 90
        0
176
     1
 90
        2
176
     1
 90
        0
176
     1
 90
        0
176
     1
 40
0.6
176
     1
 40
30.0
176
     1
 62
     7
420
 16777215
176
     1
 90
        1
176
     1
 90
        4
176
     1
 62
     7
176
     1
 62
   257
176
     1
 90
        1
176
     1
 90
        1
176
     1
 40
1.0
176
     1
 90
        0
176
     1
 62
   257
176
     1
 40
1.0
176
     1
 90
        1
176
     1
 90
        6
176
     1
 90
        2
176
     1
 62
     7
176
     1
 90
        5
176
     1
 90
        0
176
     1
 90
        0
176
     1
290
     0
176
     1
 90
        1
176
     1
 40
0.0
176
     1
 90
        0
176
     1
290
     1
176
     1
290
     1
176
     1
290
     0
176
     1
290
     0
176
     1
290
     0
176
     1
290
     0
176
     1
290
     0
176
     1
290
     0
176
     1
290
     0
176
     1
 90
       50
176
     1
 40
0.0
176
     1
 40
1.0
176
     1
 90
        0
176
     1
 62
    18
420
        0
176
     1
 90
       50
176
     1
 90
        3
176
     1
 62
     5
420
      255
176
     1
290
     0
176
     1
 90
       50
176
     1
 90
       50
176
     1
 90
       50
176
     1
290
     0
176
     1
 90
       50
176
     1
 62
   256
176
     0
 40
1.0
176
     0
 90
        2
176
     1
  1
strokes_ogs.tif
176
     1
290
     0
176
     1
 40
1.0
176
     1
 40
1.0
176
     1
  0
VISUALSTYLE
  5
2E
102
{ACAD_REACTORS
330
29
102
}
330
29
100
AcDbVisualStyle
  2
Basic
 70
     7
177
     3
291
     1
 70
    58
 90
        1
176
     1
 90
        0
176
     1
 90
        1
176
     1
 90
        0
176
     1
 40
0.6
176
     1
 40
30.0
176
     1
 62
     7
420
 16777215
176
     1
 90
        0
176
     1
 90
        4
176
     1
 62
     7
176
     1
 62
   257
176
     1
 90
        1
176
     1
 90
        1
176
     1
 40
1.0
176
     1
 90
        8
176
     1
 62
     7
176
     1
 40
1.0
176
     1
 90
        1
176
     1
 90
        6
176
     1
 90
        2
176
     1
 62
     7
176
     1
 90
        5
176
     1
 90
        0
176
     1
 90
        0
176
     1
290
     0
176
     1
 90
        1
176
     1
 40
0.0
176
     1
 90
        0
176
     1
290
     0
176
     1
290
     1
176
     1
290
     1
176
     1
290
     0
176
     1
290
     0
176
     1
290
     0
176
     1
290
     0
176
     1
290
     0
176
     1
290
     0
176
     1
 90
       50
176
     1
 40
0.0
176
     1
 40
1.0
176
     1
 90
        0
176
     1
 62
    18
420
        0
176
     1
 90
       50
176
     1
 90
        3
176
     1
 62
     5
420
      255
176
     1
290
     0
176
     1
 90
       50
176
     1
 90
       50
176
     1
 90
       50
176
     1
290
     0
176
     1
 90
       50
176
     1
 62
   256
176
     0
 40
1.0
176
     0
 90
        2
176
     1
  1
strokes_ogs.tif
176
     1
290
     0
176
     1
 40
1.0
176
     1
 40
1.0
176
     1
  0
VISUALSTYLE
  5
35
102
{ACAD_REACTORS
330
29
102
}
330
29
100
AcDbVisualStyle
  2
Brighten
 70
    12
177
     3
291
     1
 70
    58
 90
        2
176
     1
 90
        2
176
     1
 90
        0
176
     1
 90
        0
176
     1
 40
0.6
176
     1
 40
30.0
176
     1
 62
     7
420
 16777215
176
     1
 90
        1
176
     1
 90
        4
176
     1
 62
     7
176
     1
 62
   257
176
     1
 90
        1
176
     1
 90
        1
176
     1
 40
1.0
176
     1
 90
        8
176
     1
 62
     7
176
     1
 40
1.0
176
     1
 90
        1
176
     1
 90
        6
176
     1
 90
        2
176
     1
 62
     7
176
     1
 90
        5
176
     1
 90
        0
176
     1
 90
        0
176
     1
290
     0
176
     1
 90
        1
176
     1
 40
50.0
176
     1
 90
        0
176
     1
290
     0
176
     1
290
     1
176
     1
290
     1
176
     1
290
     0
176
     1
290
     0
176
     1
290
     0
176
     1
290
     0
176
     1
290
     0
176
     1
290
     0
176
     1
 90
       50
176
     1
 40
0.0
176
     1
 40
1.0
176
     1
 90
        0
176
     1
 62
    18
420
        0
176
     1
 90
       50
176
     1
 90
        3
176
     1
 62
     5
420
      255
176
     1
290
     0
176
     1
 90
       50
176
     1
 90
       50
176
     1
 90
       50
176
     1
290
     0
176
     1
 90
       50
176
     1
 62
   256
176
     0
 40
1.0
176
     0
 90
        2
176
     1
  1
strokes_ogs.tif
176
     1
290
     0
176
     1
 40
1.0
176
     1
 40
1.0
176
     1
  0
VISUALSTYLE
  5
39
102
{ACAD_REACTORS
330
29
102
}
330
29
100
AcDbVisualStyle
  2
ColorChange
 70
    16
177
     3
291
     1
 70
    58
 90
        2
176
     1
 90
        2
176
     1
 90
        3
176
     1
 90
        0
176
     1
 40
0.6
176
     1
 40
30.0
176
     1
 62
     8
420
  8421504
176
     1
 90
        1
176
     1
 90
        4
176
     1
 62
     7
176
     1
 62
   257
176
     1
 90
        1
176
     1
 90
        1
176
     1
 40
1.0
176
     1
 90
        8
176
     1
 62
     8
420
  8421504
176
     1
 40
1.0
176
     1
 90
        1
176
     1
 90
        6
176
     1
 90
        2
176
     1
 62
     7
176
     1
 90
        5
176
     1
 90
        0
176
     1
 90
        0
176
     1
290
     0
176
     1
 90
        1
176
     1
 40
0.0
176
     1
 90
        0
176
     1
290
     0
176
     1
290
     1
176
     1
290
     1
176
     1
290
     0
176
     1
290
     0
176
     1
290
     0
176
     1
290
     0
176
     1
290
     0
176
     1
290
     0
176
     1
 90
       50
176
     1
 40
0.0
176
     1
 40
1.0
176
     1
 90
        0
176
     1
 62
    18
420
        0
176
     1
 90
       50
176
     1
 90
        3
176
     1
 62
     5
420
      255
176
     1
290
     0
176
     1
 90
       50
176
     1
 90
       50
176
     1
 90
       50
176
     1
290
     0
176
     1
 90
       50
176
     1
 62
   256
176
     0
 40
1.0
176
     0
 90
        2
176
     1
  1
strokes_ogs.tif
176
     1
290
     0
176
     1
 40
1.0
176
     1
 40
1.0
176
     1
  0
VISUALSTYLE
  5
32
102
{ACAD_REACTORS
330
29
102
}
330
29
100
AcDbVisualStyle
  2
Conceptual
 70
     9
177
     3
291
     0
 70
    58
 90
        3
176
     1
 90
        2
176
     1
 90
        0
176
     1
 90
        0
176
     1
 40
0.6
176
     1
 40
30.0
176
     1
 62
     7
420
 16777215
176
     1
 90
        2
176
     1
 90
        2
176
     1
 62
     7
176
     1
 62
   257
176
     1
 90
        1
176
     1
 90
        1
176
     1
 40
179.0
176
     1
 90
        8
176
     1
 62
     7
176
     1
 40
1.0
176
     1
 90
        1
176
     1
 90
        6
176
     1
 90
        2
176
     1
 62
     7
176
     1
 90
        3
176
     1
 90
        0
176
     1
 90
        0
176
     1
290
     0
176
     1
 90
        1
176
     1
 40
0.0
176
     1
 90
        0
176
     1
290
     0
176
     1
290
     1
176
     1
290
     1
176
     1
290
     0
176
     1
290
     0
176
     1
290
     0
176
     1
290
     0
176
     1
290
     0
176
     1
290
     0
176
     1
 90
       50
176
     1
 40
0.0
176
     1
 40
1.0
176
     1
 90
        0
176
     1
 62
    18
420
        0
176
     1
 90
       50
176
     1
 90
        3
176
     1
 62
     5
420
      255
176
     1
290
     0
176
     1
 90
       50
176
     1
 90
       50
176
     1
 90
       50
176
     1
290
     0
176
     1
 90
       50
176
     1
 62
   256
176
     0
 40
1.0
176
     0
 90
        2
176
     1
  1
strokes_ogs.tif
176
     1
290
     0
176
     1
 40
1.0
176
     1
 40
1.0
176
     1
  0
VISUALSTYLE
  5
34
102
{ACAD_REACTORS
330
29
102
}
330
29
100
AcDbVisualStyle
  2
Dim
 70
    11
177
     3
291
     1
 70
    58
 90
        2
176
     1
 90
        2
176
     1
 90
        0
176
     1
 90
        0
176
     1
 40
0.6
176
     1
 40
30.0
176
     1
 62
     7
420
 16777215
176
     1
 90
        1
176
     1
 90
        4
176
     1
 62
     7
176
     1
 62
   257
176
     1
 90
        1
176
     1
 90
        1
176
     1
 40
1.0
176
     1
 90
        8
176
     1
 62
     7
176
     1
 40
1.0
176
     1
 90
        1
176
     1
 90
        6
176
     1
 90
        2
176
     1
 62
     7
176
     1
 90
        5
176
     1
 90
        0
176
     1
 90
        0
176
     1
290
     0
176
     1
 90
        1
176
     1
 40
-50.0
176
     1
 90
        0
176
     1
290
     0
176
     1
290
     1
176
     1
290
     1
176
     1
290
     0
176
     1
290
     0
176
     1
290
     0
176
     1
290
     0
176
     1
290
     0
176
     1
290
     0
176
     1
 90
       50
176
     1
 40
0.0
176
     1
 40
1.0
176
     1
 90
        0
176
     1
 62
    18
420
        0
176
     1
 90
       50
176
     1
 90
        3
176
     1
 62
     5
420
      255
176
     1
290
     0
176
     1
 90
       50
176
     1
 90
       50
176
     1
 90
       50
176
     1
290
     0
176
     1
 90
       50
176
     1
 62
   256
176
     0
 40
1.0
176
     0
 90
        2
176
     1
  1
strokes_ogs.tif
176
     1
290
     0
176
     1
 40
1.0
176
     1
 40
1.0
176
     1
  0
VISUALSTYLE
  5
41
102
{ACAD_REACTORS
330
29
102
}
330
29
100
AcDbVisualStyle
  2
EdgeColorOff
 70
    22
177
     3
291
     1
 70
    58
 90
        2
176
     0
 90
        2
176
     0
 90
        0
176
     0
 90
        0
176
     0
 40
0.6
176
     0
 40
30.0
176
     0
 62
     7
420
 16777215
176
     0
 90
        1
176
     0
 90
        4
176
     0
 62
     7
176
     0
 62
   257
176
     0
 90
        1
176
     0
 90
        1
176
     0
 40
1.0
176
     0
 90
        8
176
     2
 62
     7
176
     0
 40
1.0
176
     0
 90
        1
176
     0
 90
        6
176
     0
 90
        2
176
     0
 62
     7
176
     0
 90
        5
176
     0
 90
        0
176
     0
 90
        0
176
     0
290
     0
176
     0
 90
        1
176
     0
 40
0.0
176
     0
 90
        0
176
     0
290
     0
176
     0
290
     1
176
     0
290
     1
176
     0
290
     0
176
     0
290
     0
176
     0
290
     0
176
     0
290
     0
176
     0
290
     0
176
     0
290
     0
176
     0
 90
       50
176
     0
 40
0.0
176
     0
 40
1.0
176
     0
 90
        0
176
     0
 62
    18
420
        0
176
     0
 90
       50
176
     0
 90
        3
176
     0
 62
     5
420
      255
176
     0
290
     0
176
     0
 90
       50
176
     0
 90
       50
176
     0
 90
       50
176
     0
290
     0
176
     0
 90
       50
176
     0
 62
   256
176
     0
 40
1.0
176
     0
 90
        2
176
     0
  1
strokes_ogs.tif
176
     0
290
     0
176
     0
 40
1.0
176
     0
 40
1.0
176
     0
  0
VISUALSTYLE
  5
38
102
{ACAD_REACTORS
330
29
102
}
330
29
100
AcDbVisualStyle
  2
Facepattern
 70
    15
177
     3
291
     1
 70
    58
 90
        2
176
     1
 90
        2
176
     1
 90
        0
176
     1
 90
        0
176
     1
 40
0.6
176
     1
 40
30.0
176
     1
 62
     7
420
 16777215
176
     1
 90
        1
176
     1
 90
        4
176
     1
 62
     7
176
     1
 62
   257
176
     1
 90
        1
176
     1
 90
        1
176
     1
 40
1.0
176
     1
 90
        8
176
     1
 62
     7
176
     1
 40
1.0
176
     1
 90
        1
176
     1
 90
        6
176
     1
 90
        2
176
     1
 62
     7
176
     1
 90
        5
176
     1
 90
        0
176
     1
 90
        0
176
     1
290
     0
176
     1
 90
        1
176
     1
 40
0.0
176
     1
 90
        0
176
     1
290
     0
176
     1
290
     1
176
     1
290
     1
176
     1
290
     0
176
     1
290
     0
176
     1
290
     0
176
     1
290
     0
176
     1
290
     0
176
     1
290
     0
176
     1
 90
       50
176
     1
 40
0.0
176
     1
 40
1.0
176
     1
 90
        0
176
     1
 62
    18
420
        0
176
     1
 90
       50
176
     1
 90
        3
176
     1
 62
     5
420
      255
176
     1
290
     0
176
     1
 90
       50
176
     1
 90
       50
176
     1
 90
       50
176
     1
290
     0
176
     1
 90
       50
176
     1
 62
   256
176
     0
 40
1.0
176
     0
 90
        2
176
     1
  1
strokes_ogs.tif
176
     1
290
     0
176
     1
 40
1.0
176
     1
 40
1.0
176
     1
  0
VISUALSTYLE
  5
2A
102
{ACAD_REACTORS
330
29
102
}
330
29
100
AcDbVisualStyle
  2
Flat
 70
     0
177
     3
291
     1
 70
    58
 90
        2
176
     1
 90
        1
176
     1
 90
        1
176
     1
 90
        2
176
     1
 40
0.6
176
     1
 40
30.0
176
     1
 62
     7
420
 16777215
176
     1
 90
        0
176
     1
 90
        0
176
     1
 62
     7
176
     1
 62
   257
176
     1
 90
        1
176
     1
 90
        1
176
     1
 40
1.0
176
     1
 90
        8
176
     1
 62
     7
176
     1
 40
1.0
176
     1
 90
        1
176
     1
 90
        6
176
     1
 90
        2
176
     1
 62
     7
176
     1
 90
        5
176
     1
 90
        0
176
     1
 90
        0
176
     1
290
     0
176
     1
 90
       13
176
     1
 40
0.0
176
     1
 90
        0
176
     1
290
     0
176
     1
290
     1
176
     1
290
     1
176
     1
290
     0
176
     1
290
     0
176
     1
290
     0
176
     1
290
     0
176
     1
290
     0
176
     1
290
     0
176
     1
 90
       50
176
     1
 40
0.0
176
     1
 40
1.0
176
     1
 90
        0
176
     1
 62
    18
420
        0
176
     1
 90
       50
176
     1
 90
        3
176
     1
 62
     5
420
      255
176
     1
290
     0
176
     1
 90
       50
176
     1
 90
       50
176
     1
 90
       50
176
     1
290
     0
176
     1
 90
       50
176
     1
 62
   256
176
     0
 40
1.0
176
     0
 90
        2
176
     1
  1
strokes_ogs.tif
176
     1
290
     0
176
     1
 40
1.0
176
     1
 40
1.0
176
     1
  0
VISUALSTYLE
  5
2B
102
{ACAD_REACTORS
330
29
102
}
330
29
100
AcDbVisualStyle
  2
FlatWithEdges
 70
     1
177
     3
291
     1
 70
    58
 90
        2
176
     1
 90
        1
176
     1
 90
        1
176
     1
 90
        2
176
     1
 40
0.6
176
     1
 40
30.0
176
     1
 62
     7
420
 16777215
176
     1
 90
        1
176
     1
 90
        0
176
     1
 62
     7
176
     1
 62
   257
176
     1
 90
        1
176
     1
 90
        1
176
     1
 40
1.0
176
     1
 90
        0
176
     1
 62
   257
176
     1
 40
1.0
176
     1
 90
        1
176
     1
 90
        6
176
     1
 90
        2
176
     1
 62
     7
176
     1
 90
        5
176
     1
 90
        0
176
     1
 90
        0
176
     1
290
     0
176
     1
 90
       13
176
     1
 40
0.0
176
     1
 90
        0
176
     1
290
     0
176
     1
290
     1
176
     1
290
     1
176
     1
290
     0
176
     1
290
     0
176
     1
290
     0
176
     1
290
     0
176
     1
290
     0
176
     1
290
     0
176
     1
 90
       50
176
     1
 40
0.0
176
     1
 40
1.0
176
     1
 90
        0
176
     1
 62
    18
420
        0
176
     1
 90
       50
176
     1
 90
        3
176
     1
 62
     5
420
      255
176
     1
290
     0
176
     1
 90
       50
176
     1
 90
       50
176
     1
 90
       50
176
     1
290
     0
176
     1
 90
       50
176
     1
 62
   256
176
     0
 40
1.0
176
     0
 90
        2
176
     1
  1
strokes_ogs.tif
176
     1
290
     0
176
     1
 40
1.0
176
     1
 40
1.0
176
     1
  0
VISUALSTYLE
  5
2C
102
{ACAD_REACTORS
330
29
102
}
330
29
100
AcDbVisualStyle
  2
Gouraud
 70
     2
177
     3
291
     1
 70
    58
 90
        2
176
     1
 90
        2
176
     1
 90
        1
176
     1
 90
        2
176
     1
 40
0.6
176
     1
 40
30.0
176
     1
 62
     7
420
 16777215
176
     1
 90
        0
176
     1
 90
        0
176
     1
 62
     7
176
     1
 62
   257
176
     1
 90
        1
176
     1
 90
        1
176
     1
 40
1.0
176
     1
 90
        0
176
     1
 62
     7
176
     1
 40
1.0
176
     1
 90
        1
176
     1
 90
        6
176
     1
 90
        2
176
     1
 62
     7
176
     1
 90
        5
176
     1
 90
        0
176
     1
 90
        0
176
     1
290
     0
176
     1
 90
       13
176
     1
 40
0.0
176
     1
 90
        0
176
     1
290
     0
176
     1
290
     1
176
     1
290
     1
176
     1
290
     0
176
     1
290
     0
176
     1
290
     0
176
     1
290
     0
176
     1
290
     0
176
     1
290
     0
176
     1
 90
       50
176
     1
 40
0.0
176
     1
 40
1.0
176
     1
 90
        0
176
     1
 62
    18
420
        0
176
     1
 90
       50
176
     1
 90
        3
176
     1
 62
     5
420
      255
176
     1
290
     0
176
     1
 90
       50
176
     1
 90
       50
176
     1
 90
       50
176
     1
290
     0
176
     1
 90
       50
176
     1
 62
   256
176
     0
 40
1.0
176
     0
 90
        2
176
     1
  1
strokes_ogs.tif
176
     1
290
     0
176
     1
 40
1.0
176
     1
 40
1.0
176
     1
  0
VISUALSTYLE
  5
2D
102
{ACAD_REACTORS
330
29
102
}
330
29
100
AcDbVisualStyle
  2
GouraudWithEdges
 70
     3
177
     3
291
     1
 70
    58
 90
        2
176
     1
 90
        2
176
     1
 90
        1
176
     1
 90
        2
176
     1
 40
0.6
176
     1
 40
30.0
176
     1
 62
     7
420
 16777215
176
     1
 90
        1
176
     1
 90
        0
176
     1
 62
     7
176
     1
 62
   257
176
     1
 90
        1
176
     1
 90
        1
176
     1
 40
1.0
176
     1
 90
        0
176
     1
 62
   257
176
     1
 40
1.0
176
     1
 90
        1
176
     1
 90
        6
176
     1
 90
        2
176
     1
 62
     7
176
     1
 90
        5
176
     1
 90
        0
176
     1
 90
        0
176
     1
290
     0
176
     1
 90
       13
176
     1
 40
0.0
176
     1
 90
        0
176
     1
290
     0
176
     1
290
     1
176
     1
290
     1
176
     1
290
     0
176
     1
290
     0
176
     1
290
     0
176
     1
290
     0
176
     1
290
     0
176
     1
290
     0
176
     1
 90
       50
176
     1
 40
0.0
176
     1
 40
1.0
176
     1
 90
        0
176
     1
 62
    18
420
        0
176
     1
 90
       50
176
     1
 90
        3
176
     1
 62
     5
420
      255
176
     1
290
     0
176
     1
 90
       50
176
     1
 90
       50
176
     1
 90
       50
176
     1
290
     0
176
     1
 90
       50
176
     1
 62
   256
176
     0
 40
1.0
176
     0
 90
        2
176
     1
  1
strokes_ogs.tif
176
     1
290
     0
176
     1
 40
1.0
176
     1
 40
1.0
176
     1
  0
VISUALSTYLE
  5
31
102
{ACAD_REACTORS
330
29
102
}
330
29
100
AcDbVisualStyle
  2
Hidden
 70
     6
177
     3
291
     0
 70
    58
 90
        1
176
     1
 90
        2
176
     1
 90
        2
176
     1
 90
        0
176
     1
 40
0.6
176
     1
 40
30.0
176
     1
 62
     7
420
 16777215
176
     1
 90
        2
176
     1
 90
        2
176
     1
 62
     7
176
     1
 62
   257
176
     1
 90
        2
176
     1
 90
        1
176
     1
 40
40.0
176
     1
 90
        0
176
     1
 62
   257
176
     1
 40
1.0
176
     1
 90
        1
176
     1
 90
        6
176
     1
 90
        2
176
     1
 62
     7
176
     1
 90
        3
176
     1
 90
        0
176
     1
 90
        0
176
     1
290
     0
176
     1
 90
        1
176
     1
 40
0.0
176
     1
 90
        0
176
     1
290
     0
176
     1
290
     1
176
     1
290
     1
176
     1
290
     0
176
     1
290
     0
176
     1
290
     0
176
     1
290
     0
176
     1
290
     0
176
     1
290
     0
176
     1
 90
       50
176
     1
 40
0.0
176
     1
 40
1.0
176
     1
 90
        0
176
     1
 62
    18
420
        0
176
     1
 90
       50
176
     1
 90
        3
176
     1
 62
     5
420
      255
176
     1
290
     0
176
     1
 90
       50
176
     1
 90
       50
176
     1
 90
       50
176
     1
290
     0
176
     1
 90
       50
176
     1
 62
   256
176
     0
 40
1.0
176
     0
 90
        2
176
     1
  1
strokes_ogs.tif
176
     1
290
     0
176
     1
 40
1.0
176
     1
 40
1.0
176
     1
  0
VISUALSTYLE
  5
3F
102
{ACAD_REACTORS
330
29
102
}
330
29
100
AcDbVisualStyle
  2
JitterOff
 70
    20
177
     3
291
     1
 70
    58
 90
        2
176
     0
 90
        2
176
     0
 90
        0
176
     0
 90
        0
176
     0
 40
0.6
176
     0
 40
30.0
176
     0
 62
     7
420
 16777215
176
     0
 90
        1
176
     0
 90
        4
176
     0
 62
     7
176
     0
 62
   257
176
     0
 90
        1
176
     0
 90
        1
176
     0
 40
1.0
176
     0
 90
       10
176
     2
 62
     7
176
     0
 40
1.0
176
     0
 90
        1
176
     0
 90
        6
176
     0
 90
        2
176
     0
 62
     7
176
     0
 90
        5
176
     0
 90
        0
176
     0
 90
        0
176
     0
290
     0
176
     0
 90
        1
176
     0
 40
0.0
176
     0
 90
        0
176
     0
290
     0
176
     0
290
     1
176
     0
290
     1
176
     0
290
     0
176
     0
290
     0
176
     0
290
     0
176
     0
290
     0
176
     0
290
     0
176
     0
290
     0
176
     0
 90
       50
176
     0
 40
0.0
176
     0
 40
1.0
176
     0
 90
        0
176
     0
 62
    18
420
        0
176
     0
 90
       50
176
     0
 90
        3
176
     0
 62
     5
420
      255
176
     0
290
     0
176
     0
 90
       50
176
     0
 90
       50
176
     0
 90
       50
176
     0
290
     0
176
     0
 90
       50
176
     0
 62
   256
176
     0
 40
1.0
176
     0
 90
        2
176
     0
  1
strokes_ogs.tif
176
     0
290
     0
176
     0
 40
1.0
176
     0
 40
1.0
176
     0
  0
VISUALSTYLE
  5
37
102
{ACAD_REACTORS
330
29
102
}
330
29
100
AcDbVisualStyle
  2
Linepattern
 70
    14
177
     3
291
     1
 70
    58
 90
        2
176
     1
 90
        2
176
     1
 90
        0
176
     1
 90
        0
176
     1
 40
0.6
176
     1
 40
30.0
176
     1
 62
     7
420
 16777215
176
     1
 90
        1
176
     1
 90
        4
176
     1
 62
     7
176
     1
 62
   257
176
     1
 90
        7
176
     1
 90
        7
176
     1
 40
1.0
176
     1
 90
        8
176
     1
 62
     7
176
     1
 40
1.0
176
     1
 90
        1
176
     1
 90
        6
176
     1
 90
        2
176
     1
 62
     7
176
     1
 90
        5
176
     1
 90
        0
176
     1
 90
        0
176
     1
290
     0
176
     1
 90
        1
176
     1
 40
0.0
176
     1
 90
        0
176
     1
290
     0
176
     1
290
     1
176
     1
290
     1
176
     1
290
     0
176
     1
290
     0
176
     1
290
     0
176
     1
290
     0
176
     1
290
     0
176
     1
290
     0
176
     1
 90
       50
176
     1
 40
0.0
176
     1
 40
1.0
176
     1
 90
        0
176
     1
 62
    18
420
        0
176
     1
 90
       50
176
     1
 90
        3
176
     1
 62
     5
420
      255
176
     1
290
     0
176
     1
 90
       50
176
     1
 90
       50
176
     1
 90
       50
176
     1
290
     0
176
     1
 90
       50
176
     1
 62
   256
176
     0
 40
1.0
176
     0
 90
        2
176
     1
  1
strokes_ogs.tif
176
     1
290
     0
176
     1
 40
1.0
176
     1
 40
1.0
176
     1
  0
VISUALSTYLE
  5
40
102
{ACAD_REACTORS
330
29
102
}
330
29
100
AcDbVisualStyle
  2
OverhangOff
 70
    21
177
     3
291
     1
 70
    58
 90
        2
176
     0
 90
        2
176
     0
 90
        0
176
     0
 90
        0
176
     0
 40
0.6
176
     0
 40
30.0
176
     0
 62
     7
420
 16777215
176
     0
 90
        1
176
     0
 90
        4
176
     0
 62
     7
176
     0
 62
   257
176
     0
 90
        1
176
     0
 90
        1
176
     0
 40
1.0
176
     0
 90
        9
176
     2
 62
     7
176
     0
 40
1.0
176
     0
 90
        1
176
     0
 90
        6
176
     0
 90
        2
176
     0
 62
     7
176
     0
 90
        5
176
     0
 90
        0
176
     0
 90
        0
176
     0
290
     0
176
     0
 90
        1
176
     0
 40
0.0
176
     0
 90
        0
176
     0
290
     0
176
     0
290
     1
176
     0
290
     1
176
     0
290
     0
176
     0
290
     0
176
     0
290
     0
176
     0
290
     0
176
     0
290
     0
176
     0
290
     0
176
     0
 90
       50
176
     0
 40
0.0
176
     0
 40
1.0
176
     0
 90
        0
176
     0
 62
    18
420
        0
176
     0
 90
       50
176
     0
 90
        3
176
     0
 62
     5
420
      255
176
     0
290
     0
176
     0
 90
       50
176
     0
 90
       50
176
     0
 90
       50
176
     0
290
     0
176
     0
 90
       50
176
     0
 62
   256
176
     0
 40
1.0
176
     0
 90
        2
176
     0
  1
strokes_ogs.tif
176
     0
290
     0
176
     0
 40
1.0
176
     0
 40
1.0
176
     0
  0
VISUALSTYLE
  5
33
102
{ACAD_REACTORS
330
29
102
}
330
29
100
AcDbVisualStyle
  2
Realistic
 70
     8
177
     3
291
     0
 70
    58
 90
        2
176
     1
 90
        3
176
     1
 90
        0
176
     1
 90
        2
176
     1
 40
0.6
176
     1
 40
30.0
176
     1
 62
     7
420
 16777215
176
     1
 90
        0
176
     1
 90
        0
176
     1
 62
     7
176
     1
 62
   257
176
     1
 90
        1
176
     1
 90
        1
176
     1
 40
1.0
176
     1
 90
        8
176
     1
 62
   257
176
     1
 40
1.0
176
     1
 90
        1
176
     1
 90
        6
176
     1
 90
        2
176
     1
 62
     7
176
     1
 90
        3
176
     1
 90
        0
176
     1
 90
        0
176
     1
290
     0
176
     1
 90
       13
176
     1
 40
0.0
176
     1
 90
        0
176
     1
290
     0
176
     1
290
     1
176
     1
290
     1
176
     1
290
     0
176
     1
290
     0
176
     1
290
     0
176
     1
290
     0
176
     1
290
     0
176
     1
290
     0
176
     1
 90
       50
176
     1
 40
0.0
176
     1
 40
1.0
176
     1
 90
        0
176
     1
 62
    18
420
        0
176
     1
 90
       50
176
     1
 90
        3
176
     1
 62
     5
420
      255
176
     1
290
     0
176
     1
 90
       50
176
     1
 90
       50
176
     1
 90
       50
176
     1
290
     0
176
     1
 90
       50
176
     1
 62
   256
176
     0
 40
1.0
176
     0
 90
        2
176
     1
  1
strokes_ogs.tif
176
     1
290
     0
176
     1
 40
1.0
176
     1
 40
1.0
176
     1
  0
VISUALSTYLE
  5
3E
102
{ACAD_REACTORS
330
29
102
}
330
29
100
AcDbVisualStyle
  2
Shaded
 70
    27
177
     3
291
     0
 70
    58
 90
        2
176
     1
 90
        2
176
     1
 90
        1
176
     1
 90
        2
176
     1
 40
0.6
176
     1
 40
30.0
176
     1
 62
     7
420
 16777215
176
     1
 90
        0
176
     1
 90
        4
176
     1
 62
     7
176
     1
 62
   257
176
     1
 90
        1
176
     1
 90
        1
176
     1
 40
1.0
176
     1
 90
        8
176
     1
 62
   257
176
     1
 40
1.0
176
     1
 90
        1
176
     1
 90
        6
176
     1
 90
        2
176
     1
 62
     8
420
  7895160
176
     1
 90
        3
176
     1
 90
        0
176
     1
 90
        0
176
     1
290
     0
176
     1
 90
        5
176
     1
 40
0.0
176
     1
 90
        0
176
     1
290
     0
176
     1
290
     1
176
     1
290
     1
176
     1
290
     0
176
     1
290
     0
176
     1
290
     0
176
     1
290
     0
176
     1
290
     0
176
     1
290
     0
176
     1
 90
       50
176
     1
 40
0.0
176
     1
 40
1.0
176
     1
 90
        0
176
     1
 62
    18
420
        0
176
     1
 90
       50
176
     1
 90
        3
176
     1
 62
     5
420
      255
176
     1
290
     0
176
     1
 90
       50
176
     1
 90
       50
176
     1
 90
       50
176
     1
290
     0
176
     1
 90
       50
176
     1
 62
   256
176
     0
 40
1.0
176
     0
 90
        2
176
     1
  1
strokes_ogs.tif
176
     1
290
     0
176
     1
 40
1.0
176
     1
 40
1.0
176
     1
  0
VISUALSTYLE
  5
3D
102
{ACAD_REACTORS
330
29
102
}
330
29
100
AcDbVisualStyle
  2
Shaded with edges
 70
    26
177
     3
291
     0
 70
    58
 90
        2
176
     1
 90
        2
176
     1
 90
        1
176
     1
 90
        2
176
     1
 40
0.6
176
     1
 40
30.0
176
     1
 62
     7
420
 16777215
176
     1
 90
        1
176
     1
 90
        2
176
     1
 62
     7
176
     1
 62
   257
176
     1
 90
        2
176
     1
 90
        1
176
     1
 40
1.0
176
     1
 90
        8
176
     1
 62
   257
176
     1
 40
1.0
176
     1
 90
        1
176
     1
 90
        6
176
     1
 90
        2
176
     1
 62
     7
176
     1
 90
        3
176
     1
 90
        0
176
     1
 90
        0
176
     1
290
     0
176
     1
 90
        5
176
     1
 40
0.0
176
     1
 90
        0
176
     1
290
     0
176
     1
290
     1
176
     1
290
     1
176
     1
290
     0
176
     1
290
     0
176
     1
290
     0
176
     1
290
     0
176
     1
290
     0
176
     1
290
     0
176
     1
 90
       50
176
     1
 40
0.0
176
     1
 40
1.0
176
     1
 90
        0
176
     1
 62
    18
420
        0
176
     1
 90
       50
176
     1
 90
        3
176
     1
 62
     5
420
      255
176
     1
290
     0
176
     1
 90
       50
176
     1
 90
       50
176
     1
 90
       50
176
     1
290
     0
176
     1
 90
       50
176
     1
 62
   256
176
     0
 40
1.0
176
     0
 90
        2
176
     1
  1
strokes_ogs.tif
176
     1
290
     0
176
     1
 40
1.0
176
     1
 40
1.0
176
     1
  0
VISUALSTYLE
  5
3A
102
{ACAD_REACTORS
330
29
102
}
330
29
100
AcDbVisualStyle
  2
Shades of Gray
 70
    23
177
     3
291
     0
 70
    58
 90
        2
176
     1
 90
        2
176
     1
 90
        3
176
     1
 90
        0
176
     1
 40
0.6
176
     1
 40
30.0
176
     1
 62
     7
420
 16777215
176
     1
 90
        2
176
     1
 90
        2
176
     1
 62
     7
176
     1
 62
     7
176
     1
 90
        1
176
     1
 90
        1
176
     1
 40
40.0
176
     1
 90
        8
176
     1
 62
     7
176
     1
 40
1.0
176
     1
 90
        1
176
     1
 90
        6
176
     1
 90
        2
176
     1
 62
     7
176
     1
 90
        3
176
     1
 90
        0
176
     1
 90
        0
176
     1
290
     0
176
     1
 90
        1
176
     1
 40
0.0
176
     1
 90
        0
176
     1
290
     0
176
     1
290
     1
176
     1
290
     1
176
     1
290
     0
176
     1
290
     0
176
     1
290
     0
176
     1
290
     0
176
     1
290
     0
176
     1
290
     0
176
     1
 90
       50
176
     1
 40
0.0
176
     1
 40
1.0
176
     1
 90
        0
176
     1
 62
    18
420
        0
176
     1
 90
       50
176
     1
 90
        3
176
     1
 62
     5
420
      255
176
     1
290
     0
176
     1
 90
       50
176
     1
 90
       50
176
     1
 90
       50
176
     1
290
     0
176
     1
 90
       50
176
     1
 62
   256
176
     0
 40
1.0
176
     0
 90
        2
176
     1
  1
strokes_ogs.tif
176
     1
290
     0
176
     1
 40
1.0
176
     1
 40
1.0
176
     1
  0
VISUALSTYLE
  5
3B
102
{ACAD_REACTORS
330
29
102
}
330
29
100
AcDbVisualStyle
  2
Sketchy
 70
    24
177
     3
291
     0
 70
    58
 90
        1
176
     1
 90
        2
176
     1
 90
        2
176
     1
 90
        0
176
     1
 40
0.6
176
     1
 40
30.0
176
     1
 62
     7
420
 16777215
176
     1
 90
        2
176
     1
 90
        2
176
     1
 62
     7
176
     1
 62
     7
176
     1
 90
        1
176
     1
 90
        1
176
     1
 40
40.0
176
     1
 90
       11
176
     1
 62
     7
176
     1
 40
1.0
176
     1
 90
        1
176
     1
 90
        6
176
     1
 90
        2
176
     1
 62
     7
176
     1
 90
        6
176
     1
 90
        0
176
     1
 90
        0
176
     1
290
     0
176
     1
 90
        1
176
     1
 40
0.0
176
     1
 90
        0
176
     1
290
     0
176
     1
290
     1
176
     1
290
     1
176
     1
290
     0
176
     1
290
     0
176
     1
290
     0
176
     1
290
     0
176
     1
290
     0
176
     1
290
     0
176
     1
 90
       50
176
     1
 40
0.0
176
     1
 40
1.0
176
     1
 90
        0
176
     1
 62
    18
420
        0
176
     1
 90
       50
176
     1
 90
        3
176
     1
 62
     5
420
      255
176
     1
290
     0
176
     1
 90
       50
176
     1
 90
       50
176
     1
 90
       50
176
     1
290
     0
176
     1
 90
       50
176
     1
 62
   256
176
     0
 40
1.0
176
     0
 90
        2
176
     1
  1
strokes_ogs.tif
176
     1
290
     0
176
     1
 40
1.0
176
     1
 40
1.0
176
     1
  0
VISUALSTYLE
  5
36
102
{ACAD_REACTORS
330
29
102
}
330
29
100
AcDbVisualStyle
  2
Thicken
 70
    13
177
     3
291
     1
 70
    58
 90
        2
176
     1
 90
        2
176
     1
 90
        0
176
     1
 90
        0
176
     1
 40
0.6
176
     1
 40
30.0
176
     1
 62
     7
420
 16777215
176
     1
 90
        1
176
     1
 90
        4
176
     1
 62
     7
176
     1
 62
   257
176
     1
 90
        1
176
     1
 90
        1
176
     1
 40
1.0
176
     1
 90
       12
176
     1
 62
     7
176
     1
 40
1.0
176
     1
 90
        1
176
     1
 90
        6
176
     1
 90
        2
176
     1
 62
     7
176
     1
 90
        5
176
     1
 90
        0
176
     1
 90
        0
176
     1
290
     0
176
     1
 90
        1
176
     1
 40
0.0
176
     1
 90
        0
176
     1
290
     0
176
     1
290
     1
176
     1
290
     1
176
     1
290
     0
176
     1
290
     0
176
     1
290
     0
176
     1
290
     0
176
     1
290
     0
176
     1
290
     0
176
     1
 90
       50
176
     1
 40
0.0
176
     1
 40
1.0
176
     1
 90
        0
176
     1
 62
    18
420
        0
176
     1
 90
       50
176
     1
 90
        3
176
     1
 62
     5
420
      255
176
     1
290
     0
176
     1
 90
       50
176
     1
 90
       50
176
     1
 90
       50
176
     1
290
     0
176
     1
 90
       50
176
     1
 62
   256
176
     0
 40
1.0
176
     0
 90
        2
176
     1
  1
strokes_ogs.tif
176
     1
290
     0
176
     1
 40
1.0
176
     1
 40
1.0
176
     1
  0
VISUALSTYLE
  5
30
102
{ACAD_REACTORS
330
29
102
}
330
29
100
AcDbVisualStyle
  2
Wireframe
 70
     5
177
     3
291
     0
 70
    58
 90
        0
176
     1
 90
        2
176
     1
 90
        0
176
     1
 90
        0
176
     1
 40
0.6
176
     1
 40
30.0
176
     1
 62
     7
420
 16777215
176
     1
 90
        1
176
     1
 90
        4
176
     1
 62
     7
176
     1
 62
   257
176
     1
 90
        1
176
     1
 90
        1
176
     1
 40
1.0
176
     1
 90
        0
176
     1
 62
   257
176
     1
 40
1.0
176
     1
 90
        1
176
     1
 90
        6
176
     1
 90
        2
176
     1
 62
     7
176
     1
 90
        3
176
     1
 90
        0
176
     1
 90
        0
176
     1
290
     0
176
     1
 90
        1
176
     1
 40
0.0
176
     1
 90
        0
176
     1
290
     0
176
     1
290
     1
176
     1
290
     1
176
     1
290
     0
176
     1
290
     0
176
     1
290
     0
176
     1
290
     0
176
     1
290
     0
176
     1
290
     0
176
     1
 90
       50
176
     1
 40
0.0
176
     1
 40
1.0
176
     1
 90
        0
176
     1
 62
    18
420
        0
176
     1
 90
       50
176
     1
 90
        3
176
     1
 62
     5
420
      255
176
     1
290
     0
176
     1
 90
       50
176
     1
 90
       50
176
     1
 90
       50
176
     1
290
     0
176
     1
 90
       50
176
     1
 62
   256
176
     0
 40
1.0
176
     0
 90
        2
176
     1
  1
strokes_ogs.tif
176
     1
290
     0
176
     1
 40
1.0
176
     1
 40
1.0
176
     1
  0
VISUALSTYLE
  5
3C
102
{ACAD_REACTORS
330
29
102
}
330
29
100
AcDbVisualStyle
  2
X-Ray
 70
    25
177
     3
291
     0
 70
    58
 90
        2
176
     1
 90
        2
176
     1
 90
        1
176
     1
 90
        1
176
     1
 40
0.5
176
     1
 40
30.0
176
     1
 62
     7
420
 16777215
176
     1
 90
        1
176
     1
 90
        0
176
     1
 62
     7
176
     1
 62
   257
176
     1
 90
        1
176
     1
 90
        1
176
     1
 40
1.0
176
     1
 90
        8
176
     1
 62
     7
176
     1
 40
1.0
176
     1
 90
        1
176
     1
 90
        6
176
     1
 90
        2
176
     1
 62
     7
176
     1
 90
        3
176
     1
 90
        0
176
     1
 90
        0
176
     1
290
     0
176
     1
 90
       13
176
     1
 40
0.0
176
     1
 90
        0
176
     1
290
     0
176
     1
290
     1
176
     1
290
     1
176
     1
290
     0
176
     1
290
     0
176
     1
290
     0
176
     1
290
     0
176
     1
290
     0
176
     1
290
     0
176
     1
 90
       50
176
     1
 40
0.0
176
     1
 40
1.0
176
     1
 90
        0
176
     1
 62
    18
420
        0
176
     1
 90
       50
176
     1
 90
        3
176
     1
 62
     5
420
      255
176
     1
290
     0
176
     1
 90
       50
176
     1
 90
       50
176
     1
 90
       50
176
     1
290
     0
176
     1
 90
       50
176
     1
 62
   256
176
     0
 40
1.0
176
     0
 90
        2
176
     1
  1
strokes_ogs.tif
176
     1
290
     0
176
     1
 40
1.0
176
     1
 40
1.0
176
     1
  0
DICTIONARYVAR
  5
397
102
{ACAD_REACTORS
330
392
102
}
330
392
100
DictionaryVariables
280
     0
  1
1:1
  0
DICTIONARYVAR
  5
394
102
{ACAD_REACTORS
330
392
102
}
330
392
100
DictionaryVariables
280
     0
  1
STANDARD
  0
DICTIONARYVAR
  5
393
102
{ACAD_REACTORS
330
392
102
}
330
392
100
DictionaryVariables
280
     0
  1
STANDARD
  0
DICTIONARYVAR
  5
395
102
{ACAD_REACTORS
330
392
102
}
330
392
100
DictionaryVariables
280
     0
  1
Imperial24
  0
DICTIONARYVAR
  5
396
102
{ACAD_REACTORS
330
392
102
}
330
392
100
DictionaryVariables
280
     0
  1
Imperial24
  0
DICTIONARY
  5
1A
330
19
100
AcDbDictionary
280
     1
281
     1
  3
BUMPTILE
360
1C
  3
DIFFUSETILE
360
1B
  3
OPACITYTILE
360
1F
  3
REFLECTIONTILE
360
1E
  3
REFRACTIONTILE
360
20
  3
SPECULARTILE
360
1D
  0
DICTIONARY
  5
12
330
11
100
AcDbDictionary
280
     1
281
     1
  3
BUMPTILE
360
14
  3
DIFFUSETILE
360
13
  3
OPACITYTILE
360
17
  3
REFLECTIONTILE
360
16
  3
REFRACTIONTILE
360
18
  3
SPECULARTILE
360
15
  0
DICTIONARY
  5
22
330
21
100
AcDbDictionary
280
     1
281
     1
  3
BUMPTILE
360
24
  3
DIFFUSETILE
360
23
  3
OPACITYTILE
360
27
  3
REFLECTIONTILE
360
26
  3
REFRACTIONTILE
360
28
  3
SPECULARTILE
360
25
  0
DICTIONARY
  5
398
330
65
100
AcDbDictionary
280
     1
281
     1
  3
ACAD_ROUNDTRIP_2008_TABLESTYLE_CELLSTYLEMAP
360
399
  0
XRECORD
  5
1C
102
{ACAD_REACTORS
330
1A
102
}
330
1A
100
AcDbXrecord
280
     1
270
     1
271
     1
  0
XRECORD
  5
1B
102
{ACAD_REACTORS
330
1A
102
}
330
1A
100
AcDbXrecord
280
     1
270
     1
271
     1
  0
XRECORD
  5
1F
102
{ACAD_REACTORS
330
1A
102
}
330
1A
100
AcDbXrecord
280
     1
270
     1
271
     1
  0
XRECORD
  5
1E
102
{ACAD_REACTORS
330
1A
102
}
330
1A
100
AcDbXrecord
280
     1
270
     1
271
     1
  0
XRECORD
  5
20
102
{ACAD_REACTORS
330
1A
102
}
330
1A
100
AcDbXrecord
280
     1
270
     1
271
     1
  0
XRECORD
  5
1D
102
{ACAD_REACTORS
330
1A
102
}
330
1A
100
AcDbXrecord
280
     1
270
     1
271
     1
  0
XRECORD
  5
14
102
{ACAD_REACTORS
330
12
102
}
330
12
100
AcDbXrecord
280
     1
270
     1
271
     1
  0
XRECORD
  5
13
102
{ACAD_REACTORS
330
12
102
}
330
12
100
AcDbXrecord
280
     1
270
     1
271
     1
  0
XRECORD
  5
17
102
{ACAD_REACTORS
330
12
102
}
330
12
100
AcDbXrecord
280
     1
270
     1
271
     1
  0
XRECORD
  5
16
102
{ACAD_REACTORS
330
12
102
}
330
12
100
AcDbXrecord
280
     1
270
     1
271
     1
  0
XRECORD
  5
18
102
{ACAD_REACTORS
330
12
102
}
330
12
100
AcDbXrecord
280
     1
270
     1
271
     1
  0
XRECORD
  5
15
102
{ACAD_REACTORS
330
12
102
}
330
12
100
AcDbXrecord
280
     1
270
     1
271
     1
  0
XRECORD
  5
24
102
{ACAD_REACTORS
330
22
102
}
330
22
100
AcDbXrecord
280
     1
270
     1
271
     1
  0
XRECORD
  5
23
102
{ACAD_REACTORS
330
22
102
}
330
22
100
AcDbXrecord
280
     1
270
     1
271
     1
  0
XRECORD
  5
27
102
{ACAD_REACTORS
330
22
102
}
330
22
100
AcDbXrecord
280
     1
270
     1
271
     1
  0
XRECORD
  5
26
102
{ACAD_REACTORS
330
22
102
}
330
22
100
AcDbXrecord
280
     1
270
     1
271
     1
  0
XRECORD
  5
28
102
{ACAD_REACTORS
330
22
102
}
330
22
100
AcDbXrecord
280
     1
270
     1
271
     1
  0
XRECORD
  5
25
102
{ACAD_REACTORS
330
22
102
}
330
22
100
AcDbXrecord
280
     1
270
     1
271
     1
  0
CELLSTYLEMAP
  5
399
102
{ACAD_REACTORS
330
398
102
}
330
398
100
AcDbCellStyleMap
 90
        3
300
CELLSTYLE
  1
TABLEFORMAT_BEGIN
 90
        5
170
     1
 91
        0
 92
    32768
 62
   257
 93
        1
300
CONTENTFORMAT
  1
CONTENTFORMAT_BEGIN
 90
        0
 91
        0
 92
      512
 93
        0
300

 40
0.0
140
1.0
 94
        5
 62
     0
340
55
144
0.25
309
CONTENTFORMAT_END
171
     0
 94
        0
309
TABLEFORMAT_END
  1
CELLSTYLE_BEGIN
 90
        1
 91
        1
300
_TITLE
309
CELLSTYLE_END
300
CELLSTYLE
  1
TABLEFORMAT_BEGIN
 90
        5
170
     1
 91
        0
 92
        0
 62
   257
 93
        1
300
CONTENTFORMAT
  1
CONTENTFORMAT_BEGIN
 90
        0
 91
        0
 92
      512
 93
        0
300

 40
0.0
140
1.0
 94
        5
 62
     0
340
55
144
0.18
309
CONTENTFORMAT_END
171
     0
 94
        0
309
TABLEFORMAT_END
  1
CELLSTYLE_BEGIN
 90
        2
 91
        1
300
_HEADER
309
CELLSTYLE_END
300
CELLSTYLE
  1
TABLEFORMAT_BEGIN
 90
        5
170
     1
 91
        0
 92
        0
 62
   257
 93
        1
300
CONTENTFORMAT
  1
CONTENTFORMAT_BEGIN
 90
        0
 91
        0
 92
      512
 93
        0
300

 40
0.0
140
1.0
 94
        2
 62
     0
340
55
144
0.18
309
CONTENTFORMAT_END
171
     0
 94
        0
309
TABLEFORMAT_END
  1
CELLSTYLE_BEGIN
 90
        3
 91
        2
300
_DATA
309
CELLSTYLE_END
  0
ENDSEC
  0
EOF
