  0
SECTION
  2
HEADER
  9
$ACADVER
  1
AC1032
  9
$ACADMAINTVER
 90
      228
  9
$DWGCODEPAGE
  3
ANSI_1252
  9
$REQUIREDVERSIONS
160
                 0
  9
$INSBASE
 10
0.0
 20
0.0
 30
0.0
  9
$EXTMIN
 10
1.000000000000000E+20
 20
1.000000000000000E+20
 30
1.000000000000000E+20
  9
$EXTMAX
 10
-1.000000000000000E+20
 20
-1.000000000000000E+20
 30
-1.000000000000000E+20
  9
$LIMMIN
 10
0.0
 20
0.0
  9
$LIMMAX
 10
12.0
 20
9.0
  9
$ORTHOMODE
 70
     0
  9
$REGENMODE
 70
     1
  9
$FILLMODE
 70
     1
  9
$QTEXTMODE
 70
     0
  9
$MIRRTEXT
 70
     0
  9
$LTSCALE
 40
1.0
  9
$ATTMODE
 70
     1
  9
$TEXTSIZE
 40
0.2
  9
$TRACEWID
 40
0.05
  9
$TEXTSTYLE
  7
Standard
  9
$CLAYER
  8
0
  9
$CELTYPE
  6
ByLayer
  9
$CECOLOR
 62
   256
  9
$CELTSCALE
 40
1.0
  9
$DISPSILH
 70
     0
  9
$DIMSCALE
 40
1.0
  9
$DIMASZ
 40
0.18
  9
$DIMEXO
 40
0.0625
  9
$DIMDLI
 40
0.38
  9
$DIMRND
 40
0.0
  9
$DIMDLE
 40
0.0
  9
$DIMEXE
 40
0.18
  9
$DIMTP
 40
0.0
  9
$DIMTM
 40
0.0
  9
$DIMTXT
 40
0.18
  9
$DIMCEN
 40
0.09
  9
$DIMTSZ
 40
0.0
  9
$DIMTOL
 70
     0
  9
$DIMLIM
 70
     0
  9
$DIMTIH
 70
     1
  9
$DIMTOH
 70
     1
  9
$DIMSE1
 70
     0
  9
$DIMSE2
 70
     0
  9
$DIMTAD
 70
     0
  9
$DIMZIN
 70
     0
  9
$DIMBLK
  1

  9
$DIMASO
 70
     1
  9
$DIMSHO
 70
     1
  9
$DIMPOST
  1

  9
$DIMAPOST
  1

  9
$DIMALT
 70
     0
  9
$DIMALTD
 70
     2
  9
$DIMALTF
 40
25.4
  9
$DIMLFAC
 40
1.0
  9
$DIMTOFL
 70
     0
  9
$DIMTVP
 40
0.0
  9
$DIMTIX
 70
     0
  9
$DIMSOXD
 70
     0
  9
$DIMSAH
 70
     0
  9
$DIMBLK1
  1

  9
$DIMBLK2
  1

  9
$DIMSTYLE
  2
Standard
  9
$DIMCLRD
 70
     0
  9
$DIMCLRE
 70
     0
  9
$DIMCLRT
 70
     0
  9
$DIMTFAC
 40
1.0
  9
$DIMGAP
 40
0.09
  9
$DIMJUST
 70
     0
  9
$DIMSD1
 70
     0
  9
$DIMSD2
 70
     0
  9
$DIMTOLJ
 70
     1
  9
$DIMTZIN
 70
     0
  9
$DIMALTZ
 70
     0
  9
$DIMALTTZ
 70
     0
  9
$DIMUPT
 70
     0
  9
$DIMDEC
 70
     4
  9
$DIMTDEC
 70
     4
  9
$DIMALTU
 70
     2
  9
$DIMALTTD
 70
     2
  9
$DIMTXSTY
  7
Standard
  9
$DIMAUNIT
 70
     0
  9
$DIMADEC
 70
     0
  9
$DIMALTRND
 40
0.0
  9
$DIMAZIN
 70
     0
  9
$DIMDSEP
 70
    46
  9
$DIMATFIT
 70
     3
  9
$DIMFRAC
 70
     0
  9
$DIMLDRBLK
  1

  9
$DIMLUNIT
 70
     2
  9
$DIMLWD
 70
    -2
  9
$DIMLWE
 70
    -2
  9
$DIMTMOVE
 70
     0
  9
$DIMFXL
 40
1.0
  9
$DIMFXLON
 70
     0
  9
$DIMJOGANG
 40
0.7853981633974483
  9
$DIMTFILL
 70
     0
  9
$DIMTFILLCLR
 70
     0
  9
$DIMARCSYM
 70
     0
  9
$DIMLTYPE
  6

  9
$DIMLTEX1
  6

  9
$DIMLTEX2
  6

  9
$DIMTXTDIRECTION
 70
     0
  9
$LUNITS
 70
     2
  9
$LUPREC
 70
     4
  9
$SKETCHINC
 40
0.1
  9
$FILLETRAD
 40
0.0
  9
$AUNITS
 70
     0
  9
$AUPREC
 70
     0
  9
$MENU
  1
.
  9
$ELEVATION
 40
0.0
  9
$PELEVATION
 40
0.0
  9
$THICKNESS
 40
0.0
  9
$LIMCHECK
 70
     0
  9
$CHAMFERA
 40
0.0
  9
$CHAMFERB
 40
0.0
  9
$CHAMFERC
 40
0.0
  9
$CHAMFERD
 40
0.0
  9
$SKPOLY
 70
     0
  9
$TDCREATE
 40
2460145.439340278
  9
$TDUCREATE
 40
2460145.397673611
  9
$TDUPDATE
 40
2460145.439340278
  9
$TDUUPDATE
 40
2460145.397673611
  9
$TDINDWG
 40
0.0000000000
  9
$TDUSRTIMER
 40
0.0000000000
  9
$USRTIMER
 70
     1
  9
$ANGBASE
 50
0.0
  9
$ANGDIR
 70
     0
  9
$PDMODE
 70
     0
  9
$PDSIZE
 40
0.0
  9
$PLINEWID
 40
0.0
  9
$SPLFRAME
 70
     0
  9
$SPLINETYPE
 70
     6
  9
$SPLINESEGS
 70
     8
  9
$HANDSEED
  5
E2
  9
$SURFTAB1
 70
     6
  9
$SURFTAB2
 70
     6
  9
$SURFTYPE
 70
     6
  9
$SURFU
 70
     6
  9
$SURFV
 70
     6
  9
$UCSBASE
  2

  9
$UCSNAME
  2

  9
$UCSORG
 10
0.0
 20
0.0
 30
0.0
  9
$UCSXDIR
 10
1.0
 20
0.0
 30
0.0
  9
$UCSYDIR
 10
0.0
 20
1.0
 30
0.0
  9
$UCSORTHOREF
  2

  9
$UCSORTHOVIEW
 70
     0
  9
$UCSORGTOP
 10
0.0
 20
0.0
 30
0.0
  9
$UCSORGBOTTOM
 10
0.0
 20
0.0
 30
0.0
  9
$UCSORGLEFT
 10
0.0
 20
0.0
 30
0.0
  9
$UCSORGRIGHT
 10
0.0
 20
0.0
 30
0.0
  9
$UCSORGFRONT
 10
0.0
 20
0.0
 30
0.0
  9
$UCSORGBACK
 10
0.0
 20
0.0
 30
0.0
  9
$PUCSBASE
  2

  9
$PUCSNAME
  2

  9
$PUCSORG
 10
0.0
 20
0.0
 30
0.0
  9
$PUCSXDIR
 10
1.0
 20
0.0
 30
0.0
  9
$PUCSYDIR
 10
0.0
 20
1.0
 30
0.0
  9
$PUCSORTHOREF
  2

  9
$PUCSORTHOVIEW
 70
     0
  9
$PUCSORGTOP
 10
0.0
 20
0.0
 30
0.0
  9
$PUCSORGBOTTOM
 10
0.0
 20
0.0
 30
0.0
  9
$PUCSORGLEFT
 10
0.0
 20
0.0
 30
0.0
  9
$PUCSORGRIGHT
 10
0.0
 20
0.0
 30
0.0
  9
$PUCSORGFRONT
 10
0.0
 20
0.0
 30
0.0
  9
$PUCSORGBACK
 10
0.0
 20
0.0
 30
0.0
  9
$USERI1
 70
     0
  9
$USERI2
 70
     0
  9
$USERI3
 70
     0
  9
$USERI4
 70
     0
  9
$USERI5
 70
     0
  9
$USERR1
 40
0.0
  9
$USERR2
 40
0.0
  9
$USERR3
 40
0.0
  9
$USERR4
 40
0.0
  9
$USERR5
 40
0.0
  9
$WORLDVIEW
 70
     1
  9
$SHADEDGE
 70
     3
  9
$SHADEDIF
 70
    70
  9
$TILEMODE
 70
     1
  9
$MAXACTVP
 70
    64
  9
$PINSBASE
 10
0.0
 20
0.0
 30
0.0
  9
$PLIMCHECK
 70
     0
  9
$PEXTMIN
 10
1.000000000000000E+20
 20
1.000000000000000E+20
 30
1.000000000000000E+20
  9
$PEXTMAX
 10
-1.000000000000000E+20
 20
-1.000000000000000E+20
 30
-1.000000000000000E+20
  9
$PLIMMIN
 10
0.0
 20
0.0
  9
$PLIMMAX
 10
12.0
 20
9.0
  9
$UNITMODE
 70
     0
  9
$VISRETAIN
 70
     1
  9
$PLINEGEN
 70
     0
  9
$PSLTSCALE
 70
     1
  9
$TREEDEPTH
 70
  3020
  9
$CMLSTYLE
  2
Standard
  9
$CMLJUST
 70
     0
  9
$CMLSCALE
 40
1.0
  9
$PROXYGRAPHICS
 70
     1
  9
$MEASUREMENT
 70
     0
  9
$CELWEIGHT
370
    -1
  9
$ENDCAPS
280
     0
  9
$JOINSTYLE
280
     0
  9
$LWDISPLAY
290
     1
  9
$INSUNITS
 70
     4
  9
$HYPERLINKBASE
  1

  9
$STYLESHEET
  1

  9
$XEDIT
290
     1
  9
$CEPSNTYPE
380
     0
  9
$PSTYLEMODE
290
     1
  9
$FINGERPRINTGUID
  2
{A91D3488-7EB9-334C-A490-9F88A5F21023}
  9
$VERSIONGUID
  2
{0DA38846-AD06-BD40-9564-3DA3D74A4675}
  9
$EXTNAMES
290
     1
  9
$PSVPSCALE
 40
0.0
  9
$OLESTARTUP
290
     0
  9
$SORTENTS
280
   127
  9
$INDEXCTL
280
     0
  9
$HIDETEXT
280
     1
  9
$XCLIPFRAME
280
     2
  9
$HALOGAP
280
     0
  9
$OBSCOLOR
 70
   257
  9
$OBSLTYPE
280
     0
  9
$INTERSECTIONDISPLAY
280
     0
  9
$INTERSECTIONCOLOR
 70
   257
  9
$DIMASSOC
280
     2
  9
$PROJECTNAME
  1

  9
$CAMERADISPLAY
290
     0
  9
$LENSLENGTH
 40
50.0
  9
$CAMERAHEIGHT
 40
0.0
  9
$STEPSPERSEC
 40
2.0
  9
$STEPSIZE
 40
6.0
  9
$3DDWFPREC
 40
2.0
  9
$PSOLWIDTH
 40
0.25
  9
$PSOLHEIGHT
 40
4.0
  9
$LOFTANG1
 40
1.570796326794896
  9
$LOFTANG2
 40
1.570796326794896
  9
$LOFTMAG1
 40
0.0
  9
$LOFTMAG2
 40
0.0
  9
$LOFTPARAM
 70
     7
  9
$LOFTNORMALS
280
     1
  9
$LATITUDE
 40
37.795
  9
$LONGITUDE
 40
-122.394
  9
$NORTHDIRECTION
 40
0.0
  9
$TIMEZONE
 70
 -8000
  9
$LIGHTGLYPHDISPLAY
280
     1
  9
$TILEMODELIGHTSYNCH
280
     1
  9
$CMATERIAL
347
11
  9
$SOLIDHIST
280
     0
  9
$SHOWHIST
280
     1
  9
$DWFFRAME
280
     2
  9
$DGNFRAME
280
     0
  9
$REALWORLDSCALE
290
     1
  9
$INTERFERECOLOR
 62
     1
  9
$INTERFEREOBJVS
345
33
  9
$INTERFEREVPVS
346
30
  9
$CSHADOW
280
     0
  9
$SHADOWPLANELOCATION
 40
0.0
  0
ENDSEC
  0
SECTION
  2
CLASSES
  0
CLASS
  1
ACDBDICTIONARYWDFLT
  2
AcDbDictionaryWithDefault
  3
ObjectDBX Classes
 90
        0
 91
        1
280
     0
281
     0
  0
CLASS
  1
MATERIAL
  2
AcDbMaterial
  3
ObjectDBX Classes
 90
     1153
 91
        3
280
     0
281
     0
  0
CLASS
  1
VISUALSTYLE
  2
AcDbVisualStyle
  3
ObjectDBX Classes
 90
     4095
 91
       24
280
     0
281
     0
  0
CLASS
  1
SCALE
  2
AcDbScale
  3
ObjectDBX Classes
 90
     1153
 91
       17
280
     0
281
     0
  0
CLASS
  1
TABLESTYLE
  2
AcDbTableStyle
  3
ObjectDBX Classes
 90
     4095
 91
        1
280
     0
281
     0
  0
CLASS
  1
MLEADERSTYLE
  2
AcDbMLeaderStyle
  3
ACDB_MLEADERSTYLE_CLASS
 90
     4095
 91
        1
280
     0
281
     0
  0
CLASS
  1
ACDBSECTIONVIEWSTYLE
  2
AcDbSectionViewStyle
  3
ObjectDBX Classes
 90
     1025
 91
        1
280
     0
281
     0
  0
CLASS
  1
ACDBDETAILVIEWSTYLE
  2
AcDbDetailViewStyle
  3
ObjectDBX Classes
 90
     1025
 91
        1
280
     0
281
     0
  0
CLASS
  1
DICTIONARYVAR
  2
AcDbDictionaryVar
  3
ObjectDBX Classes
 90
        0
 91
        5
280
     0
281
     0
  0
CLASS
  1
CELLSTYLEMAP
  2
AcDbCellStyleMap
  3
ObjectDBX Classes
 90
     1152
 91
        1
280
     0
281
     0
  0
ENDSEC
  0
SECTION
  2
TABLES
  0
TABLE
  2
VPORT
  5
8
330
0
100
AcDbSymbolTable
 70
     1
  0
VPORT
  5
57
330
8
100
AcDbSymbolTableRecord
100
AcDbViewportTableRecord
  2
*Active
 70
     0
 10
0.0
 20
0.0
 11
1.0
 21
1.0
 12
0.0
 22
0.0
 13
0.0
 23
0.0
 14
1.0
 24
1.0
 15
0.0
 25
0.0
 16
0.0
 26
0.0
 36
1.0
 17
99.99999997500005
 27
-99.99999997500005
 37
0.0
 40
101.9999999744997
 41
1.0
 42
50.0
 43
0.0
 44
0.0
 50
0.0
 51
0.0
 71
     0
 72
   100
 73
     1
 74
     1
 75
     0
 76
     0
 77
     0
 78
     0
281
     0
 65
     1
110
0.0
120
0.0
130
0.0
111
1.0
121
0.0
131
0.0
112
0.0
122
1.0
132
0.0
 79
     0
146
0.0
 60
     3
 61
     5
292
     1
282
     1
141
0.0
142
0.0
 63
   250
421
  3355443
  0
ENDTAB
  0
TABLE
  2
LTYPE
  5
5
330
0
100
AcDbSymbolTable
 70
     1
  0
LTYPE
  5
5B
330
5
100
AcDbSymbolTableRecord
100
AcDbLinetypeTableRecord
  2
ByBlock
 70
     0
  3

 72
    65
 73
     0
 40
0.0
  0
LTYPE
  5
5C
330
5
100
AcDbSymbolTableRecord
100
AcDbLinetypeTableRecord
  2
ByLayer
 70
     0
  3

 72
    65
 73
     0
 40
0.0
  0
LTYPE
  5
5D
330
5
100
AcDbSymbolTableRecord
100
AcDbLinetypeTableRecord
  2
Continuous
 70
     0
  3
Solid line
 72
    65
 73
     0
 40
0.0
  0
ENDTAB
  0
TABLE
  2
LAYER
  5
2
330
0
100
AcDbSymbolTable
 70
     2
  0
LAYER
  5
54
330
2
100
AcDbSymbolTableRecord
100
AcDbLayerTableRecord
  2
0
 70
     0
 62
     7
  6
Continuous
370
    -3
390
F
347
21
348
0
  0
LAYER
  5
78
330
2
100
AcDbSymbolTableRecord
100
AcDbLayerTableRecord
  2
Camada 1
 70
     0
 62
     7
  6
Continuous
370
     0
390
F
347
21
348
0
  0
ENDTAB
  0
TABLE
  2
STYLE
  5
3
330
0
100
AcDbSymbolTable
 70
     2
  0
STYLE
  5
55
330
3
100
AcDbSymbolTableRecord
100
AcDbTextStyleTableRecord
  2
Standard
 70
     0
 40
0.0
 41
1.0
 50
0.0
 71
     0
 42
0.2
  3
txt
  4

  0
STYLE
  5
5A
330
3
100
AcDbSymbolTableRecord
100
AcDbTextStyleTableRecord
  2
Annotative
 70
     0
 40
0.0
 41
1.0
 50
0.0
 71
     0
 42
0.2
  3
txt
  4

1001
AcadAnnotative
1000
AnnotativeData
1002
{
1070
     1
1070
     1
1002
}
  0
ENDTAB
  0
TABLE
  2
VIEW
  5
6
330
0
100
AcDbSymbolTable
 70
     0
  0
ENDTAB
  0
TABLE
  2
UCS
  5
7
330
0
100
AcDbSymbolTable
 70
     0
  0
ENDTAB
  0
TABLE
  2
APPID
  5
9
330
0
100
AcDbSymbolTable
 70
     2
  0
APPID
  5
56
330
9
100
AcDbSymbolTableRecord
100
AcDbRegAppTableRecord
  2
ACAD
 70
     0
  0
APPID
  5
5E
330
9
100
AcDbSymbolTableRecord
100
AcDbRegAppTableRecord
  2
AcadAnnotative
 70
     0
  0
ENDTAB
  0
TABLE
  2
DIMSTYLE
  5
A
330
0
100
AcDbSymbolTable
 70
     2
100
AcDbDimStyleTable
 71
     0
  0
DIMSTYLE
105
58
330
A
100
AcDbSymbolTableRecord
100
AcDbDimStyleTableRecord
  2
Standard
 70
     0
340
55
  0
DIMSTYLE
105
59
330
A
100
AcDbSymbolTableRecord
100
AcDbDimStyleTableRecord
  2
Annotative
 70
     0
340
55
1001
AcadAnnotative
1000
AnnotativeData
1002
{
1070
     1
1070
     1
1002
}
  0
ENDTAB
  0
TABLE
  2
BLOCK_RECORD
  5
1
330
0
100
AcDbSymbolTable
 70
     1
  0
BLOCK_RECORD
  5
70
330
1
100
AcDbSymbolTableRecord
100
AcDbBlockTableRecord
  2
*Model_Space
340
73
 70
     0
280
     1
281
     0
  0
BLOCK_RECORD
  5
6C
330
1
100
AcDbSymbolTableRecord
100
AcDbBlockTableRecord
  2
*Paper_Space
340
6F
 70
     0
280
     1
281
     0
  0
BLOCK_RECORD
  5
74
330
1
100
AcDbSymbolTableRecord
100
AcDbBlockTableRecord
  2
*Paper_Space0
340
77
 70
     0
280
     1
281
     0
  0
ENDTAB
  0
ENDSEC
  0
SECTION
  2
BLOCKS
  0
BLOCK
  5
71
330
70
100
AcDbEntity
  8
0
100
AcDbBlockBegin
  2
*Model_Space
 70
     0
 10
0.0
 20
0.0
 30
0.0
  3
*Model_Space
  1

  0
ENDBLK
  5
72
330
70
100
AcDbEntity
  8
0
100
AcDbBlockEnd
  0
BLOCK
  5
6D
330
6C
100
AcDbEntity
 67
     1
  8
0
100
AcDbBlockBegin
  2
*Paper_Space
 70
     0
 10
0.0
 20
0.0
 30
0.0
  3
*Paper_Space
  1

  0
ENDBLK
  5
6E
330
6C
100
AcDbEntity
 67
     1
  8
0
100
AcDbBlockEnd
  0
BLOCK
  5
75
330
74
100
AcDbEntity
 67
     1
  8
0
100
AcDbBlockBegin
  2
*Paper_Space0
 70
     0
 10
0.0
 20
0.0
 30
0.0
  3
*Paper_Space0
  1

  0
ENDBLK
  5
76
330
74
100
AcDbEntity
 67
     1
  8
0
100
AcDbBlockEnd
  0
ENDSEC
  0
SECTION
  2
ENTITIES
  0
SPLINE
  5
79
330
70
100
AcDbEntity
  8
Camada 1
 62
   250
420
  1907995
370
     9
100
AcDbSpline
210
0.0
220
0.0
230
1.0
 70
     8
 71
     3
 72
    29
 73
    25
 74
     0
 42
0.0000000001
 43
0.0000000001
 40
0.0
 40
0.0
 40
0.0
 40
0.0
 40
1.0
 40
1.0
 40
1.0
 40
2.0
 40
2.0
 40
2.0
 40
3.0
 40
3.0
 40
3.0
 40
4.0
 40
4.0
 40
4.0
 40
5.0
 40
5.0
 40
5.0
 40
6.0
 40
6.0
 40
6.0
 40
7.0
 40
7.0
 40
7.0
 40
8.0
 40
8.0
 40
8.0
 40
8.0
 10
122.3834153248431
 20
-102.7529294951836
 30
0.0
 10
122.3834153248431
 20
-102.7529294951836
 30
0.0
 10
122.5083000361834
 20
-106.9516907559679
 30
0.0
 10
122.4864290628137
 20
-108.0019092742804
 30
0.0
 10
122.4649079819543
 20
-109.0521291383333
 30
0.0
 10
121.6143623533014
 20
-114.3272149359139
 30
0.0
 10
121.4651358891731
 20
-115.6349624161913
 30
0.0
 10
121.3155595325346
 20
-116.9423573124777
 30
0.0
 10
120.7408853078248
 20
-120.9301576129266
 30
0.0
 10
124.8528597686701
 20
-122.1789912689254
 30
0.0
 10
128.9648396124772
 20
-123.4281775089153
 30
0.0
 10
130.6793398273671
 20
-120.7382469540323
 30
0.0
 10
130.7206163776497
 20
-119.1302836255429
 30
0.0
 10
130.7615376524605
 20
-117.5226755725255
 30
0.0
 10
130.6955640739179
 20
-115.1333134498454
 30
0.0
 10
129.7825760895948
 20
-112.2405354036427
 30
0.0
 10
128.8699433807437
 20
-109.34775735744
 30
0.0
 10
127.8747575713272
 20
-106.560107207414
 30
0.0
 10
127.7717438333566
 20
-103.9389682115212
 30
0.0
 10
127.6687354783476
 20
-101.3174766316373
 30
0.0
 10
127.6429780066336
 20
-99.47879956486982
 30
0.0
 10
127.6429780066336
 20
-99.47879956486982
 30
0.0
 10
127.6429780066336
 20
-99.47879956486982
 30
0.0
 10
127.6429780066336
 20
-97.88001149459081
 30
0.0
 10
127.6429780066336
 20
-97.88001149459081
 30
0.0
  0
SPLINE
  5
7A
330
70
100
AcDbEntity
  8
Camada 1
 62
   250
420
  1907995
370
     9
100
AcDbSpline
210
0.0
220
0.0
230
1.0
 70
     8
 71
     3
 72
     8
 73
     4
 74
     0
 42
0.0000000001
 43
0.0000000001
 40
0.0
 40
0.0
 40
0.0
 40
0.0
 40
1.0
 40
1.0
 40
1.0
 40
1.0
 10
125.9926857588501
 20
-80.03933421650566
 30
0.0
 10
125.9926857588501
 20
-80.03933421650566
 30
0.0
 10
124.669419200004
 20
-79.76522573251826
 30
0.0
 10
124.4517537608766
 20
-79.6847908273799
 30
0.0
  0
LWPOLYLINE
  5
7B
330
70
100
AcDbEntity
  8
Camada 1
 62
   250
420
  1907995
370
     9
100
AcDbPolyline
 90
       12
 70
     0
 43
0.0
 10
125.9154294925934
 20
-79.75570058179738
 10
125.9926857588501
 20
-80.03933421650566
 10
125.9926857588501
 20
-80.37447202871843
 10
125.9154294925934
 20
-80.45208357044707
 10
124.1367213105972
 20
-80.45208357044707
 10
123.1052005097348
 20
-84.34498494768158
 10
122.6155447820469
 20
-84.21586922844845
 10
124.0852171330927
 20
-78.77603654243049
 10
124.0852171330927
 20
-77.92548822229672
 10
124.4461070340578
 20
-77.92548822229672
 10
126.8693387517272
 20
-77.66760667634068
 10
128.8805262834374
 20
-77.66760667634068
  0
SPLINE
  5
7C
330
70
100
AcDbEntity
  8
Camada 1
 62
   250
420
  1907995
370
     9
100
AcDbSpline
210
0.0
220
0.0
230
1.0
 70
     8
 71
     3
 72
    14
 73
    10
 74
     0
 42
0.0000000001
 43
0.0000000001
 40
0.0
 40
0.0
 40
0.0
 40
0.0
 40
1.0
 40
1.0
 40
1.0
 40
2.0
 40
2.0
 40
2.0
 40
3.0
 40
3.0
 40
3.0
 40
3.0
 10
128.4420194577821
 20
-80.70960984093119
 30
0.0
 10
128.4420194577821
 20
-80.70960984093119
 30
0.0
 10
127.4468336483656
 20
-79.81496699006708
 30
0.0
 10
126.9854007888483
 20
-79.62693475507447
 30
0.0
 10
126.5239679293309
 20
-79.43890521156273
 30
0.0
 10
126.3913263701871
 20
-79.43149556478859
 30
0.0
 10
125.9154294925934
 20
-79.75570058179738
 30
0.0
 10
125.9154294925934
 20
-79.75570058179738
 30
0.0
 10
124.569931301944
 20
-79.44737261031007
 30
0.0
 10
124.4517537608766
 20
-79.29179694286171
 30
0.0
  0
LINE
  5
7D
330
70
100
AcDbEntity
  8
Camada 1
 62
   250
420
  1907995
370
     9
100
AcDbLine
 10
125.2624385581728
 20
-82.72079737264141
 30
0.0
 11
128.2127160554685
 21
-82.72679399197041
 31
0.0
  0
LINE
  5
7E
330
70
100
AcDbEntity
  8
Camada 1
 62
   250
420
  1907995
370
     9
100
AcDbLine
 10
125.2709005739584
 20
-81.86989646851655
 30
0.0
 11
128.20989538354
 21
-81.86989646851655
 31
0.0
  0
LINE
  5
7F
330
70
100
AcDbEntity
  8
Camada 1
 62
   250
420
  1907995
370
     9
100
AcDbLine
 10
125.47727794241
 20
-82.12777801447259
 30
0.0
 11
128.0296253793126
 21
-82.12777801447259
 31
0.0
  0
SPLINE
  5
80
330
70
100
AcDbEntity
  8
Camada 1
 62
   250
420
  1907995
370
     9
100
AcDbSpline
210
0.0
220
0.0
230
1.0
 70
     8
 71
     3
 72
     8
 73
     4
 74
     0
 42
0.0000000001
 43
0.0000000001
 40
0.0
 40
0.0
 40
0.0
 40
0.0
 40
1.0
 40
1.0
 40
1.0
 40
1.0
 10
123.9525701909872
 20
-79.26604485410947
 30
0.0
 10
123.8989505095363
 20
-78.5365001299334
 30
0.0
 10
123.9091781367582
 20
-77.99145641787756
 30
0.0
 10
124.0852171330927
 20
-77.92548822229672
 30
0.0
  0
LINE
  5
81
330
70
100
AcDbEntity
  8
Camada 1
 62
   250
420
  1907995
370
     9
100
AcDbLine
 10
123.9737413793364
 20
-79.1887858963719
 30
0.0
 11
124.4461070340578
 21
-79.1887858963719
 31
0.0
  0
LINE
  5
82
330
70
100
AcDbEntity
  8
Camada 1
 62
   250
420
  1907995
370
     9
100
AcDbLine
 10
124.4517537608766
 20
-80.45208357044707
 30
0.0
 11
124.4461070340578
 21
-77.92548822229672
 31
0.0
  0
SPLINE
  5
83
330
70
100
AcDbEntity
  8
Camada 1
 62
   250
420
  1907995
370
     9
100
AcDbSpline
210
0.0
220
0.0
230
1.0
 70
     8
 71
     3
 72
    14
 73
    10
 74
     0
 42
0.0000000001
 43
0.0000000001
 40
0.0
 40
0.0
 40
0.0
 40
0.0
 40
1.0
 40
1.0
 40
1.0
 40
2.0
 40
2.0
 40
2.0
 40
3.0
 40
3.0
 40
3.0
 40
3.0
 10
130.4567382123646
 20
-80.47783565919932
 30
0.0
 10
130.4567382123646
 20
-80.47783565919932
 30
0.0
 10
130.6077249049674
 20
-80.47783565919932
 30
0.0
 10
130.6077249049674
 20
-80.47783565919932
 30
0.0
 10
130.9044122217878
 20
-79.80755734329294
 30
0.0
 10
130.8003434233248
 20
-78.54425966921777
 30
0.0
 10
130.6077249049674
 20
-77.92548822229672
 30
0.0
 10
130.6077249049674
 20
-77.92548822229672
 30
0.0
 10
130.4567382123646
 20
-77.92548822229672
 30
0.0
 10
130.4567382123646
 20
-77.92548822229672
 30
0.0
  0
LINE
  5
84
330
70
100
AcDbEntity
  8
Camada 1
 62
   250
420
  1907995
370
     9
100
AcDbLine
 10
125.2709005739584
 20
-91.79565258141868
 30
0.0
 11
128.20989538354
 21
-91.79565258141868
 31
0.0
  0
LINE
  5
85
330
70
100
AcDbEntity
  8
Camada 1
 62
   250
420
  1907995
370
     9
100
AcDbLine
 10
125.3481622231769
 20
-92.36291985083525
 30
0.0
 11
128.1583912060355
 21
-92.36291985083525
 31
0.0
  0
LINE
  5
86
330
70
100
AcDbEntity
  8
Camada 1
 62
   250
420
  1907995
370
     9
100
AcDbLine
 10
125.3481622231769
 20
-93.26532493246459
 30
0.0
 11
128.1583912060355
 21
-93.26532493246459
 31
0.0
  0
LINE
  5
87
330
70
100
AcDbEntity
  8
Camada 1
 62
   250
420
  1907995
370
     9
100
AcDbLine
 10
125.5287821199145
 20
-92.72380975180025
 30
0.0
 11
127.9781212018081
 21
-92.72380975180025
 31
0.0
  0
SPLINE
  5
88
330
70
100
AcDbEntity
  8
Camada 1
 62
   250
420
  1907995
370
     9
100
AcDbSpline
210
0.0
220
0.0
230
1.0
 70
     8
 71
     3
 72
     8
 73
     4
 74
     0
 42
0.0000000001
 43
0.0000000001
 40
0.0
 40
0.0
 40
0.0
 40
0.0
 40
1.0
 40
1.0
 40
1.0
 40
1.0
 10
128.0811295568171
 20
-95.09588987595632
 30
0.0
 10
128.1943709220096
 20
-95.2317073825006
 30
0.0
 10
128.1742655600761
 20
-95.33895212836441
 30
0.0
 10
128.0811295568171
 20
-95.43102768816908
 30
0.0
  0
SPLINE
  5
89
330
70
100
AcDbEntity
  8
Camada 1
 62
   250
420
  1907995
370
     9
100
AcDbSpline
210
0.0
220
0.0
230
1.0
 70
     8
 71
     3
 72
     8
 73
     4
 74
     0
 42
0.0000000001
 43
0.0000000001
 40
0.0
 40
0.0
 40
0.0
 40
0.0
 40
1.0
 40
1.0
 40
1.0
 40
1.0
 10
125.4000216761533
 20
-95.09588987595632
 30
0.0
 10
125.3224101344246
 20
-95.2077182137037
 30
0.0
 10
125.3312274256822
 20
-95.31919665894085
 30
0.0
 10
125.4257737649055
 20
-95.43102768816908
 30
0.0
  0
LWPOLYLINE
  5
8A
330
70
100
AcDbEntity
  8
Camada 1
 62
   250
420
  1907995
370
     9
100
AcDbPolyline
 90
        3
 70
     0
 43
0.0
 10
127.7459917446043
 20
-98.21550189079463
 10
128.5485590356634
 20
-98.21550189079463
 10
128.6999010037381
 20
-98.11213826031375
  0
LINE
  5
8B
330
70
100
AcDbEntity
  8
Camada 1
 62
   250
420
  1907995
370
     9
100
AcDbLine
 10
125.8639199321272
 20
-98.13789034906598
 30
0.0
 11
127.6429780066336
 21
-98.13789034906598
 31
0.0
  0
SPLINE
  5
8C
330
70
100
AcDbEntity
  8
Camada 1
 62
   250
420
  1907995
370
     9
100
AcDbSpline
210
0.0
220
0.0
230
1.0
 70
     8
 71
     3
 72
    26
 73
    22
 74
     0
 42
0.0000000001
 43
0.0000000001
 40
0.0
 40
0.0
 40
0.0
 40
0.0
 40
1.0
 40
1.0
 40
1.0
 40
2.0
 40
2.0
 40
2.0
 40
3.0
 40
3.0
 40
3.0
 40
4.0
 40
4.0
 40
4.0
 40
5.0
 40
5.0
 40
5.0
 40
6.0
 40
6.0
 40
6.0
 40
7.0
 40
7.0
 40
7.0
 40
7.0
 10
125.8639199321272
 20
-97.88001149459081
 30
0.0
 10
125.8639199321272
 20
-97.88001149459081
 30
0.0
 10
125.8639199321272
 20
-99.58604431073331
 30
0.0
 10
125.8639199321272
 20
-99.58604431073331
 30
0.0
 10
125.8639199321272
 20
-99.58604431073331
 30
0.0
 10
125.919310607976
 20
-105.1098377418003
 30
0.0
 10
126.4477667235666
 20
-107.1309016624817
 30
0.0
 10
126.9758783296086
 20
-109.1519655831631
 30
0.0
 10
128.9747173471888
 20
-114.9974932518202
 30
0.0
 10
128.9979986565228
 20
-117.4814017137237
 30
0.0
 10
129.0216352413286
 20
-119.9653101756271
 30
0.0
 10
128.6554538890167
 20
-121.1432340772085
 30
0.0
 10
125.7023503368307
 20
-120.5897256578861
 30
0.0
 10
122.7488968921345
 20
-120.0362172385638
 30
0.0
 10
123.0681603503066
 20
-117.0559512616613
 30
0.0
 10
123.1570599627112
 20
-115.8639159259946
 30
0.0
 10
123.2456042996438
 20
-114.6718778988472
 30
0.0
 10
124.141307593962
 20
-110.5136880203633
 30
0.0
 10
124.2115121803973
 20
-108.101040551128
 30
0.0
 10
124.281711383871
 20
-105.6883930818927
 30
0.0
 10
124.1624733993495
 20
-102.8174873548001
 30
0.0
 10
124.1624733993495
 20
-102.8174873548001
 30
0.0
  0
LINE
  5
8D
330
70
100
AcDbEntity
  8
Camada 1
 62
   250
420
  1907995
370
     9
100
AcDbLine
 10
124.9357627617457
 20
-95.82790268806986
 30
0.0
 11
124.9357627617457
 21
-98.18939721805133
 31
0.0
  0
LINE
  5
8E
330
70
100
AcDbEntity
  8
Camada 1
 62
   250
420
  1907995
370
     9
100
AcDbLine
 10
125.1678922189495
 20
-95.89493132710476
 30
0.0
 11
125.1421401301972
 21
-98.16364512929908
 31
0.0
  0
SPLINE
  5
8F
330
70
100
AcDbEntity
  8
Camada 1
 62
   250
420
  1907995
370
     9
100
AcDbSpline
210
0.0
220
0.0
230
1.0
 70
     8
 71
     3
 72
    14
 73
    10
 74
     0
 42
0.0000000001
 43
0.0000000001
 40
0.0
 40
0.0
 40
0.0
 40
0.0
 40
1.0
 40
1.0
 40
1.0
 40
2.0
 40
2.0
 40
2.0
 40
3.0
 40
3.0
 40
3.0
 40
3.0
 10
124.7424390754062
 20
-95.77181222720064
 30
0.0
 10
124.7424390754062
 20
-95.77181222720064
 30
0.0
 10
122.6049618793531
 20
-96.34578128392867
 30
0.0
 10
122.6155447820469
 20
-96.92292359657567
 30
0.0
 10
122.6257724092687
 20
-97.50006860070385
 30
0.0
 10
123.8788397646412
 20
-98.01124540925119
 30
0.0
 10
124.8070023179845
 20
-98.17669611993032
 30
0.0
 10
124.8070023179845
 20
-98.17669611993032
 30
0.0
 10
125.735159488366
 20
-98.2024509001634
 30
0.0
 10
125.735159488366
 20
-98.2024509001634
 30
0.0
  0
LINE
  5
90
330
70
100
AcDbEntity
  8
Camada 1
 62
   250
420
  1907995
370
     9
100
AcDbLine
 10
122.0740296013825
 20
-98.70515761848254
 30
0.0
 11
122.125533778887
 21
-98.75666448746789
 31
0.0
  0
LINE
  5
91
330
70
100
AcDbEntity
  8
Camada 1
 62
   250
420
  1907995
370
     9
100
AcDbLine
 10
124.4203549453055
 20
-98.75666448746789
 30
0.0
 11
124.47185912281
 21
-98.70515761848254
 31
0.0
  0
LINE
  5
92
330
70
100
AcDbEntity
  8
Camada 1
 62
   250
420
  1907995
370
     9
100
AcDbLine
 10
122.125533778887
 20
-98.75666448746789
 30
0.0
 11
122.125533778887
 21
-98.86002811794877
 31
0.0
  0
LINE
  5
93
330
70
100
AcDbEntity
  8
Camada 1
 62
   250
420
  1907995
370
     9
100
AcDbLine
 10
124.4203549453055
 20
-98.86002811794877
 30
0.0
 11
124.4203549453055
 21
-98.75666448746789
 31
0.0
  0
SPLINE
  5
94
330
70
100
AcDbEntity
  8
Camada 1
 62
   250
420
  1907995
370
     9
100
AcDbSpline
210
0.0
220
0.0
230
1.0
 70
     9
 71
     3
 72
    17
 73
    13
 74
     0
 42
0.0000000001
 43
0.0000000001
 40
0.0
 40
0.0
 40
0.0
 40
0.0
 40
1.0
 40
1.0
 40
1.0
 40
2.0
 40
2.0
 40
2.0
 40
3.0
 40
3.0
 40
3.0
 40
4.0
 40
4.0
 40
4.0
 40
4.0
 10
124.0591097688686
 20
-99.72151192476736
 30
0.0
 10
124.0591097688686
 20
-100.1829434385439
 30
0.0
 10
123.7155045579085
 20
-100.5572409513532
 30
0.0
 10
123.2914671332912
 20
-100.5572409513532
 30
0.0
 10
122.8677796011841
 20
-100.5572409513532
 30
0.0
 10
122.524174390224
 20
-100.1829434385439
 30
0.0
 10
122.524174390224
 20
-99.72151192476736
 30
0.0
 10
122.524174390224
 20
-99.25972378977778
 30
0.0
 10
122.8677796011841
 20
-98.88578020670102
 30
0.0
 10
123.2914671332912
 20
-98.88578020670102
 30
0.0
 10
123.7155045579085
 20
-98.88578020670102
 30
0.0
 10
124.0591097688686
 20
-99.25972378977778
 30
0.0
 10
124.0591097688686
 20
-99.72151192476736
 30
0.0
  0
SPLINE
  5
95
330
70
100
AcDbEntity
  8
Camada 1
 62
   250
420
  1907995
370
     9
100
AcDbSpline
210
0.0
220
0.0
230
1.0
 70
     8
 71
     3
 72
     8
 73
     4
 74
     0
 42
0.0000000001
 43
0.0000000001
 40
0.0
 40
0.0
 40
0.0
 40
0.0
 40
1.0
 40
1.0
 40
1.0
 40
1.0
 10
124.3300449969367
 20
-100.5614746507268
 30
0.0
 10
123.9497495190587
 20
-100.0499466039285
 30
0.0
 10
123.9882000144511
 20
-99.50561209707611
 30
0.0
 10
124.3300449969367
 20
-98.93728707568634
 30
0.0
  0
SPLINE
  5
96
330
70
100
AcDbEntity
  8
Camada 1
 62
   250
420
  1907995
370
     9
100
AcDbSpline
210
0.0
220
0.0
230
1.0
 70
     8
 71
     3
 72
     8
 73
     4
 74
     0
 42
0.0000000001
 43
0.0000000001
 40
0.0
 40
0.0
 40
0.0
 40
0.0
 40
1.0
 40
1.0
 40
1.0
 40
1.0
 10
122.2031453206157
 20
-100.5614746507268
 30
0.0
 10
122.5922634727129
 20
-100.0005579303705
 30
0.0
 10
122.6141344460826
 20
-99.45763375948232
 30
0.0
 10
122.1773932318634
 20
-98.93728707568634
 30
0.0
  0
LINE
  5
97
330
70
100
AcDbEntity
  8
Camada 1
 62
   250
420
  1907995
370
     9
100
AcDbLine
 10
122.125533778887
 20
-100.5614746507268
 30
0.0
 11
124.4203549453055
 21
-100.5614746507268
 31
0.0
  0
SPLINE
  5
98
330
70
100
AcDbEntity
  8
Camada 1
 62
   250
420
  1907995
370
     9
100
AcDbSpline
210
0.0
220
0.0
230
1.0
 70
     8
 71
     3
 72
     8
 73
     4
 74
     0
 42
0.0000000001
 43
0.0000000001
 40
0.0
 40
0.0
 40
0.0
 40
0.0
 40
1.0
 40
1.0
 40
1.0
 40
1.0
 10
120.6047125258086
 20
-95.01863091821874
 30
0.0
 10
120.7751047953244
 20
-94.86340783476146
 30
0.0
 10
120.9998219142732
 20
-94.89833249024318
 30
0.0
 10
121.2492360614819
 20
-95.01863091821874
 30
0.0
  0
SPLINE
  5
99
330
70
100
AcDbEntity
  8
Camada 1
 62
   250
420
  1907995
370
     9
100
AcDbSpline
210
0.0
220
0.0
230
1.0
 70
     8
 71
     3
 72
    17
 73
    13
 74
     0
 42
0.0000000001
 43
0.0000000001
 40
0.0
 40
0.0
 40
0.0
 40
0.0
 40
1.0
 40
1.0
 40
1.0
 40
2.0
 40
2.0
 40
2.0
 40
3.0
 40
3.0
 40
3.0
 40
4.0
 40
4.0
 40
4.0
 40
4.0
 10
120.1662057001532
 20
-95.01863091821874
 30
0.0
 10
120.1662057001532
 20
-95.01863091821874
 30
0.0
 10
120.295326802348
 20
-95.1473940534608
 30
0.0
 10
120.295326802348
 20
-95.1473940534608
 30
0.0
 10
120.295326802348
 20
-95.1473940534608
 30
0.0
 10
120.295326802348
 20
-95.01863091821874
 30
0.0
 10
120.295326802348
 20
-95.01863091821874
 30
0.0
 10
120.295326802348
 20
-95.01863091821874
 30
0.0
 10
122.125533778887
 20
-95.01863091821874
 30
0.0
 10
122.125533778887
 20
-95.01863091821874
 30
0.0
 10
122.125533778887
 20
-95.01863091821874
 30
0.0
 10
122.1826846832103
 20
-95.04649851091707
 30
0.0
 10
122.1773932318634
 20
-95.1473940534608
 30
0.0
  0
LWPOLYLINE
  5
9A
330
70
100
AcDbEntity
  8
Camada 1
 62
   250
420
  1907995
370
     9
100
AcDbPolyline
 90
        3
 70
     0
 43
0.0
 10
120.295326802348
 20
-98.80816866497237
 10
120.295326802348
 20
-98.93728707568634
 10
121.145872431001
 20
-98.93728707568634
  0
SPLINE
  5
9B
330
70
100
AcDbEntity
  8
Camada 1
 62
   250
420
  1907995
370
     9
100
AcDbSpline
210
0.0
220
0.0
230
1.0
 70
     8
 71
     3
 72
    29
 73
    25
 74
     0
 42
0.0000000001
 43
0.0000000001
 40
0.0
 40
0.0
 40
0.0
 40
0.0
 40
1.0
 40
1.0
 40
1.0
 40
2.0
 40
2.0
 40
2.0
 40
3.0
 40
3.0
 40
3.0
 40
4.0
 40
4.0
 40
4.0
 40
5.0
 40
5.0
 40
5.0
 40
6.0
 40
6.0
 40
6.0
 40
7.0
 40
7.0
 40
7.0
 40
8.0
 40
8.0
 40
8.0
 40
8.0
 10
117.7429739824837
 20
-95.1473940534608
 30
0.0
 10
117.7429739824837
 20
-95.1473940534608
 30
0.0
 10
122.5897926932946
 20
-95.1473940534608
 30
0.0
 10
122.5897926932946
 20
-95.1473940534608
 30
0.0
 10
122.5897926932946
 20
-95.1473940534608
 30
0.0
 10
125.1678922189495
 20
-95.89493132710476
 30
0.0
 10
125.1678922189495
 20
-95.89493132710476
 30
0.0
 10
125.1678922189495
 20
-95.89493132710476
 30
0.0
 10
125.735159488366
 20
-95.89493132710476
 30
0.0
 10
125.735159488366
 20
-95.89493132710476
 30
0.0
 10
125.735159488366
 20
-95.89493132710476
 30
0.0
 10
125.735159488366
 20
-98.5763944832408
 30
0.0
 10
125.735159488366
 20
-98.5763944832408
 30
0.0
 10
125.735159488366
 20
-98.5763944832408
 30
0.0
 10
125.4257737649055
 20
-98.80816866497237
 30
0.0
 10
125.4257737649055
 20
-98.80816866497237
 30
0.0
 10
125.4257737649055
 20
-98.80816866497237
 30
0.0
 10
124.6263770382851
 20
-98.80816866497237
 30
0.0
 10
124.6263770382851
 20
-98.80816866497237
 30
0.0
 10
123.6809351778987
 20
-97.96361965564846
 30
0.0
 10
122.6155447820469
 20
-98.11213826031375
 30
0.0
 10
121.9452691576213
 20
-98.80816866497237
 30
0.0
 10
121.9452691576213
 20
-98.80816866497237
 30
0.0
 10
117.7429739824837
 20
-98.80816866497237
 30
0.0
 10
117.7429739824837
 20
-98.80816866497237
 30
0.0
  0
LINE
  5
9C
330
70
100
AcDbEntity
  8
Camada 1
 62
   250
420
  1907995
370
     9
100
AcDbLine
 10
110.6786038289154
 20
-92.72380975180025
 30
0.0
 11
109.4410582435924
 21
-92.72380975180025
 31
0.0
  0
LINE
  5
9D
330
70
100
AcDbEntity
  8
Camada 1
 62
   250
420
  1907995
370
     9
100
AcDbLine
 10
110.6786038289154
 20
-101.2317516208928
 30
0.0
 11
109.4410582435924
 21
-101.2317516208928
 31
0.0
  0
LINE
  5
9E
330
70
100
AcDbEntity
  8
Camada 1
 62
   250
420
  1907995
370
     9
100
AcDbLine
 10
115.1645245643187
 20
-93.98710742587544
 30
0.0
 11
110.6786038289154
 21
-93.98710742587544
 31
0.0
  0
LINE
  5
9F
330
70
100
AcDbEntity
  8
Camada 1
 62
   250
420
  1907995
370
     9
100
AcDbLine
 10
110.6786038289154
 20
-99.96845529255773
 30
0.0
 11
115.1645245643187
 21
-99.96845529255773
 31
0.0
  0
LINE
  5
A0
330
70
100
AcDbEntity
  8
Camada 1
 62
   250
420
  1907995
370
     9
100
AcDbLine
 10
112.0967693109759
 20
-92.54354243905371
 30
0.0
 11
112.0967693109759
 21
-101.7990188903094
 31
0.0
  0
LWPOLYLINE
  5
A1
330
70
100
AcDbEntity
  8
Camada 1
 62
   250
420
  1907995
370
     9
100
AcDbPolyline
 90
        4
 70
     1
 43
0.0
 10
130.0020071401585
 20
-77.5000377702343
 10
129.3832356932374
 20
-77.5000377702343
 10
129.3832356932374
 20
-80.8775340225095
 10
130.0020071401585
 20
-80.8775340225095
  0
LWPOLYLINE
  5
A2
330
70
100
AcDbEntity
  8
Camada 1
 62
   250
420
  1907995
370
     9
100
AcDbPolyline
 90
        3
 70
     0
 43
0.0
 10
129.3701820111254
 20
-77.56459562985085
 10
128.8805262834374
 20
-77.56459562985085
 10
128.8805262834374
 20
-80.70960984093119
  0
LWPOLYLINE
  5
A3
330
70
100
AcDbEntity
  8
Camada 1
 62
   250
420
  1907995
370
     9
100
AcDbPolyline
 90
       17
 70
     0
 43
0.0
 10
130.0020071401585
 20
-80.83872825164517
 10
130.3498433590114
 20
-80.83872825164517
 10
130.3755954477636
 20
-80.83872825164517
 10
130.4013475365159
 20
-80.81297347141207
 10
130.4271050082298
 20
-80.81297347141207
 10
130.4532069894923
 20
-80.78722138265984
 10
130.4532069894923
 20
-80.76146929390759
 10
130.4532069894923
 20
-80.73571720515536
 10
130.4532069894923
 20
-80.70960984093119
 10
130.4532069894923
 20
-77.66760667634068
 10
130.4532069894923
 20
-77.64185458758844
 10
130.4532069894923
 20
-77.6161024988362
 10
130.4271050082298
 20
-77.59035041008395
 10
130.4013475365159
 20
-77.56459562985085
 10
130.3755954477636
 20
-77.56459562985085
 10
130.3498433590114
 20
-77.56459562985085
 10
130.0020071401585
 20
-77.56459562985085
  0
SPLINE
  5
A4
330
70
100
AcDbEntity
  8
Camada 1
 62
   250
420
  1907995
370
     9
100
AcDbSpline
210
0.0
220
0.0
230
1.0
 70
     8
 71
     3
 72
    80
 73
    76
 74
     0
 42
0.0000000001
 43
0.0000000001
 40
0.0
 40
0.0
 40
0.0
 40
0.0
 40
1.0
 40
1.0
 40
1.0
 40
2.0
 40
2.0
 40
2.0
 40
3.0
 40
3.0
 40
3.0
 40
4.0
 40
4.0
 40
4.0
 40
5.0
 40
5.0
 40
5.0
 40
6.0
 40
6.0
 40
6.0
 40
7.0
 40
7.0
 40
7.0
 40
8.0
 40
8.0
 40
8.0
 40
9.0
 40
9.0
 40
9.0
 40
10.0
 40
10.0
 40
10.0
 40
11.0
 40
11.0
 40
11.0
 40
12.0
 40
12.0
 40
12.0
 40
13.0
 40
13.0
 40
13.0
 40
14.0
 40
14.0
 40
14.0
 40
15.0
 40
15.0
 40
15.0
 40
16.0
 40
16.0
 40
16.0
 40
17.0
 40
17.0
 40
17.0
 40
18.0
 40
18.0
 40
18.0
 40
19.0
 40
19.0
 40
19.0
 40
20.0
 40
20.0
 40
20.0
 40
21.0
 40
21.0
 40
21.0
 40
22.0
 40
22.0
 40
22.0
 40
23.0
 40
23.0
 40
23.0
 40
24.0
 40
24.0
 40
24.0
 40
25.0
 40
25.0
 40
25.0
 40
25.0
 10
125.2624385581728
 20
-80.45208357044707
 30
0.0
 10
125.2624385581728
 20
-80.45208357044707
 30
0.0
 10
125.2709005739584
 20
-81.86989646851655
 30
0.0
 10
125.2709005739584
 20
-81.86989646851655
 30
0.0
 10
125.2709005739584
 20
-81.99019489649245
 30
0.0
 10
125.3396948244295
 20
-82.07627114548726
 30
0.0
 10
125.47727794241
 20
-82.12777801447259
 30
0.0
 10
125.47727794241
 20
-82.12777801447259
 30
0.0
 10
125.3224101344246
 20
-82.48866791543759
 30
0.0
 10
125.3224101344246
 20
-82.48866791543759
 30
0.0
 10
125.3255806988634
 20
-82.45656662336527
 30
0.0
 10
125.2744317968308
 20
-82.632602928219
 30
0.0
 10
125.2709005739584
 20
-82.69504528388916
 30
0.0
 10
125.2709005739584
 20
-82.69504528388916
 30
0.0
 10
125.2709005739584
 20
-91.79565258141868
 30
0.0
 10
125.2709005739584
 20
-91.79565258141868
 30
0.0
 10
125.2455037606781
 20
-92.04859526001893
 30
0.0
 10
125.2776077442313
 20
-92.22957043222846
 30
0.0
 10
125.3481622231769
 20
-92.36291985083525
 30
0.0
 10
125.3481622231769
 20
-92.36291985083525
 30
0.0
 10
125.5287821199145
 20
-92.72380975180025
 30
0.0
 10
125.5287821199145
 20
-92.72380975180025
 30
0.0
 10
125.3336982051005
 20
-92.72345716780918
 30
0.0
 10
125.2613781147187
 20
-92.85892478184326
 30
0.0
 10
125.2709005739584
 20
-93.08470234424611
 30
0.0
 10
125.2694902379942
 20
-93.19088933813672
 30
0.0
 10
125.2952423267464
 20
-93.25086091438823
 30
0.0
 10
125.3481622231769
 20
-93.26532493246459
 30
0.0
 10
125.3481622231769
 20
-93.26532493246459
 30
0.0
 10
125.4000216761533
 20
-95.09588987595632
 30
0.0
 10
125.4000216761533
 20
-95.09588987595632
 30
0.0
 10
125.4000216761533
 20
-95.09588987595632
 30
0.0
 10
128.0811295568171
 20
-95.09588987595632
 30
0.0
 10
128.0811295568171
 20
-95.09588987595632
 30
0.0
 10
128.0811295568171
 20
-95.09588987595632
 30
0.0
 10
128.1583912060355
 20
-93.26532493246459
 30
0.0
 10
128.1583912060355
 20
-93.26532493246459
 30
0.0
 10
128.2049538247033
 20
-93.26461976448277
 30
0.0
 10
128.2300007454734
 20
-93.20676369217702
 30
0.0
 10
128.2314164643994
 20
-93.08470234424611
 30
0.0
 10
128.2176576143052
 20
-92.82258979039726
 30
0.0
 10
128.1315786738292
 20
-92.70546730982216
 30
0.0
 10
127.9781212018081
 20
-92.72380975180025
 30
0.0
 10
127.9781212018081
 20
-92.72380975180025
 30
0.0
 10
128.1583912060355
 20
-92.36291985083525
 30
0.0
 10
128.1583912060355
 20
-92.36291985083525
 30
0.0
 10
128.20989538354
 20
-92.18899904992793
 30
0.0
 10
128.2243594016163
 20
-91.99885400246978
 30
0.0
 10
128.20989538354
 20
-91.79565258141868
 30
0.0
 10
128.20989538354
 20
-91.79565258141868
 30
0.0
 10
128.20989538354
 20
-82.66929050365607
 30
0.0
 10
128.20989538354
 20
-82.66929050365607
 30
0.0
 10
128.2183627822873
 20
-82.60649556399483
 30
0.0
 10
128.2074246041217
 20
-82.54687657173375
 30
0.0
 10
128.1841432947877
 20
-82.48866791543759
 30
0.0
 10
128.1841432947877
 20
-82.48866791543759
 30
0.0
 10
128.0296253793126
 20
-82.12777801447259
 30
0.0
 10
128.0296253793126
 20
-82.12777801447259
 30
0.0
 10
128.1435719124872
 20
-82.06039679144664
 30
0.0
 10
128.2264749055628
 20
-81.98208008173585
 30
0.0
 10
128.20989538354
 20
-81.86989646851655
 30
0.0
 10
128.20989538354
 20
-81.86989646851655
 30
0.0
 10
128.20989538354
 20
-80.94173929813498
 30
0.0
 10
128.20989538354
 20
-80.94173929813498
 30
0.0
 10
128.2536373302793
 20
-80.80380359616345
 30
0.0
 10
128.3252522526789
 20
-80.71701948770565
 30
0.0
 10
128.4420194577821
 20
-80.70960984093119
 30
0.0
 10
128.4420194577821
 20
-80.70960984093119
 30
0.0
 10
128.8805262834374
 20
-80.70960984093119
 30
0.0
 10
128.8805262834374
 20
-80.70960984093119
 30
0.0
 10
128.8805262834374
 20
-80.70960984093119
 30
0.0
 10
128.8805262834374
 20
-80.83872825164517
 30
0.0
 10
128.8805262834374
 20
-80.83872825164517
 30
0.0
 10
128.8805262834374
 20
-80.83872825164517
 30
0.0
 10
129.3701820111254
 20
-80.83872825164517
 30
0.0
 10
129.3701820111254
 20
-80.83872825164517
 30
0.0
  0
LWPOLYLINE
  5
A5
330
70
100
AcDbEntity
  8
Camada 1
 62
   250
420
  1907995
370
     9
100
AcDbPolyline
 90
        4
 70
     0
 43
0.0
 10
128.0553774680648
 20
-95.89493132710476
 10
128.0811295568171
 20
-95.43102768816908
 10
125.4257737649055
 20
-95.43102768816908
 10
125.4257737649055
 20
-95.89493132710476
  0
LWPOLYLINE
  5
A6
330
70
100
AcDbEntity
  8
Camada 1
 62
   250
420
  1907995
370
     9
100
AcDbPolyline
 90
        4
 70
     1
 43
0.0
 10
125.7866636658705
 20
-97.88001149459081
 10
127.7202396558521
 20
-97.88001149459081
 10
127.7202396558521
 20
-96.66821799802011
 10
125.7866636658705
 20
-96.66821799802011
  0
LWPOLYLINE
  5
A7
330
70
100
AcDbEntity
  8
Camada 1
 62
   250
420
  1907995
370
     9
100
AcDbPolyline
 90
       16
 70
     1
 43
0.0
 10
128.1068816455693
 20
-98.80816866497237
 10
127.7459917446043
 20
-98.5763944832408
 10
127.7459917446043
 20
-95.89493132710476
 10
128.6483968262336
 20
-95.89493132710476
 10
128.6741489149859
 20
-95.89493132710476
 10
128.6999010037381
 20
-95.92068341585699
 10
128.6999010037381
 20
-95.94643550460924
 10
128.6999010037381
 20
-98.67940552973031
 10
128.6999010037381
 20
-98.70515761848254
 10
128.6999010037381
 20
-98.73090970723479
 10
128.6741489149859
 20
-98.75666448746789
 10
128.6741489149859
 20
-98.78241657622012
 10
128.6483968262336
 20
-98.78241657622012
 10
128.6226447374814
 20
-98.80816866497237
 10
128.5968926487291
 20
-98.80816866497237
 10
128.5711405599769
 20
-98.80816866497237
  0
SPLINE
  5
A8
330
70
100
AcDbEntity
  8
Camada 1
 62
   250
420
  1907995
370
     9
100
AcDbSpline
210
0.0
220
0.0
230
1.0
 70
     9
 71
     3
 72
    23
 73
    19
 74
     0
 42
0.0000000001
 43
0.0000000001
 40
0.0
 40
0.0
 40
0.0
 40
0.0
 40
1.0
 40
1.0
 40
1.0
 40
2.0
 40
2.0
 40
2.0
 40
3.0
 40
3.0
 40
3.0
 40
4.0
 40
4.0
 40
4.0
 40
5.0
 40
5.0
 40
5.0
 40
6.0
 40
6.0
 40
6.0
 40
6.0
 10
124.4545744328051
 20
-98.88578020670102
 30
0.0
 10
124.4545744328051
 20
-98.88578020670102
 30
0.0
 10
122.125533778887
 20
-98.88578020670102
 30
0.0
 10
122.125533778887
 20
-98.88578020670102
 30
0.0
 10
121.5713201915825
 20
-99.25090649852053
 30
0.0
 10
121.5713201915825
 20
-100.4711633566176
 30
0.0
 10
122.125533778887
 20
-100.5614746507268
 30
0.0
 10
122.125533778887
 20
-100.5614746507268
 30
0.0
 10
122.125533778887
 20
-101.5411373443533
 30
0.0
 10
122.125533778887
 20
-101.5411373443533
 30
0.0
 10
122.125533778887
 20
-101.5411373443533
 30
0.0
 10
124.4203549453055
 20
-101.5411373443533
 30
0.0
 10
124.4203549453055
 20
-101.5411373443533
 30
0.0
 10
124.4203549453055
 20
-101.5411373443533
 30
0.0
 10
124.4203549453055
 20
-100.5614746507268
 30
0.0
 10
124.4203549453055
 20
-100.5614746507268
 30
0.0
 10
124.9100106729934
 20
-100.6129801739717
 30
0.0
 10
125.0518301818284
 20
-99.1842304434764
 30
0.0
 10
124.4545744328051
 20
-98.88578020670102
 30
0.0
  0
LWPOLYLINE
  5
A9
330
70
100
AcDbEntity
  8
Camada 1
 62
   250
420
  1907995
370
     9
100
AcDbPolyline
 90
        4
 70
     0
 43
0.0
 10
122.3061590585863
 20
-101.5411373443533
 10
122.3061590585863
 20
-102.7529294951836
 10
124.2397350485679
 20
-102.7529294951836
 10
124.2397350485679
 20
-101.5411373443533
  0
SPLINE
  5
AA
330
70
100
AcDbEntity
  8
Camada 1
 62
   250
420
  1907995
370
     9
100
AcDbSpline
210
0.0
220
0.0
230
1.0
 70
     8
 71
     3
 72
    38
 73
    34
 74
     0
 42
0.0000000001
 43
0.0000000001
 40
0.0
 40
0.0
 40
0.0
 40
0.0
 40
1.0
 40
1.0
 40
1.0
 40
2.0
 40
2.0
 40
2.0
 40
3.0
 40
3.0
 40
3.0
 40
4.0
 40
4.0
 40
4.0
 40
5.0
 40
5.0
 40
5.0
 40
6.0
 40
6.0
 40
6.0
 40
7.0
 40
7.0
 40
7.0
 40
8.0
 40
8.0
 40
8.0
 40
9.0
 40
9.0
 40
9.0
 40
10.0
 40
10.0
 40
10.0
 40
11.0
 40
11.0
 40
11.0
 40
11.0
 10
121.145872431001
 20
-98.80816866497237
 30
0.0
 10
121.145872431001
 20
-98.80816866497237
 30
0.0
 10
121.145872431001
 20
-104.3771184159642
 30
0.0
 10
121.145872431001
 20
-104.3771184159642
 30
0.0
 10
121.145872431001
 20
-104.3771184159642
 30
0.0
 10
121.145872431001
 20
-104.4028705047164
 30
0.0
 10
121.145872431001
 20
-104.4028705047164
 30
0.0
 10
121.145872431001
 20
-104.4028705047164
 30
0.0
 10
121.1716245197532
 20
-104.4028705047164
 30
0.0
 10
121.1716245197532
 20
-104.4028705047164
 30
0.0
 10
121.1716245197532
 20
-104.4028705047164
 30
0.0
 10
121.1716245197532
 20
-104.4286239392091
 30
0.0
 10
121.1716245197532
 20
-104.4286239392091
 30
0.0
 10
121.1716245197532
 20
-104.4286239392091
 30
0.0
 10
121.1973766085055
 20
-104.4286239392091
 30
0.0
 10
121.1973766085055
 20
-104.4286239392091
 30
0.0
 10
121.2446497781171
 20
-104.4159241868285
 30
0.0
 10
121.9452691576213
 20
-104.4286239392091
 30
0.0
 10
121.9452691576213
 20
-104.4286239392091
 30
0.0
 10
121.9452691576213
 20
-104.4286239392091
 30
0.0
 10
121.9710212463736
 20
-104.4286239392091
 30
0.0
 10
121.9710212463736
 20
-104.4286239392091
 30
0.0
 10
121.9710212463736
 20
-104.4286239392091
 30
0.0
 10
121.9710212463736
 20
-104.4028705047164
 30
0.0
 10
121.9710212463736
 20
-104.4028705047164
 30
0.0
 10
121.9710212463736
 20
-104.4028705047164
 30
0.0
 10
121.9967733351258
 20
-104.4028705047164
 30
0.0
 10
121.9967733351258
 20
-104.4028705047164
 30
0.0
 10
121.9967733351258
 20
-104.4028705047164
 30
0.0
 10
121.9967733351258
 20
-104.3771184159642
 30
0.0
 10
121.9967733351258
 20
-104.3771184159642
 30
0.0
 10
121.9967733351258
 20
-104.3771184159642
 30
0.0
 10
121.9967733351258
 20
-100.5614746507268
 30
0.0
 10
121.9967733351258
 20
-100.5614746507268
 30
0.0
  0
LWPOLYLINE
  5
AB
330
70
100
AcDbEntity
  8
Camada 1
 62
   250
420
  1907995
370
     9
100
AcDbPolyline
 90
        3
 70
     0
 43
0.0
 10
120.1662057001532
 20
-95.1473940534608
 10
120.1662057001532
 20
-95.01863091821874
 10
117.7429739824837
 20
-95.01863091821874
  0
LWPOLYLINE
  5
AC
330
70
100
AcDbEntity
  8
Camada 1
 62
   250
420
  1907995
370
     9
100
AcDbPolyline
 90
        3
 70
     0
 43
0.0
 10
117.7429739824837
 20
-98.93728707568634
 10
120.1662057001532
 20
-98.93728707568634
 10
120.1662057001532
 20
-98.80816866497237
  0
LINE
  5
AD
330
70
100
AcDbEntity
  8
Camada 1
 62
   250
420
  1907995
370
     9
100
AcDbLine
 10
115.1645245643187
 20
-97.59673044387326
 30
0.0
 11
117.3817341890085
 21
-97.59673044387326
 31
0.0
  0
LINE
  5
AE
330
70
100
AcDbEntity
  8
Camada 1
 62
   250
420
  1907995
370
     9
100
AcDbLine
 10
117.3817341890085
 20
-96.35918485855064
 30
0.0
 11
115.1645245643187
 21
-96.35918485855064
 31
0.0
  0
LINE
  5
AF
330
70
100
AcDbEntity
  8
Camada 1
 62
   250
420
  1907995
370
     9
100
AcDbLine
 10
117.3817341890085
 20
-95.01863091821874
 30
0.0
 11
115.1645245643187
 21
-95.01863091821874
 31
0.0
  0
LINE
  5
B0
330
70
100
AcDbEntity
  8
Camada 1
 62
   250
420
  1907995
370
     9
100
AcDbLine
 10
115.1645245643187
 20
-98.93728707568634
 30
0.0
 11
117.3817341890085
 21
-98.93728707568634
 31
0.0
  0
LWPOLYLINE
  5
B1
330
70
100
AcDbEntity
  8
Camada 1
 62
   250
420
  1907995
370
     9
100
AcDbPolyline
 90
        3
 70
     0
 43
0.0
 10
110.6786038289154
 20
-101.7990188903094
 10
114.7263730141353
 20
-101.7990188903094
 10
114.7263730141353
 20
-101.4123742091112
  0
LWPOLYLINE
  5
B2
330
70
100
AcDbEntity
  8
Camada 1
 62
   250
420
  1907995
370
     9
100
AcDbPolyline
 90
        4
 70
     0
 43
0.0
 10
110.6786038289154
 20
-102.2886732722568
 10
113.849722712739
 20
-102.2886732722568
 10
113.9012268902435
 20
-102.2114156602597
 10
113.9012268902435
 20
-101.7990188903094
  0
LWPOLYLINE
  5
B3
330
70
100
AcDbEntity
  8
Camada 1
 62
   250
420
  1907995
370
     9
100
AcDbPolyline
 90
        4
 70
     1
 43
0.0
 10
117.7429739824837
 20
-103.0623152186441
 10
117.3820840815188
 20
-103.0623152186441
 10
117.3820840815188
 20
-90.89360008378044
 10
117.7429739824837
 20
-90.89360008378044
  0
LWPOLYLINE
  5
B4
330
70
100
AcDbEntity
  8
Camada 1
 62
   250
420
  1907995
370
     9
100
AcDbPolyline
 90
        4
 70
     0
 43
0.0
 10
110.6786038289154
 20
-92.54354243905371
 10
114.7778771916397
 20
-92.54354243905371
 10
114.7778771916397
 20
-101.4123742091112
 10
110.6786038289154
 20
-101.4123742091112
  0
LWPOLYLINE
  5
B5
330
70
100
AcDbEntity
  8
Camada 1
 62
   250
420
  1907995
370
     9
100
AcDbPolyline
 90
        4
 70
     0
 43
0.0
 10
114.7778771916397
 20
-101.2575050553855
 10
115.1645245643187
 20
-101.2575050553855
 10
115.1645245643187
 20
-92.69805766304802
 10
114.7778771916397
 20
-92.69805766304802
  0
LWPOLYLINE
  5
B6
330
70
100
AcDbEntity
  8
Camada 1
 62
   250
420
  1907995
370
     9
100
AcDbPolyline
 90
        8
 70
     0
 43
0.0
 10
109.4410582435924
 20
-94.03861429486077
 10
110.6786038289154
 20
-94.03861429486077
 10
110.6786038289154
 20
-90.91935217253269
 10
109.4410582435924
 20
-90.91935217253269
 10
109.4410582435924
 20
-103.0365631298919
 10
110.6786038289154
 20
-103.0365631298919
 10
110.6786038289154
 20
-99.9169484235724
 10
109.4410582435924
 20
-99.9169484235724
  0
LINE
  5
B7
330
70
100
AcDbEntity
  8
Camada 1
 62
   250
420
  1907995
370
     9
100
AcDbLine
 10
88.83248763064463
 20
-102.2981984229774
 30
0.0
 11
76.046057455093
 21
-102.2981984229774
 31
0.0
  0
SPLINE
  5
B8
330
70
100
AcDbEntity
  8
Camada 1
 62
   250
420
  1907995
370
     9
100
AcDbSpline
210
0.0
220
0.0
230
1.0
 70
     9
 71
     3
 72
    17
 73
    13
 74
     0
 42
0.0000000001
 43
0.0000000001
 40
0.0
 40
0.0
 40
0.0
 40
0.0
 40
1.0
 40
1.0
 40
1.0
 40
2.0
 40
2.0
 40
2.0
 40
3.0
 40
3.0
 40
3.0
 40
4.0
 40
4.0
 40
4.0
 40
4.0
 10
91.13683125630346
 20
-96.4378541522525
 30
0.0
 10
91.13683125630346
 20
-97.47114056455115
 30
0.0
 10
90.28840113159629
 20
-98.30863520257283
 30
0.0
 10
89.24135721494387
 20
-98.30863520257283
 30
0.0
 10
88.194311952551
 20
-98.30863520257283
 30
0.0
 10
87.34552924385408
 20
-97.47114056455115
 30
0.0
 10
87.34552924385408
 20
-96.4378541522525
 30
0.0
 10
87.34552924385408
 20
-95.4045704314347
 30
0.0
 10
88.194311952551
 20
-94.56707579341301
 30
0.0
 10
89.24135721494387
 20
-94.56707579341301
 30
0.0
 10
90.28840113159629
 20
-94.56707579341301
 30
0.0
 10
91.13683125630346
 20
-95.4045704314347
 30
0.0
 10
91.13683125630346
 20
-96.4378541522525
 30
0.0
  0
LWPOLYLINE
  5
B9
330
70
100
AcDbEntity
  8
Camada 1
 62
   250
420
  1907995
370
     9
100
AcDbPolyline
 90
       12
 70
     0
 43
0.0
 10
88.83248763064463
 20
-98.26489056435271
 10
88.83248763064463
 20
-103.5622012650347
 10
88.83248763064463
 20
-103.5868956018137
 10
88.85718196742367
 20
-103.6115899385928
 10
88.88222888819377
 20
-103.6115899385928
 10
89.5757898591745
 20
-103.6115899385928
 10
89.60083677994459
 20
-103.6115899385928
 10
89.62553246246406
 20
-103.6115899385928
 10
89.62553246246406
 20
-103.5868956018137
 10
89.6502267992431
 20
-103.5868956018137
 10
89.6502267992431
 20
-103.5622012650347
 10
89.6502267992431
 20
-98.27547346704646
  0
LINE
  5
BA
330
70
100
AcDbEntity
  8
Camada 1
 62
   250
420
  1907995
370
     9
100
AcDbLine
 10
73.76640782977844
 20
-81.92916287678626
 30
0.0
 11
76.59145240539951
 21
-81.92916287678626
 31
0.0
  0
LINE
  5
BB
330
70
100
AcDbEntity
  8
Camada 1
 62
   250
420
  1907995
370
     9
100
AcDbLine
 10
73.96466870129851
 20
-82.17716668803067
 30
0.0
 11
76.41788553422369
 21
-82.17716668803067
 31
0.0
  0
LINE
  5
BC
330
70
100
AcDbEntity
  8
Camada 1
 62
   250
420
  1907995
370
     9
100
AcDbLine
 10
73.76640782977844
 20
-82.74690204538471
 30
0.0
 11
76.59145240539951
 21
-82.74690204538471
 31
0.0
  0
LINE
  5
BD
330
70
100
AcDbEntity
  8
Camada 1
 62
   250
420
  1907995
370
     9
100
AcDbLine
 10
73.76640782977844
 20
-91.4696873359354
 30
0.0
 11
76.59145240539951
 21
-91.4696873359354
 31
0.0
  0
LINE
  5
BE
330
70
100
AcDbEntity
  8
Camada 1
 62
   250
420
  1907995
370
     9
100
AcDbLine
 10
73.82849659215253
 20
-92.01472835651008
 30
0.0
 11
76.51701613820112
 21
-92.01472835651008
 31
0.0
  0
LINE
  5
BF
330
70
100
AcDbEntity
  8
Camada 1
 62
   250
420
  1907995
370
     9
100
AcDbLine
 10
74.0391049684969
 20
-92.36150951487097
 30
0.0
 11
76.36814360380433
 21
-92.36150951487097
 31
0.0
  0
LINE
  5
C0
330
70
100
AcDbEntity
  8
Camada 1
 62
   250
420
  1907995
370
     9
100
AcDbLine
 10
73.84084376054204
 20
-92.88185619866693
 30
0.0
 11
76.54171047498015
 21
-92.88185619866693
 31
0.0
  0
LINE
  5
C1
330
70
100
AcDbEntity
  8
Camada 1
 62
   250
420
  1907995
370
     9
100
AcDbLine
 10
73.89023277053522
 20
-94.64115880375011
 30
0.0
 11
76.46727420778176
 21
-94.64115880375011
 31
0.0
  0
LINE
  5
C2
330
70
100
AcDbEntity
  8
Camada 1
 62
   250
420
  1907995
370
     9
100
AcDbLine
 10
73.91492710731426
 20
-94.96359820932273
 30
0.0
 11
76.46727420778176
 21
-94.96359820932273
 31
0.0
  0
SPLINE
  5
C3
330
70
100
AcDbEntity
  8
Camada 1
 62
   250
420
  1907995
370
     9
100
AcDbSpline
210
0.0
220
0.0
230
1.0
 70
     8
 71
     3
 72
     8
 73
     4
 74
     0
 42
0.0000000001
 43
0.0000000001
 40
0.0
 40
0.0
 40
0.0
 40
0.0
 40
1.0
 40
1.0
 40
1.0
 40
1.0
 10
73.91492710731426
 20
-95.21971414384257
 30
0.0
 10
73.91492710731426
 20
-95.21971414384257
 30
0.0
 10
73.81262156524169
 20
-95.2923868182154
 30
0.0
 10
73.71701881978558
 20
-95.4095092987905
 30
0.0
  0
SPLINE
  5
C4
330
70
100
AcDbEntity
  8
Camada 1
 62
   250
420
  1907995
370
     9
100
AcDbSpline
210
0.0
220
0.0
230
1.0
 70
     8
 71
     3
 72
     8
 73
     4
 74
     0
 42
0.0000000001
 43
0.0000000001
 40
0.0
 40
0.0
 40
0.0
 40
0.0
 40
1.0
 40
1.0
 40
1.0
 40
1.0
 10
73.93997436451947
 20
-97.54063729152353
 30
0.0
 10
73.93997436451947
 20
-97.54063729152353
 30
0.0
 10
73.83978533569863
 20
-97.4432729718525
 30
0.0
 10
73.71701881978558
 20
-97.27252811834565
 30
0.0
  0
LINE
  5
C5
330
70
100
AcDbEntity
  8
Camada 1
 62
   250
420
  1907995
370
     9
100
AcDbLine
 10
73.91492710731426
 20
-95.4095092987905
 30
0.0
 11
76.56640481175918
 21
-95.4095092987905
 31
0.0
  0
SPLINE
  5
C6
330
70
100
AcDbEntity
  8
Camada 1
 62
   250
420
  1907995
370
     9
100
AcDbSpline
210
0.0
220
0.0
230
1.0
 70
     8
 71
     3
 72
    53
 73
    49
 74
     0
 42
0.0000000001
 43
0.0000000001
 40
0.0
 40
0.0
 40
0.0
 40
0.0
 40
1.0
 40
1.0
 40
1.0
 40
2.0
 40
2.0
 40
2.0
 40
3.0
 40
3.0
 40
3.0
 40
4.0
 40
4.0
 40
4.0
 40
5.0
 40
5.0
 40
5.0
 40
6.0
 40
6.0
 40
6.0
 40
7.0
 40
7.0
 40
7.0
 40
8.0
 40
8.0
 40
8.0
 40
9.0
 40
9.0
 40
9.0
 40
10.0
 40
10.0
 40
10.0
 40
11.0
 40
11.0
 40
11.0
 40
12.0
 40
12.0
 40
12.0
 40
13.0
 40
13.0
 40
13.0
 40
14.0
 40
14.0
 40
14.0
 40
15.0
 40
15.0
 40
15.0
 40
16.0
 40
16.0
 40
16.0
 40
16.0
 10
73.76640782977844
 20
-80.22207230867055
 30
0.0
 10
73.76640782977844
 20
-80.22207230867055
 30
0.0
 10
73.76640782977844
 20
-81.92916287678626
 30
0.0
 10
73.76640782977844
 20
-81.92916287678626
 30
0.0
 10
73.76817142260431
 20
-82.05228197669036
 30
0.0
 10
73.8440186986372
 20
-82.12848318245473
 30
0.0
 10
73.96466870129851
 20
-82.17716668803067
 30
0.0
 10
73.96466870129851
 20
-82.17716668803067
 30
0.0
 10
73.81579650333684
 20
-82.52394784639124
 30
0.0
 10
73.81579650333684
 20
-82.52394784639124
 30
0.0
 10
73.81579650333684
 20
-82.52394784639124
 30
0.0
 10
73.76640782977844
 20
-82.61849149413372
 30
0.0
 10
73.76640782977844
 20
-82.74690204538471
 30
0.0
 10
73.76640782977844
 20
-82.74690204538471
 30
0.0
 10
73.76640782977844
 20
-83.39142827253885
 30
0.0
 10
73.76640782977844
 20
-83.39142827253885
 30
0.0
 10
73.76640782977844
 20
-83.39142827253885
 30
0.0
 10
73.76640782977844
 20
-91.76672454526599
 30
0.0
 10
73.76640782977844
 20
-91.76672454526599
 30
0.0
 10
73.82426322921396
 20
-91.99814614300679
 30
0.0
 10
73.91492710731426
 20
-92.19640869670207
 30
0.0
 10
74.0391049684969
 20
-92.36150951487097
 30
0.0
 10
73.86765494700792
 20
-92.34492730136736
 30
0.0
 10
73.79427710465295
 20
-92.43911836511877
 30
0.0
 10
73.76640782977844
 20
-92.58446371386446
 30
0.0
 10
73.76640782977844
 20
-92.58446371386446
 30
0.0
 10
73.71701881978558
 20
-92.88185619866693
 30
0.0
 10
73.84084376054204
 20
-92.88185619866693
 30
0.0
 10
73.84084376054204
 20
-92.88185619866693
 30
0.0
 10
73.89023277053522
 20
-94.64115880375011
 30
0.0
 10
73.89023277053522
 20
-94.64115880375011
 30
0.0
 10
73.81685492818025
 20
-94.74628535418636
 30
0.0
 10
73.82320480437055
 20
-94.85353010004983
 30
0.0
 10
73.91492710731426
 20
-94.96359820932273
 30
0.0
 10
73.91492710731426
 20
-94.96359820932273
 30
0.0
 10
73.91492710731426
 20
-95.4095092987905
 30
0.0
 10
73.91492710731426
 20
-95.4095092987905
 30
0.0
 10
73.91492710731426
 20
-95.4095092987905
 30
0.0
 10
73.93997436451947
 20
-97.54063729152353
 30
0.0
 10
73.93997436451947
 20
-97.54063729152353
 30
0.0
 10
74.35836876310415
 20
-98.19715675733569
 30
0.0
 10
75.16411301086906
 20
-98.19715675733569
 30
0.0
 10
75.16411301086906
 20
-98.19715675733569
 30
0.0
 10
76.14412963422703
 20
-98.19715675733569
 30
0.0
 10
76.93823289089019
 20
-97.41222674027254
 30
0.0
 10
76.93823289089019
 20
-96.44420604705343
 30
0.0
 10
76.93823289089019
 20
-96.44420604705343
 30
0.0
 10
76.88672736764495
 20
-95.64904301980673
 30
0.0
 10
76.46127691558253
 20
-95.19890092244613
 30
0.0
  0
SPLINE
  5
C7
330
70
100
AcDbEntity
  8
Camada 1
 62
   250
420
  1907995
370
     9
100
AcDbSpline
210
0.0
220
0.0
230
1.0
 70
     8
 71
     3
 72
    11
 73
     7
 74
     0
 42
0.0000000001
 43
0.0000000001
 40
0.0
 40
0.0
 40
0.0
 40
0.0
 40
1.0
 40
1.0
 40
1.0
 40
2.0
 40
2.0
 40
2.0
 40
2.0
 10
76.39319119744465
 20
-98.43245947045909
 30
0.0
 10
76.39319119744465
 20
-98.43245947045909
 30
0.0
 10
76.39530737426127
 20
-98.35237984079297
 30
0.0
 10
76.39319119744465
 20
-98.33368212334264
 30
0.0
 10
76.39319119744465
 20
-98.33368212334264
 30
0.0
 10
76.2690129998269
 20
-98.25924652901477
 30
0.0
 10
76.2690129998269
 20
-98.25924652901477
 30
0.0
  0
LWPOLYLINE
  5
C8
330
70
100
AcDbEntity
  8
Camada 1
 62
   250
420
  1907995
370
     9
100
AcDbPolyline
 90
        3
 70
     0
 43
0.0
 10
74.08849364205497
 20
-98.25924652901477
 10
73.98936337451265
 20
-98.33368212334264
 10
73.98936337451265
 20
-98.43245947045909
  0
LINE
  5
C9
330
70
100
AcDbEntity
  8
Camada 1
 62
   250
420
  1907995
370
     9
100
AcDbLine
 10
74.08849364205497
 20
-98.16011659790754
 30
0.0
 11
74.08849364205497
 21
-98.25924652901477
 31
0.0
  0
LINE
  5
CA
330
70
100
AcDbEntity
  8
Camada 1
 62
   250
420
  1907995
370
     9
100
AcDbLine
 10
76.2690129998269
 20
-98.25924652901477
 30
0.0
 11
76.2690129998269
 21
-98.16011659790754
 31
0.0
  0
SPLINE
  5
CB
330
70
100
AcDbEntity
  8
Camada 1
 62
   250
420
  1907995
370
     9
100
AcDbSpline
210
0.0
220
0.0
230
1.0
 70
     9
 71
     3
 72
    17
 73
    13
 74
     0
 42
0.0000000001
 43
0.0000000001
 40
0.0
 40
0.0
 40
0.0
 40
0.0
 40
1.0
 40
1.0
 40
1.0
 40
2.0
 40
2.0
 40
2.0
 40
3.0
 40
3.0
 40
3.0
 40
4.0
 40
4.0
 40
4.0
 40
4.0
 10
74.33649644399408
 20
-99.89472486621169
 30
0.0
 10
74.33649644399408
 20
-99.89472486621169
 30
0.0
 10
73.89023277053522
 20
-99.89472486621169
 30
0.0
 10
73.89023277053522
 20
-99.89472486621169
 30
0.0
 10
73.89023277053522
 20
-99.89472486621169
 30
0.0
 10
73.89023277053522
 20
-98.43245947045909
 30
0.0
 10
73.89023277053522
 20
-98.43245947045909
 30
0.0
 10
73.89023277053522
 20
-98.43245947045909
 30
0.0
 10
74.33649644399408
 20
-98.43245947045909
 30
0.0
 10
74.33649644399408
 20
-98.43245947045909
 30
0.0
 10
73.78863273287989
 20
-98.90130197675025
 30
0.0
 10
73.77522713964696
 20
-99.38178513770902
 30
0.0
 10
74.33649644399408
 20
-99.89472486621169
 30
0.0
  0
SPLINE
  5
CC
330
70
100
AcDbEntity
  8
Camada 1
 62
   250
420
  1907995
370
     9
100
AcDbSpline
210
0.0
220
0.0
230
1.0
 70
     9
 71
     3
 72
    17
 73
    13
 74
     0
 42
0.0000000001
 43
0.0000000001
 40
0.0
 40
0.0
 40
0.0
 40
0.0
 40
1.0
 40
1.0
 40
1.0
 40
2.0
 40
2.0
 40
2.0
 40
3.0
 40
3.0
 40
3.0
 40
4.0
 40
4.0
 40
4.0
 40
4.0
 10
76.046057455093
 20
-99.89472486621169
 30
0.0
 10
76.046057455093
 20
-99.89472486621169
 30
0.0
 10
76.49232180142208
 20
-99.89472486621169
 30
0.0
 10
76.49232180142208
 20
-99.89472486621169
 30
0.0
 10
76.49232180142208
 20
-99.89472486621169
 30
0.0
 10
76.49232180142208
 20
-98.43245947045909
 30
0.0
 10
76.49232180142208
 20
-98.43245947045909
 30
0.0
 10
76.49232180142208
 20
-98.43245947045909
 30
0.0
 10
76.046057455093
 20
-98.43245947045909
 30
0.0
 10
76.046057455093
 20
-98.43245947045909
 30
0.0
 10
76.61614674217855
 20
-98.80816866497237
 30
0.0
 10
76.61191304280487
 20
-99.28195003861999
 30
0.0
 10
76.046057455093
 20
-99.89472486621169
 30
0.0
  0
SPLINE
  5
CD
330
70
100
AcDbEntity
  8
Camada 1
 62
   250
420
  1907995
370
     9
100
AcDbSpline
210
0.0
220
0.0
230
1.0
 70
     8
 71
     3
 72
    17
 73
    13
 74
     0
 42
0.0000000001
 43
0.0000000001
 40
0.0
 40
0.0
 40
0.0
 40
0.0
 40
1.0
 40
1.0
 40
1.0
 40
2.0
 40
2.0
 40
2.0
 40
3.0
 40
3.0
 40
3.0
 40
4.0
 40
4.0
 40
4.0
 40
4.0
 10
74.33614386000302
 20
-97.93927790286048
 30
0.0
 10
74.33614386000302
 20
-97.93927790286048
 30
0.0
 10
74.33614386000302
 20
-120.0404509379374
 30
0.0
 10
74.33614386000302
 20
-120.0404509379374
 30
0.0
 10
74.33614386000302
 20
-120.0404509379374
 30
0.0
 10
74.41869393265235
 20
-120.9336834528373
 30
0.0
 10
75.10449334573808
 20
-120.9326257008641
 30
0.0
 10
75.79029343169402
 20
-120.9315679488909
 30
0.0
 10
76.046057455093
 20
-120.3311416354288
 30
0.0
 10
76.046057455093
 20
-120.0654978587075
 30
0.0
 10
76.046057455093
 20
-120.0654978587075
 30
0.0
 10
76.046057455093
 20
-97.95691517685614
 30
0.0
 10
76.046057455093
 20
-97.95691517685614
 30
0.0
  0
CIRCLE
  5
CE
330
70
100
AcDbEntity
  8
Camada 1
 62
   250
420
  1907995
370
     9
100
AcDbCircle
 10
75.19127694954355
 20
-79.35212177597482
 30
0.0
 40
1.226608837006845
  0
ELLIPSE
  5
CF
330
70
100
AcDbEntity
  8
Camada 1
 62
   250
420
  1907995
370
     9
100
AcDbEllipse
 10
75.17892978115402
 20
-79.38210689123043
 30
0.0
 11
0.0000000000000001
 21
1.665464125322605
 31
0.0
210
0.0
220
0.0
230
1.0
 40
0.9819952334472942
 41
0.0
 42
6.283185307179586
  0
LWPOLYLINE
  5
D0
330
70
100
AcDbEntity
  8
Camada 1
 62
   250
420
  1907995
370
     9
100
AcDbPolyline
 90
        4
 70
     0
 43
0.0
 10
73.89023277053522
 20
-97.63976991411158
 10
73.89023277053522
 20
-97.96185404421228
 10
74.08849364205497
 20
-98.16011659790754
 10
74.33614386000302
 20
-98.16011659790754
  0
LWPOLYLINE
  5
D1
330
70
100
AcDbEntity
  8
Camada 1
 62
   250
420
  1907995
370
     9
100
AcDbPolyline
 90
        4
 70
     0
 43
0.0
 10
76.046057455093
 20
-98.16011659790754
 10
76.2690129998269
 20
-98.16011659790754
 10
76.46727420778176
 20
-97.96185404421228
 10
76.46727420778176
 20
-97.63976991411158
  0
SPLINE
  5
D2
330
70
100
AcDbEntity
  8
Camada 1
 62
   250
420
  1907995
370
     9
100
AcDbSpline
210
0.0
220
0.0
230
1.0
 70
     8
 71
     3
 72
    41
 73
    37
 74
     0
 42
0.0000000001
 43
0.0000000001
 40
0.0
 40
0.0
 40
0.0
 40
0.0
 40
1.0
 40
1.0
 40
1.0
 40
2.0
 40
2.0
 40
2.0
 40
3.0
 40
3.0
 40
3.0
 40
4.0
 40
4.0
 40
4.0
 40
5.0
 40
5.0
 40
5.0
 40
6.0
 40
6.0
 40
6.0
 40
7.0
 40
7.0
 40
7.0
 40
8.0
 40
8.0
 40
8.0
 40
9.0
 40
9.0
 40
9.0
 40
10.0
 40
10.0
 40
10.0
 40
11.0
 40
11.0
 40
11.0
 40
12.0
 40
12.0
 40
12.0
 40
12.0
 10
76.44257987100272
 20
-95.4095092987905
 30
0.0
 10
76.44257987100272
 20
-95.4095092987905
 30
0.0
 10
76.46727420778176
 20
-94.96359820932273
 30
0.0
 10
76.46727420778176
 20
-94.96359820932273
 30
0.0
 10
76.51701613820112
 20
-94.83977124995561
 30
0.0
 10
76.54065205013672
 20
-94.72476696480779
 30
0.0
 10
76.46727420778176
 20
-94.64115880375011
 30
0.0
 10
76.46727420778176
 20
-94.64115880375011
 30
0.0
 10
76.54171047498015
 20
-92.88185619866693
 30
0.0
 10
76.54171047498015
 20
-92.88185619866693
 30
0.0
 10
76.59145240539951
 20
-92.915017934193
 30
0.0
 10
76.60768001630142
 20
-92.81588531160494
 30
0.0
 10
76.59145240539951
 20
-92.58446371386446
 30
0.0
 10
76.58580769719136
 20
-92.45181946323979
 30
0.0
 10
76.51701613820112
 20
-92.37315016953761
 30
0.0
 10
76.36814360380433
 20
-92.36150951487097
 30
0.0
 10
76.49373281025656
 20
-92.1600710137749
 30
0.0
 10
76.57592996247974
 20
-91.96110598357867
 30
0.0
 10
76.59145240539951
 20
-91.76672454526599
 30
0.0
 10
76.59145240539951
 20
-91.76672454526599
 30
0.0
 10
76.59145240539951
 20
-83.39142827253885
 30
0.0
 10
76.59145240539951
 20
-83.39142827253885
 30
0.0
 10
76.59145240539951
 20
-83.39142827253885
 30
0.0
 10
76.59145240539951
 20
-82.74690204538471
 30
0.0
 10
76.59145240539951
 20
-82.74690204538471
 30
0.0
 10
76.59145240539951
 20
-82.64600919432183
 30
0.0
 10
76.56640481175918
 20
-82.52394784639124
 30
0.0
 10
76.56640481175918
 20
-82.52394784639124
 30
0.0
 10
76.56640481175918
 20
-82.52394784639124
 30
0.0
 10
76.41788553422369
 20
-82.17716668803067
 30
0.0
 10
76.41788553422369
 20
-82.17716668803067
 30
0.0
 10
76.50396312895924
 20
-82.12213397913465
 30
0.0
 10
76.56393537808128
 20
-82.04134649000554
 30
0.0
 10
76.59145240539951
 20
-81.92916287678626
 30
0.0
 10
76.59145240539951
 20
-81.92916287678626
 30
0.0
 10
76.59145240539951
 20
-80.22207230867055
 30
0.0
 10
76.59145240539951
 20
-80.22207230867055
 30
0.0
  0
LWPOLYLINE
  5
D3
330
70
100
AcDbEntity
  8
Camada 1
 62
   250
420
  1907995
370
     9
100
AcDbPolyline
 90
        3
 70
     0
 43
0.0
 10
74.08849364205497
 20
-99.89472486621169
 10
74.08849364205497
 20
-100.8362883026967
 10
74.33614386000302
 20
-100.8362883026967
  0
LWPOLYLINE
  5
D4
330
70
100
AcDbEntity
  8
Camada 1
 62
   250
420
  1907995
370
     9
100
AcDbPolyline
 90
        3
 70
     0
 43
0.0
 10
76.046057455093
 20
-100.8362883026967
 10
76.29406059346689
 20
-100.8362883026967
 10
76.29406059346689
 20
-99.89472486621169
  0
LWPOLYLINE
  5
D5
330
70
100
AcDbEntity
  8
Camada 1
 62
   250
420
  1907995
370
     9
100
AcDbPolyline
 90
        3
 70
     0
 43
0.0
 10
74.23736617645175
 20
-100.8362883026967
 10
74.23736617645175
 20
-102.0008072839153
 10
74.33614386000302
 20
-102.0008072839153
  0
LWPOLYLINE
  5
D6
330
70
100
AcDbEntity
  8
Camada 1
 62
   250
420
  1907995
370
     9
100
AcDbPolyline
 90
        3
 70
     0
 43
0.0
 10
76.046057455093
 20
-102.0008072839153
 10
76.12049372229172
 20
-102.0008072839153
 10
76.12049372229172
 20
-100.8362883026967
  0
LWPOLYLINE
  5
D7
330
70
100
AcDbEntity
  8
Camada 1
 62
   250
420
  1907995
370
     9
100
AcDbPolyline
 90
       20
 70
     0
 43
0.0
 10
89.6502267992431
 20
-102.2981984229774
 10
94.73022599052885
 20
-102.2981984229774
 10
94.77961466408755
 20
-102.2981984229774
 10
94.82900333764499
 20
-102.2981984229774
 10
94.8540502584151
 20
-102.2735040861983
 10
94.90343893197318
 20
-102.2488097494193
 10
94.92813326875221
 20
-102.1990684918702
 10
94.95318018952231
 20
-102.1496798183121
 10
94.97787452630134
 20
-102.1246315518016
 10
94.97787452630134
 20
-102.0752428782435
 10
94.97787452630134
 20
-90.82516110878128
 10
94.97787452630134
 20
-90.7757724352232
 10
94.95318018952231
 20
-90.75107809844448
 10
94.92813326875221
 20
-90.70133684089533
 10
94.90343893197318
 20
-90.67664250411597
 10
94.8540502584151
 20
-90.62690124656683
 10
94.82900333764499
 20
-90.62690124656683
 10
94.77961466408755
 20
-90.60220421830727
 10
94.73022599052885
 20
-90.60220421830727
 10
76.59744902472851
 20
-90.60220421830727
  0
SPLINE
  5
D8
330
70
100
AcDbEntity
  8
Camada 1
 62
   250
420
  1907995
370
     9
100
AcDbSpline
210
0.0
220
0.0
230
1.0
 70
     8
 71
     3
 72
    62
 73
    58
 74
     0
 42
0.0000000001
 43
0.0000000001
 40
0.0
 40
0.0
 40
0.0
 40
0.0
 40
1.0
 40
1.0
 40
1.0
 40
2.0
 40
2.0
 40
2.0
 40
3.0
 40
3.0
 40
3.0
 40
4.0
 40
4.0
 40
4.0
 40
5.0
 40
5.0
 40
5.0
 40
6.0
 40
6.0
 40
6.0
 40
7.0
 40
7.0
 40
7.0
 40
8.0
 40
8.0
 40
8.0
 40
9.0
 40
9.0
 40
9.0
 40
10.0
 40
10.0
 40
10.0
 40
11.0
 40
11.0
 40
11.0
 40
12.0
 40
12.0
 40
12.0
 40
13.0
 40
13.0
 40
13.0
 40
14.0
 40
14.0
 40
14.0
 40
15.0
 40
15.0
 40
15.0
 40
16.0
 40
16.0
 40
16.0
 40
17.0
 40
17.0
 40
17.0
 40
18.0
 40
18.0
 40
18.0
 40
19.0
 40
19.0
 40
19.0
 40
19.0
 10
73.76640782977844
 20
-90.60220421830727
 30
0.0
 10
73.76640782977844
 20
-90.60220421830727
 30
0.0
 10
69.48862435486671
 20
-90.58915322767603
 30
0.0
 10
69.45475778779298
 20
-90.60220421830727
 30
0.0
 10
69.45475778779298
 20
-90.60220421830727
 30
0.0
 10
69.40501619380873
 20
-90.60220421830727
 30
0.0
 10
69.40501619380873
 20
-90.60220421830727
 30
0.0
 10
69.40501619380873
 20
-90.60220421830727
 30
0.0
 10
69.35562718381556
 20
-90.62690124656683
 30
0.0
 10
69.35562718381556
 20
-90.62690124656683
 30
0.0
 10
69.35562718381556
 20
-90.62690124656683
 30
0.0
 10
69.33093284703652
 20
-90.62690124656683
 30
0.0
 10
69.33093284703652
 20
-90.62690124656683
 30
0.0
 10
69.33093284703652
 20
-90.62690124656683
 30
0.0
 10
69.28119125305194
 20
-90.67664250411597
 30
0.0
 10
69.28119125305194
 20
-90.67664250411597
 30
0.0
 10
69.28119125305194
 20
-90.67664250411597
 30
0.0
 10
69.25649657983813
 20
-90.70133684089533
 30
0.0
 10
69.25649657983813
 20
-90.70133684089533
 30
0.0
 10
69.25649657983813
 20
-90.70133684089533
 30
0.0
 10
69.23180224305909
 20
-90.75107809844448
 30
0.0
 10
69.23180224305909
 20
-90.75107809844448
 30
0.0
 10
69.23180224305909
 20
-90.75107809844448
 30
0.0
 10
69.20675498585388
 20
-90.7757724352232
 30
0.0
 10
69.20675498585388
 20
-90.7757724352232
 30
0.0
 10
69.20675498585388
 20
-90.7757724352232
 30
0.0
 10
69.20675498585388
 20
-90.82516110878128
 30
0.0
 10
69.20675498585388
 20
-90.82516110878128
 30
0.0
 10
69.20675498585388
 20
-90.82516110878128
 30
0.0
 10
69.20675498585388
 20
-102.0752428782435
 30
0.0
 10
69.20675498585388
 20
-102.0752428782435
 30
0.0
 10
69.20675498585388
 20
-102.0752428782435
 30
0.0
 10
69.20675498585388
 20
-102.1246315518016
 30
0.0
 10
69.20675498585388
 20
-102.1246315518016
 30
0.0
 10
69.20675498585388
 20
-102.1246315518016
 30
0.0
 10
69.23180224305909
 20
-102.1496798183121
 30
0.0
 10
69.23180224305909
 20
-102.1496798183121
 30
0.0
 10
69.23180224305909
 20
-102.1496798183121
 30
0.0
 10
69.25649657983813
 20
-102.1990684918702
 30
0.0
 10
69.25649657983813
 20
-102.1990684918702
 30
0.0
 10
69.25649657983813
 20
-102.1990684918702
 30
0.0
 10
69.28119125305194
 20
-102.2488097494193
 30
0.0
 10
69.28119125305194
 20
-102.2488097494193
 30
0.0
 10
69.28119125305194
 20
-102.2488097494193
 30
0.0
 10
69.33093284703652
 20
-102.2735040861983
 30
0.0
 10
69.33093284703652
 20
-102.2735040861983
 30
0.0
 10
69.33093284703652
 20
-102.2735040861983
 30
0.0
 10
69.35562718381556
 20
-102.2981984229774
 30
0.0
 10
69.35562718381556
 20
-102.2981984229774
 30
0.0
 10
69.35562718381556
 20
-102.2981984229774
 30
0.0
 10
69.40501619380873
 20
-102.2981984229774
 30
0.0
 10
69.40501619380873
 20
-102.2981984229774
 30
0.0
 10
69.40501619380873
 20
-102.2981984229774
 30
0.0
 10
69.45475778779298
 20
-102.2981984229774
 30
0.0
 10
69.45475778779298
 20
-102.2981984229774
 30
0.0
 10
69.45475778779298
 20
-102.2981984229774
 30
0.0
 10
74.33614386000302
 20
-102.2981984229774
 30
0.0
 10
74.33614386000302
 20
-102.2981984229774
 30
0.0
  0
ENDSEC
  0
SECTION
  2
OBJECTS
  0
DICTIONARY
  5
C
330
0
100
AcDbDictionary
281
     1
  3
ACAD_COLOR
350
63
  3
ACAD_DETAILVIEWSTYLE
350
6A
  3
ACAD_GROUP
350
D
  3
ACAD_LAYOUT
350
62
  3
ACAD_MATERIAL
350
10
  3
ACAD_MLEADERSTYLE
350
66
  3
ACAD_MLINESTYLE
350
5F
  3
ACAD_PLOTSETTINGS
350
61
  3
ACAD_PLOTSTYLENAME
350
E
  3
ACAD_SCALELIST
350
42
  3
ACAD_SECTIONVIEWSTYLE
350
68
  3
ACAD_TABLESTYLE
350
64
  3
ACAD_VISUALSTYLE
350
29
  3
ACDB_RECOMPOSE_DATA
350
E1
  3
AcDbVariableDictionary
350
D9
  0
DICTIONARY
  5
63
102
{ACAD_REACTORS
330
C
102
}
330
C
100
AcDbDictionary
281
     1
  0
DICTIONARY
  5
6A
102
{ACAD_REACTORS
330
C
102
}
330
C
100
AcDbDictionary
281
     1
  3
Imperial24
350
6B
  0
DICTIONARY
  5
D
102
{ACAD_REACTORS
330
C
102
}
330
C
100
AcDbDictionary
281
     1
  0
DICTIONARY
  5
62
102
{ACAD_REACTORS
330
C
102
}
330
C
100
AcDbDictionary
281
     1
  3
Layout1
350
6F
  3
Layout2
350
77
  3
Model
350
73
  0
DICTIONARY
  5
10
102
{ACAD_REACTORS
330
C
102
}
330
C
100
AcDbDictionary
281
     1
  3
ByBlock
350
19
  3
ByLayer
350
11
  3
Global
350
21
  0
DICTIONARY
  5
66
102
{ACAD_REACTORS
330
C
102
}
330
C
100
AcDbDictionary
281
     1
  3
Standard
350
67
  0
DICTIONARY
  5
5F
102
{ACAD_REACTORS
330
C
102
}
330
C
100
AcDbDictionary
281
     1
  3
Standard
350
60
  0
DICTIONARY
  5
61
102
{ACAD_REACTORS
330
C
102
}
330
C
100
AcDbDictionary
281
     1
  0
ACDBDICTIONARYWDFLT
  5
E
102
{ACAD_REACTORS
330
C
102
}
330
C
100
AcDbDictionary
281
     1
  3
Normal
350
F
100
AcDbDictionaryWithDefault
340
F
  0
DICTIONARY
  5
42
102
{ACAD_REACTORS
330
C
102
}
330
C
100
AcDbDictionary
281
     1
  3
A0
350
43
  3
A1
350
44
  3
A2
350
45
  3
A3
350
46
  3
A4
350
47
  3
A5
350
48
  3
A6
350
49
  3
A7
350
4A
  3
A8
350
4B
  3
A9
350
4C
  3
B0
350
4D
  3
B1
350
4E
  3
B2
350
4F
  3
B3
350
50
  3
B4
350
51
  3
B5
350
52
  3
B6
350
53
  0
DICTIONARY
  5
68
102
{ACAD_REACTORS
330
C
102
}
330
C
100
AcDbDictionary
281
     1
  3
Imperial24
350
69
  0
DICTIONARY
  5
64
102
{ACAD_REACTORS
330
C
102
}
330
C
100
AcDbDictionary
281
     1
  3
Standard
350
65
  0
DICTIONARY
  5
29
102
{ACAD_REACTORS
330
C
102
}
330
C
100
AcDbDictionary
281
     1
  3
2dWireframe
350
2F
  3
Basic
350
2E
  3
Brighten
350
35
  3
ColorChange
350
39
  3
Conceptual
350
32
  3
Dim
350
34
  3
EdgeColorOff
350
41
  3
Facepattern
350
38
  3
Flat
350
2A
  3
FlatWithEdges
350
2B
  3
Gouraud
350
2C
  3
GouraudWithEdges
350
2D
  3
Hidden
350
31
  3
JitterOff
350
3F
  3
Linepattern
350
37
  3
OverhangOff
350
40
  3
Realistic
350
33
  3
Shaded
350
3E
  3
Shaded with edges
350
3D
  3
Shades of Gray
350
3A
  3
Sketchy
350
3B
  3
Thicken
350
36
  3
Wireframe
350
30
  3
X-Ray
350
3C
  0
XRECORD
  5
E1
102
{ACAD_REACTORS
330
C
102
}
330
C
100
AcDbXrecord
280
     1
 90
        1
330
65
  0
DICTIONARY
  5
D9
102
{ACAD_REACTORS
330
C
102
}
330
C
100
AcDbDictionary
281
     1
  3
CANNOSCALE
350
DE
  3
CMLEADERSTYLE
350
DB
  3
CTABLESTYLE
350
DA
  3
CVIEWDETAILSTYLE
350
DC
  3
CVIEWSECTIONSTYLE
350
DD
  0
ACDBDETAILVIEWSTYLE
  5
6B
102
{ACAD_REACTORS
330
6A
102
}
330
6A
100
AcDbModelDocViewStyle
 70
     0
  3
Imperial24
290
     1
300
Imperial24
 90
        0
100
AcDbDetailViewStyle
 70
     0
 71
     0
 90
        3
 71
     1
340
55
 62
   256
 40
0.24
340
0
 62
   256
 40
0.24
300

 40
0.36
280
     3
 71
     2
340
5D
 90
       25
 62
   256
 71
     3
340
55
 62
   256
 40
0.24
 90
        1
 40
0.75
 90
        1
300
%<\AcVar ViewType \f "%tc1">% %<\AcVar ViewDetailId>%\PSCALE %<\AcVar ViewScale \f "%sn">%
 71
     4
340
5D
 90
       25
 62
   256
340
5D
 90
       25
 62
   256
280
     0
  0
LAYOUT
  5
6F
102
{ACAD_REACTORS
330
62
102
}
330
62
100
AcDbPlotSettings
  1

  2

  4

  6

 40
0.0
 41
0.0
 42
0.0
 43
0.0
 44
0.0
 45
0.0
 46
0.0
 47
0.0
 48
0.0
 49
0.0
140
0.0
141
0.0
142
1.0
143
1.0
 70
   688
 72
     0
 73
     0
 74
     5
  7

 75
    16
147
1.0
 76
     0
 77
     2
 78
   300
148
0.0
149
0.0
100
AcDbLayout
  1
Layout1
 70
     1
 71
     1
 10
0.0
 20
0.0
 11
12.0
 21
9.0
 12
0.0
 22
0.0
 32
0.0
 14
0.0
 24
0.0
 34
0.0
 15
0.0
 25
0.0
 35
0.0
146
0.0
 13
0.0
 23
0.0
 33
0.0
 16
1.0
 26
0.0
 36
0.0
 17
0.0
 27
1.0
 37
0.0
 76
     0
330
6C
  0
LAYOUT
  5
77
102
{ACAD_REACTORS
330
62
102
}
330
62
100
AcDbPlotSettings
  1

  2

  4

  6

 40
0.0
 41
0.0
 42
0.0
 43
0.0
 44
0.0
 45
0.0
 46
0.0
 47
0.0
 48
0.0
 49
0.0
140
0.0
141
0.0
142
1.0
143
1.0
 70
   688
 72
     0
 73
     0
 74
     5
  7

 75
    16
147
1.0
 76
     0
 77
     2
 78
   300
148
0.0
149
0.0
100
AcDbLayout
  1
Layout2
 70
     1
 71
     2
 10
0.0
 20
0.0
 11
12.0
 21
9.0
 12
0.0
 22
0.0
 32
0.0
 14
0.0
 24
0.0
 34
0.0
 15
0.0
 25
0.0
 35
0.0
146
0.0
 13
0.0
 23
0.0
 33
0.0
 16
1.0
 26
0.0
 36
0.0
 17
0.0
 27
1.0
 37
0.0
 76
     0
330
74
  0
LAYOUT
  5
73
102
{ACAD_REACTORS
330
62
102
}
330
62
100
AcDbPlotSettings
  1

  2

  4

  6

 40
0.0
 41
0.0
 42
0.0
 43
0.0
 44
0.0
 45
0.0
 46
0.0
 47
0.0
 48
0.0
 49
0.0
140
0.0
141
0.0
142
1.0
143
1.0
 70
  1712
 72
     0
 73
     0
 74
     0
  7

 75
     0
147
1.0
 76
     0
 77
     2
 78
   300
148
0.0
149
0.0
100
AcDbLayout
  1
Model
 70
     1
 71
     0
 10
0.0
 20
0.0
 11
12.0
 21
9.0
 12
0.0
 22
0.0
 32
0.0
 14
0.0
 24
0.0
 34
0.0
 15
0.0
 25
0.0
 35
0.0
146
0.0
 13
0.0
 23
0.0
 33
0.0
 16
1.0
 26
0.0
 36
0.0
 17
0.0
 27
1.0
 37
0.0
 76
     0
330
70
  0
MATERIAL
  5
19
102
{ACAD_XDICTIONARY
360
1A
102
}
102
{ACAD_REACTORS
330
10
102
}
330
10
100
AcDbMaterial
  1
ByBlock
 72
     0
 43
0.0208333333333333
 43
0.0
 43
0.0
 43
0.0
 43
0.0
 43
0.0208333333333333
 43
0.0
 43
0.0
 43
0.0
 43
0.0
 43
1.0
 43
0.0
 43
0.0
 43
0.0
 43
0.0
 43
1.0
 77
     0
 47
0.0208333333333333
 47
0.0
 47
0.0
 47
0.0
 47
0.0
 47
0.0208333333333333
 47
0.0
 47
0.0
 47
0.0
 47
0.0
 47
1.0
 47
0.0
 47
0.0
 47
0.0
 47
0.0
 47
1.0
171
     0
 49
0.0208333333333333
 49
0.0
 49
0.0
 49
0.0
 49
0.0
 49
0.0208333333333333
 49
0.0
 49
0.0
 49
0.0
 49
0.0
 49
1.0
 49
0.0
 49
0.0
 49
0.0
 49
0.0
 49
1.0
175
     0
142
0.0208333333333333
142
0.0
142
0.0
142
0.0
142
0.0
142
0.0208333333333333
142
0.0
142
0.0
142
0.0
142
0.0
142
1.0
142
0.0
142
0.0
142
0.0
142
0.0
142
1.0
179
     0
144
0.0208333333333333
144
0.0
144
0.0
144
0.0
144
0.0
144
0.0208333333333333
144
0.0
144
0.0
144
0.0
144
0.0
144
1.0
144
0.0
144
0.0
144
0.0
144
0.0
144
1.0
147
0.0208333333333333
147
0.0
147
0.0
147
0.0
147
0.0
147
0.0208333333333333
147
0.0
147
0.0
147
0.0
147
0.0
147
1.0
147
0.0
147
0.0
147
0.0
147
0.0
147
1.0
  0
MATERIAL
  5
11
102
{ACAD_XDICTIONARY
360
12
102
}
102
{ACAD_REACTORS
330
10
102
}
330
10
100
AcDbMaterial
  1
ByLayer
 72
     0
 43
0.0208333333333333
 43
0.0
 43
0.0
 43
0.0
 43
0.0
 43
0.0208333333333333
 43
0.0
 43
0.0
 43
0.0
 43
0.0
 43
1.0
 43
0.0
 43
0.0
 43
0.0
 43
0.0
 43
1.0
 77
     0
 47
0.0208333333333333
 47
0.0
 47
0.0
 47
0.0
 47
0.0
 47
0.0208333333333333
 47
0.0
 47
0.0
 47
0.0
 47
0.0
 47
1.0
 47
0.0
 47
0.0
 47
0.0
 47
0.0
 47
1.0
171
     0
 49
0.0208333333333333
 49
0.0
 49
0.0
 49
0.0
 49
0.0
 49
0.0208333333333333
 49
0.0
 49
0.0
 49
0.0
 49
0.0
 49
1.0
 49
0.0
 49
0.0
 49
0.0
 49
0.0
 49
1.0
175
     0
142
0.0208333333333333
142
0.0
142
0.0
142
0.0
142
0.0
142
0.0208333333333333
142
0.0
142
0.0
142
0.0
142
0.0
142
1.0
142
0.0
142
0.0
142
0.0
142
0.0
142
1.0
179
     0
144
0.0208333333333333
144
0.0
144
0.0
144
0.0
144
0.0
144
0.0208333333333333
144
0.0
144
0.0
144
0.0
144
0.0
144
1.0
144
0.0
144
0.0
144
0.0
144
0.0
144
1.0
147
0.0208333333333333
147
0.0
147
0.0
147
0.0
147
0.0
147
0.0208333333333333
147
0.0
147
0.0
147
0.0
147
0.0
147
1.0
147
0.0
147
0.0
147
0.0
147
0.0
147
1.0
  0
MATERIAL
  5
21
102
{ACAD_XDICTIONARY
360
22
102
}
102
{ACAD_REACTORS
330
10
102
}
330
10
100
AcDbMaterial
  1
Global
 72
     0
 43
0.0208333333333333
 43
0.0
 43
0.0
 43
0.0
 43
0.0
 43
0.0208333333333333
 43
0.0
 43
0.0
 43
0.0
 43
0.0
 43
1.0
 43
0.0
 43
0.0
 43
0.0
 43
0.0
 43
1.0
 77
     0
 47
0.0208333333333333
 47
0.0
 47
0.0
 47
0.0
 47
0.0
 47
0.0208333333333333
 47
0.0
 47
0.0
 47
0.0
 47
0.0
 47
1.0
 47
0.0
 47
0.0
 47
0.0
 47
0.0
 47
1.0
171
     0
 49
0.0208333333333333
 49
0.0
 49
0.0
 49
0.0
 49
0.0
 49
0.0208333333333333
 49
0.0
 49
0.0
 49
0.0
 49
0.0
 49
1.0
 49
0.0
 49
0.0
 49
0.0
 49
0.0
 49
1.0
175
     0
142
0.0208333333333333
142
0.0
142
0.0
142
0.0
142
0.0
142
0.0208333333333333
142
0.0
142
0.0
142
0.0
142
0.0
142
1.0
142
0.0
142
0.0
142
0.0
142
0.0
142
1.0
179
     0
144
0.0208333333333333
144
0.0
144
0.0
144
0.0
144
0.0
144
0.0208333333333333
144
0.0
144
0.0
144
0.0
144
0.0
144
1.0
144
0.0
144
0.0
144
0.0
144
0.0
144
1.0
147
0.0208333333333333
147
0.0
147
0.0
147
0.0
147
0.0
147
0.0208333333333333
147
0.0
147
0.0
147
0.0
147
0.0
147
1.0
147
0.0
147
0.0
147
0.0
147
0.0
147
1.0
  0
MLEADERSTYLE
  5
67
102
{ACAD_REACTORS
330
66
102
}
330
66
100
AcDbMLeaderStyle
179
     2
170
     2
171
     1
172
     0
 90
        2
 40
0.0
 41
0.0
173
     1
 91
-1056964608
340
5B
 92
       -2
290
     1
 42
0.09
291
     1
 43
0.36
  3
Standard
 44
0.18
300

342
55
174
     1
178
     6
175
     1
176
     0
 93
-1056964608
 45
0.18
292
     0
297
     0
 46
0.18
 94
-1056964608
 47
1.0
 49
1.0
140
1.0
293
     1
141
0.0
294
     1
177
     0
142
1.0
295
     1
296
     0
143
0.125
271
     0
272
     9
273
     9
298
     1
  0
MLINESTYLE
  5
60
102
{ACAD_REACTORS
330
5F
102
}
330
5F
100
AcDbMlineStyle
  2
STANDARD
 70
     0
  3

 62
   256
 51
90.0
 52
90.0
 71
     2
 49
0.5
 62
   256
  6
BYLAYER
 49
-0.5
 62
   256
  6
BYLAYER
  0
ACDBPLACEHOLDER
  5
F
102
{ACAD_REACTORS
330
E
102
}
330
E
  0
SCALE
  5
43
102
{ACAD_REACTORS
330
42
102
}
330
42
100
AcDbScale
 70
     0
300
1:1
140
1.0
141
1.0
290
     1
  0
SCALE
  5
44
102
{ACAD_REACTORS
330
42
102
}
330
42
100
AcDbScale
 70
     0
300
1/128" = 1'-0"
140
0.0078125
141
12.0
290
     0
  0
SCALE
  5
45
102
{ACAD_REACTORS
330
42
102
}
330
42
100
AcDbScale
 70
     0
300
1/64" = 1'-0"
140
0.015625
141
12.0
290
     0
  0
SCALE
  5
46
102
{ACAD_REACTORS
330
42
102
}
330
42
100
AcDbScale
 70
     0
300
1/32" = 1'-0"
140
0.03125
141
12.0
290
     0
  0
SCALE
  5
47
102
{ACAD_REACTORS
330
42
102
}
330
42
100
AcDbScale
 70
     0
300
1/16" = 1'-0"
140
0.0625
141
12.0
290
     0
  0
SCALE
  5
48
102
{ACAD_REACTORS
330
42
102
}
330
42
100
AcDbScale
 70
     0
300
3/32" = 1'-0"
140
0.09375
141
12.0
290
     0
  0
SCALE
  5
49
102
{ACAD_REACTORS
330
42
102
}
330
42
100
AcDbScale
 70
     0
300
1/8" = 1'-0"
140
0.125
141
12.0
290
     0
  0
SCALE
  5
4A
102
{ACAD_REACTORS
330
42
102
}
330
42
100
AcDbScale
 70
     0
300
3/16" = 1'-0"
140
0.1875
141
12.0
290
     0
  0
SCALE
  5
4B
102
{ACAD_REACTORS
330
42
102
}
330
42
100
AcDbScale
 70
     0
300
1/4" = 1'-0"
140
0.25
141
12.0
290
     0
  0
SCALE
  5
4C
102
{ACAD_REACTORS
330
42
102
}
330
42
100
AcDbScale
 70
     0
300
3/8" = 1'-0"
140
0.375
141
12.0
290
     0
  0
SCALE
  5
4D
102
{ACAD_REACTORS
330
42
102
}
330
42
100
AcDbScale
 70
     0
300
1/2" = 1'-0"
140
0.5
141
12.0
290
     0
  0
SCALE
  5
4E
102
{ACAD_REACTORS
330
42
102
}
330
42
100
AcDbScale
 70
     0
300
3/4" = 1'-0"
140
0.75
141
12.0
290
     0
  0
SCALE
  5
4F
102
{ACAD_REACTORS
330
42
102
}
330
42
100
AcDbScale
 70
     0
300
1" = 1'-0"
140
1.0
141
12.0
290
     0
  0
SCALE
  5
50
102
{ACAD_REACTORS
330
42
102
}
330
42
100
AcDbScale
 70
     0
300
1-1/2" = 1'-0"
140
1.5
141
12.0
290
     0
  0
SCALE
  5
51
102
{ACAD_REACTORS
330
42
102
}
330
42
100
AcDbScale
 70
     0
300
3" = 1'-0"
140
3.0
141
12.0
290
     0
  0
SCALE
  5
52
102
{ACAD_REACTORS
330
42
102
}
330
42
100
AcDbScale
 70
     0
300
6" = 1'-0"
140
6.0
141
12.0
290
     0
  0
SCALE
  5
53
102
{ACAD_REACTORS
330
42
102
}
330
42
100
AcDbScale
 70
     0
300
1'-0" = 1'-0"
140
12.0
141
12.0
290
     0
  0
ACDBSECTIONVIEWSTYLE
  5
69
102
{ACAD_REACTORS
330
68
102
}
330
68
100
AcDbModelDocViewStyle
 70
     0
  3
Imperial24
290
     1
300
Imperial24
 90
        0
100
AcDbSectionViewStyle
 70
     0
 71
     0
 90
       78
 71
     1
340
55
 62
   256
 40
0.24
340
0
340
0
 62
   256
 40
0.24
300
I, O, Q, S, X, Z
 40
0.48
 90
        3
 40
0.18
 90
        1
 71
     2
340
5D
 90
       25
 62
   256
340
5D
 90
       50
 62
   256
 40
0.24
 40
0.0
 40
0.24
 71
     3
340
55
 62
   256
 40
0.24
 90
        1
 40
0.75
 90
        1
300
%<\AcVar ViewType \f "%tc1">% %<\AcVar ViewSectionStartId>%-%<\AcVar ViewSectionEndId>%\PSCALE %<\AcVar ViewScale \f "%sn">%
 71
     4
 62
   256
 62
   257
300
ANSI31
 40
1.0
 90
        0
290
     0
290
     0
 90
        6
 40
0.0
 40
1.570796326794896
 40
0.2617993877991494
 40
1.308996938995747
 40
-0.2617993877991494
 40
1.832595714594046
  0
TABLESTYLE
  5
65
102
{ACAD_XDICTIONARY
360
DF
102
}
102
{ACAD_REACTORS
330
64
102
}
330
64
100
AcDbTableStyle
280
     0
  3
Standard
 70
     0
 71
     0
 40
0.06
 41
0.06
280
     0
281
     0
  7
Standard
140
0.18
170
     2
 62
     0
 63
     7
283
     0
 90
      512
 91
        0
  1

274
    -2
284
     1
 64
     0
275
    -2
285
     1
 65
     0
276
    -2
286
     1
 66
     0
277
    -2
287
     1
 67
     0
278
    -2
288
     1
 68
     0
279
    -2
289
     1
 69
     0
  7
Standard
140
0.25
170
     5
 62
     0
 63
     7
283
     0
 90
      512
 91
        0
  1

274
    -2
284
     1
 64
     0
275
    -2
285
     1
 65
     0
276
    -2
286
     1
 66
     0
277
    -2
287
     1
 67
     0
278
    -2
288
     1
 68
     0
279
    -2
289
     1
 69
     0
  7
Standard
140
0.18
170
     5
 62
     0
 63
     7
283
     0
 90
      512
 91
        0
  1

274
    -2
284
     1
 64
     0
275
    -2
285
     1
 65
     0
276
    -2
286
     1
 66
     0
277
    -2
287
     1
 67
     0
278
    -2
288
     1
 68
     0
279
    -2
289
     1
 69
     0
  0
VISUALSTYLE
  5
2F
102
{ACAD_REACTORS
330
29
102
}
330
29
100
AcDbVisualStyle
  2
2dWireframe
 70
     4
177
     3
291
     0
 70
    58
 90
        0
176
     1
 90
        2
176
     1
 90
        0
176
     1
 90
        0
176
     1
 40
0.6
176
     1
 40
30.0
176
     1
 62
     7
420
 16777215
176
     1
 90
        1
176
     1
 90
        4
176
     1
 62
     7
176
     1
 62
   257
176
     1
 90
        1
176
     1
 90
        1
176
     1
 40
1.0
176
     1
 90
        0
176
     1
 62
   257
176
     1
 40
1.0
176
     1
 90
        1
176
     1
 90
        6
176
     1
 90
        2
176
     1
 62
     7
176
     1
 90
        5
176
     1
 90
        0
176
     1
 90
        0
176
     1
290
     0
176
     1
 90
        1
176
     1
 40
0.0
176
     1
 90
        0
176
     1
290
     1
176
     1
290
     1
176
     1
290
     0
176
     1
290
     0
176
     1
290
     0
176
     1
290
     0
176
     1
290
     0
176
     1
290
     0
176
     1
290
     0
176
     1
 90
       50
176
     1
 40
0.0
176
     1
 40
1.0
176
     1
 90
        0
176
     1
 62
    18
420
        0
176
     1
 90
       50
176
     1
 90
        3
176
     1
 62
     5
420
      255
176
     1
290
     0
176
     1
 90
       50
176
     1
 90
       50
176
     1
 90
       50
176
     1
290
     0
176
     1
 90
       50
176
     1
 62
   256
176
     0
 40
1.0
176
     0
 90
        2
176
     1
  1
strokes_ogs.tif
176
     1
290
     0
176
     1
 40
1.0
176
     1
 40
1.0
176
     1
  0
VISUALSTYLE
  5
2E
102
{ACAD_REACTORS
330
29
102
}
330
29
100
AcDbVisualStyle
  2
Basic
 70
     7
177
     3
291
     1
 70
    58
 90
        1
176
     1
 90
        0
176
     1
 90
        1
176
     1
 90
        0
176
     1
 40
0.6
176
     1
 40
30.0
176
     1
 62
     7
420
 16777215
176
     1
 90
        0
176
     1
 90
        4
176
     1
 62
     7
176
     1
 62
   257
176
     1
 90
        1
176
     1
 90
        1
176
     1
 40
1.0
176
     1
 90
        8
176
     1
 62
     7
176
     1
 40
1.0
176
     1
 90
        1
176
     1
 90
        6
176
     1
 90
        2
176
     1
 62
     7
176
     1
 90
        5
176
     1
 90
        0
176
     1
 90
        0
176
     1
290
     0
176
     1
 90
        1
176
     1
 40
0.0
176
     1
 90
        0
176
     1
290
     0
176
     1
290
     1
176
     1
290
     1
176
     1
290
     0
176
     1
290
     0
176
     1
290
     0
176
     1
290
     0
176
     1
290
     0
176
     1
290
     0
176
     1
 90
       50
176
     1
 40
0.0
176
     1
 40
1.0
176
     1
 90
        0
176
     1
 62
    18
420
        0
176
     1
 90
       50
176
     1
 90
        3
176
     1
 62
     5
420
      255
176
     1
290
     0
176
     1
 90
       50
176
     1
 90
       50
176
     1
 90
       50
176
     1
290
     0
176
     1
 90
       50
176
     1
 62
   256
176
     0
 40
1.0
176
     0
 90
        2
176
     1
  1
strokes_ogs.tif
176
     1
290
     0
176
     1
 40
1.0
176
     1
 40
1.0
176
     1
  0
VISUALSTYLE
  5
35
102
{ACAD_REACTORS
330
29
102
}
330
29
100
AcDbVisualStyle
  2
Brighten
 70
    12
177
     3
291
     1
 70
    58
 90
        2
176
     1
 90
        2
176
     1
 90
        0
176
     1
 90
        0
176
     1
 40
0.6
176
     1
 40
30.0
176
     1
 62
     7
420
 16777215
176
     1
 90
        1
176
     1
 90
        4
176
     1
 62
     7
176
     1
 62
   257
176
     1
 90
        1
176
     1
 90
        1
176
     1
 40
1.0
176
     1
 90
        8
176
     1
 62
     7
176
     1
 40
1.0
176
     1
 90
        1
176
     1
 90
        6
176
     1
 90
        2
176
     1
 62
     7
176
     1
 90
        5
176
     1
 90
        0
176
     1
 90
        0
176
     1
290
     0
176
     1
 90
        1
176
     1
 40
50.0
176
     1
 90
        0
176
     1
290
     0
176
     1
290
     1
176
     1
290
     1
176
     1
290
     0
176
     1
290
     0
176
     1
290
     0
176
     1
290
     0
176
     1
290
     0
176
     1
290
     0
176
     1
 90
       50
176
     1
 40
0.0
176
     1
 40
1.0
176
     1
 90
        0
176
     1
 62
    18
420
        0
176
     1
 90
       50
176
     1
 90
        3
176
     1
 62
     5
420
      255
176
     1
290
     0
176
     1
 90
       50
176
     1
 90
       50
176
     1
 90
       50
176
     1
290
     0
176
     1
 90
       50
176
     1
 62
   256
176
     0
 40
1.0
176
     0
 90
        2
176
     1
  1
strokes_ogs.tif
176
     1
290
     0
176
     1
 40
1.0
176
     1
 40
1.0
176
     1
  0
VISUALSTYLE
  5
39
102
{ACAD_REACTORS
330
29
102
}
330
29
100
AcDbVisualStyle
  2
ColorChange
 70
    16
177
     3
291
     1
 70
    58
 90
        2
176
     1
 90
        2
176
     1
 90
        3
176
     1
 90
        0
176
     1
 40
0.6
176
     1
 40
30.0
176
     1
 62
     8
420
  8421504
176
     1
 90
        1
176
     1
 90
        4
176
     1
 62
     7
176
     1
 62
   257
176
     1
 90
        1
176
     1
 90
        1
176
     1
 40
1.0
176
     1
 90
        8
176
     1
 62
     8
420
  8421504
176
     1
 40
1.0
176
     1
 90
        1
176
     1
 90
        6
176
     1
 90
        2
176
     1
 62
     7
176
     1
 90
        5
176
     1
 90
        0
176
     1
 90
        0
176
     1
290
     0
176
     1
 90
        1
176
     1
 40
0.0
176
     1
 90
        0
176
     1
290
     0
176
     1
290
     1
176
     1
290
     1
176
     1
290
     0
176
     1
290
     0
176
     1
290
     0
176
     1
290
     0
176
     1
290
     0
176
     1
290
     0
176
     1
 90
       50
176
     1
 40
0.0
176
     1
 40
1.0
176
     1
 90
        0
176
     1
 62
    18
420
        0
176
     1
 90
       50
176
     1
 90
        3
176
     1
 62
     5
420
      255
176
     1
290
     0
176
     1
 90
       50
176
     1
 90
       50
176
     1
 90
       50
176
     1
290
     0
176
     1
 90
       50
176
     1
 62
   256
176
     0
 40
1.0
176
     0
 90
        2
176
     1
  1
strokes_ogs.tif
176
     1
290
     0
176
     1
 40
1.0
176
     1
 40
1.0
176
     1
  0
VISUALSTYLE
  5
32
102
{ACAD_REACTORS
330
29
102
}
330
29
100
AcDbVisualStyle
  2
Conceptual
 70
     9
177
     3
291
     0
 70
    58
 90
        3
176
     1
 90
        2
176
     1
 90
        0
176
     1
 90
        0
176
     1
 40
0.6
176
     1
 40
30.0
176
     1
 62
     7
420
 16777215
176
     1
 90
        2
176
     1
 90
        2
176
     1
 62
     7
176
     1
 62
   257
176
     1
 90
        1
176
     1
 90
        1
176
     1
 40
179.0
176
     1
 90
        8
176
     1
 62
     7
176
     1
 40
1.0
176
     1
 90
        1
176
     1
 90
        6
176
     1
 90
        2
176
     1
 62
     7
176
     1
 90
        3
176
     1
 90
        0
176
     1
 90
        0
176
     1
290
     0
176
     1
 90
        1
176
     1
 40
0.0
176
     1
 90
        0
176
     1
290
     0
176
     1
290
     1
176
     1
290
     1
176
     1
290
     0
176
     1
290
     0
176
     1
290
     0
176
     1
290
     0
176
     1
290
     0
176
     1
290
     0
176
     1
 90
       50
176
     1
 40
0.0
176
     1
 40
1.0
176
     1
 90
        0
176
     1
 62
    18
420
        0
176
     1
 90
       50
176
     1
 90
        3
176
     1
 62
     5
420
      255
176
     1
290
     0
176
     1
 90
       50
176
     1
 90
       50
176
     1
 90
       50
176
     1
290
     0
176
     1
 90
       50
176
     1
 62
   256
176
     0
 40
1.0
176
     0
 90
        2
176
     1
  1
strokes_ogs.tif
176
     1
290
     0
176
     1
 40
1.0
176
     1
 40
1.0
176
     1
  0
VISUALSTYLE
  5
34
102
{ACAD_REACTORS
330
29
102
}
330
29
100
AcDbVisualStyle
  2
Dim
 70
    11
177
     3
291
     1
 70
    58
 90
        2
176
     1
 90
        2
176
     1
 90
        0
176
     1
 90
        0
176
     1
 40
0.6
176
     1
 40
30.0
176
     1
 62
     7
420
 16777215
176
     1
 90
        1
176
     1
 90
        4
176
     1
 62
     7
176
     1
 62
   257
176
     1
 90
        1
176
     1
 90
        1
176
     1
 40
1.0
176
     1
 90
        8
176
     1
 62
     7
176
     1
 40
1.0
176
     1
 90
        1
176
     1
 90
        6
176
     1
 90
        2
176
     1
 62
     7
176
     1
 90
        5
176
     1
 90
        0
176
     1
 90
        0
176
     1
290
     0
176
     1
 90
        1
176
     1
 40
-50.0
176
     1
 90
        0
176
     1
290
     0
176
     1
290
     1
176
     1
290
     1
176
     1
290
     0
176
     1
290
     0
176
     1
290
     0
176
     1
290
     0
176
     1
290
     0
176
     1
290
     0
176
     1
 90
       50
176
     1
 40
0.0
176
     1
 40
1.0
176
     1
 90
        0
176
     1
 62
    18
420
        0
176
     1
 90
       50
176
     1
 90
        3
176
     1
 62
     5
420
      255
176
     1
290
     0
176
     1
 90
       50
176
     1
 90
       50
176
     1
 90
       50
176
     1
290
     0
176
     1
 90
       50
176
     1
 62
   256
176
     0
 40
1.0
176
     0
 90
        2
176
     1
  1
strokes_ogs.tif
176
     1
290
     0
176
     1
 40
1.0
176
     1
 40
1.0
176
     1
  0
VISUALSTYLE
  5
41
102
{ACAD_REACTORS
330
29
102
}
330
29
100
AcDbVisualStyle
  2
EdgeColorOff
 70
    22
177
     3
291
     1
 70
    58
 90
        2
176
     0
 90
        2
176
     0
 90
        0
176
     0
 90
        0
176
     0
 40
0.6
176
     0
 40
30.0
176
     0
 62
     7
420
 16777215
176
     0
 90
        1
176
     0
 90
        4
176
     0
 62
     7
176
     0
 62
   257
176
     0
 90
        1
176
     0
 90
        1
176
     0
 40
1.0
176
     0
 90
        8
176
     2
 62
     7
176
     0
 40
1.0
176
     0
 90
        1
176
     0
 90
        6
176
     0
 90
        2
176
     0
 62
     7
176
     0
 90
        5
176
     0
 90
        0
176
     0
 90
        0
176
     0
290
     0
176
     0
 90
        1
176
     0
 40
0.0
176
     0
 90
        0
176
     0
290
     0
176
     0
290
     1
176
     0
290
     1
176
     0
290
     0
176
     0
290
     0
176
     0
290
     0
176
     0
290
     0
176
     0
290
     0
176
     0
290
     0
176
     0
 90
       50
176
     0
 40
0.0
176
     0
 40
1.0
176
     0
 90
        0
176
     0
 62
    18
420
        0
176
     0
 90
       50
176
     0
 90
        3
176
     0
 62
     5
420
      255
176
     0
290
     0
176
     0
 90
       50
176
     0
 90
       50
176
     0
 90
       50
176
     0
290
     0
176
     0
 90
       50
176
     0
 62
   256
176
     0
 40
1.0
176
     0
 90
        2
176
     0
  1
strokes_ogs.tif
176
     0
290
     0
176
     0
 40
1.0
176
     0
 40
1.0
176
     0
  0
VISUALSTYLE
  5
38
102
{ACAD_REACTORS
330
29
102
}
330
29
100
AcDbVisualStyle
  2
Facepattern
 70
    15
177
     3
291
     1
 70
    58
 90
        2
176
     1
 90
        2
176
     1
 90
        0
176
     1
 90
        0
176
     1
 40
0.6
176
     1
 40
30.0
176
     1
 62
     7
420
 16777215
176
     1
 90
        1
176
     1
 90
        4
176
     1
 62
     7
176
     1
 62
   257
176
     1
 90
        1
176
     1
 90
        1
176
     1
 40
1.0
176
     1
 90
        8
176
     1
 62
     7
176
     1
 40
1.0
176
     1
 90
        1
176
     1
 90
        6
176
     1
 90
        2
176
     1
 62
     7
176
     1
 90
        5
176
     1
 90
        0
176
     1
 90
        0
176
     1
290
     0
176
     1
 90
        1
176
     1
 40
0.0
176
     1
 90
        0
176
     1
290
     0
176
     1
290
     1
176
     1
290
     1
176
     1
290
     0
176
     1
290
     0
176
     1
290
     0
176
     1
290
     0
176
     1
290
     0
176
     1
290
     0
176
     1
 90
       50
176
     1
 40
0.0
176
     1
 40
1.0
176
     1
 90
        0
176
     1
 62
    18
420
        0
176
     1
 90
       50
176
     1
 90
        3
176
     1
 62
     5
420
      255
176
     1
290
     0
176
     1
 90
       50
176
     1
 90
       50
176
     1
 90
       50
176
     1
290
     0
176
     1
 90
       50
176
     1
 62
   256
176
     0
 40
1.0
176
     0
 90
        2
176
     1
  1
strokes_ogs.tif
176
     1
290
     0
176
     1
 40
1.0
176
     1
 40
1.0
176
     1
  0
VISUALSTYLE
  5
2A
102
{ACAD_REACTORS
330
29
102
}
330
29
100
AcDbVisualStyle
  2
Flat
 70
     0
177
     3
291
     1
 70
    58
 90
        2
176
     1
 90
        1
176
     1
 90
        1
176
     1
 90
        2
176
     1
 40
0.6
176
     1
 40
30.0
176
     1
 62
     7
420
 16777215
176
     1
 90
        0
176
     1
 90
        0
176
     1
 62
     7
176
     1
 62
   257
176
     1
 90
        1
176
     1
 90
        1
176
     1
 40
1.0
176
     1
 90
        8
176
     1
 62
     7
176
     1
 40
1.0
176
     1
 90
        1
176
     1
 90
        6
176
     1
 90
        2
176
     1
 62
     7
176
     1
 90
        5
176
     1
 90
        0
176
     1
 90
        0
176
     1
290
     0
176
     1
 90
       13
176
     1
 40
0.0
176
     1
 90
        0
176
     1
290
     0
176
     1
290
     1
176
     1
290
     1
176
     1
290
     0
176
     1
290
     0
176
     1
290
     0
176
     1
290
     0
176
     1
290
     0
176
     1
290
     0
176
     1
 90
       50
176
     1
 40
0.0
176
     1
 40
1.0
176
     1
 90
        0
176
     1
 62
    18
420
        0
176
     1
 90
       50
176
     1
 90
        3
176
     1
 62
     5
420
      255
176
     1
290
     0
176
     1
 90
       50
176
     1
 90
       50
176
     1
 90
       50
176
     1
290
     0
176
     1
 90
       50
176
     1
 62
   256
176
     0
 40
1.0
176
     0
 90
        2
176
     1
  1
strokes_ogs.tif
176
     1
290
     0
176
     1
 40
1.0
176
     1
 40
1.0
176
     1
  0
VISUALSTYLE
  5
2B
102
{ACAD_REACTORS
330
29
102
}
330
29
100
AcDbVisualStyle
  2
FlatWithEdges
 70
     1
177
     3
291
     1
 70
    58
 90
        2
176
     1
 90
        1
176
     1
 90
        1
176
     1
 90
        2
176
     1
 40
0.6
176
     1
 40
30.0
176
     1
 62
     7
420
 16777215
176
     1
 90
        1
176
     1
 90
        0
176
     1
 62
     7
176
     1
 62
   257
176
     1
 90
        1
176
     1
 90
        1
176
     1
 40
1.0
176
     1
 90
        0
176
     1
 62
   257
176
     1
 40
1.0
176
     1
 90
        1
176
     1
 90
        6
176
     1
 90
        2
176
     1
 62
     7
176
     1
 90
        5
176
     1
 90
        0
176
     1
 90
        0
176
     1
290
     0
176
     1
 90
       13
176
     1
 40
0.0
176
     1
 90
        0
176
     1
290
     0
176
     1
290
     1
176
     1
290
     1
176
     1
290
     0
176
     1
290
     0
176
     1
290
     0
176
     1
290
     0
176
     1
290
     0
176
     1
290
     0
176
     1
 90
       50
176
     1
 40
0.0
176
     1
 40
1.0
176
     1
 90
        0
176
     1
 62
    18
420
        0
176
     1
 90
       50
176
     1
 90
        3
176
     1
 62
     5
420
      255
176
     1
290
     0
176
     1
 90
       50
176
     1
 90
       50
176
     1
 90
       50
176
     1
290
     0
176
     1
 90
       50
176
     1
 62
   256
176
     0
 40
1.0
176
     0
 90
        2
176
     1
  1
strokes_ogs.tif
176
     1
290
     0
176
     1
 40
1.0
176
     1
 40
1.0
176
     1
  0
VISUALSTYLE
  5
2C
102
{ACAD_REACTORS
330
29
102
}
330
29
100
AcDbVisualStyle
  2
Gouraud
 70
     2
177
     3
291
     1
 70
    58
 90
        2
176
     1
 90
        2
176
     1
 90
        1
176
     1
 90
        2
176
     1
 40
0.6
176
     1
 40
30.0
176
     1
 62
     7
420
 16777215
176
     1
 90
        0
176
     1
 90
        0
176
     1
 62
     7
176
     1
 62
   257
176
     1
 90
        1
176
     1
 90
        1
176
     1
 40
1.0
176
     1
 90
        0
176
     1
 62
     7
176
     1
 40
1.0
176
     1
 90
        1
176
     1
 90
        6
176
     1
 90
        2
176
     1
 62
     7
176
     1
 90
        5
176
     1
 90
        0
176
     1
 90
        0
176
     1
290
     0
176
     1
 90
       13
176
     1
 40
0.0
176
     1
 90
        0
176
     1
290
     0
176
     1
290
     1
176
     1
290
     1
176
     1
290
     0
176
     1
290
     0
176
     1
290
     0
176
     1
290
     0
176
     1
290
     0
176
     1
290
     0
176
     1
 90
       50
176
     1
 40
0.0
176
     1
 40
1.0
176
     1
 90
        0
176
     1
 62
    18
420
        0
176
     1
 90
       50
176
     1
 90
        3
176
     1
 62
     5
420
      255
176
     1
290
     0
176
     1
 90
       50
176
     1
 90
       50
176
     1
 90
       50
176
     1
290
     0
176
     1
 90
       50
176
     1
 62
   256
176
     0
 40
1.0
176
     0
 90
        2
176
     1
  1
strokes_ogs.tif
176
     1
290
     0
176
     1
 40
1.0
176
     1
 40
1.0
176
     1
  0
VISUALSTYLE
  5
2D
102
{ACAD_REACTORS
330
29
102
}
330
29
100
AcDbVisualStyle
  2
GouraudWithEdges
 70
     3
177
     3
291
     1
 70
    58
 90
        2
176
     1
 90
        2
176
     1
 90
        1
176
     1
 90
        2
176
     1
 40
0.6
176
     1
 40
30.0
176
     1
 62
     7
420
 16777215
176
     1
 90
        1
176
     1
 90
        0
176
     1
 62
     7
176
     1
 62
   257
176
     1
 90
        1
176
     1
 90
        1
176
     1
 40
1.0
176
     1
 90
        0
176
     1
 62
   257
176
     1
 40
1.0
176
     1
 90
        1
176
     1
 90
        6
176
     1
 90
        2
176
     1
 62
     7
176
     1
 90
        5
176
     1
 90
        0
176
     1
 90
        0
176
     1
290
     0
176
     1
 90
       13
176
     1
 40
0.0
176
     1
 90
        0
176
     1
290
     0
176
     1
290
     1
176
     1
290
     1
176
     1
290
     0
176
     1
290
     0
176
     1
290
     0
176
     1
290
     0
176
     1
290
     0
176
     1
290
     0
176
     1
 90
       50
176
     1
 40
0.0
176
     1
 40
1.0
176
     1
 90
        0
176
     1
 62
    18
420
        0
176
     1
 90
       50
176
     1
 90
        3
176
     1
 62
     5
420
      255
176
     1
290
     0
176
     1
 90
       50
176
     1
 90
       50
176
     1
 90
       50
176
     1
290
     0
176
     1
 90
       50
176
     1
 62
   256
176
     0
 40
1.0
176
     0
 90
        2
176
     1
  1
strokes_ogs.tif
176
     1
290
     0
176
     1
 40
1.0
176
     1
 40
1.0
176
     1
  0
VISUALSTYLE
  5
31
102
{ACAD_REACTORS
330
29
102
}
330
29
100
AcDbVisualStyle
  2
Hidden
 70
     6
177
     3
291
     0
 70
    58
 90
        1
176
     1
 90
        2
176
     1
 90
        2
176
     1
 90
        0
176
     1
 40
0.6
176
     1
 40
30.0
176
     1
 62
     7
420
 16777215
176
     1
 90
        2
176
     1
 90
        2
176
     1
 62
     7
176
     1
 62
   257
176
     1
 90
        2
176
     1
 90
        1
176
     1
 40
40.0
176
     1
 90
        0
176
     1
 62
   257
176
     1
 40
1.0
176
     1
 90
        1
176
     1
 90
        6
176
     1
 90
        2
176
     1
 62
     7
176
     1
 90
        3
176
     1
 90
        0
176
     1
 90
        0
176
     1
290
     0
176
     1
 90
        1
176
     1
 40
0.0
176
     1
 90
        0
176
     1
290
     0
176
     1
290
     1
176
     1
290
     1
176
     1
290
     0
176
     1
290
     0
176
     1
290
     0
176
     1
290
     0
176
     1
290
     0
176
     1
290
     0
176
     1
 90
       50
176
     1
 40
0.0
176
     1
 40
1.0
176
     1
 90
        0
176
     1
 62
    18
420
        0
176
     1
 90
       50
176
     1
 90
        3
176
     1
 62
     5
420
      255
176
     1
290
     0
176
     1
 90
       50
176
     1
 90
       50
176
     1
 90
       50
176
     1
290
     0
176
     1
 90
       50
176
     1
 62
   256
176
     0
 40
1.0
176
     0
 90
        2
176
     1
  1
strokes_ogs.tif
176
     1
290
     0
176
     1
 40
1.0
176
     1
 40
1.0
176
     1
  0
VISUALSTYLE
  5
3F
102
{ACAD_REACTORS
330
29
102
}
330
29
100
AcDbVisualStyle
  2
JitterOff
 70
    20
177
     3
291
     1
 70
    58
 90
        2
176
     0
 90
        2
176
     0
 90
        0
176
     0
 90
        0
176
     0
 40
0.6
176
     0
 40
30.0
176
     0
 62
     7
420
 16777215
176
     0
 90
        1
176
     0
 90
        4
176
     0
 62
     7
176
     0
 62
   257
176
     0
 90
        1
176
     0
 90
        1
176
     0
 40
1.0
176
     0
 90
       10
176
     2
 62
     7
176
     0
 40
1.0
176
     0
 90
        1
176
     0
 90
        6
176
     0
 90
        2
176
     0
 62
     7
176
     0
 90
        5
176
     0
 90
        0
176
     0
 90
        0
176
     0
290
     0
176
     0
 90
        1
176
     0
 40
0.0
176
     0
 90
        0
176
     0
290
     0
176
     0
290
     1
176
     0
290
     1
176
     0
290
     0
176
     0
290
     0
176
     0
290
     0
176
     0
290
     0
176
     0
290
     0
176
     0
290
     0
176
     0
 90
       50
176
     0
 40
0.0
176
     0
 40
1.0
176
     0
 90
        0
176
     0
 62
    18
420
        0
176
     0
 90
       50
176
     0
 90
        3
176
     0
 62
     5
420
      255
176
     0
290
     0
176
     0
 90
       50
176
     0
 90
       50
176
     0
 90
       50
176
     0
290
     0
176
     0
 90
       50
176
     0
 62
   256
176
     0
 40
1.0
176
     0
 90
        2
176
     0
  1
strokes_ogs.tif
176
     0
290
     0
176
     0
 40
1.0
176
     0
 40
1.0
176
     0
  0
VISUALSTYLE
  5
37
102
{ACAD_REACTORS
330
29
102
}
330
29
100
AcDbVisualStyle
  2
Linepattern
 70
    14
177
     3
291
     1
 70
    58
 90
        2
176
     1
 90
        2
176
     1
 90
        0
176
     1
 90
        0
176
     1
 40
0.6
176
     1
 40
30.0
176
     1
 62
     7
420
 16777215
176
     1
 90
        1
176
     1
 90
        4
176
     1
 62
     7
176
     1
 62
   257
176
     1
 90
        7
176
     1
 90
        7
176
     1
 40
1.0
176
     1
 90
        8
176
     1
 62
     7
176
     1
 40
1.0
176
     1
 90
        1
176
     1
 90
        6
176
     1
 90
        2
176
     1
 62
     7
176
     1
 90
        5
176
     1
 90
        0
176
     1
 90
        0
176
     1
290
     0
176
     1
 90
        1
176
     1
 40
0.0
176
     1
 90
        0
176
     1
290
     0
176
     1
290
     1
176
     1
290
     1
176
     1
290
     0
176
     1
290
     0
176
     1
290
     0
176
     1
290
     0
176
     1
290
     0
176
     1
290
     0
176
     1
 90
       50
176
     1
 40
0.0
176
     1
 40
1.0
176
     1
 90
        0
176
     1
 62
    18
420
        0
176
     1
 90
       50
176
     1
 90
        3
176
     1
 62
     5
420
      255
176
     1
290
     0
176
     1
 90
       50
176
     1
 90
       50
176
     1
 90
       50
176
     1
290
     0
176
     1
 90
       50
176
     1
 62
   256
176
     0
 40
1.0
176
     0
 90
        2
176
     1
  1
strokes_ogs.tif
176
     1
290
     0
176
     1
 40
1.0
176
     1
 40
1.0
176
     1
  0
VISUALSTYLE
  5
40
102
{ACAD_REACTORS
330
29
102
}
330
29
100
AcDbVisualStyle
  2
OverhangOff
 70
    21
177
     3
291
     1
 70
    58
 90
        2
176
     0
 90
        2
176
     0
 90
        0
176
     0
 90
        0
176
     0
 40
0.6
176
     0
 40
30.0
176
     0
 62
     7
420
 16777215
176
     0
 90
        1
176
     0
 90
        4
176
     0
 62
     7
176
     0
 62
   257
176
     0
 90
        1
176
     0
 90
        1
176
     0
 40
1.0
176
     0
 90
        9
176
     2
 62
     7
176
     0
 40
1.0
176
     0
 90
        1
176
     0
 90
        6
176
     0
 90
        2
176
     0
 62
     7
176
     0
 90
        5
176
     0
 90
        0
176
     0
 90
        0
176
     0
290
     0
176
     0
 90
        1
176
     0
 40
0.0
176
     0
 90
        0
176
     0
290
     0
176
     0
290
     1
176
     0
290
     1
176
     0
290
     0
176
     0
290
     0
176
     0
290
     0
176
     0
290
     0
176
     0
290
     0
176
     0
290
     0
176
     0
 90
       50
176
     0
 40
0.0
176
     0
 40
1.0
176
     0
 90
        0
176
     0
 62
    18
420
        0
176
     0
 90
       50
176
     0
 90
        3
176
     0
 62
     5
420
      255
176
     0
290
     0
176
     0
 90
       50
176
     0
 90
       50
176
     0
 90
       50
176
     0
290
     0
176
     0
 90
       50
176
     0
 62
   256
176
     0
 40
1.0
176
     0
 90
        2
176
     0
  1
strokes_ogs.tif
176
     0
290
     0
176
     0
 40
1.0
176
     0
 40
1.0
176
     0
  0
VISUALSTYLE
  5
33
102
{ACAD_REACTORS
330
29
102
}
330
29
100
AcDbVisualStyle
  2
Realistic
 70
     8
177
     3
291
     0
 70
    58
 90
        2
176
     1
 90
        3
176
     1
 90
        0
176
     1
 90
        2
176
     1
 40
0.6
176
     1
 40
30.0
176
     1
 62
     7
420
 16777215
176
     1
 90
        0
176
     1
 90
        0
176
     1
 62
     7
176
     1
 62
   257
176
     1
 90
        1
176
     1
 90
        1
176
     1
 40
1.0
176
     1
 90
        8
176
     1
 62
   257
176
     1
 40
1.0
176
     1
 90
        1
176
     1
 90
        6
176
     1
 90
        2
176
     1
 62
     7
176
     1
 90
        3
176
     1
 90
        0
176
     1
 90
        0
176
     1
290
     0
176
     1
 90
       13
176
     1
 40
0.0
176
     1
 90
        0
176
     1
290
     0
176
     1
290
     1
176
     1
290
     1
176
     1
290
     0
176
     1
290
     0
176
     1
290
     0
176
     1
290
     0
176
     1
290
     0
176
     1
290
     0
176
     1
 90
       50
176
     1
 40
0.0
176
     1
 40
1.0
176
     1
 90
        0
176
     1
 62
    18
420
        0
176
     1
 90
       50
176
     1
 90
        3
176
     1
 62
     5
420
      255
176
     1
290
     0
176
     1
 90
       50
176
     1
 90
       50
176
     1
 90
       50
176
     1
290
     0
176
     1
 90
       50
176
     1
 62
   256
176
     0
 40
1.0
176
     0
 90
        2
176
     1
  1
strokes_ogs.tif
176
     1
290
     0
176
     1
 40
1.0
176
     1
 40
1.0
176
     1
  0
VISUALSTYLE
  5
3E
102
{ACAD_REACTORS
330
29
102
}
330
29
100
AcDbVisualStyle
  2
Shaded
 70
    27
177
     3
291
     0
 70
    58
 90
        2
176
     1
 90
        2
176
     1
 90
        1
176
     1
 90
        2
176
     1
 40
0.6
176
     1
 40
30.0
176
     1
 62
     7
420
 16777215
176
     1
 90
        0
176
     1
 90
        4
176
     1
 62
     7
176
     1
 62
   257
176
     1
 90
        1
176
     1
 90
        1
176
     1
 40
1.0
176
     1
 90
        8
176
     1
 62
   257
176
     1
 40
1.0
176
     1
 90
        1
176
     1
 90
        6
176
     1
 90
        2
176
     1
 62
     8
420
  7895160
176
     1
 90
        3
176
     1
 90
        0
176
     1
 90
        0
176
     1
290
     0
176
     1
 90
        5
176
     1
 40
0.0
176
     1
 90
        0
176
     1
290
     0
176
     1
290
     1
176
     1
290
     1
176
     1
290
     0
176
     1
290
     0
176
     1
290
     0
176
     1
290
     0
176
     1
290
     0
176
     1
290
     0
176
     1
 90
       50
176
     1
 40
0.0
176
     1
 40
1.0
176
     1
 90
        0
176
     1
 62
    18
420
        0
176
     1
 90
       50
176
     1
 90
        3
176
     1
 62
     5
420
      255
176
     1
290
     0
176
     1
 90
       50
176
     1
 90
       50
176
     1
 90
       50
176
     1
290
     0
176
     1
 90
       50
176
     1
 62
   256
176
     0
 40
1.0
176
     0
 90
        2
176
     1
  1
strokes_ogs.tif
176
     1
290
     0
176
     1
 40
1.0
176
     1
 40
1.0
176
     1
  0
VISUALSTYLE
  5
3D
102
{ACAD_REACTORS
330
29
102
}
330
29
100
AcDbVisualStyle
  2
Shaded with edges
 70
    26
177
     3
291
     0
 70
    58
 90
        2
176
     1
 90
        2
176
     1
 90
        1
176
     1
 90
        2
176
     1
 40
0.6
176
     1
 40
30.0
176
     1
 62
     7
420
 16777215
176
     1
 90
        1
176
     1
 90
        2
176
     1
 62
     7
176
     1
 62
   257
176
     1
 90
        2
176
     1
 90
        1
176
     1
 40
1.0
176
     1
 90
        8
176
     1
 62
   257
176
     1
 40
1.0
176
     1
 90
        1
176
     1
 90
        6
176
     1
 90
        2
176
     1
 62
     7
176
     1
 90
        3
176
     1
 90
        0
176
     1
 90
        0
176
     1
290
     0
176
     1
 90
        5
176
     1
 40
0.0
176
     1
 90
        0
176
     1
290
     0
176
     1
290
     1
176
     1
290
     1
176
     1
290
     0
176
     1
290
     0
176
     1
290
     0
176
     1
290
     0
176
     1
290
     0
176
     1
290
     0
176
     1
 90
       50
176
     1
 40
0.0
176
     1
 40
1.0
176
     1
 90
        0
176
     1
 62
    18
420
        0
176
     1
 90
       50
176
     1
 90
        3
176
     1
 62
     5
420
      255
176
     1
290
     0
176
     1
 90
       50
176
     1
 90
       50
176
     1
 90
       50
176
     1
290
     0
176
     1
 90
       50
176
     1
 62
   256
176
     0
 40
1.0
176
     0
 90
        2
176
     1
  1
strokes_ogs.tif
176
     1
290
     0
176
     1
 40
1.0
176
     1
 40
1.0
176
     1
  0
VISUALSTYLE
  5
3A
102
{ACAD_REACTORS
330
29
102
}
330
29
100
AcDbVisualStyle
  2
Shades of Gray
 70
    23
177
     3
291
     0
 70
    58
 90
        2
176
     1
 90
        2
176
     1
 90
        3
176
     1
 90
        0
176
     1
 40
0.6
176
     1
 40
30.0
176
     1
 62
     7
420
 16777215
176
     1
 90
        2
176
     1
 90
        2
176
     1
 62
     7
176
     1
 62
     7
176
     1
 90
        1
176
     1
 90
        1
176
     1
 40
40.0
176
     1
 90
        8
176
     1
 62
     7
176
     1
 40
1.0
176
     1
 90
        1
176
     1
 90
        6
176
     1
 90
        2
176
     1
 62
     7
176
     1
 90
        3
176
     1
 90
        0
176
     1
 90
        0
176
     1
290
     0
176
     1
 90
        1
176
     1
 40
0.0
176
     1
 90
        0
176
     1
290
     0
176
     1
290
     1
176
     1
290
     1
176
     1
290
     0
176
     1
290
     0
176
     1
290
     0
176
     1
290
     0
176
     1
290
     0
176
     1
290
     0
176
     1
 90
       50
176
     1
 40
0.0
176
     1
 40
1.0
176
     1
 90
        0
176
     1
 62
    18
420
        0
176
     1
 90
       50
176
     1
 90
        3
176
     1
 62
     5
420
      255
176
     1
290
     0
176
     1
 90
       50
176
     1
 90
       50
176
     1
 90
       50
176
     1
290
     0
176
     1
 90
       50
176
     1
 62
   256
176
     0
 40
1.0
176
     0
 90
        2
176
     1
  1
strokes_ogs.tif
176
     1
290
     0
176
     1
 40
1.0
176
     1
 40
1.0
176
     1
  0
VISUALSTYLE
  5
3B
102
{ACAD_REACTORS
330
29
102
}
330
29
100
AcDbVisualStyle
  2
Sketchy
 70
    24
177
     3
291
     0
 70
    58
 90
        1
176
     1
 90
        2
176
     1
 90
        2
176
     1
 90
        0
176
     1
 40
0.6
176
     1
 40
30.0
176
     1
 62
     7
420
 16777215
176
     1
 90
        2
176
     1
 90
        2
176
     1
 62
     7
176
     1
 62
     7
176
     1
 90
        1
176
     1
 90
        1
176
     1
 40
40.0
176
     1
 90
       11
176
     1
 62
     7
176
     1
 40
1.0
176
     1
 90
        1
176
     1
 90
        6
176
     1
 90
        2
176
     1
 62
     7
176
     1
 90
        6
176
     1
 90
        0
176
     1
 90
        0
176
     1
290
     0
176
     1
 90
        1
176
     1
 40
0.0
176
     1
 90
        0
176
     1
290
     0
176
     1
290
     1
176
     1
290
     1
176
     1
290
     0
176
     1
290
     0
176
     1
290
     0
176
     1
290
     0
176
     1
290
     0
176
     1
290
     0
176
     1
 90
       50
176
     1
 40
0.0
176
     1
 40
1.0
176
     1
 90
        0
176
     1
 62
    18
420
        0
176
     1
 90
       50
176
     1
 90
        3
176
     1
 62
     5
420
      255
176
     1
290
     0
176
     1
 90
       50
176
     1
 90
       50
176
     1
 90
       50
176
     1
290
     0
176
     1
 90
       50
176
     1
 62
   256
176
     0
 40
1.0
176
     0
 90
        2
176
     1
  1
strokes_ogs.tif
176
     1
290
     0
176
     1
 40
1.0
176
     1
 40
1.0
176
     1
  0
VISUALSTYLE
  5
36
102
{ACAD_REACTORS
330
29
102
}
330
29
100
AcDbVisualStyle
  2
Thicken
 70
    13
177
     3
291
     1
 70
    58
 90
        2
176
     1
 90
        2
176
     1
 90
        0
176
     1
 90
        0
176
     1
 40
0.6
176
     1
 40
30.0
176
     1
 62
     7
420
 16777215
176
     1
 90
        1
176
     1
 90
        4
176
     1
 62
     7
176
     1
 62
   257
176
     1
 90
        1
176
     1
 90
        1
176
     1
 40
1.0
176
     1
 90
       12
176
     1
 62
     7
176
     1
 40
1.0
176
     1
 90
        1
176
     1
 90
        6
176
     1
 90
        2
176
     1
 62
     7
176
     1
 90
        5
176
     1
 90
        0
176
     1
 90
        0
176
     1
290
     0
176
     1
 90
        1
176
     1
 40
0.0
176
     1
 90
        0
176
     1
290
     0
176
     1
290
     1
176
     1
290
     1
176
     1
290
     0
176
     1
290
     0
176
     1
290
     0
176
     1
290
     0
176
     1
290
     0
176
     1
290
     0
176
     1
 90
       50
176
     1
 40
0.0
176
     1
 40
1.0
176
     1
 90
        0
176
     1
 62
    18
420
        0
176
     1
 90
       50
176
     1
 90
        3
176
     1
 62
     5
420
      255
176
     1
290
     0
176
     1
 90
       50
176
     1
 90
       50
176
     1
 90
       50
176
     1
290
     0
176
     1
 90
       50
176
     1
 62
   256
176
     0
 40
1.0
176
     0
 90
        2
176
     1
  1
strokes_ogs.tif
176
     1
290
     0
176
     1
 40
1.0
176
     1
 40
1.0
176
     1
  0
VISUALSTYLE
  5
30
102
{ACAD_REACTORS
330
29
102
}
330
29
100
AcDbVisualStyle
  2
Wireframe
 70
     5
177
     3
291
     0
 70
    58
 90
        0
176
     1
 90
        2
176
     1
 90
        0
176
     1
 90
        0
176
     1
 40
0.6
176
     1
 40
30.0
176
     1
 62
     7
420
 16777215
176
     1
 90
        1
176
     1
 90
        4
176
     1
 62
     7
176
     1
 62
   257
176
     1
 90
        1
176
     1
 90
        1
176
     1
 40
1.0
176
     1
 90
        0
176
     1
 62
   257
176
     1
 40
1.0
176
     1
 90
        1
176
     1
 90
        6
176
     1
 90
        2
176
     1
 62
     7
176
     1
 90
        3
176
     1
 90
        0
176
     1
 90
        0
176
     1
290
     0
176
     1
 90
        1
176
     1
 40
0.0
176
     1
 90
        0
176
     1
290
     0
176
     1
290
     1
176
     1
290
     1
176
     1
290
     0
176
     1
290
     0
176
     1
290
     0
176
     1
290
     0
176
     1
290
     0
176
     1
290
     0
176
     1
 90
       50
176
     1
 40
0.0
176
     1
 40
1.0
176
     1
 90
        0
176
     1
 62
    18
420
        0
176
     1
 90
       50
176
     1
 90
        3
176
     1
 62
     5
420
      255
176
     1
290
     0
176
     1
 90
       50
176
     1
 90
       50
176
     1
 90
       50
176
     1
290
     0
176
     1
 90
       50
176
     1
 62
   256
176
     0
 40
1.0
176
     0
 90
        2
176
     1
  1
strokes_ogs.tif
176
     1
290
     0
176
     1
 40
1.0
176
     1
 40
1.0
176
     1
  0
VISUALSTYLE
  5
3C
102
{ACAD_REACTORS
330
29
102
}
330
29
100
AcDbVisualStyle
  2
X-Ray
 70
    25
177
     3
291
     0
 70
    58
 90
        2
176
     1
 90
        2
176
     1
 90
        1
176
     1
 90
        1
176
     1
 40
0.5
176
     1
 40
30.0
176
     1
 62
     7
420
 16777215
176
     1
 90
        1
176
     1
 90
        0
176
     1
 62
     7
176
     1
 62
   257
176
     1
 90
        1
176
     1
 90
        1
176
     1
 40
1.0
176
     1
 90
        8
176
     1
 62
     7
176
     1
 40
1.0
176
     1
 90
        1
176
     1
 90
        6
176
     1
 90
        2
176
     1
 62
     7
176
     1
 90
        3
176
     1
 90
        0
176
     1
 90
        0
176
     1
290
     0
176
     1
 90
       13
176
     1
 40
0.0
176
     1
 90
        0
176
     1
290
     0
176
     1
290
     1
176
     1
290
     1
176
     1
290
     0
176
     1
290
     0
176
     1
290
     0
176
     1
290
     0
176
     1
290
     0
176
     1
290
     0
176
     1
 90
       50
176
     1
 40
0.0
176
     1
 40
1.0
176
     1
 90
        0
176
     1
 62
    18
420
        0
176
     1
 90
       50
176
     1
 90
        3
176
     1
 62
     5
420
      255
176
     1
290
     0
176
     1
 90
       50
176
     1
 90
       50
176
     1
 90
       50
176
     1
290
     0
176
     1
 90
       50
176
     1
 62
   256
176
     0
 40
1.0
176
     0
 90
        2
176
     1
  1
strokes_ogs.tif
176
     1
290
     0
176
     1
 40
1.0
176
     1
 40
1.0
176
     1
  0
DICTIONARYVAR
  5
DE
102
{ACAD_REACTORS
330
D9
102
}
330
D9
100
DictionaryVariables
280
     0
  1
1:1
  0
DICTIONARYVAR
  5
DB
102
{ACAD_REACTORS
330
D9
102
}
330
D9
100
DictionaryVariables
280
     0
  1
STANDARD
  0
DICTIONARYVAR
  5
DA
102
{ACAD_REACTORS
330
D9
102
}
330
D9
100
DictionaryVariables
280
     0
  1
STANDARD
  0
DICTIONARYVAR
  5
DC
102
{ACAD_REACTORS
330
D9
102
}
330
D9
100
DictionaryVariables
280
     0
  1
Imperial24
  0
DICTIONARYVAR
  5
DD
102
{ACAD_REACTORS
330
D9
102
}
330
D9
100
DictionaryVariables
280
     0
  1
Imperial24
  0
DICTIONARY
  5
1A
330
19
100
AcDbDictionary
280
     1
281
     1
  3
BUMPTILE
360
1C
  3
DIFFUSETILE
360
1B
  3
OPACITYTILE
360
1F
  3
REFLECTIONTILE
360
1E
  3
REFRACTIONTILE
360
20
  3
SPECULARTILE
360
1D
  0
DICTIONARY
  5
12
330
11
100
AcDbDictionary
280
     1
281
     1
  3
BUMPTILE
360
14
  3
DIFFUSETILE
360
13
  3
OPACITYTILE
360
17
  3
REFLECTIONTILE
360
16
  3
REFRACTIONTILE
360
18
  3
SPECULARTILE
360
15
  0
DICTIONARY
  5
22
330
21
100
AcDbDictionary
280
     1
281
     1
  3
BUMPTILE
360
24
  3
DIFFUSETILE
360
23
  3
OPACITYTILE
360
27
  3
REFLECTIONTILE
360
26
  3
REFRACTIONTILE
360
28
  3
SPECULARTILE
360
25
  0
DICTIONARY
  5
DF
330
65
100
AcDbDictionary
280
     1
281
     1
  3
ACAD_ROUNDTRIP_2008_TABLESTYLE_CELLSTYLEMAP
360
E0
  0
XRECORD
  5
1C
102
{ACAD_REACTORS
330
1A
102
}
330
1A
100
AcDbXrecord
280
     1
270
     1
271
     1
  0
XRECORD
  5
1B
102
{ACAD_REACTORS
330
1A
102
}
330
1A
100
AcDbXrecord
280
     1
270
     1
271
     1
  0
XRECORD
  5
1F
102
{ACAD_REACTORS
330
1A
102
}
330
1A
100
AcDbXrecord
280
     1
270
     1
271
     1
  0
XRECORD
  5
1E
102
{ACAD_REACTORS
330
1A
102
}
330
1A
100
AcDbXrecord
280
     1
270
     1
271
     1
  0
XRECORD
  5
20
102
{ACAD_REACTORS
330
1A
102
}
330
1A
100
AcDbXrecord
280
     1
270
     1
271
     1
  0
XRECORD
  5
1D
102
{ACAD_REACTORS
330
1A
102
}
330
1A
100
AcDbXrecord
280
     1
270
     1
271
     1
  0
XRECORD
  5
14
102
{ACAD_REACTORS
330
12
102
}
330
12
100
AcDbXrecord
280
     1
270
     1
271
     1
  0
XRECORD
  5
13
102
{ACAD_REACTORS
330
12
102
}
330
12
100
AcDbXrecord
280
     1
270
     1
271
     1
  0
XRECORD
  5
17
102
{ACAD_REACTORS
330
12
102
}
330
12
100
AcDbXrecord
280
     1
270
     1
271
     1
  0
XRECORD
  5
16
102
{ACAD_REACTORS
330
12
102
}
330
12
100
AcDbXrecord
280
     1
270
     1
271
     1
  0
XRECORD
  5
18
102
{ACAD_REACTORS
330
12
102
}
330
12
100
AcDbXrecord
280
     1
270
     1
271
     1
  0
XRECORD
  5
15
102
{ACAD_REACTORS
330
12
102
}
330
12
100
AcDbXrecord
280
     1
270
     1
271
     1
  0
XRECORD
  5
24
102
{ACAD_REACTORS
330
22
102
}
330
22
100
AcDbXrecord
280
     1
270
     1
271
     1
  0
XRECORD
  5
23
102
{ACAD_REACTORS
330
22
102
}
330
22
100
AcDbXrecord
280
     1
270
     1
271
     1
  0
XRECORD
  5
27
102
{ACAD_REACTORS
330
22
102
}
330
22
100
AcDbXrecord
280
     1
270
     1
271
     1
  0
XRECORD
  5
26
102
{ACAD_REACTORS
330
22
102
}
330
22
100
AcDbXrecord
280
     1
270
     1
271
     1
  0
XRECORD
  5
28
102
{ACAD_REACTORS
330
22
102
}
330
22
100
AcDbXrecord
280
     1
270
     1
271
     1
  0
XRECORD
  5
25
102
{ACAD_REACTORS
330
22
102
}
330
22
100
AcDbXrecord
280
     1
270
     1
271
     1
  0
CELLSTYLEMAP
  5
E0
102
{ACAD_REACTORS
330
DF
102
}
330
DF
100
AcDbCellStyleMap
 90
        3
300
CELLSTYLE
  1
TABLEFORMAT_BEGIN
 90
        5
170
     1
 91
        0
 92
    32768
 62
   257
 93
        1
300
CONTENTFORMAT
  1
CONTENTFORMAT_BEGIN
 90
        0
 91
        0
 92
      512
 93
        0
300

 40
0.0
140
1.0
 94
        5
 62
     0
340
55
144
0.25
309
CONTENTFORMAT_END
171
     0
 94
        0
309
TABLEFORMAT_END
  1
CELLSTYLE_BEGIN
 90
        1
 91
        1
300
_TITLE
309
CELLSTYLE_END
300
CELLSTYLE
  1
TABLEFORMAT_BEGIN
 90
        5
170
     1
 91
        0
 92
        0
 62
   257
 93
        1
300
CONTENTFORMAT
  1
CONTENTFORMAT_BEGIN
 90
        0
 91
        0
 92
      512
 93
        0
300

 40
0.0
140
1.0
 94
        5
 62
     0
340
55
144
0.18
309
CONTENTFORMAT_END
171
     0
 94
        0
309
TABLEFORMAT_END
  1
CELLSTYLE_BEGIN
 90
        2
 91
        1
300
_HEADER
309
CELLSTYLE_END
300
CELLSTYLE
  1
TABLEFORMAT_BEGIN
 90
        5
170
     1
 91
        0
 92
        0
 62
   257
 93
        1
300
CONTENTFORMAT
  1
CONTENTFORMAT_BEGIN
 90
        0
 91
        0
 92
      512
 93
        0
300

 40
0.0
140
1.0
 94
        2
 62
     0
340
55
144
0.18
309
CONTENTFORMAT_END
171
     0
 94
        0
309
TABLEFORMAT_END
  1
CELLSTYLE_BEGIN
 90
        3
 91
        2
300
_DATA
309
CELLSTYLE_END
  0
ENDSEC
  0
EOF
