  0
SECTION
  2
HEADER
  9
$ACADVER
  1
AC1032
  9
$ACADMAINTVER
 90
      228
  9
$DWGCODEPAGE
  3
ANSI_1252
  9
$REQUIREDVERSIONS
160
                 0
  9
$INSBASE
 10
0.0
 20
0.0
 30
0.0
  9
$EXTMIN
 10
1.000000000000000E+20
 20
1.000000000000000E+20
 30
1.000000000000000E+20
  9
$EXTMAX
 10
-1.000000000000000E+20
 20
-1.000000000000000E+20
 30
-1.000000000000000E+20
  9
$LIMMIN
 10
0.0
 20
0.0
  9
$LIMMAX
 10
12.0
 20
9.0
  9
$ORTHOMODE
 70
     0
  9
$REGENMODE
 70
     1
  9
$FILLMODE
 70
     1
  9
$QTEXTMODE
 70
     0
  9
$MIRRTEXT
 70
     0
  9
$LTSCALE
 40
1.0
  9
$ATTMODE
 70
     1
  9
$TEXTSIZE
 40
0.2
  9
$TRACEWID
 40
0.05
  9
$TEXTSTYLE
  7
Standard
  9
$CLAYER
  8
0
  9
$CELTYPE
  6
ByLayer
  9
$CECOLOR
 62
   256
  9
$CELTSCALE
 40
1.0
  9
$DISPSILH
 70
     0
  9
$DIMSCALE
 40
1.0
  9
$DIMASZ
 40
0.18
  9
$DIMEXO
 40
0.0625
  9
$DIMDLI
 40
0.38
  9
$DIMRND
 40
0.0
  9
$DIMDLE
 40
0.0
  9
$DIMEXE
 40
0.18
  9
$DIMTP
 40
0.0
  9
$DIMTM
 40
0.0
  9
$DIMTXT
 40
0.18
  9
$DIMCEN
 40
0.09
  9
$DIMTSZ
 40
0.0
  9
$DIMTOL
 70
     0
  9
$DIMLIM
 70
     0
  9
$DIMTIH
 70
     1
  9
$DIMTOH
 70
     1
  9
$DIMSE1
 70
     0
  9
$DIMSE2
 70
     0
  9
$DIMTAD
 70
     0
  9
$DIMZIN
 70
     0
  9
$DIMBLK
  1

  9
$DIMASO
 70
     1
  9
$DIMSHO
 70
     1
  9
$DIMPOST
  1

  9
$DIMAPOST
  1

  9
$DIMALT
 70
     0
  9
$DIMALTD
 70
     2
  9
$DIMALTF
 40
25.4
  9
$DIMLFAC
 40
1.0
  9
$DIMTOFL
 70
     0
  9
$DIMTVP
 40
0.0
  9
$DIMTIX
 70
     0
  9
$DIMSOXD
 70
     0
  9
$DIMSAH
 70
     0
  9
$DIMBLK1
  1

  9
$DIMBLK2
  1

  9
$DIMSTYLE
  2
Standard
  9
$DIMCLRD
 70
     0
  9
$DIMCLRE
 70
     0
  9
$DIMCLRT
 70
     0
  9
$DIMTFAC
 40
1.0
  9
$DIMGAP
 40
0.09
  9
$DIMJUST
 70
     0
  9
$DIMSD1
 70
     0
  9
$DIMSD2
 70
     0
  9
$DIMTOLJ
 70
     1
  9
$DIMTZIN
 70
     0
  9
$DIMALTZ
 70
     0
  9
$DIMALTTZ
 70
     0
  9
$DIMUPT
 70
     0
  9
$DIMDEC
 70
     4
  9
$DIMTDEC
 70
     4
  9
$DIMALTU
 70
     2
  9
$DIMALTTD
 70
     2
  9
$DIMTXSTY
  7
Standard
  9
$DIMAUNIT
 70
     0
  9
$DIMADEC
 70
     0
  9
$DIMALTRND
 40
0.0
  9
$DIMAZIN
 70
     0
  9
$DIMDSEP
 70
    46
  9
$DIMATFIT
 70
     3
  9
$DIMFRAC
 70
     0
  9
$DIMLDRBLK
  1

  9
$DIMLUNIT
 70
     2
  9
$DIMLWD
 70
    -2
  9
$DIMLWE
 70
    -2
  9
$DIMTMOVE
 70
     0
  9
$DIMFXL
 40
1.0
  9
$DIMFXLON
 70
     0
  9
$DIMJOGANG
 40
0.7853981633974483
  9
$DIMTFILL
 70
     0
  9
$DIMTFILLCLR
 70
     0
  9
$DIMARCSYM
 70
     0
  9
$DIMLTYPE
  6

  9
$DIMLTEX1
  6

  9
$DIMLTEX2
  6

  9
$DIMTXTDIRECTION
 70
     0
  9
$LUNITS
 70
     2
  9
$LUPREC
 70
     4
  9
$SKETCHINC
 40
0.1
  9
$FILLETRAD
 40
0.0
  9
$AUNITS
 70
     0
  9
$AUPREC
 70
     0
  9
$MENU
  1
.
  9
$ELEVATION
 40
0.0
  9
$PELEVATION
 40
0.0
  9
$THICKNESS
 40
0.0
  9
$LIMCHECK
 70
     0
  9
$CHAMFERA
 40
0.0
  9
$CHAMFERB
 40
0.0
  9
$CHAMFERC
 40
0.0
  9
$CHAMFERD
 40
0.0
  9
$SKPOLY
 70
     0
  9
$TDCREATE
 40
2460145.438657407
  9
$TDUCREATE
 40
2460145.396990741
  9
$TDUPDATE
 40
2460145.438657407
  9
$TDUUPDATE
 40
2460145.396990741
  9
$TDINDWG
 40
0.0000000000
  9
$TDUSRTIMER
 40
0.0000000000
  9
$USRTIMER
 70
     1
  9
$ANGBASE
 50
0.0
  9
$ANGDIR
 70
     0
  9
$PDMODE
 70
     0
  9
$PDSIZE
 40
0.0
  9
$PLINEWID
 40
0.0
  9
$SPLFRAME
 70
     0
  9
$SPLINETYPE
 70
     6
  9
$SPLINESEGS
 70
     8
  9
$HANDSEED
  5
F0
  9
$SURFTAB1
 70
     6
  9
$SURFTAB2
 70
     6
  9
$SURFTYPE
 70
     6
  9
$SURFU
 70
     6
  9
$SURFV
 70
     6
  9
$UCSBASE
  2

  9
$UCSNAME
  2

  9
$UCSORG
 10
0.0
 20
0.0
 30
0.0
  9
$UCSXDIR
 10
1.0
 20
0.0
 30
0.0
  9
$UCSYDIR
 10
0.0
 20
1.0
 30
0.0
  9
$UCSORTHOREF
  2

  9
$UCSORTHOVIEW
 70
     0
  9
$UCSORGTOP
 10
0.0
 20
0.0
 30
0.0
  9
$UCSORGBOTTOM
 10
0.0
 20
0.0
 30
0.0
  9
$UCSORGLEFT
 10
0.0
 20
0.0
 30
0.0
  9
$UCSORGRIGHT
 10
0.0
 20
0.0
 30
0.0
  9
$UCSORGFRONT
 10
0.0
 20
0.0
 30
0.0
  9
$UCSORGBACK
 10
0.0
 20
0.0
 30
0.0
  9
$PUCSBASE
  2

  9
$PUCSNAME
  2

  9
$PUCSORG
 10
0.0
 20
0.0
 30
0.0
  9
$PUCSXDIR
 10
1.0
 20
0.0
 30
0.0
  9
$PUCSYDIR
 10
0.0
 20
1.0
 30
0.0
  9
$PUCSORTHOREF
  2

  9
$PUCSORTHOVIEW
 70
     0
  9
$PUCSORGTOP
 10
0.0
 20
0.0
 30
0.0
  9
$PUCSORGBOTTOM
 10
0.0
 20
0.0
 30
0.0
  9
$PUCSORGLEFT
 10
0.0
 20
0.0
 30
0.0
  9
$PUCSORGRIGHT
 10
0.0
 20
0.0
 30
0.0
  9
$PUCSORGFRONT
 10
0.0
 20
0.0
 30
0.0
  9
$PUCSORGBACK
 10
0.0
 20
0.0
 30
0.0
  9
$USERI1
 70
     0
  9
$USERI2
 70
     0
  9
$USERI3
 70
     0
  9
$USERI4
 70
     0
  9
$USERI5
 70
     0
  9
$USERR1
 40
0.0
  9
$USERR2
 40
0.0
  9
$USERR3
 40
0.0
  9
$USERR4
 40
0.0
  9
$USERR5
 40
0.0
  9
$WORLDVIEW
 70
     1
  9
$SHADEDGE
 70
     3
  9
$SHADEDIF
 70
    70
  9
$TILEMODE
 70
     1
  9
$MAXACTVP
 70
    64
  9
$PINSBASE
 10
0.0
 20
0.0
 30
0.0
  9
$PLIMCHECK
 70
     0
  9
$PEXTMIN
 10
1.000000000000000E+20
 20
1.000000000000000E+20
 30
1.000000000000000E+20
  9
$PEXTMAX
 10
-1.000000000000000E+20
 20
-1.000000000000000E+20
 30
-1.000000000000000E+20
  9
$PLIMMIN
 10
0.0
 20
0.0
  9
$PLIMMAX
 10
12.0
 20
9.0
  9
$UNITMODE
 70
     0
  9
$VISRETAIN
 70
     1
  9
$PLINEGEN
 70
     0
  9
$PSLTSCALE
 70
     1
  9
$TREEDEPTH
 70
  3020
  9
$CMLSTYLE
  2
Standard
  9
$CMLJUST
 70
     0
  9
$CMLSCALE
 40
1.0
  9
$PROXYGRAPHICS
 70
     1
  9
$MEASUREMENT
 70
     0
  9
$CELWEIGHT
370
    -1
  9
$ENDCAPS
280
     0
  9
$JOINSTYLE
280
     0
  9
$LWDISPLAY
290
     1
  9
$INSUNITS
 70
     4
  9
$HYPERLINKBASE
  1

  9
$STYLESHEET
  1

  9
$XEDIT
290
     1
  9
$CEPSNTYPE
380
     0
  9
$PSTYLEMODE
290
     1
  9
$FINGERPRINTGUID
  2
{6C5C7C8C-BEBF-7C45-AA39-743B22C8D3A1}
  9
$VERSIONGUID
  2
{F7A6C02D-A7A3-B043-B933-736AF260A53A}
  9
$EXTNAMES
290
     1
  9
$PSVPSCALE
 40
0.0
  9
$OLESTARTUP
290
     0
  9
$SORTENTS
280
   127
  9
$INDEXCTL
280
     0
  9
$HIDETEXT
280
     1
  9
$XCLIPFRAME
280
     2
  9
$HALOGAP
280
     0
  9
$OBSCOLOR
 70
   257
  9
$OBSLTYPE
280
     0
  9
$INTERSECTIONDISPLAY
280
     0
  9
$INTERSECTIONCOLOR
 70
   257
  9
$DIMASSOC
280
     2
  9
$PROJECTNAME
  1

  9
$CAMERADISPLAY
290
     0
  9
$LENSLENGTH
 40
50.0
  9
$CAMERAHEIGHT
 40
0.0
  9
$STEPSPERSEC
 40
2.0
  9
$STEPSIZE
 40
6.0
  9
$3DDWFPREC
 40
2.0
  9
$PSOLWIDTH
 40
0.25
  9
$PSOLHEIGHT
 40
4.0
  9
$LOFTANG1
 40
1.570796326794896
  9
$LOFTANG2
 40
1.570796326794896
  9
$LOFTMAG1
 40
0.0
  9
$LOFTMAG2
 40
0.0
  9
$LOFTPARAM
 70
     7
  9
$LOFTNORMALS
280
     1
  9
$LATITUDE
 40
37.795
  9
$LONGITUDE
 40
-122.394
  9
$NORTHDIRECTION
 40
0.0
  9
$TIMEZONE
 70
 -8000
  9
$LIGHTGLYPHDISPLAY
280
     1
  9
$TILEMODELIGHTSYNCH
280
     1
  9
$CMATERIAL
347
11
  9
$SOLIDHIST
280
     0
  9
$SHOWHIST
280
     1
  9
$DWFFRAME
280
     2
  9
$DGNFRAME
280
     0
  9
$REALWORLDSCALE
290
     1
  9
$INTERFERECOLOR
 62
     1
  9
$INTERFEREOBJVS
345
33
  9
$INTERFEREVPVS
346
30
  9
$CSHADOW
280
     0
  9
$SHADOWPLANELOCATION
 40
0.0
  0
ENDSEC
  0
SECTION
  2
CLASSES
  0
CLASS
  1
ACDBDICTIONARYWDFLT
  2
AcDbDictionaryWithDefault
  3
ObjectDBX Classes
 90
        0
 91
        1
280
     0
281
     0
  0
CLASS
  1
MATERIAL
  2
AcDbMaterial
  3
ObjectDBX Classes
 90
     1153
 91
        3
280
     0
281
     0
  0
CLASS
  1
VISUALSTYLE
  2
AcDbVisualStyle
  3
ObjectDBX Classes
 90
     4095
 91
       24
280
     0
281
     0
  0
CLASS
  1
SCALE
  2
AcDbScale
  3
ObjectDBX Classes
 90
     1153
 91
       17
280
     0
281
     0
  0
CLASS
  1
TABLESTYLE
  2
AcDbTableStyle
  3
ObjectDBX Classes
 90
     4095
 91
        1
280
     0
281
     0
  0
CLASS
  1
MLEADERSTYLE
  2
AcDbMLeaderStyle
  3
ACDB_MLEADERSTYLE_CLASS
 90
     4095
 91
        1
280
     0
281
     0
  0
CLASS
  1
ACDBSECTIONVIEWSTYLE
  2
AcDbSectionViewStyle
  3
ObjectDBX Classes
 90
     1025
 91
        1
280
     0
281
     0
  0
CLASS
  1
ACDBDETAILVIEWSTYLE
  2
AcDbDetailViewStyle
  3
ObjectDBX Classes
 90
     1025
 91
        1
280
     0
281
     0
  0
CLASS
  1
DICTIONARYVAR
  2
AcDbDictionaryVar
  3
ObjectDBX Classes
 90
        0
 91
        5
280
     0
281
     0
  0
CLASS
  1
CELLSTYLEMAP
  2
AcDbCellStyleMap
  3
ObjectDBX Classes
 90
     1152
 91
        1
280
     0
281
     0
  0
ENDSEC
  0
SECTION
  2
TABLES
  0
TABLE
  2
VPORT
  5
8
330
0
100
AcDbSymbolTable
 70
     1
  0
VPORT
  5
57
330
8
100
AcDbSymbolTableRecord
100
AcDbViewportTableRecord
  2
*Active
 70
     0
 10
0.0
 20
0.0
 11
1.0
 21
1.0
 12
0.0
 22
0.0
 13
0.0
 23
0.0
 14
1.0
 24
1.0
 15
0.0
 25
0.0
 16
0.0
 26
0.0
 36
1.0
 17
99.99999997500005
 27
-99.99999997500005
 37
0.0
 40
101.9999999744997
 41
1.0
 42
50.0
 43
0.0
 44
0.0
 50
0.0
 51
0.0
 71
     0
 72
   100
 73
     1
 74
     1
 75
     0
 76
     0
 77
     0
 78
     0
281
     0
 65
     1
110
0.0
120
0.0
130
0.0
111
1.0
121
0.0
131
0.0
112
0.0
122
1.0
132
0.0
 79
     0
146
0.0
 60
     3
 61
     5
292
     1
282
     1
141
0.0
142
0.0
 63
   250
421
  3355443
  0
ENDTAB
  0
TABLE
  2
LTYPE
  5
5
330
0
100
AcDbSymbolTable
 70
     1
  0
LTYPE
  5
5B
330
5
100
AcDbSymbolTableRecord
100
AcDbLinetypeTableRecord
  2
ByBlock
 70
     0
  3

 72
    65
 73
     0
 40
0.0
  0
LTYPE
  5
5C
330
5
100
AcDbSymbolTableRecord
100
AcDbLinetypeTableRecord
  2
ByLayer
 70
     0
  3

 72
    65
 73
     0
 40
0.0
  0
LTYPE
  5
5D
330
5
100
AcDbSymbolTableRecord
100
AcDbLinetypeTableRecord
  2
Continuous
 70
     0
  3
Solid line
 72
    65
 73
     0
 40
0.0
  0
ENDTAB
  0
TABLE
  2
LAYER
  5
2
330
0
100
AcDbSymbolTable
 70
     2
  0
LAYER
  5
54
330
2
100
AcDbSymbolTableRecord
100
AcDbLayerTableRecord
  2
0
 70
     0
 62
     7
  6
Continuous
370
    -3
390
F
347
21
348
0
  0
LAYER
  5
78
330
2
100
AcDbSymbolTableRecord
100
AcDbLayerTableRecord
  2
Camada 1
 70
     0
 62
     7
  6
Continuous
370
     0
390
F
347
21
348
0
  0
ENDTAB
  0
TABLE
  2
STYLE
  5
3
330
0
100
AcDbSymbolTable
 70
     2
  0
STYLE
  5
55
330
3
100
AcDbSymbolTableRecord
100
AcDbTextStyleTableRecord
  2
Standard
 70
     0
 40
0.0
 41
1.0
 50
0.0
 71
     0
 42
0.2
  3
txt
  4

  0
STYLE
  5
5A
330
3
100
AcDbSymbolTableRecord
100
AcDbTextStyleTableRecord
  2
Annotative
 70
     0
 40
0.0
 41
1.0
 50
0.0
 71
     0
 42
0.2
  3
txt
  4

1001
AcadAnnotative
1000
AnnotativeData
1002
{
1070
     1
1070
     1
1002
}
  0
ENDTAB
  0
TABLE
  2
VIEW
  5
6
330
0
100
AcDbSymbolTable
 70
     0
  0
ENDTAB
  0
TABLE
  2
UCS
  5
7
330
0
100
AcDbSymbolTable
 70
     0
  0
ENDTAB
  0
TABLE
  2
APPID
  5
9
330
0
100
AcDbSymbolTable
 70
     2
  0
APPID
  5
56
330
9
100
AcDbSymbolTableRecord
100
AcDbRegAppTableRecord
  2
ACAD
 70
     0
  0
APPID
  5
5E
330
9
100
AcDbSymbolTableRecord
100
AcDbRegAppTableRecord
  2
AcadAnnotative
 70
     0
  0
ENDTAB
  0
TABLE
  2
DIMSTYLE
  5
A
330
0
100
AcDbSymbolTable
 70
     2
100
AcDbDimStyleTable
 71
     0
  0
DIMSTYLE
105
58
330
A
100
AcDbSymbolTableRecord
100
AcDbDimStyleTableRecord
  2
Standard
 70
     0
340
55
  0
DIMSTYLE
105
59
330
A
100
AcDbSymbolTableRecord
100
AcDbDimStyleTableRecord
  2
Annotative
 70
     0
340
55
1001
AcadAnnotative
1000
AnnotativeData
1002
{
1070
     1
1070
     1
1002
}
  0
ENDTAB
  0
TABLE
  2
BLOCK_RECORD
  5
1
330
0
100
AcDbSymbolTable
 70
     2
  0
BLOCK_RECORD
  5
70
330
1
100
AcDbSymbolTableRecord
100
AcDbBlockTableRecord
  2
*Model_Space
340
73
 70
     0
280
     1
281
     0
  0
BLOCK_RECORD
  5
6C
330
1
100
AcDbSymbolTableRecord
100
AcDbBlockTableRecord
  2
*Paper_Space
340
6F
 70
     0
280
     1
281
     0
  0
BLOCK_RECORD
  5
74
330
1
100
AcDbSymbolTableRecord
100
AcDbBlockTableRecord
  2
*Paper_Space0
340
77
 70
     0
280
     1
281
     0
  0
BLOCK_RECORD
  5
79
330
1
100
AcDbSymbolTableRecord
100
AcDbBlockTableRecord
  2
Block_0
340
0
102
{BLKREFS
331
7A
102
}
 70
     0
280
     1
281
     0
  0
ENDTAB
  0
ENDSEC
  0
SECTION
  2
BLOCKS
  0
BLOCK
  5
71
330
70
100
AcDbEntity
  8
0
100
AcDbBlockBegin
  2
*Model_Space
 70
     0
 10
0.0
 20
0.0
 30
0.0
  3
*Model_Space
  1

  0
ENDBLK
  5
72
330
70
100
AcDbEntity
  8
0
100
AcDbBlockEnd
  0
BLOCK
  5
6D
330
6C
100
AcDbEntity
 67
     1
  8
0
100
AcDbBlockBegin
  2
*Paper_Space
 70
     0
 10
0.0
 20
0.0
 30
0.0
  3
*Paper_Space
  1

  0
ENDBLK
  5
6E
330
6C
100
AcDbEntity
 67
     1
  8
0
100
AcDbBlockEnd
  0
BLOCK
  5
75
330
74
100
AcDbEntity
 67
     1
  8
0
100
AcDbBlockBegin
  2
*Paper_Space0
 70
     0
 10
0.0
 20
0.0
 30
0.0
  3
*Paper_Space0
  1

  0
ENDBLK
  5
76
330
74
100
AcDbEntity
 67
     1
  8
0
100
AcDbBlockEnd
  0
BLOCK
  5
7B
330
79
100
AcDbEntity
  8
0
100
AcDbBlockBegin
  2
Block_0
 70
     0
 10
0.0
 20
0.0
 30
0.0
  3
Block_0
  1

  0
LINE
  5
7D
330
79
100
AcDbEntity
  8
Camada 1
 62
   250
420
  1907995
370
     9
100
AcDbLine
 10
75.77821947242625
 20
-98.87807382538905
 30
0.0
 11
76.03610000907697
 21
-98.87807382538905
 31
0.0
  0
LINE
  5
7E
330
79
100
AcDbEntity
  8
Camada 1
 62
   250
420
  1907995
370
     9
100
AcDbLine
 10
75.77821947242625
 20
-98.77506277889922
 30
0.0
 11
76.03610000907697
 21
-98.77506277889922
 31
0.0
  0
LWPOLYLINE
  5
7F
330
79
100
AcDbEntity
  8
Camada 1
 62
   250
420
  1907995
370
     9
100
AcDbPolyline
 90
        5
 70
     0
 43
0.0
 10
117.1964452696855
 20
-95.03808965310414
 10
117.340025006995
 20
-95.16508986839086
 10
117.340025006995
 20
-95.03597145767688
 10
119.1550681804371
 20
-95.03808965310414
 10
119.1550681804371
 20
-95.1668527883462
  0
LWPOLYLINE
  5
80
330
79
100
AcDbEntity
  8
Camada 1
 62
   250
420
  1907995
370
     9
100
AcDbPolyline
 90
       15
 70
     0
 43
0.0
 10
117.1964452696855
 20
-98.9556853671177
 10
117.3252057134467
 20
-98.82656964788457
 10
117.3252057134467
 20
-98.9556853671177
 10
118.1757567250613
 20
-98.9556853671177
 10
118.1757567250613
 20
-104.3937537874402
 10
118.1757567250613
 20
-104.4195072219329
 10
118.2015088138135
 20
-104.4195072219329
 10
118.2015088138135
 20
-104.4452593106851
 10
118.2272609025658
 20
-104.4452593106851
 10
118.9747981762097
 20
-104.4452593106851
 10
119.000550264962
 20
-104.4452593106851
 10
119.000550264962
 20
-104.4195072219329
 10
119.0263023537142
 20
-104.4195072219329
 10
119.0263023537142
 20
-104.3937537874402
 10
119.0263023537142
 20
-100.5791691199165
  0
SPLINE
  5
81
330
79
100
AcDbEntity
  8
Camada 1
 62
   250
420
  1907995
370
     9
100
AcDbSpline
210
0.0
220
0.0
230
1.0
 70
     8
 71
     3
 72
    32
 73
    28
 74
     0
 42
0.0000000001
 43
0.0000000001
 40
0.0
 40
0.0
 40
0.0
 40
0.0
 40
1.0
 40
1.0
 40
1.0
 40
2.0
 40
2.0
 40
2.0
 40
3.0
 40
3.0
 40
3.0
 40
4.0
 40
4.0
 40
4.0
 40
5.0
 40
5.0
 40
5.0
 40
6.0
 40
6.0
 40
6.0
 40
7.0
 40
7.0
 40
7.0
 40
8.0
 40
8.0
 40
8.0
 40
9.0
 40
9.0
 40
9.0
 40
9.0
 10
119.5417101701544
 20
-102.7699187963911
 30
0.0
 10
119.5417101701544
 20
-102.7699187963911
 30
0.0
 10
119.5572346316848
 20
-104.2812175902298
 30
0.0
 10
119.5674622589066
 20
-104.754293795895
 30
0.0
 10
119.5776952690902
 20
-105.2270160718286
 30
0.0
 10
119.7156282795809
 20
-108.230918633537
 30
0.0
 10
119.3688471212203
 20
-110.4438932131127
 30
0.0
 10
119.0217160703495
 20
-112.6565152086974
 30
0.0
 10
118.3429730471766
 20
-116.0227206988158
 30
0.0
 10
118.6146080602652
 20
-118.3048407671133
 30
0.0
 10
118.8862484563154
 20
-120.5873134194019
 30
0.0
 10
120.2613798510997
 20
-121.9754931133365
 30
0.0
 10
123.2529338986781
 20
-122.4351630528985
 30
0.0
 10
126.2448378387667
 20
-122.8948329924605
 30
0.0
 10
127.4954344147209
 20
-120.7753429629136
 30
0.0
 10
127.6344332516273
 20
-120.2186585961908
 30
0.0
 10
127.7737765980823
 20
-119.6619769209489
 30
0.0
 10
128.2341543971073
 20
-118.2155885707177
 30
0.0
 10
127.7247431999961
 20
-115.8018820037688
 30
0.0
 10
127.215332002885
 20
-113.3885293665514
 30
0.0
 10
125.5523359654996
 20
-107.8403928369563
 30
0.0
 10
125.2835216243396
 20
-106.6141380137901
 30
0.0
 10
125.0150571756898
 20
-105.3878818448834
 30
0.0
 10
124.7737551517565
 20
-102.1155161802657
 30
0.0
 10
124.7737551517565
 20
-100.7061679894628
 30
0.0
 10
124.7737551517565
 20
-100.7061679894628
 30
0.0
 10
124.7737551517565
 20
-98.15664391596925
 30
0.0
 10
124.7737551517565
 20
-98.15664391596925
 30
0.0
  0
SPLINE
  5
82
330
79
100
AcDbEntity
  8
Camada 1
 62
   250
420
  1907995
370
     9
100
AcDbSpline
210
0.0
220
0.0
230
1.0
 70
     8
 71
     3
 72
    29
 73
    25
 74
     0
 42
0.0000000001
 43
0.0000000001
 40
0.0
 40
0.0
 40
0.0
 40
0.0
 40
1.0
 40
1.0
 40
1.0
 40
2.0
 40
2.0
 40
2.0
 40
3.0
 40
3.0
 40
3.0
 40
4.0
 40
4.0
 40
4.0
 40
5.0
 40
5.0
 40
5.0
 40
6.0
 40
6.0
 40
6.0
 40
7.0
 40
7.0
 40
7.0
 40
8.0
 40
8.0
 40
8.0
 40
8.0
 10
123.0211543339845
 20
-98.15664391596925
 30
0.0
 10
123.0211543339845
 20
-98.15664391596925
 30
0.0
 10
123.0405599108975
 20
-101.1873576641437
 30
0.0
 10
123.0857121936011
 20
-102.3903298322356
 30
0.0
 10
123.1312251347382
 20
-103.5929494163364
 30
0.0
 10
123.4141536014644
 20
-107.1454215300113
 30
0.0
 10
124.0262178781126
 20
-108.9819817470916
 30
0.0
 10
124.6382875377225
 20
-110.8188958939034
 30
0.0
 10
126.2564811849145
 20
-115.631137150262
 30
0.0
 10
126.1654660685636
 20
-117.8822136784603
 30
0.0
 10
126.0744455692509
 20
-120.1332875151778
 30
0.0
 10
125.8571354055954
 20
-120.5079389577179
 30
0.0
 10
123.6910800658998
 20
-120.7083143238787
 30
0.0
 10
121.5250247262043
 20
-120.9086923815204
 30
0.0
 10
120.1597764490933
 20
-119.3063757798499
 30
0.0
 10
120.2892474437983
 20
-116.8679775676028
 30
0.0
 10
120.4183631630315
 20
-114.4299292478659
 30
0.0
 10
121.1740125599508
 20
-110.8538205493851
 30
0.0
 10
121.2657328442839
 20
-109.4829268911958
 30
0.0
 10
121.3574585115787
 20
-108.1120318872661
 30
0.0
 10
121.3348769872652
 20
-105.4178676330093
 30
0.0
 10
121.3274700319719
 20
-104.6227072972435
 30
0.0
 10
121.3274700319719
 20
-104.6227072972435
 30
0.0
 10
121.3200630766787
 20
-102.8344766560076
 30
0.0
 10
121.3200630766787
 20
-102.8344766560076
 30
0.0
  0
LINE
  5
83
330
79
100
AcDbEntity
  8
Camada 1
 62
   250
420
  1907995
370
     9
100
AcDbLine
 10
122.0933524390749
 20
-95.9401421507424
 30
0.0
 11
122.0933524390749
 21
-98.20815078495492
 31
0.0
  0
LINE
  5
84
330
79
100
AcDbEntity
  8
Camada 1
 62
   250
420
  1907995
370
     9
100
AcDbLine
 10
122.2993745320545
 20
-95.96589423949465
 30
0.0
 11
122.2993745320545
 21
-98.23390287370715
 31
0.0
  0
SPLINE
  5
85
330
79
100
AcDbEntity
  8
Camada 1
 62
   250
420
  1907995
370
     9
100
AcDbSpline
210
0.0
220
0.0
230
1.0
 70
     8
 71
     3
 72
    14
 73
    10
 74
     0
 42
0.0000000001
 43
0.0000000001
 40
0.0
 40
0.0
 40
0.0
 40
0.0
 40
1.0
 40
1.0
 40
1.0
 40
2.0
 40
2.0
 40
2.0
 40
3.0
 40
3.0
 40
3.0
 40
3.0
 10
122.8853368274402
 20
-98.22084919159475
 30
0.0
 10
122.8853368274402
 20
-98.22084919159475
 30
0.0
 10
122.2535116984071
 20
-98.22084919159475
 30
0.0
 10
122.2535116984071
 20
-98.22084919159475
 30
0.0
 10
122.2535116984071
 20
-98.22084919159475
 30
0.0
 10
119.9142434172672
 20
-97.89770461804002
 30
0.0
 10
119.7734843518863
 20
-97.04821674136029
 30
0.0
 10
119.6447239081251
 20
-96.27034109559936
 30
0.0
 10
121.9257808414876
 20
-95.81137901550034
 30
0.0
 10
121.9257808414876
 20
-95.81137901550034
 30
0.0
  0
SPLINE
  5
86
330
79
100
AcDbEntity
  8
Camada 1
 62
   250
420
  1907995
370
     9
100
AcDbSpline
210
0.0
220
0.0
230
1.0
 70
     8
 71
     3
 72
     8
 73
     4
 74
     0
 42
0.0000000001
 43
0.0000000001
 40
0.0
 40
0.0
 40
0.0
 40
0.0
 40
1.0
 40
1.0
 40
1.0
 40
1.0
 10
123.1372217540672
 20
-80.08948390749912
 30
0.0
 10
123.1372217540672
 20
-80.08948390749912
 30
0.0
 10
121.7409245538955
 20
-79.63051913591924
 30
0.0
 10
121.6036967113869
 20
-79.5479687268348
 30
0.0
  0
SPLINE
  5
87
330
79
100
AcDbEntity
  8
Camada 1
 62
   250
420
  1907995
370
     9
100
AcDbSpline
210
0.0
220
0.0
230
1.0
 70
     8
 71
     3
 72
    14
 73
    10
 74
     0
 42
0.0000000001
 43
0.0000000001
 40
0.0
 40
0.0
 40
0.0
 40
0.0
 40
1.0
 40
1.0
 40
1.0
 40
2.0
 40
2.0
 40
2.0
 40
3.0
 40
3.0
 40
3.0
 40
3.0
 10
123.0469118056984
 20
-79.78009549255775
 30
0.0
 10
123.0469118056984
 20
-79.78009549255775
 30
0.0
 10
123.466362946951
 20
-79.49011265452938
 30
0.0
 10
123.7785693423401
 20
-79.47070976909722
 30
0.0
 10
124.0907811206908
 20
-79.45130688366507
 30
0.0
 10
125.5985486916572
 20
-80.73365485918133
 30
0.0
 10
125.5985486916572
 20
-80.73365485918133
 30
0.0
 10
125.5985486916572
 20
-80.73365485918133
 30
0.0
 10
126.0367002418406
 20
-80.73365485918133
 30
0.0
 10
126.0367002418406
 20
-80.73365485918133
 30
0.0
  0
SPLINE
  5
88
330
79
100
AcDbEntity
  8
Camada 1
 62
   250
420
  1907995
370
     9
100
AcDbSpline
210
0.0
220
0.0
230
1.0
 70
     8
 71
     3
 72
    26
 73
    22
 74
     0
 42
0.0000000001
 43
0.0000000001
 40
0.0
 40
0.0
 40
0.0
 40
0.0
 40
1.0
 40
1.0
 40
1.0
 40
2.0
 40
2.0
 40
2.0
 40
3.0
 40
3.0
 40
3.0
 40
4.0
 40
4.0
 40
4.0
 40
5.0
 40
5.0
 40
5.0
 40
6.0
 40
6.0
 40
6.0
 40
7.0
 40
7.0
 40
7.0
 40
7.0
 10
121.6220418448459
 20
-79.38075240471949
 30
0.0
 10
121.7539782360076
 20
-79.49434635390272
 30
0.0
 10
123.0469118056984
 20
-79.78009549255775
 30
0.0
 10
123.0469118056984
 20
-79.78009549255775
 30
0.0
 10
123.0469118056984
 20
-79.78009549255775
 30
0.0
 10
123.1372217540672
 20
-80.08948390749912
 30
0.0
 10
123.1372217540672
 20
-80.08948390749912
 30
0.0
 10
123.1372217540672
 20
-80.08948390749912
 30
0.0
 10
123.1499201607074
 20
-80.4242691357208
 30
0.0
 10
123.1499201607074
 20
-80.4242691357208
 30
0.0
 10
123.1499201607074
 20
-80.4242691357208
 30
0.0
 10
123.1499201607074
 20
-80.45037380846412
 30
0.0
 10
123.1499201607074
 20
-80.45037380846412
 30
0.0
 10
123.1499201607074
 20
-80.45037380846412
 30
0.0
 10
123.1241680719552
 20
-80.47612589721635
 30
0.0
 10
123.1241680719552
 20
-80.47612589721635
 30
0.0
 10
123.1241680719552
 20
-80.47612589721635
 30
0.0
 10
123.0984159832029
 20
-80.50188067744945
 30
0.0
 10
123.0984159832029
 20
-80.50188067744945
 30
0.0
 10
123.0984159832029
 20
-80.50188067744945
 30
0.0
 10
123.0469118056984
 20
-80.50188067744945
 30
0.0
 10
123.0469118056984
 20
-80.50188067744945
 30
0.0
  0
LINE
  5
89
330
79
100
AcDbEntity
  8
Camada 1
 62
   250
420
  1907995
370
     9
100
AcDbLine
 10
121.6036967113869
 20
-80.50188067744945
 30
0.0
 11
121.6036967113869
 21
-77.95023840852898
 31
0.0
  0
SPLINE
  5
8A
330
79
100
AcDbEntity
  8
Camada 1
 62
   250
420
  1907995
370
     9
100
AcDbSpline
210
0.0
220
0.0
230
1.0
 70
     8
 71
     3
 72
    14
 73
    10
 74
     0
 42
0.0000000001
 43
0.0000000001
 40
0.0
 40
0.0
 40
0.0
 40
0.0
 40
1.0
 40
1.0
 40
1.0
 40
2.0
 40
2.0
 40
2.0
 40
3.0
 40
3.0
 40
3.0
 40
3.0
 10
127.6086811628751
 20
-80.50188067744945
 30
0.0
 10
127.6086811628751
 20
-80.50188067744945
 30
0.0
 10
127.7377968821082
 20
-80.50188067744945
 30
0.0
 10
127.7377968821082
 20
-80.50188067744945
 30
0.0
 10
128.0418911542218
 20
-80.01222494976154
 30
0.0
 10
127.963574444511
 20
-78.2335194592462
 30
0.0
 10
127.7377968821082
 20
-77.95023840852898
 30
0.0
 10
127.7377968821082
 20
-77.95023840852898
 30
0.0
 10
127.6086811628751
 20
-77.95023840852898
 30
0.0
 10
127.6086811628751
 20
-77.95023840852898
 30
0.0
  0
LINE
  5
8B
330
79
100
AcDbEntity
  8
Camada 1
 62
   250
420
  1907995
370
     9
100
AcDbLine
 10
127.4799153361521
 20
-77.5635937273309
 30
0.0
 11
127.4799153361521
 21
-80.86241799442339
 31
0.0
  0
LINE
  5
8C
330
79
100
AcDbEntity
  8
Camada 1
 62
   250
420
  1907995
370
     9
100
AcDbLine
 10
127.6086811628751
 20
-80.78516172816668
 30
0.0
 11
127.6086811628751
 21
-77.64085268506846
 31
0.0
  0
LWPOLYLINE
  5
8D
330
79
100
AcDbEntity
  8
Camada 1
 62
   250
420
  1907995
370
     9
100
AcDbPolyline
 90
        4
 70
     1
 43
0.0
 10
127.1190254351871
 20
-80.91427744739979
 10
126.5263613524903
 20
-80.91427744739979
 10
126.5263613524903
 20
-77.51208685834555
 10
127.1190254351871
 20
-77.51208685834555
  0
LINE
  5
8E
330
79
100
AcDbEntity
  8
Camada 1
 62
   250
420
  1907995
370
     9
100
AcDbLine
 10
122.4281349758157
 20
-82.7441372229094
 30
0.0
 11
125.3664246174151
 21
-82.7441372229094
 31
0.0
  0
LINE
  5
8F
330
79
100
AcDbEntity
  8
Camada 1
 62
   250
420
  1907995
370
     9
100
AcDbLine
 10
122.608760255515
 20
-82.15111517325976
 30
0.0
 11
125.1861546131877
 21
-82.15111517325976
 31
0.0
  0
LINE
  5
90
330
79
100
AcDbEntity
  8
Camada 1
 62
   250
420
  1907995
370
     9
100
AcDbLine
 10
122.4281349758157
 20
-81.89358890277564
 30
0.0
 11
125.3664246174151
 21
-81.89358890277564
 31
0.0
  0
LINE
  5
91
330
79
100
AcDbEntity
  8
Camada 1
 62
   250
420
  1907995
370
     9
100
AcDbLine
 10
125.3664246174151
 20
-91.81616906827731
 30
0.0
 11
122.4281349758157
 21
-91.81616906827731
 31
0.0
  0
LINE
  5
92
330
79
100
AcDbEntity
  8
Camada 1
 62
   250
420
  1907995
370
     9
100
AcDbLine
 10
122.5057465175444
 20
-92.38343633769385
 30
0.0
 11
125.2891629681967
 21
-92.38343633769385
 31
0.0
  0
LINE
  5
93
330
79
100
AcDbEntity
  8
Camada 1
 62
   250
420
  1907995
370
     9
100
AcDbLine
 10
122.5057465175444
 20
-93.28548883533212
 30
0.0
 11
125.2891629681967
 21
-93.28548883533212
 31
0.0
  0
LINE
  5
94
330
79
100
AcDbEntity
  8
Camada 1
 62
   250
420
  1907995
370
     9
100
AcDbLine
 10
122.6860165217717
 20
-92.74397634614864
 30
0.0
 11
125.1088929639693
 21
-92.74397634614864
 31
0.0
  0
LINE
  5
95
330
79
100
AcDbEntity
  8
Camada 1
 62
   250
420
  1907995
370
     9
100
AcDbLine
 10
122.5830081667628
 20
-95.45048642305449
 30
0.0
 11
125.2376587906922
 21
-95.45048642305449
 31
0.0
  0
LINE
  5
96
330
79
100
AcDbEntity
  8
Camada 1
 62
   250
420
  1907995
370
     9
100
AcDbLine
 10
125.2376587906922
 20
-95.11534861084172
 30
0.0
 11
122.5572560780105
 21
-95.11534861084172
 31
0.0
  0
LWPOLYLINE
  5
97
330
79
100
AcDbEntity
  8
Camada 1
 62
   250
420
  1907995
370
     9
100
AcDbPolyline
 90
        3
 70
     0
 43
0.0
 10
124.9282730672317
 20
-98.19509710284251
 10
125.6726343934752
 20
-98.20815078495492
 10
125.856080345103
 20
-98.06492094015565
  0
SPLINE
  5
98
330
79
100
AcDbEntity
  8
Camada 1
 62
   250
420
  1907995
370
     9
100
AcDbSpline
210
0.0
220
0.0
230
1.0
 70
     8
 71
     3
 72
    11
 73
     7
 74
     0
 42
0.0000000001
 43
0.0000000001
 40
0.0
 40
0.0
 40
0.0
 40
0.0
 40
1.0
 40
1.0
 40
1.0
 40
2.0
 40
2.0
 40
2.0
 40
2.0
 10
121.6163951180271
 20
-99.05869641360752
 30
0.0
 10
121.6163951180271
 20
-99.05869641360752
 30
0.0
 10
121.2375099761134
 20
-99.11126103456604
 30
0.0
 10
121.2039956565959
 20
-99.81893209389163
 30
0.0
 10
121.1704867200402
 20
-100.5266044989579
 30
0.0
 10
121.5779446226347
 20
-100.5791691199165
 30
0.0
 10
121.5779446226347
 20
-100.5791691199165
 30
0.0
  0
SPLINE
  5
99
330
79
100
AcDbEntity
  8
Camada 1
 62
   250
420
  1907995
370
     9
100
AcDbSpline
210
0.0
220
0.0
230
1.0
 70
    11
 71
     3
 72
    17
 73
    13
 74
     0
 42
0.0000000001
 43
0.0000000001
 40
0.0
 40
0.0
 40
0.0
 40
0.0
 40
1.0
 40
1.0
 40
1.0
 40
2.0
 40
2.0
 40
2.0
 40
3.0
 40
3.0
 40
3.0
 40
4.0
 40
4.0
 40
4.0
 40
4.0
 10
120.3901402948609
 20
-99.05869641360752
 30
0.0
 10
120.3901402948609
 20
-99.05869641360752
 30
0.0
 10
119.6242632707197
 20
-99.13736570730936
 30
0.0
 10
119.619321711883
 20
-99.8319857760037
 30
0.0
 10
119.6147354285183
 20
-100.5266044989579
 30
0.0
 10
120.3901402948609
 20
-100.5791691199165
 30
0.0
 10
120.3901402948609
 20
-100.5791691199165
 30
0.0
 10
120.3901402948609
 20
-100.5791691199165
 30
0.0
 10
121.1997646487031
 20
-100.6059803063823
 30
0.0
 10
121.2039956565959
 20
-99.81893209389163
 30
0.0
 10
121.2082320474504
 20
-99.03223915687313
 30
0.0
 10
120.3901402948609
 20
-99.05869641360752
 30
0.0
 10
120.3901402948609
 20
-99.05869641360752
 30
0.0
  0
SPLINE
  5
9A
330
79
100
AcDbEntity
  8
Camada 1
 62
   250
420
  1907995
370
     9
100
AcDbSpline
210
0.0
220
0.0
230
1.0
 70
     8
 71
     3
 72
    11
 73
     7
 74
     0
 42
0.0000000001
 43
0.0000000001
 40
0.0
 40
0.0
 40
0.0
 40
0.0
 40
1.0
 40
1.0
 40
1.0
 40
2.0
 40
2.0
 40
2.0
 40
2.0
 10
119.3353381846645
 20
-99.05869641360752
 30
0.0
 10
119.3353381846645
 20
-99.05869641360752
 30
0.0
 10
119.6327252865053
 20
-99.3119916761988
 30
0.0
 10
119.6189664364111
 20
-99.73215067691436
 30
0.0
 10
119.6052129692786
 20
-100.151954402158
 30
0.0
 10
119.5978006310236
 20
-100.4334711871797
 30
0.0
 10
119.3120514923689
 20
-100.5791691199165
 30
0.0
  0
SPLINE
  5
9B
330
79
100
AcDbEntity
  8
Camada 1
 62
   250
420
  1907995
370
     9
100
AcDbSpline
210
0.0
220
0.0
230
1.0
 70
     8
 71
     3
 72
    26
 73
    22
 74
     0
 42
0.0000000001
 43
0.0000000001
 40
0.0
 40
0.0
 40
0.0
 40
0.0
 40
1.0
 40
1.0
 40
1.0
 40
2.0
 40
2.0
 40
2.0
 40
3.0
 40
3.0
 40
3.0
 40
4.0
 40
4.0
 40
4.0
 40
5.0
 40
5.0
 40
5.0
 40
6.0
 40
6.0
 40
6.0
 40
7.0
 40
7.0
 40
7.0
 40
7.0
 10
119.1808202691894
 20
-99.05869641360752
 30
0.0
 10
118.9550427067865
 20
-99.16170746009733
 30
0.0
 10
118.8714345457289
 20
-99.57410423004766
 30
0.0
 10
118.8714345457289
 20
-99.57410423004766
 30
0.0
 10
118.8714345457289
 20
-99.57410423004766
 30
0.0
 10
118.8714345457289
 20
-100.0895133922282
 30
0.0
 10
118.8714345457289
 20
-100.0895133922282
 30
0.0
 10
118.8947158550628
 20
-100.2390910946075
 30
0.0
 10
119.0520544424665
 20
-100.5791691199165
 30
0.0
 10
119.0520544424665
 20
-100.5791691199165
 30
0.0
 10
119.0520544424665
 20
-100.5791691199165
 30
0.0
 10
121.8097188043666
 20
-100.5791691199165
 30
0.0
 10
121.8097188043666
 20
-100.5791691199165
 30
0.0
 10
121.8097188043666
 20
-100.5791691199165
 30
0.0
 10
121.9631762763877
 20
-100.2200407931664
 30
0.0
 10
121.989988808594
 20
-100.0895133922282
 30
0.0
 10
121.989988808594
 20
-100.0895133922282
 30
0.0
 10
121.989988808594
 20
-99.57410423004766
 30
0.0
 10
121.989988808594
 20
-99.57410423004766
 30
0.0
 10
121.989988808594
 20
-99.57410423004766
 30
0.0
 10
121.8887406820595
 20
-99.16170746009733
 30
0.0
 10
121.6809529776437
 20
-99.05869641360752
 30
0.0
  0
LWPOLYLINE
  5
9C
330
79
100
AcDbEntity
  8
Camada 1
 62
   250
420
  1907995
370
     9
100
AcDbPolyline
 90
        4
 70
     0
 43
0.0
 10
119.2323244466939
 20
-98.72355860139474
 10
119.2838286241983
 20
-98.77506277889922
 10
121.5779446226347
 20
-98.77506277889922
 10
121.6294488001392
 20
-98.72355860139474
  0
LWPOLYLINE
  5
9D
330
79
100
AcDbEntity
  8
Camada 1
 62
   250
420
  1907995
370
     9
100
AcDbPolyline
 90
        4
 70
     1
 43
0.0
 10
119.1808202691894
 20
-99.05869641360752
 10
121.6809529776437
 20
-99.05869641360752
 10
121.6809529776437
 20
-98.9556853671177
 10
119.1808202691894
 20
-98.9556853671177
  0
LWPOLYLINE
  5
9E
330
79
100
AcDbEntity
  8
Camada 1
 62
   250
420
  1907995
370
     9
100
AcDbPolyline
 90
        4
 70
     0
 43
0.0
 10
121.6809529776437
 20
-98.9556853671177
 10
121.5779446226347
 20
-98.87807382538905
 10
119.2838286241983
 20
-98.87807382538905
 10
119.1808202691894
 20
-98.9556853671177
  0
LINE
  5
9F
330
79
100
AcDbEntity
  8
Camada 1
 62
   250
420
  1907995
370
     9
100
AcDbLine
 10
119.2838286241983
 20
-98.77506277889922
 30
0.0
 11
119.2838286241983
 21
-98.87807382538905
 31
0.0
  0
LINE
  5
A0
330
79
100
AcDbEntity
  8
Camada 1
 62
   250
420
  1907995
370
     9
100
AcDbLine
 10
121.5779446226347
 20
-98.87807382538905
 30
0.0
 11
121.5779446226347
 21
-98.77506277889922
 31
0.0
  0
LWPOLYLINE
  5
A1
330
79
100
AcDbEntity
  8
Camada 1
 62
   250
420
  1907995
370
     9
100
AcDbPolyline
 90
        4
 70
     0
 43
0.0
 10
126.5263559695286
 20
-77.5635937273309
 10
126.0367002418406
 20
-77.5635937273309
 10
126.0367002418406
 20
-80.86241799442339
 10
126.5263559695286
 20
-80.86241799442339
  0
LWPOLYLINE
  5
A2
330
79
100
AcDbEntity
  8
Camada 1
 62
   250
420
  1907995
370
     9
100
AcDbPolyline
 90
       10
 70
     0
 43
0.0
 10
127.1190254351871
 20
-80.86241799442339
 10
127.4799153361521
 20
-80.86241799442339
 10
127.5056674249044
 20
-80.86241799442339
 10
127.5314195136566
 20
-80.86241799442339
 10
127.5571716024089
 20
-80.83666590567116
 10
127.5829236911611
 20
-80.83666590567116
 10
127.5829236911611
 20
-80.81091381691891
 10
127.6086811628751
 20
-80.78516172816668
 10
127.6086811628751
 20
-80.75940694793358
 10
127.6086811628751
 20
-80.73365485918133
  0
LWPOLYLINE
  5
A3
330
79
100
AcDbEntity
  8
Camada 1
 62
   250
420
  1907995
370
     9
100
AcDbPolyline
 90
       10
 70
     0
 43
0.0
 10
127.6086811628751
 20
-77.69235686257295
 10
127.6086811628751
 20
-77.66660477382071
 10
127.6086811628751
 20
-77.64085268506846
 10
127.5829236911611
 20
-77.64085268506846
 10
127.5829236911611
 20
-77.61510059631622
 10
127.5571716024089
 20
-77.58934581608314
 10
127.5314195136566
 20
-77.58934581608314
 10
127.5056674249044
 20
-77.58934581608314
 10
127.4799153361521
 20
-77.5635937273309
 10
127.1190254351871
 20
-77.5635937273309
  0
LWPOLYLINE
  5
A4
330
79
100
AcDbEntity
  8
Camada 1
 62
   250
420
  1907995
370
     9
100
AcDbPolyline
 90
       10
 70
     0
 43
0.0
 10
126.0367002418406
 20
-77.69235686257295
 10
124.0262178781126
 20
-77.69235686257295
 10
121.6036967113869
 20
-77.95023840852898
 10
121.217049338708
 20
-77.95023840852898
 10
121.217049338708
 20
-78.826538817415
 10
121.1136857082271
 20
-79.2131834986131
 10
119.7734843518863
 20
-84.2388564947254
 10
120.2373879908219
 20
-84.36761962996746
 10
121.2685588991742
 20
-80.50188067744945
 10
123.0469118056984
 20
-80.50188067744945
  0
SPLINE
  5
A5
330
79
100
AcDbEntity
  8
Camada 1
 62
   250
420
  1907995
370
     9
100
AcDbSpline
210
0.0
220
0.0
230
1.0
 70
     8
 71
     3
 72
    44
 73
    40
 74
     0
 42
0.0000000001
 43
0.0000000001
 40
0.0
 40
0.0
 40
0.0
 40
0.0
 40
1.0
 40
1.0
 40
1.0
 40
2.0
 40
2.0
 40
2.0
 40
3.0
 40
3.0
 40
3.0
 40
4.0
 40
4.0
 40
4.0
 40
5.0
 40
5.0
 40
5.0
 40
6.0
 40
6.0
 40
6.0
 40
7.0
 40
7.0
 40
7.0
 40
8.0
 40
8.0
 40
8.0
 40
9.0
 40
9.0
 40
9.0
 40
10.0
 40
10.0
 40
10.0
 40
11.0
 40
11.0
 40
11.0
 40
12.0
 40
12.0
 40
12.0
 40
13.0
 40
13.0
 40
13.0
 40
13.0
 10
125.21190670194
 20
-95.88863528175705
 30
0.0
 10
125.21190670194
 20
-95.88863528175705
 30
0.0
 10
125.2376587906922
 20
-95.45048642305449
 30
0.0
 10
125.2376587906922
 20
-95.45048642305449
 30
0.0
 10
125.3064530411633
 20
-95.33865539382626
 30
0.0
 10
125.3064530411633
 20
-95.22682436459803
 30
0.0
 10
125.2376587906922
 20
-95.11534861084172
 30
0.0
 10
125.2376587906922
 20
-95.11534861084172
 30
0.0
 10
125.2891629681967
 20
-93.28548883533212
 30
0.0
 10
125.2891629681967
 20
-93.28548883533212
 30
0.0
 10
125.2891629681967
 20
-93.28548883533212
 30
0.0
 10
125.3664246174151
 20
-93.23398465782764
 30
0.0
 10
125.3664246174151
 20
-93.10486624711364
 30
0.0
 10
125.3664246174151
 20
-92.9761031118716
 30
0.0
 10
125.39605782155
 20
-92.74397634614864
 30
0.0
 10
125.1088929639693
 20
-92.74397634614864
 30
0.0
 10
125.1088929639693
 20
-92.74397634614864
 30
0.0
 10
125.2891629681967
 20
-92.38343633769385
 30
0.0
 10
125.2891629681967
 20
-92.38343633769385
 30
0.0
 10
125.2891629681967
 20
-92.38343633769385
 30
0.0
 10
125.3664246174151
 20
-92.20704744884907
 30
0.0
 10
125.3664246174151
 20
-91.81616906827731
 30
0.0
 10
125.3664246174151
 20
-91.81616906827731
 30
0.0
 10
125.3664246174151
 20
-82.7441372229094
 30
0.0
 10
125.3664246174151
 20
-82.7441372229094
 30
0.0
 10
125.3664246174151
 20
-82.7441372229094
 30
0.0
 10
125.3625435020325
 20
-82.6453571843124
 30
0.0
 10
125.3149150569489
 20
-82.51200776570561
 30
0.0
 10
125.3149150569489
 20
-82.51200776570561
 30
0.0
 10
125.1861546131877
 20
-82.15111517325976
 30
0.0
 10
125.1861546131877
 20
-82.15111517325976
 30
0.0
 10
125.1861546131877
 20
-82.15111517325976
 30
0.0
 10
125.3664246174151
 20
-82.07985552633203
 30
0.0
 10
125.3664246174151
 20
-81.89358890277564
 30
0.0
 10
125.3664246174151
 20
-81.89358890277564
 30
0.0
 10
125.3664246174151
 20
-80.96578162490429
 30
0.0
 10
125.3664246174151
 20
-80.96578162490429
 30
0.0
 10
125.3664246174151
 20
-80.96578162490429
 30
0.0
 10
125.3399673606807
 20
-80.73365485918133
 30
0.0
 10
125.5985486916572
 20
-80.73365485918133
 30
0.0
  0
SPLINE
  5
A6
330
79
100
AcDbEntity
  8
Camada 1
 62
   250
420
  1907995
370
     9
100
AcDbSpline
210
0.0
220
0.0
230
1.0
 70
     8
 71
     3
 72
    41
 73
    37
 74
     0
 42
0.0000000001
 43
0.0000000001
 40
0.0
 40
0.0
 40
0.0
 40
0.0
 40
1.0
 40
1.0
 40
1.0
 40
2.0
 40
2.0
 40
2.0
 40
3.0
 40
3.0
 40
3.0
 40
4.0
 40
4.0
 40
4.0
 40
5.0
 40
5.0
 40
5.0
 40
6.0
 40
6.0
 40
6.0
 40
7.0
 40
7.0
 40
7.0
 40
8.0
 40
8.0
 40
8.0
 40
9.0
 40
9.0
 40
9.0
 40
10.0
 40
10.0
 40
10.0
 40
11.0
 40
11.0
 40
11.0
 40
12.0
 40
12.0
 40
12.0
 40
12.0
 10
122.4281349758157
 20
-80.50188067744945
 30
0.0
 10
122.4281349758157
 20
-80.50188067744945
 30
0.0
 10
122.4281349758157
 20
-81.89358890277564
 30
0.0
 10
122.4281349758157
 20
-81.89358890277564
 30
0.0
 10
122.4281349758157
 20
-82.06574409224675
 30
0.0
 10
122.608760255515
 20
-82.15111517325976
 30
0.0
 10
122.608760255515
 20
-82.15111517325976
 30
0.0
 10
122.608760255515
 20
-82.15111517325976
 30
0.0
 10
122.4799944287921
 20
-82.51200776570561
 30
0.0
 10
122.4799944287921
 20
-82.51200776570561
 30
0.0
 10
122.4404834899456
 20
-82.62278104296063
 30
0.0
 10
122.4281349758157
 20
-82.7441372229094
 30
0.0
 10
122.4281349758157
 20
-82.7441372229094
 30
0.0
 10
122.4281349758157
 20
-82.7441372229094
 30
0.0
 10
122.4281349758157
 20
-91.81616906827731
 30
0.0
 10
122.4281349758157
 20
-91.81616906827731
 30
0.0
 10
122.4281349758157
 20
-92.18588164346156
 30
0.0
 10
122.5057465175444
 20
-92.38343633769385
 30
0.0
 10
122.5057465175444
 20
-92.38343633769385
 30
0.0
 10
122.5057465175444
 20
-92.38343633769385
 30
0.0
 10
122.6860165217717
 20
-92.74397634614864
 30
0.0
 10
122.6860165217717
 20
-92.74397634614864
 30
0.0
 10
122.4588286234046
 20
-92.74397634614864
 30
0.0
 10
122.4281349758157
 20
-92.92459624288625
 30
0.0
 10
122.4281349758157
 20
-93.10486624711364
 30
0.0
 10
122.4281349758157
 20
-93.28548883533212
 30
0.0
 10
122.5057465175444
 20
-93.28548883533212
 30
0.0
 10
122.5057465175444
 20
-93.28548883533212
 30
0.0
 10
122.5057465175444
 20
-93.28548883533212
 30
0.0
 10
122.5572560780105
 20
-95.11534861084172
 30
0.0
 10
122.5572560780105
 20
-95.11534861084172
 30
0.0
 10
122.4799944287921
 20
-95.22682436459803
 30
0.0
 10
122.4884618275394
 20
-95.33865539382626
 30
0.0
 10
122.5830081667628
 20
-95.45048642305449
 30
0.0
 10
122.5830081667628
 20
-95.45048642305449
 30
0.0
 10
122.5830081667628
 20
-95.88863528175705
 30
0.0
 10
122.5830081667628
 20
-95.88863528175705
 30
0.0
  0
LWPOLYLINE
  5
A7
330
79
100
AcDbEntity
  8
Camada 1
 62
   250
420
  1907995
370
     9
100
AcDbPolyline
 90
        4
 70
     1
 43
0.0
 10
122.9181459789755
 20
-97.89876506149406
 10
124.8767688897272
 20
-97.89876506149406
 10
124.8767688897272
 20
-96.68732414891444
 10
122.9181459789755
 20
-96.68732414891444
  0
LWPOLYLINE
  5
A8
330
79
100
AcDbEntity
  8
Camada 1
 62
   250
420
  1907995
370
     9
100
AcDbPolyline
 90
        4
 70
     0
 43
0.0
 10
123.0211543339845
 20
-97.89876506149406
 10
123.0211543339845
 20
-98.15664391596925
 10
124.7737551517565
 20
-98.15664391596925
 10
124.7737551517565
 20
-97.89876506149406
  0
LWPOLYLINE
  5
A9
330
79
100
AcDbEntity
  8
Camada 1
 62
   250
420
  1907995
370
     9
100
AcDbPolyline
 90
       18
 70
     1
 43
0.0
 10
124.9282730672317
 20
-95.87558429112583
 10
124.9282730672317
 20
-98.59479546615268
 10
125.2376587906922
 20
-98.82656964788457
 10
125.7273145183801
 20
-98.82656964788457
 10
125.7530666071324
 20
-98.82656964788457
 10
125.7788186958846
 20
-98.82656964788457
 10
125.8045707846369
 20
-98.80081755913231
 10
125.8045707846369
 20
-98.77506277889922
 10
125.8303282563508
 20
-98.77506277889922
 10
125.8303282563508
 20
-98.74931069014699
 10
125.856080345103
 20
-98.72355860139474
 10
125.856080345103
 20
-98.6978065126425
 10
125.856080345103
 20
-95.96589423949465
 10
125.856080345103
 20
-95.9401421507424
 10
125.8303282563508
 20
-95.9401421507424
 10
125.8303282563508
 20
-95.91439006199015
 10
125.8045707846369
 20
-95.91439006199015
 10
125.7788186958846
 20
-95.88863528175705
  0
LWPOLYLINE
  5
AA
330
79
100
AcDbEntity
  8
Camada 1
 62
   250
420
  1907995
370
     9
100
AcDbPolyline
 90
        7
 70
     0
 43
0.0
 10
121.7582146268621
 20
-98.82656964788457
 10
122.5572560780105
 20
-98.82656964788457
 10
122.8920386147514
 20
-98.56904068591958
 10
122.8405344372469
 20
-95.91439006199015
 10
122.1963607940838
 20
-95.91439006199015
 10
119.747732263134
 20
-95.1668527883462
 10
114.8765798739777
 20
-95.1668527883462
  0
SPLINE
  5
AB
330
79
100
AcDbEntity
  8
Camada 1
 62
   250
420
  1907995
370
     9
100
AcDbSpline
210
0.0
220
0.0
230
1.0
 70
     8
 71
     3
 72
    11
 73
     7
 74
     0
 42
0.0000000001
 43
0.0000000001
 40
0.0
 40
0.0
 40
0.0
 40
0.0
 40
1.0
 40
1.0
 40
1.0
 40
2.0
 40
2.0
 40
2.0
 40
2.0
 10
114.8765798739777
 20
-98.82656964788457
 30
0.0
 10
114.8765798739777
 20
-98.82656964788457
 30
0.0
 10
119.0778065312187
 20
-98.82656964788457
 30
0.0
 10
119.0778065312187
 20
-98.82656964788457
 30
0.0
 10
119.9315281072721
 20
-98.02752819673614
 30
0.0
 10
120.8762701826381
 20
-98.04128704683034
 30
0.0
 10
121.7839667156143
 20
-98.82656964788457
 30
0.0
  0
LWPOLYLINE
  5
AC
330
79
100
AcDbEntity
  8
Camada 1
 62
   250
420
  1907995
370
     9
100
AcDbPolyline
 90
        3
 70
     0
 43
0.0
 10
117.1964452696855
 20
-95.1668527883462
 10
117.1964452696855
 20
-95.03808965310414
 10
114.8765798739777
 20
-95.03808965310414
  0
LWPOLYLINE
  5
AD
330
79
100
AcDbEntity
  8
Camada 1
 62
   250
420
  1907995
370
     9
100
AcDbPolyline
 90
        3
 70
     0
 43
0.0
 10
114.8765798739777
 20
-98.9556853671177
 10
117.1964452696855
 20
-98.9556853671177
 10
117.1964452696855
 20
-98.82656964788457
  0
LWPOLYLINE
  5
AE
330
79
100
AcDbEntity
  8
Camada 1
 62
   250
420
  1907995
370
     9
100
AcDbPolyline
 90
        4
 70
     1
 43
0.0
 10
114.8765798739777
 20
-93.33699570431745
 10
114.5156872815319
 20
-93.33699570431745
 10
114.5156872815319
 20
-100.6567793159047
 10
114.8765798739777
 20
-100.6567793159047
  0
LWPOLYLINE
  5
AF
330
79
100
AcDbEntity
  8
Camada 1
 62
   250
420
  1907995
370
     9
100
AcDbPolyline
 90
        4
 70
     0
 43
0.0
 10
119.2838286241983
 20
-100.5791691199165
 10
119.2838286241983
 20
-101.5588318135429
 10
121.5779446226347
 20
-101.5588318135429
 10
121.5779446226347
 20
-100.5791691199165
  0
LWPOLYLINE
  5
B0
330
79
100
AcDbEntity
  8
Camada 1
 62
   250
420
  1907995
370
     9
100
AcDbPolyline
 90
        4
 70
     0
 43
0.0
 10
119.4644539038977
 20
-101.5588318135429
 10
119.4644539038977
 20
-102.7699187963911
 10
121.3973193429354
 20
-102.7699187963911
 10
121.3973193429354
 20
-101.5588318135429
  0
LINE
  5
B1
330
79
100
AcDbEntity
  8
Camada 1
 62
   250
420
  1907995
370
     9
100
AcDbLine
 10
112.1961717783344
 20
-97.6133658153496
 30
0.0
 11
114.5156872815319
 21
-97.6133658153496
 31
0.0
  0
LINE
  5
B2
330
79
100
AcDbEntity
  8
Camada 1
 62
   250
420
  1907995
370
     9
100
AcDbLine
 10
114.5156872815319
 20
-96.37617550549856
 30
0.0
 11
112.1961717783344
 21
-96.37617550549856
 31
0.0
  0
LINE
  5
B3
330
79
100
AcDbEntity
  8
Camada 1
 62
   250
420
  1907995
370
     9
100
AcDbLine
 10
114.412676235042
 20
-95.03597145767688
 30
0.0
 11
112.1961717783344
 21
-95.03597145767688
 31
0.0
  0
LINE
  5
B4
330
79
100
AcDbEntity
  8
Camada 1
 62
   250
420
  1907995
370
     9
100
AcDbLine
 10
112.1961717783344
 20
-98.95356986317128
 30
0.0
 11
114.412676235042
 21
-98.95356986317128
 31
0.0
  0
LWPOLYLINE
  5
B5
330
79
100
AcDbEntity
  8
Camada 1
 62
   250
420
  1907995
370
     9
100
AcDbPolyline
 90
        3
 70
     0
 43
0.0
 10
107.7116613788953
 20
-101.8145965098121
 10
111.7580229196318
 20
-101.8145965098121
 10
111.7580229196318
 20
-101.4279518286141
  0
LWPOLYLINE
  5
B6
330
79
100
AcDbEntity
  8
Camada 1
 62
   250
420
  1907995
370
     9
100
AcDbPolyline
 90
        4
 70
     0
 43
0.0
 10
107.7116613788953
 20
-102.3042522375001
 10
110.8817225107458
 20
-102.3042522375001
 10
110.9332293797311
 20
-102.2269932797625
 10
110.9332293797311
 20
-101.8145965098121
  0
LWPOLYLINE
  5
B7
330
79
100
AcDbEntity
  8
Camada 1
 62
   250
420
  1907995
370
     9
100
AcDbPolyline
 90
        4
 70
     0
 43
0.0
 10
107.7825711333128
 20
-92.56194073048506
 10
111.8095297886171
 20
-92.56194073048506
 10
111.8095297886171
 20
-101.4279518286141
 10
107.7116613788953
 20
-101.4279518286141
  0
LWPOLYLINE
  5
B8
330
79
100
AcDbEntity
  8
Camada 1
 62
   250
420
  1907995
370
     9
100
AcDbPolyline
 90
        4
 70
     0
 43
0.0
 10
111.8095297886171
 20
-101.2730826748883
 10
112.1961717783344
 20
-101.2730826748883
 10
112.1961717783344
 20
-92.71645864596022
 10
111.8095297886171
 20
-92.71645864596022
  0
LWPOLYLINE
  5
B9
330
79
100
AcDbEntity
  8
Camada 1
 62
   250
420
  1907995
370
     9
100
AcDbPolyline
 90
        8
 70
     0
 43
0.0
 10
106.4744710690443
 20
-99.93288131854711
 10
107.7116613788953
 20
-99.93288131854711
 10
107.7116613788953
 20
-103.0514355814125
 10
106.4744710690443
 20
-103.0514355814125
 10
106.4744710690443
 20
-90.93810573943594
 10
107.7116613788953
 20
-90.93810573943594
 10
107.7116613788953
 20
-94.05666000230105
 10
106.4744710690443
 20
-94.05666000230105
  0
LINE
  5
BA
330
79
100
AcDbEntity
  8
Camada 1
 62
   250
420
  1907995
370
     9
100
AcDbLine
 10
78.04658069062951
 20
-98.87807382538905
 30
0.0
 11
77.81445257916614
 21
-98.87807382538905
 31
0.0
  0
LINE
  5
BB
330
79
100
AcDbEntity
  8
Camada 1
 62
   250
420
  1907995
370
     9
100
AcDbLine
 10
78.04658069062951
 20
-98.77506277889922
 30
0.0
 11
77.81445257916614
 21
-98.77506277889922
 31
0.0
  0
SPLINE
  5
BC
330
79
100
AcDbEntity
  8
Camada 1
 62
   250
420
  1907995
370
     9
100
AcDbSpline
210
0.0
220
0.0
230
1.0
 70
     8
 71
     3
 72
    11
 73
     7
 74
     0
 42
0.0000000001
 43
0.0000000001
 40
0.0
 40
0.0
 40
0.0
 40
0.0
 40
1.0
 40
1.0
 40
1.0
 40
2.0
 40
2.0
 40
2.0
 40
2.0
 10
77.81445257916614
 20
-99.02024322673426
 30
0.0
 10
77.81445257916614
 20
-99.02024322673426
 30
0.0
 10
78.22332216346537
 20
-99.22838351514116
 30
0.0
 10
78.23037788050801
 20
-99.7568450136934
 30
0.0
 10
78.23778618154172
 20
-100.2853051665055
 30
0.0
 10
78.0367029559179
 20
-100.4581655239588
 30
0.0
 10
77.81445257916614
 20
-100.5791691199165
 30
0.0
  0
SPLINE
  5
BD
330
79
100
AcDbEntity
  8
Camada 1
 62
   250
420
  1907995
370
     9
100
AcDbSpline
210
0.0
220
0.0
230
1.0
 70
     8
 71
     3
 72
    11
 73
     7
 74
     0
 42
0.0000000001
 43
0.0000000001
 40
0.0
 40
0.0
 40
0.0
 40
0.0
 40
1.0
 40
1.0
 40
1.0
 40
2.0
 40
2.0
 40
2.0
 40
2.0
 10
76.03610000907697
 20
-99.02024322673426
 30
0.0
 10
76.03610000907697
 20
-99.02024322673426
 30
0.0
 10
75.61206123871925
 20
-99.27142298537916
 30
0.0
 10
75.61064989344966
 20
-99.72862214552282
 30
0.0
 10
75.6095918050407
 20
-100.1861738896575
 30
0.0
 10
75.67168056741576
 20
-100.3339886720814
 30
0.0
 10
76.03610000907697
 20
-100.5791691199165
 30
0.0
  0
SPLINE
  5
BE
330
79
100
AcDbEntity
  8
Camada 1
 62
   250
420
  1907995
370
     9
100
AcDbSpline
210
0.0
220
0.0
230
1.0
 70
     8
 71
     3
 72
    17
 73
    13
 74
     0
 42
0.0000000001
 43
0.0000000001
 40
0.0
 40
0.0
 40
0.0
 40
0.0
 40
1.0
 40
1.0
 40
1.0
 40
2.0
 40
2.0
 40
2.0
 40
3.0
 40
3.0
 40
3.0
 40
4.0
 40
4.0
 40
4.0
 40
4.0
 10
91.16497407673387
 20
-100.6564267319136
 30
0.0
 10
87.82699145478597
 20
-100.1127960473026
 30
0.0
 10
87.89190189839359
 20
-96.985069217708
 30
0.0
 10
87.89190189839359
 20
-96.985069217708
 30
0.0
 10
87.89190189839359
 20
-94.97176618205138
 30
0.0
 10
89.52420563393049
 20
-93.33946379225492
 30
0.0
 10
91.53750732384668
 20
-93.33946379225492
 30
0.0
 10
93.55116294349436
 20
-93.33946379225492
 30
0.0
 10
95.18311140355931
 20
-94.97176618205138
 30
0.0
 10
95.18311140355931
 20
-96.985069217708
 30
0.0
 10
95.18311140355931
 20
-96.985069217708
 30
0.0
 10
95.2928269288405
 20
-100.0581159223976
 30
0.0
 10
91.9125100046374
 20
-100.643726979533
 30
0.0
  0
LWPOLYLINE
  5
BF
330
79
100
AcDbEntity
  8
Camada 1
 62
   250
420
  1907995
370
     9
100
AcDbPolyline
 90
        3
 70
     0
 43
0.0
 10
88.97422440025925
 20
-101.4297160943098
 10
88.97422440025925
 20
-101.8163607755079
 10
91.16497407673387
 20
-101.8163607755079
  0
LINE
  5
C0
330
79
100
AcDbEntity
  8
Camada 1
 62
   250
420
  1907995
370
     9
100
AcDbLine
 10
78.08891364714495
 20
-101.4297160943098
 30
0.0
 11
91.16497407673387
 21
-101.4297160943098
 31
0.0
  0
SPLINE
  5
C1
330
79
100
AcDbEntity
  8
Camada 1
 62
   250
420
  1907995
370
     9
100
AcDbSpline
210
0.0
220
0.0
230
1.0
 70
     9
 71
     3
 72
    17
 73
    13
 74
     0
 42
0.0000000001
 43
0.0000000001
 40
0.0
 40
0.0
 40
0.0
 40
0.0
 40
1.0
 40
1.0
 40
1.0
 40
2.0
 40
2.0
 40
2.0
 40
3.0
 40
3.0
 40
3.0
 40
4.0
 40
4.0
 40
4.0
 40
4.0
 10
93.5105942526747
 20
-96.99670987237496
 30
0.0
 10
93.5105942526747
 20
-98.07867979024955
 30
0.0
 10
92.63358867580654
 20
-98.9556853671177
 30
0.0
 10
91.55161875793195
 20
-98.9556853671177
 30
0.0
 10
90.47000276978888
 20
-98.9556853671177
 30
0.0
 10
89.59299719292072
 20
-98.07867979024955
 30
0.0
 10
89.59299719292072
 20
-96.99670987237496
 30
0.0
 10
89.59299719292072
 20
-95.91509522997261
 30
0.0
 10
90.47000276978888
 20
-95.03808965310414
 30
0.0
 10
91.55161875793195
 20
-95.03808965310414
 30
0.0
 10
92.63358867580654
 20
-95.03808965310414
 30
0.0
 10
93.5105942526747
 20
-95.91509522997261
 30
0.0
 10
93.5105942526747
 20
-96.99670987237496
 30
0.0
  0
SPLINE
  5
C2
330
79
100
AcDbEntity
  8
Camada 1
 62
   250
420
  1907995
370
     9
100
AcDbSpline
210
0.0
220
0.0
230
1.0
 70
     8
 71
     3
 72
     8
 73
     4
 74
     0
 42
0.0000000001
 43
0.0000000001
 40
0.0
 40
0.0
 40
0.0
 40
0.0
 40
1.0
 40
1.0
 40
1.0
 40
1.0
 10
75.59795014106907
 20
-95.69813495882698
 30
0.0
 10
75.59795014106907
 20
-95.69813495882698
 30
0.0
 10
75.37393617149176
 20
-95.92991183203972
 30
0.0
 10
75.26281098311589
 20
-96.20402031602745
 30
0.0
  0
SPLINE
  5
C3
330
79
100
AcDbEntity
  8
Camada 1
 62
   250
420
  1907995
370
     9
100
AcDbSpline
210
0.0
220
0.0
230
1.0
 70
     8
 71
     3
 72
    14
 73
    10
 74
     0
 42
0.0000000001
 43
0.0000000001
 40
0.0
 40
0.0
 40
0.0
 40
0.0
 40
1.0
 40
1.0
 40
1.0
 40
2.0
 40
2.0
 40
2.0
 40
3.0
 40
3.0
 40
3.0
 40
3.0
 10
75.26281098311589
 20
-97.76999923477115
 30
0.0
 10
75.79938595068397
 20
-98.79199757639391
 30
0.0
 10
76.89687763860812
 20
-98.85408465659216
 30
0.0
 10
76.89687763860812
 20
-98.85408465659216
 30
0.0
 10
77.91605261682147
 20
-98.85408465659216
 30
0.0
 10
78.74225851129707
 20
-98.03987401938522
 30
0.0
 10
78.74225851129707
 20
-97.03551564323928
 30
0.0
 10
78.74225851129707
 20
-97.03551564323928
 30
0.0
 10
78.77048070659679
 20
-96.15780489838899
 30
0.0
 10
78.23319989817699
 20
-95.74117442906498
 30
0.0
  0
LWPOLYLINE
  5
C4
330
79
100
AcDbEntity
  8
Camada 1
 62
   250
420
  1907995
370
     9
100
AcDbPolyline
 90
        6
 70
     0
 43
0.0
 10
78.17851910040182
 20
-99.02024322673426
 10
78.17534449874178
 20
-98.9556853671177
 10
78.04658069062951
 20
-98.87807382538905
 10
78.04658069062951
 20
-98.77506277889922
 10
78.25260278360914
 20
-98.56904068591958
 10
77.89171086403349
 20
-98.56763034995532
  0
LINE
  5
C5
330
79
100
AcDbEntity
  8
Camada 1
 62
   250
420
  1907995
370
     9
100
AcDbLine
 10
78.25260278360914
 20
-98.56904068591958
 30
0.0
 11
78.25260278360914
 21
-98.23390287370715
 31
0.0
  0
LINE
  5
C6
330
79
100
AcDbEntity
  8
Camada 1
 62
   250
420
  1907995
370
     9
100
AcDbLine
 10
75.57219704301151
 20
-99.02024322673426
 30
0.0
 11
76.03610000907697
 21
-99.02024322673426
 31
0.0
  0
LINE
  5
C7
330
79
100
AcDbEntity
  8
Camada 1
 62
   250
420
  1907995
370
     9
100
AcDbLine
 10
75.57219704301151
 20
-98.19544968683358
 30
0.0
 11
75.57219704301151
 21
-95.74117442906498
 31
0.0
  0
LINE
  5
C8
330
79
100
AcDbEntity
  8
Camada 1
 62
   250
420
  1907995
370
     9
100
AcDbLine
 10
75.59795014106907
 20
-95.88863528175705
 30
0.0
 11
78.38630545907722
 21
-95.88863528175705
 31
0.0
  0
LINE
  5
C9
330
79
100
AcDbEntity
  8
Camada 1
 62
   250
420
  1907995
370
     9
100
AcDbLine
 10
75.58489713182784
 20
-95.45048642305449
 30
0.0
 11
78.25048593392231
 21
-95.45048642305449
 31
0.0
  0
LINE
  5
CA
330
79
100
AcDbEntity
  8
Camada 1
 62
   250
420
  1907995
370
     9
100
AcDbLine
 10
75.57219704301151
 20
-95.11534861084172
 30
0.0
 11
78.25260278360914
 21
-95.11534861084172
 31
0.0
  0
LINE
  5
CB
330
79
100
AcDbEntity
  8
Camada 1
 62
   250
420
  1907995
370
     9
100
AcDbLine
 10
75.5206915197666
 20
-93.28548883533212
 30
0.0
 11
78.31716131609592
 21
-93.26608594989997
 31
0.0
  0
LINE
  5
CC
330
79
100
AcDbEntity
  8
Camada 1
 62
   250
420
  1907995
370
     9
100
AcDbLine
 10
75.70096118755889
 20
-92.74397634614864
 30
0.0
 11
78.14959173711932
 21
-92.74397634614864
 31
0.0
  0
LINE
  5
CD
330
79
100
AcDbEntity
  8
Camada 1
 62
   250
420
  1907995
370
     9
100
AcDbLine
 10
75.44343323489925
 20
-91.81616906827731
 30
0.0
 11
78.38136659172142
 21
-91.81616906827731
 31
0.0
  0
LINE
  5
CE
330
79
100
AcDbEntity
  8
Camada 1
 62
   250
420
  1907995
370
     9
100
AcDbLine
 10
75.5206915197666
 20
-92.38343633769385
 30
0.0
 11
78.3298610684765
 21
-92.38343633769385
 31
0.0
  0
LINE
  5
CF
330
79
100
AcDbEntity
  8
Camada 1
 62
   250
420
  1907995
370
     9
100
AcDbLine
 10
75.44343323489925
 20
-82.7441372229094
 30
0.0
 11
78.38771646791172
 21
-82.7441372229094
 31
0.0
  0
LINE
  5
D0
330
79
100
AcDbEntity
  8
Camada 1
 62
   250
420
  1907995
370
     9
100
AcDbLine
 10
75.64945566431399
 20
-82.15111517325976
 30
0.0
 11
78.20109726036424
 21
-82.15111517325976
 31
0.0
  0
LINE
  5
D1
330
79
100
AcDbEntity
  8
Camada 1
 62
   250
420
  1907995
370
     9
100
AcDbLine
 10
75.44343323489925
 20
-81.89358890277564
 30
0.0
 11
78.35561383009896
 21
-81.89358890277564
 31
0.0
  0
SPLINE
  5
D2
330
79
100
AcDbEntity
  8
Camada 1
 62
   250
420
  1907995
370
     9
100
AcDbSpline
210
0.0
220
0.0
230
1.0
 70
     9
 71
     3
 72
    17
 73
    13
 74
     0
 42
0.0000000001
 43
0.0000000001
 40
0.0
 40
0.0
 40
0.0
 40
0.0
 40
1.0
 40
1.0
 40
1.0
 40
2.0
 40
2.0
 40
2.0
 40
3.0
 40
3.0
 40
3.0
 40
4.0
 40
4.0
 40
4.0
 40
4.0
 10
78.20321411005108
 20
-79.22588190525326
 30
0.0
 10
78.20321411005108
 20
-79.93073229265029
 30
0.0
 10
77.63206673455723
 20
-80.50188067744945
 30
0.0
 10
76.92756960402149
 20
-80.50188067744945
 30
0.0
 10
76.22271955305956
 20
-80.50188067744945
 30
0.0
 10
75.65157217756571
 20
-79.93073229265029
 30
0.0
 10
75.65157217756571
 20
-79.22588190525326
 30
0.0
 10
75.65157217756571
 20
-78.52138679332814
 30
0.0
 10
76.22271955305956
 20
-77.95023840852898
 30
0.0
 10
76.92756960402149
 20
-77.95023840852898
 30
0.0
 10
77.63206673455723
 20
-77.95023840852898
 30
0.0
 10
78.20321411005108
 20
-78.52138679332814
 30
0.0
 10
78.20321411005108
 20
-79.22588190525326
 30
0.0
  0
ELLIPSE
  5
D3
330
79
100
AcDbEntity
  8
Camada 1
 62
   250
420
  1907995
370
     9
100
AcDbEllipse
 10
76.92580559065205
 20
-79.23293829516612
 30
0.0
 11
0.0000000000000001
 21
1.732843329746392
 31
0.0
210
0.0
220
0.0
230
1.0
 40
0.9920608794764021
 41
0.0
 42
6.283185307179586
  0
LWPOLYLINE
  5
D4
330
79
100
AcDbEntity
  8
Camada 1
 62
   250
420
  1907995
370
     9
100
AcDbPolyline
 90
       22
 70
     0
 43
0.0
 10
78.25260278360914
 20
-92.53795156168816
 10
94.69592645528974
 20
-92.56370634192156
 10
94.95380800124577
 20
-92.56370634192156
 10
95.18593476696873
 20
-92.64096529965883
 10
95.41770894870124
 20
-92.74397634614864
 10
95.64983840590441
 20
-92.89884415413402
 10
95.83010841013178
 20
-93.07911415836141
 10
95.95887154537384
 20
-93.28548883533212
 10
96.06223517585474
 20
-93.51726301706399
 10
96.13949413359231
 20
-93.74939247426778
 10
96.16524622234456
 20
-94.00691874475191
 10
96.16524622234456
 20
-99.98650234573844
 10
96.13949413359231
 20
-100.2443825459543
 10
96.06223517585474
 20
-100.4761580734266
 10
95.95887154537384
 20
-100.7082848391496
 10
95.83010841013178
 20
-100.9143069321292
 10
95.64983840590441
 20
-101.0945769363566
 10
95.41770894870124
 20
-101.2494460900824
 10
95.18593476696873
 20
-101.3524571365722
 10
94.95380800124577
 20
-101.4297160943098
 10
94.69592645528974
 20
-101.4297160943098
 10
91.88675791588515
 20
-101.4297160943098
  0
SPLINE
  5
D5
330
79
100
AcDbEntity
  8
Camada 1
 62
   250
420
  1907995
370
     9
100
AcDbSpline
210
0.0
220
0.0
230
1.0
 70
     8
 71
     3
 72
    23
 73
    19
 74
     0
 42
0.0000000001
 43
0.0000000001
 40
0.0
 40
0.0
 40
0.0
 40
0.0
 40
1.0
 40
1.0
 40
1.0
 40
2.0
 40
2.0
 40
2.0
 40
3.0
 40
3.0
 40
3.0
 40
4.0
 40
4.0
 40
4.0
 40
5.0
 40
5.0
 40
5.0
 40
6.0
 40
6.0
 40
6.0
 40
6.0
 10
75.57219704301151
 20
-98.19544968683358
 30
0.0
 10
75.57219704301151
 20
-98.19544968683358
 30
0.0
 10
75.57219704301151
 20
-98.56904068591958
 30
0.0
 10
75.57219704301151
 20
-98.56904068591958
 30
0.0
 10
75.57219704301151
 20
-98.56904068591958
 30
0.0
 10
76.03610000907697
 20
-98.5739795532754
 30
0.0
 10
76.03610000907697
 20
-98.5739795532754
 30
0.0
 10
76.03610000907697
 20
-98.5739795532754
 30
0.0
 10
76.03610000907697
 20
-121.5331105552603
 30
0.0
 10
76.03610000907697
 20
-121.5331105552603
 30
0.0
 10
76.03610000907697
 20
-121.7130252840157
 30
0.0
 10
76.15463316205145
 20
-122.4693825403981
 30
0.0
 10
76.92545275433464
 20
-122.4789076911186
 30
0.0
 10
77.69591908975655
 20
-122.4880802578481
 30
0.0
 10
77.81445257916614
 20
-121.6135427689174
 30
0.0
 10
77.81445257916614
 20
-121.5331105552603
 30
0.0
 10
77.81445257916614
 20
-121.5331105552603
 30
0.0
 10
77.81445257916614
 20
-98.59479546615268
 30
0.0
 10
77.81445257916614
 20
-98.59479546615268
 30
0.0
  0
LWPOLYLINE
  5
D6
330
79
100
AcDbEntity
  8
Camada 1
 62
   250
420
  1907995
370
     9
100
AcDbPolyline
 90
        5
 70
     0
 43
0.0
 10
75.57219704301151
 20
-98.56904068591958
 10
75.77821947242625
 20
-98.77506277889922
 10
75.77821947242625
 20
-98.87807382538905
 10
75.67520842593643
 20
-98.9556853671177
 10
75.67520842593643
 20
-99.02024322673426
  0
SPLINE
  5
D7
330
79
100
AcDbEntity
  8
Camada 1
 62
   250
420
  1907995
370
     9
100
AcDbSpline
210
0.0
220
0.0
230
1.0
 70
     8
 71
     3
 72
    41
 73
    37
 74
     0
 42
0.0000000001
 43
0.0000000001
 40
0.0
 40
0.0
 40
0.0
 40
0.0
 40
1.0
 40
1.0
 40
1.0
 40
2.0
 40
2.0
 40
2.0
 40
3.0
 40
3.0
 40
3.0
 40
4.0
 40
4.0
 40
4.0
 40
5.0
 40
5.0
 40
5.0
 40
6.0
 40
6.0
 40
6.0
 40
7.0
 40
7.0
 40
7.0
 40
8.0
 40
8.0
 40
8.0
 40
9.0
 40
9.0
 40
9.0
 40
10.0
 40
10.0
 40
10.0
 40
11.0
 40
11.0
 40
11.0
 40
12.0
 40
12.0
 40
12.0
 40
12.0
 10
78.22685002198669
 20
-95.8501820948838
 30
0.0
 10
78.22685002198669
 20
-95.8501820948838
 30
0.0
 10
78.25260278360914
 20
-95.41203323618123
 30
0.0
 10
78.25260278360914
 20
-95.41203323618123
 30
0.0
 10
78.32033591775661
 20
-95.31748958843875
 30
0.0
 10
78.31539705040015
 20
-95.20460080723731
 30
0.0
 10
78.25260278360914
 20
-95.07689542396846
 30
0.0
 10
78.25260278360914
 20
-95.07689542396846
 30
0.0
 10
78.31716131609592
 20
-93.26608594989997
 30
0.0
 10
78.31716131609592
 20
-93.26608594989997
 30
0.0
 10
78.31716131609592
 20
-93.26608594989997
 30
0.0
 10
78.38136659172142
 20
-93.22128355970662
 30
0.0
 10
78.38136659172142
 20
-93.13061833586589
 30
0.0
 10
78.38136659172142
 20
-93.04030838749708
 30
0.0
 10
78.44698354905161
 20
-92.77890100163036
 30
0.0
 10
78.14959173711932
 20
-92.74397634614864
 30
0.0
 10
78.14959173711932
 20
-92.74397634614864
 30
0.0
 10
78.3298610684765
 20
-92.38343633769385
 30
0.0
 10
78.3298610684765
 20
-92.38343633769385
 30
0.0
 10
78.37819131719117
 20
-92.28712707851519
 30
0.0
 10
78.38136659172142
 20
-92.09980270298558
 30
0.0
 10
78.38136659172142
 20
-92.09980270298558
 30
0.0
 10
78.38136659172142
 20
-92.09980270298558
 30
0.0
 10
78.38136659172142
 20
-82.71838244267632
 30
0.0
 10
78.38136659172142
 20
-82.71838244267632
 30
0.0
 10
78.38136659172142
 20
-82.71838244267632
 30
0.0
 10
78.39477218495436
 20
-82.60373074151955
 30
0.0
 10
78.35561383009896
 20
-82.51200776570561
 30
0.0
 10
78.35561383009896
 20
-82.51200776570561
 30
0.0
 10
78.20109726036424
 20
-82.15111517325976
 30
0.0
 10
78.20109726036424
 20
-82.15111517325976
 30
0.0
 10
78.20109726036424
 20
-82.15111517325976
 30
0.0
 10
78.38136659172142
 20
-82.10596019907534
 30
0.0
 10
78.38136659172142
 20
-81.89358890277564
 30
0.0
 10
78.38136659172142
 20
-81.89358890277564
 30
0.0
 10
78.37289986584429
 20
-80.16815320120096
 30
0.0
 10
78.37289986584429
 20
-80.16815320120096
 30
0.0
  0
LWPOLYLINE
  5
D8
330
79
100
AcDbEntity
  8
Camada 1
 62
   250
420
  1907995
370
     9
100
AcDbPolyline
 90
        3
 70
     0
 43
0.0
 10
75.77821947242625
 20
-100.5791691199165
 10
75.77821947242625
 20
-101.5588318135429
 10
76.03610000907697
 20
-101.5588318135429
  0
LWPOLYLINE
  5
D9
330
79
100
AcDbEntity
  8
Camada 1
 62
   250
420
  1907995
370
     9
100
AcDbPolyline
 90
        3
 70
     0
 43
0.0
 10
77.81445257916614
 20
-101.5588318135429
 10
78.07233345225196
 20
-101.5588318135429
 10
78.07233345225196
 20
-100.5791691199165
  0
LWPOLYLINE
  5
DA
330
79
100
AcDbEntity
  8
Camada 1
 62
   250
420
  1907995
370
     9
100
AcDbPolyline
 90
        3
 70
     0
 43
0.0
 10
75.9588417242096
 20
-101.5203799724101
 10
75.9588417242096
 20
-102.7318181935089
 10
76.03610000907697
 20
-102.7318181935089
  0
LWPOLYLINE
  5
DB
330
79
100
AcDbEntity
  8
Camada 1
 62
   250
420
  1907995
370
     9
100
AcDbPolyline
 90
        3
 70
     0
 43
0.0
 10
77.81445257916614
 20
-102.7318181935089
 10
77.89171086403349
 20
-102.7318181935089
 10
77.89171086403349
 20
-101.5203799724101
  0
SPLINE
  5
DC
330
79
100
AcDbEntity
  8
Camada 1
 62
   250
420
  1907995
370
     9
100
AcDbSpline
210
0.0
220
0.0
230
1.0
 70
     8
 71
     3
 72
    44
 73
    40
 74
     0
 42
0.0000000001
 43
0.0000000001
 40
0.0
 40
0.0
 40
0.0
 40
0.0
 40
1.0
 40
1.0
 40
1.0
 40
2.0
 40
2.0
 40
2.0
 40
3.0
 40
3.0
 40
3.0
 40
4.0
 40
4.0
 40
4.0
 40
5.0
 40
5.0
 40
5.0
 40
6.0
 40
6.0
 40
6.0
 40
7.0
 40
7.0
 40
7.0
 40
8.0
 40
8.0
 40
8.0
 40
9.0
 40
9.0
 40
9.0
 40
10.0
 40
10.0
 40
10.0
 40
11.0
 40
11.0
 40
11.0
 40
12.0
 40
12.0
 40
12.0
 40
13.0
 40
13.0
 40
13.0
 40
13.0
 10
75.44343323489925
 20
-80.13005259831846
 30
0.0
 10
75.44343323489925
 20
-80.13005259831846
 30
0.0
 10
75.44343323489925
 20
-81.89358890277564
 30
0.0
 10
75.44343323489925
 20
-81.89358890277564
 30
0.0
 10
75.44343323489925
 20
-82.05868972094453
 30
0.0
 10
75.64945566431399
 20
-82.15111517325976
 30
0.0
 10
75.64945566431399
 20
-82.15111517325976
 30
0.0
 10
75.64945566431399
 20
-82.15111517325976
 30
0.0
 10
75.49493875814414
 20
-82.51200776570561
 30
0.0
 10
75.49493875814414
 20
-82.51200776570561
 30
0.0
 10
75.44590266857714
 20
-82.62595429888024
 30
0.0
 10
75.44343323489925
 20
-82.7441372229094
 30
0.0
 10
75.44343323489925
 20
-82.7441372229094
 30
0.0
 10
75.44343323489925
 20
-82.7441372229094
 30
0.0
 10
75.44343323489925
 20
-92.09980270298558
 30
0.0
 10
75.44343323489925
 20
-92.09980270298558
 30
0.0
 10
75.44343323489925
 20
-92.09980270298558
 30
0.0
 10
75.46495263358313
 20
-92.27195789245669
 30
0.0
 10
75.5206915197666
 20
-92.38343633769385
 30
0.0
 10
75.5206915197666
 20
-92.38343633769385
 30
0.0
 10
75.70096118755889
 20
-92.74397634614864
 30
0.0
 10
75.70096118755889
 20
-92.74397634614864
 30
0.0
 10
75.70096118755889
 20
-92.74397634614864
 30
0.0
 10
75.4741248638775
 20
-92.7707861868741
 30
0.0
 10
75.4691859965217
 20
-92.92459624288625
 30
0.0
 10
75.46389454517546
 20
-93.0780564063882
 30
0.0
 10
75.4691859965217
 20
-93.21528694037761
 30
0.0
 10
75.4691859965217
 20
-93.21528694037761
 30
0.0
 10
75.4691859965217
 20
-93.21528694037761
 30
0.0
 10
75.46848049210445
 20
-93.28548883533212
 30
0.0
 10
75.5206915197666
 20
-93.28548883533212
 30
0.0
 10
75.5206915197666
 20
-93.28548883533212
 30
0.0
 10
75.57219704301151
 20
-95.11534861084172
 30
0.0
 10
75.57219704301151
 20
-95.11534861084172
 30
0.0
 10
75.52915824564372
 20
-95.2398780467101
 30
0.0
 10
75.53797789194703
 20
-95.33865539382626
 30
0.0
 10
75.59795014106907
 20
-95.41203323618123
 30
0.0
 10
75.59795014106907
 20
-95.41203323618123
 30
0.0
 10
75.59795014106907
 20
-95.8759368751169
 30
0.0
 10
75.59795014106907
 20
-95.8759368751169
 30
0.0
  0
LWPOLYLINE
  5
DD
330
79
100
AcDbEntity
  8
Camada 1
 62
   250
420
  1907995
370
     9
100
AcDbPolyline
 90
        4
 70
     0
 43
0.0
 10
77.81445257916614
 20
-100.5791691199165
 10
78.27835554523161
 20
-100.5791691199165
 10
78.27835554523161
 20
-99.02024322673426
 10
77.81445257916614
 20
-99.02024322673426
  0
LWPOLYLINE
  5
DE
330
79
100
AcDbEntity
  8
Camada 1
 62
   250
420
  1907995
370
     9
100
AcDbPolyline
 90
        3
 70
     0
 43
0.0
 10
76.03610000907697
 20
-100.5791691199165
 10
75.57219704301151
 20
-100.5791691199165
 10
75.57219704301151
 20
-99.02024322673426
  0
LINE
  5
DF
330
79
100
AcDbEntity
  8
Camada 1
 62
   250
420
  1907995
370
     9
100
AcDbLine
 10
91.88675791588515
 20
-98.92111329562737
 30
0.0
 11
91.88675791588515
 21
-104.4452593106851
 31
0.0
  0
LWPOLYLINE
  5
E0
330
79
100
AcDbEntity
  8
Camada 1
 62
   250
420
  1907995
370
     9
100
AcDbPolyline
 90
        3
 70
     0
 43
0.0
 10
91.88675791588515
 20
-104.4452593106851
 10
91.16497407673387
 20
-104.4452593106851
 10
91.16497407673387
 20
-98.92111329562737
  0
LWPOLYLINE
  5
E1
330
79
100
AcDbEntity
  8
Camada 1
 62
   250
420
  1907995
370
     9
100
AcDbPolyline
 90
        4
 70
     0
 43
0.0
 10
96.16524622234456
 20
-99.54835214129543
 10
96.52613881479041
 20
-99.54835214129543
 10
96.52613881479041
 20
-94.44507029493534
 10
96.16524622234456
 20
-94.44507029493534
  0
LWPOLYLINE
  5
E2
330
79
100
AcDbEntity
  8
Camada 1
 62
   250
420
  1907995
370
     9
100
AcDbPolyline
 90
        3
 70
     0
 43
0.0
 10
91.88675791588515
 20
-101.8163607755079
 10
94.07750759235977
 20
-101.8163607755079
 10
94.07750759235977
 20
-101.4297160943098
  0
LWPOLYLINE
  5
E3
330
79
100
AcDbEntity
  8
Camada 1
 62
   250
420
  1907995
370
     9
100
AcDbPolyline
 90
        4
 70
     0
 43
0.0
 10
89.82477137465195
 20
-101.8163607755079
 10
89.82477137465195
 20
-102.2287575454582
 10
89.87627689789752
 20
-102.3060151574554
 10
91.16497407673387
 20
-102.3060151574554
  0
SPLINE
  5
E4
330
79
100
AcDbEntity
  8
Camada 1
 62
   250
420
  1907995
370
     9
100
AcDbSpline
210
0.0
220
0.0
230
1.0
 70
     8
 71
     3
 72
    14
 73
    10
 74
     0
 42
0.0000000001
 43
0.0000000001
 40
0.0
 40
0.0
 40
0.0
 40
0.0
 40
1.0
 40
1.0
 40
1.0
 40
2.0
 40
2.0
 40
2.0
 40
3.0
 40
3.0
 40
3.0
 40
3.0
 10
91.88675791588515
 20
-102.3060151574554
 30
0.0
 10
91.88675791588515
 20
-102.3060151574554
 30
0.0
 10
93.15534704130721
 20
-102.3187162555764
 30
0.0
 10
93.17545509472152
 20
-102.3060151574554
 30
0.0
 10
93.17545509472152
 20
-102.3060151574554
 30
0.0
 10
93.22696061796641
 20
-102.2287575454582
 30
0.0
 10
93.22696061796641
 20
-102.2287575454582
 30
0.0
 10
93.22696061796641
 20
-102.2287575454582
 30
0.0
 10
93.22696061796641
 20
-101.8163607755079
 30
0.0
 10
93.22696061796641
 20
-101.8163607755079
 30
0.0
  0
LWPOLYLINE
  5
E5
330
79
100
AcDbEntity
  8
Camada 1
 62
   250
420
  1907995
370
     9
100
AcDbPolyline
 90
        6
 70
     0
 43
0.0
 10
96.52613881479041
 20
-98.6978065126425
 10
96.7579129965223
 20
-98.6978065126425
 10
96.83517195425986
 20
-98.64629964365718
 10
96.83517195425986
 20
-95.34712279257361
 10
96.7579129965223
 20
-95.29561592358826
 10
96.52613881479041
 20
-95.29561592358826
  0
LWPOLYLINE
  5
E6
330
79
100
AcDbEntity
  8
Camada 1
 62
   250
420
  1907995
370
     9
100
AcDbPolyline
 90
       22
 70
     0
 43
0.0
 10
75.59795014106907
 20
-92.53795156168816
 10
73.51021117464917
 20
-92.56370634192156
 10
73.25268355842464
 20
-92.56370634192156
 10
73.02055561517881
 20
-92.64096529965883
 10
72.78878076057672
 20
-92.74397634614864
 10
72.58240557895335
 20
-92.89884415413402
 10
72.40213624759618
 20
-93.07911415836141
 10
72.24726675743527
 20
-93.28548883533212
 10
72.14425571094546
 20
-93.51726301706399
 10
72.06699742607874
 20
-93.74939247426778
 10
72.04124466445565
 20
-94.00691874475191
 10
72.04124466445565
 20
-99.98650234573844
 10
72.06699742607874
 20
-100.2443825459543
 10
72.14425571094546
 20
-100.4761580734266
 10
72.24726675743527
 20
-100.7082848391496
 10
72.40213624759618
 20
-100.9143069321292
 10
72.58240557895335
 20
-101.0945769363566
 10
72.78878076057672
 20
-101.2494460900824
 10
73.02055561517881
 20
-101.3524571365722
 10
73.25268355842464
 20
-101.4297160943098
 10
73.51021117464917
 20
-101.4297160943098
 10
75.77821947242625
 20
-101.4297160943098
  0
ENDBLK
  5
7C
330
79
100
AcDbEntity
  8
0
100
AcDbBlockEnd
  0
ENDSEC
  0
SECTION
  2
ENTITIES
  0
INSERT
  5
7A
330
70
100
AcDbEntity
  8
Camada 1
100
AcDbBlockReference
  2
Block_0
 10
0.0
 20
0.0
 30
0.0
  0
ENDSEC
  0
SECTION
  2
OBJECTS
  0
DICTIONARY
  5
C
330
0
100
AcDbDictionary
281
     1
  3
ACAD_COLOR
350
63
  3
ACAD_DETAILVIEWSTYLE
350
6A
  3
ACAD_GROUP
350
D
  3
ACAD_LAYOUT
350
62
  3
ACAD_MATERIAL
350
10
  3
ACAD_MLEADERSTYLE
350
66
  3
ACAD_MLINESTYLE
350
5F
  3
ACAD_PLOTSETTINGS
350
61
  3
ACAD_PLOTSTYLENAME
350
E
  3
ACAD_SCALELIST
350
42
  3
ACAD_SECTIONVIEWSTYLE
350
68
  3
ACAD_TABLESTYLE
350
64
  3
ACAD_VISUALSTYLE
350
29
  3
ACDB_RECOMPOSE_DATA
350
EF
  3
AcDbVariableDictionary
350
E7
  0
DICTIONARY
  5
63
102
{ACAD_REACTORS
330
C
102
}
330
C
100
AcDbDictionary
281
     1
  0
DICTIONARY
  5
6A
102
{ACAD_REACTORS
330
C
102
}
330
C
100
AcDbDictionary
281
     1
  3
Imperial24
350
6B
  0
DICTIONARY
  5
D
102
{ACAD_REACTORS
330
C
102
}
330
C
100
AcDbDictionary
281
     1
  0
DICTIONARY
  5
62
102
{ACAD_REACTORS
330
C
102
}
330
C
100
AcDbDictionary
281
     1
  3
Layout1
350
6F
  3
Layout2
350
77
  3
Model
350
73
  0
DICTIONARY
  5
10
102
{ACAD_REACTORS
330
C
102
}
330
C
100
AcDbDictionary
281
     1
  3
ByBlock
350
19
  3
ByLayer
350
11
  3
Global
350
21
  0
DICTIONARY
  5
66
102
{ACAD_REACTORS
330
C
102
}
330
C
100
AcDbDictionary
281
     1
  3
Standard
350
67
  0
DICTIONARY
  5
5F
102
{ACAD_REACTORS
330
C
102
}
330
C
100
AcDbDictionary
281
     1
  3
Standard
350
60
  0
DICTIONARY
  5
61
102
{ACAD_REACTORS
330
C
102
}
330
C
100
AcDbDictionary
281
     1
  0
ACDBDICTIONARYWDFLT
  5
E
102
{ACAD_REACTORS
330
C
102
}
330
C
100
AcDbDictionary
281
     1
  3
Normal
350
F
100
AcDbDictionaryWithDefault
340
F
  0
DICTIONARY
  5
42
102
{ACAD_REACTORS
330
C
102
}
330
C
100
AcDbDictionary
281
     1
  3
A0
350
43
  3
A1
350
44
  3
A2
350
45
  3
A3
350
46
  3
A4
350
47
  3
A5
350
48
  3
A6
350
49
  3
A7
350
4A
  3
A8
350
4B
  3
A9
350
4C
  3
B0
350
4D
  3
B1
350
4E
  3
B2
350
4F
  3
B3
350
50
  3
B4
350
51
  3
B5
350
52
  3
B6
350
53
  0
DICTIONARY
  5
68
102
{ACAD_REACTORS
330
C
102
}
330
C
100
AcDbDictionary
281
     1
  3
Imperial24
350
69
  0
DICTIONARY
  5
64
102
{ACAD_REACTORS
330
C
102
}
330
C
100
AcDbDictionary
281
     1
  3
Standard
350
65
  0
DICTIONARY
  5
29
102
{ACAD_REACTORS
330
C
102
}
330
C
100
AcDbDictionary
281
     1
  3
2dWireframe
350
2F
  3
Basic
350
2E
  3
Brighten
350
35
  3
ColorChange
350
39
  3
Conceptual
350
32
  3
Dim
350
34
  3
EdgeColorOff
350
41
  3
Facepattern
350
38
  3
Flat
350
2A
  3
FlatWithEdges
350
2B
  3
Gouraud
350
2C
  3
GouraudWithEdges
350
2D
  3
Hidden
350
31
  3
JitterOff
350
3F
  3
Linepattern
350
37
  3
OverhangOff
350
40
  3
Realistic
350
33
  3
Shaded
350
3E
  3
Shaded with edges
350
3D
  3
Shades of Gray
350
3A
  3
Sketchy
350
3B
  3
Thicken
350
36
  3
Wireframe
350
30
  3
X-Ray
350
3C
  0
XRECORD
  5
EF
102
{ACAD_REACTORS
330
C
102
}
330
C
100
AcDbXrecord
280
     1
 90
        1
330
65
  0
DICTIONARY
  5
E7
102
{ACAD_REACTORS
330
C
102
}
330
C
100
AcDbDictionary
281
     1
  3
CANNOSCALE
350
EC
  3
CMLEADERSTYLE
350
E9
  3
CTABLESTYLE
350
E8
  3
CVIEWDETAILSTYLE
350
EA
  3
CVIEWSECTIONSTYLE
350
EB
  0
ACDBDETAILVIEWSTYLE
  5
6B
102
{ACAD_REACTORS
330
6A
102
}
330
6A
100
AcDbModelDocViewStyle
 70
     0
  3
Imperial24
290
     1
300
Imperial24
 90
        0
100
AcDbDetailViewStyle
 70
     0
 71
     0
 90
        3
 71
     1
340
55
 62
   256
 40
0.24
340
0
 62
   256
 40
0.24
300

 40
0.36
280
     3
 71
     2
340
5D
 90
       25
 62
   256
 71
     3
340
55
 62
   256
 40
0.24
 90
        1
 40
0.75
 90
        1
300
%<\AcVar ViewType \f "%tc1">% %<\AcVar ViewDetailId>%\PSCALE %<\AcVar ViewScale \f "%sn">%
 71
     4
340
5D
 90
       25
 62
   256
340
5D
 90
       25
 62
   256
280
     0
  0
LAYOUT
  5
6F
102
{ACAD_REACTORS
330
62
102
}
330
62
100
AcDbPlotSettings
  1

  2

  4

  6

 40
0.0
 41
0.0
 42
0.0
 43
0.0
 44
0.0
 45
0.0
 46
0.0
 47
0.0
 48
0.0
 49
0.0
140
0.0
141
0.0
142
1.0
143
1.0
 70
   688
 72
     0
 73
     0
 74
     5
  7

 75
    16
147
1.0
 76
     0
 77
     2
 78
   300
148
0.0
149
0.0
100
AcDbLayout
  1
Layout1
 70
     1
 71
     1
 10
0.0
 20
0.0
 11
12.0
 21
9.0
 12
0.0
 22
0.0
 32
0.0
 14
0.0
 24
0.0
 34
0.0
 15
0.0
 25
0.0
 35
0.0
146
0.0
 13
0.0
 23
0.0
 33
0.0
 16
1.0
 26
0.0
 36
0.0
 17
0.0
 27
1.0
 37
0.0
 76
     0
330
6C
  0
LAYOUT
  5
77
102
{ACAD_REACTORS
330
62
102
}
330
62
100
AcDbPlotSettings
  1

  2

  4

  6

 40
0.0
 41
0.0
 42
0.0
 43
0.0
 44
0.0
 45
0.0
 46
0.0
 47
0.0
 48
0.0
 49
0.0
140
0.0
141
0.0
142
1.0
143
1.0
 70
   688
 72
     0
 73
     0
 74
     5
  7

 75
    16
147
1.0
 76
     0
 77
     2
 78
   300
148
0.0
149
0.0
100
AcDbLayout
  1
Layout2
 70
     1
 71
     2
 10
0.0
 20
0.0
 11
12.0
 21
9.0
 12
0.0
 22
0.0
 32
0.0
 14
0.0
 24
0.0
 34
0.0
 15
0.0
 25
0.0
 35
0.0
146
0.0
 13
0.0
 23
0.0
 33
0.0
 16
1.0
 26
0.0
 36
0.0
 17
0.0
 27
1.0
 37
0.0
 76
     0
330
74
  0
LAYOUT
  5
73
102
{ACAD_REACTORS
330
62
102
}
330
62
100
AcDbPlotSettings
  1

  2

  4

  6

 40
0.0
 41
0.0
 42
0.0
 43
0.0
 44
0.0
 45
0.0
 46
0.0
 47
0.0
 48
0.0
 49
0.0
140
0.0
141
0.0
142
1.0
143
1.0
 70
  1712
 72
     0
 73
     0
 74
     0
  7

 75
     0
147
1.0
 76
     0
 77
     2
 78
   300
148
0.0
149
0.0
100
AcDbLayout
  1
Model
 70
     1
 71
     0
 10
0.0
 20
0.0
 11
12.0
 21
9.0
 12
0.0
 22
0.0
 32
0.0
 14
0.0
 24
0.0
 34
0.0
 15
0.0
 25
0.0
 35
0.0
146
0.0
 13
0.0
 23
0.0
 33
0.0
 16
1.0
 26
0.0
 36
0.0
 17
0.0
 27
1.0
 37
0.0
 76
     0
330
70
  0
MATERIAL
  5
19
102
{ACAD_XDICTIONARY
360
1A
102
}
102
{ACAD_REACTORS
330
10
102
}
330
10
100
AcDbMaterial
  1
ByBlock
 72
     0
 43
0.0208333333333333
 43
0.0
 43
0.0
 43
0.0
 43
0.0
 43
0.0208333333333333
 43
0.0
 43
0.0
 43
0.0
 43
0.0
 43
1.0
 43
0.0
 43
0.0
 43
0.0
 43
0.0
 43
1.0
 77
     0
 47
0.0208333333333333
 47
0.0
 47
0.0
 47
0.0
 47
0.0
 47
0.0208333333333333
 47
0.0
 47
0.0
 47
0.0
 47
0.0
 47
1.0
 47
0.0
 47
0.0
 47
0.0
 47
0.0
 47
1.0
171
     0
 49
0.0208333333333333
 49
0.0
 49
0.0
 49
0.0
 49
0.0
 49
0.0208333333333333
 49
0.0
 49
0.0
 49
0.0
 49
0.0
 49
1.0
 49
0.0
 49
0.0
 49
0.0
 49
0.0
 49
1.0
175
     0
142
0.0208333333333333
142
0.0
142
0.0
142
0.0
142
0.0
142
0.0208333333333333
142
0.0
142
0.0
142
0.0
142
0.0
142
1.0
142
0.0
142
0.0
142
0.0
142
0.0
142
1.0
179
     0
144
0.0208333333333333
144
0.0
144
0.0
144
0.0
144
0.0
144
0.0208333333333333
144
0.0
144
0.0
144
0.0
144
0.0
144
1.0
144
0.0
144
0.0
144
0.0
144
0.0
144
1.0
147
0.0208333333333333
147
0.0
147
0.0
147
0.0
147
0.0
147
0.0208333333333333
147
0.0
147
0.0
147
0.0
147
0.0
147
1.0
147
0.0
147
0.0
147
0.0
147
0.0
147
1.0
  0
MATERIAL
  5
11
102
{ACAD_XDICTIONARY
360
12
102
}
102
{ACAD_REACTORS
330
10
102
}
330
10
100
AcDbMaterial
  1
ByLayer
 72
     0
 43
0.0208333333333333
 43
0.0
 43
0.0
 43
0.0
 43
0.0
 43
0.0208333333333333
 43
0.0
 43
0.0
 43
0.0
 43
0.0
 43
1.0
 43
0.0
 43
0.0
 43
0.0
 43
0.0
 43
1.0
 77
     0
 47
0.0208333333333333
 47
0.0
 47
0.0
 47
0.0
 47
0.0
 47
0.0208333333333333
 47
0.0
 47
0.0
 47
0.0
 47
0.0
 47
1.0
 47
0.0
 47
0.0
 47
0.0
 47
0.0
 47
1.0
171
     0
 49
0.0208333333333333
 49
0.0
 49
0.0
 49
0.0
 49
0.0
 49
0.0208333333333333
 49
0.0
 49
0.0
 49
0.0
 49
0.0
 49
1.0
 49
0.0
 49
0.0
 49
0.0
 49
0.0
 49
1.0
175
     0
142
0.0208333333333333
142
0.0
142
0.0
142
0.0
142
0.0
142
0.0208333333333333
142
0.0
142
0.0
142
0.0
142
0.0
142
1.0
142
0.0
142
0.0
142
0.0
142
0.0
142
1.0
179
     0
144
0.0208333333333333
144
0.0
144
0.0
144
0.0
144
0.0
144
0.0208333333333333
144
0.0
144
0.0
144
0.0
144
0.0
144
1.0
144
0.0
144
0.0
144
0.0
144
0.0
144
1.0
147
0.0208333333333333
147
0.0
147
0.0
147
0.0
147
0.0
147
0.0208333333333333
147
0.0
147
0.0
147
0.0
147
0.0
147
1.0
147
0.0
147
0.0
147
0.0
147
0.0
147
1.0
  0
MATERIAL
  5
21
102
{ACAD_XDICTIONARY
360
22
102
}
102
{ACAD_REACTORS
330
10
102
}
330
10
100
AcDbMaterial
  1
Global
 72
     0
 43
0.0208333333333333
 43
0.0
 43
0.0
 43
0.0
 43
0.0
 43
0.0208333333333333
 43
0.0
 43
0.0
 43
0.0
 43
0.0
 43
1.0
 43
0.0
 43
0.0
 43
0.0
 43
0.0
 43
1.0
 77
     0
 47
0.0208333333333333
 47
0.0
 47
0.0
 47
0.0
 47
0.0
 47
0.0208333333333333
 47
0.0
 47
0.0
 47
0.0
 47
0.0
 47
1.0
 47
0.0
 47
0.0
 47
0.0
 47
0.0
 47
1.0
171
     0
 49
0.0208333333333333
 49
0.0
 49
0.0
 49
0.0
 49
0.0
 49
0.0208333333333333
 49
0.0
 49
0.0
 49
0.0
 49
0.0
 49
1.0
 49
0.0
 49
0.0
 49
0.0
 49
0.0
 49
1.0
175
     0
142
0.0208333333333333
142
0.0
142
0.0
142
0.0
142
0.0
142
0.0208333333333333
142
0.0
142
0.0
142
0.0
142
0.0
142
1.0
142
0.0
142
0.0
142
0.0
142
0.0
142
1.0
179
     0
144
0.0208333333333333
144
0.0
144
0.0
144
0.0
144
0.0
144
0.0208333333333333
144
0.0
144
0.0
144
0.0
144
0.0
144
1.0
144
0.0
144
0.0
144
0.0
144
0.0
144
1.0
147
0.0208333333333333
147
0.0
147
0.0
147
0.0
147
0.0
147
0.0208333333333333
147
0.0
147
0.0
147
0.0
147
0.0
147
1.0
147
0.0
147
0.0
147
0.0
147
0.0
147
1.0
  0
MLEADERSTYLE
  5
67
102
{ACAD_REACTORS
330
66
102
}
330
66
100
AcDbMLeaderStyle
179
     2
170
     2
171
     1
172
     0
 90
        2
 40
0.0
 41
0.0
173
     1
 91
-1056964608
340
5B
 92
       -2
290
     1
 42
0.09
291
     1
 43
0.36
  3
Standard
 44
0.18
300

342
55
174
     1
178
     6
175
     1
176
     0
 93
-1056964608
 45
0.18
292
     0
297
     0
 46
0.18
 94
-1056964608
 47
1.0
 49
1.0
140
1.0
293
     1
141
0.0
294
     1
177
     0
142
1.0
295
     1
296
     0
143
0.125
271
     0
272
     9
273
     9
298
     1
  0
MLINESTYLE
  5
60
102
{ACAD_REACTORS
330
5F
102
}
330
5F
100
AcDbMlineStyle
  2
STANDARD
 70
     0
  3

 62
   256
 51
90.0
 52
90.0
 71
     2
 49
0.5
 62
   256
  6
BYLAYER
 49
-0.5
 62
   256
  6
BYLAYER
  0
ACDBPLACEHOLDER
  5
F
102
{ACAD_REACTORS
330
E
102
}
330
E
  0
SCALE
  5
43
102
{ACAD_REACTORS
330
42
102
}
330
42
100
AcDbScale
 70
     0
300
1:1
140
1.0
141
1.0
290
     1
  0
SCALE
  5
44
102
{ACAD_REACTORS
330
42
102
}
330
42
100
AcDbScale
 70
     0
300
1/128" = 1'-0"
140
0.0078125
141
12.0
290
     0
  0
SCALE
  5
45
102
{ACAD_REACTORS
330
42
102
}
330
42
100
AcDbScale
 70
     0
300
1/64" = 1'-0"
140
0.015625
141
12.0
290
     0
  0
SCALE
  5
46
102
{ACAD_REACTORS
330
42
102
}
330
42
100
AcDbScale
 70
     0
300
1/32" = 1'-0"
140
0.03125
141
12.0
290
     0
  0
SCALE
  5
47
102
{ACAD_REACTORS
330
42
102
}
330
42
100
AcDbScale
 70
     0
300
1/16" = 1'-0"
140
0.0625
141
12.0
290
     0
  0
SCALE
  5
48
102
{ACAD_REACTORS
330
42
102
}
330
42
100
AcDbScale
 70
     0
300
3/32" = 1'-0"
140
0.09375
141
12.0
290
     0
  0
SCALE
  5
49
102
{ACAD_REACTORS
330
42
102
}
330
42
100
AcDbScale
 70
     0
300
1/8" = 1'-0"
140
0.125
141
12.0
290
     0
  0
SCALE
  5
4A
102
{ACAD_REACTORS
330
42
102
}
330
42
100
AcDbScale
 70
     0
300
3/16" = 1'-0"
140
0.1875
141
12.0
290
     0
  0
SCALE
  5
4B
102
{ACAD_REACTORS
330
42
102
}
330
42
100
AcDbScale
 70
     0
300
1/4" = 1'-0"
140
0.25
141
12.0
290
     0
  0
SCALE
  5
4C
102
{ACAD_REACTORS
330
42
102
}
330
42
100
AcDbScale
 70
     0
300
3/8" = 1'-0"
140
0.375
141
12.0
290
     0
  0
SCALE
  5
4D
102
{ACAD_REACTORS
330
42
102
}
330
42
100
AcDbScale
 70
     0
300
1/2" = 1'-0"
140
0.5
141
12.0
290
     0
  0
SCALE
  5
4E
102
{ACAD_REACTORS
330
42
102
}
330
42
100
AcDbScale
 70
     0
300
3/4" = 1'-0"
140
0.75
141
12.0
290
     0
  0
SCALE
  5
4F
102
{ACAD_REACTORS
330
42
102
}
330
42
100
AcDbScale
 70
     0
300
1" = 1'-0"
140
1.0
141
12.0
290
     0
  0
SCALE
  5
50
102
{ACAD_REACTORS
330
42
102
}
330
42
100
AcDbScale
 70
     0
300
1-1/2" = 1'-0"
140
1.5
141
12.0
290
     0
  0
SCALE
  5
51
102
{ACAD_REACTORS
330
42
102
}
330
42
100
AcDbScale
 70
     0
300
3" = 1'-0"
140
3.0
141
12.0
290
     0
  0
SCALE
  5
52
102
{ACAD_REACTORS
330
42
102
}
330
42
100
AcDbScale
 70
     0
300
6" = 1'-0"
140
6.0
141
12.0
290
     0
  0
SCALE
  5
53
102
{ACAD_REACTORS
330
42
102
}
330
42
100
AcDbScale
 70
     0
300
1'-0" = 1'-0"
140
12.0
141
12.0
290
     0
  0
ACDBSECTIONVIEWSTYLE
  5
69
102
{ACAD_REACTORS
330
68
102
}
330
68
100
AcDbModelDocViewStyle
 70
     0
  3
Imperial24
290
     1
300
Imperial24
 90
        0
100
AcDbSectionViewStyle
 70
     0
 71
     0
 90
       78
 71
     1
340
55
 62
   256
 40
0.24
340
0
340
0
 62
   256
 40
0.24
300
I, O, Q, S, X, Z
 40
0.48
 90
        3
 40
0.18
 90
        1
 71
     2
340
5D
 90
       25
 62
   256
340
5D
 90
       50
 62
   256
 40
0.24
 40
0.0
 40
0.24
 71
     3
340
55
 62
   256
 40
0.24
 90
        1
 40
0.75
 90
        1
300
%<\AcVar ViewType \f "%tc1">% %<\AcVar ViewSectionStartId>%-%<\AcVar ViewSectionEndId>%\PSCALE %<\AcVar ViewScale \f "%sn">%
 71
     4
 62
   256
 62
   257
300
ANSI31
 40
1.0
 90
        0
290
     0
290
     0
 90
        6
 40
0.0
 40
1.570796326794896
 40
0.2617993877991494
 40
1.308996938995747
 40
-0.2617993877991494
 40
1.832595714594046
  0
TABLESTYLE
  5
65
102
{ACAD_XDICTIONARY
360
ED
102
}
102
{ACAD_REACTORS
330
64
102
}
330
64
100
AcDbTableStyle
280
     0
  3
Standard
 70
     0
 71
     0
 40
0.06
 41
0.06
280
     0
281
     0
  7
Standard
140
0.18
170
     2
 62
     0
 63
     7
283
     0
 90
      512
 91
        0
  1

274
    -2
284
     1
 64
     0
275
    -2
285
     1
 65
     0
276
    -2
286
     1
 66
     0
277
    -2
287
     1
 67
     0
278
    -2
288
     1
 68
     0
279
    -2
289
     1
 69
     0
  7
Standard
140
0.25
170
     5
 62
     0
 63
     7
283
     0
 90
      512
 91
        0
  1

274
    -2
284
     1
 64
     0
275
    -2
285
     1
 65
     0
276
    -2
286
     1
 66
     0
277
    -2
287
     1
 67
     0
278
    -2
288
     1
 68
     0
279
    -2
289
     1
 69
     0
  7
Standard
140
0.18
170
     5
 62
     0
 63
     7
283
     0
 90
      512
 91
        0
  1

274
    -2
284
     1
 64
     0
275
    -2
285
     1
 65
     0
276
    -2
286
     1
 66
     0
277
    -2
287
     1
 67
     0
278
    -2
288
     1
 68
     0
279
    -2
289
     1
 69
     0
  0
VISUALSTYLE
  5
2F
102
{ACAD_REACTORS
330
29
102
}
330
29
100
AcDbVisualStyle
  2
2dWireframe
 70
     4
177
     3
291
     0
 70
    58
 90
        0
176
     1
 90
        2
176
     1
 90
        0
176
     1
 90
        0
176
     1
 40
0.6
176
     1
 40
30.0
176
     1
 62
     7
420
 16777215
176
     1
 90
        1
176
     1
 90
        4
176
     1
 62
     7
176
     1
 62
   257
176
     1
 90
        1
176
     1
 90
        1
176
     1
 40
1.0
176
     1
 90
        0
176
     1
 62
   257
176
     1
 40
1.0
176
     1
 90
        1
176
     1
 90
        6
176
     1
 90
        2
176
     1
 62
     7
176
     1
 90
        5
176
     1
 90
        0
176
     1
 90
        0
176
     1
290
     0
176
     1
 90
        1
176
     1
 40
0.0
176
     1
 90
        0
176
     1
290
     1
176
     1
290
     1
176
     1
290
     0
176
     1
290
     0
176
     1
290
     0
176
     1
290
     0
176
     1
290
     0
176
     1
290
     0
176
     1
290
     0
176
     1
 90
       50
176
     1
 40
0.0
176
     1
 40
1.0
176
     1
 90
        0
176
     1
 62
    18
420
        0
176
     1
 90
       50
176
     1
 90
        3
176
     1
 62
     5
420
      255
176
     1
290
     0
176
     1
 90
       50
176
     1
 90
       50
176
     1
 90
       50
176
     1
290
     0
176
     1
 90
       50
176
     1
 62
   256
176
     0
 40
1.0
176
     0
 90
        2
176
     1
  1
strokes_ogs.tif
176
     1
290
     0
176
     1
 40
1.0
176
     1
 40
1.0
176
     1
  0
VISUALSTYLE
  5
2E
102
{ACAD_REACTORS
330
29
102
}
330
29
100
AcDbVisualStyle
  2
Basic
 70
     7
177
     3
291
     1
 70
    58
 90
        1
176
     1
 90
        0
176
     1
 90
        1
176
     1
 90
        0
176
     1
 40
0.6
176
     1
 40
30.0
176
     1
 62
     7
420
 16777215
176
     1
 90
        0
176
     1
 90
        4
176
     1
 62
     7
176
     1
 62
   257
176
     1
 90
        1
176
     1
 90
        1
176
     1
 40
1.0
176
     1
 90
        8
176
     1
 62
     7
176
     1
 40
1.0
176
     1
 90
        1
176
     1
 90
        6
176
     1
 90
        2
176
     1
 62
     7
176
     1
 90
        5
176
     1
 90
        0
176
     1
 90
        0
176
     1
290
     0
176
     1
 90
        1
176
     1
 40
0.0
176
     1
 90
        0
176
     1
290
     0
176
     1
290
     1
176
     1
290
     1
176
     1
290
     0
176
     1
290
     0
176
     1
290
     0
176
     1
290
     0
176
     1
290
     0
176
     1
290
     0
176
     1
 90
       50
176
     1
 40
0.0
176
     1
 40
1.0
176
     1
 90
        0
176
     1
 62
    18
420
        0
176
     1
 90
       50
176
     1
 90
        3
176
     1
 62
     5
420
      255
176
     1
290
     0
176
     1
 90
       50
176
     1
 90
       50
176
     1
 90
       50
176
     1
290
     0
176
     1
 90
       50
176
     1
 62
   256
176
     0
 40
1.0
176
     0
 90
        2
176
     1
  1
strokes_ogs.tif
176
     1
290
     0
176
     1
 40
1.0
176
     1
 40
1.0
176
     1
  0
VISUALSTYLE
  5
35
102
{ACAD_REACTORS
330
29
102
}
330
29
100
AcDbVisualStyle
  2
Brighten
 70
    12
177
     3
291
     1
 70
    58
 90
        2
176
     1
 90
        2
176
     1
 90
        0
176
     1
 90
        0
176
     1
 40
0.6
176
     1
 40
30.0
176
     1
 62
     7
420
 16777215
176
     1
 90
        1
176
     1
 90
        4
176
     1
 62
     7
176
     1
 62
   257
176
     1
 90
        1
176
     1
 90
        1
176
     1
 40
1.0
176
     1
 90
        8
176
     1
 62
     7
176
     1
 40
1.0
176
     1
 90
        1
176
     1
 90
        6
176
     1
 90
        2
176
     1
 62
     7
176
     1
 90
        5
176
     1
 90
        0
176
     1
 90
        0
176
     1
290
     0
176
     1
 90
        1
176
     1
 40
50.0
176
     1
 90
        0
176
     1
290
     0
176
     1
290
     1
176
     1
290
     1
176
     1
290
     0
176
     1
290
     0
176
     1
290
     0
176
     1
290
     0
176
     1
290
     0
176
     1
290
     0
176
     1
 90
       50
176
     1
 40
0.0
176
     1
 40
1.0
176
     1
 90
        0
176
     1
 62
    18
420
        0
176
     1
 90
       50
176
     1
 90
        3
176
     1
 62
     5
420
      255
176
     1
290
     0
176
     1
 90
       50
176
     1
 90
       50
176
     1
 90
       50
176
     1
290
     0
176
     1
 90
       50
176
     1
 62
   256
176
     0
 40
1.0
176
     0
 90
        2
176
     1
  1
strokes_ogs.tif
176
     1
290
     0
176
     1
 40
1.0
176
     1
 40
1.0
176
     1
  0
VISUALSTYLE
  5
39
102
{ACAD_REACTORS
330
29
102
}
330
29
100
AcDbVisualStyle
  2
ColorChange
 70
    16
177
     3
291
     1
 70
    58
 90
        2
176
     1
 90
        2
176
     1
 90
        3
176
     1
 90
        0
176
     1
 40
0.6
176
     1
 40
30.0
176
     1
 62
     8
420
  8421504
176
     1
 90
        1
176
     1
 90
        4
176
     1
 62
     7
176
     1
 62
   257
176
     1
 90
        1
176
     1
 90
        1
176
     1
 40
1.0
176
     1
 90
        8
176
     1
 62
     8
420
  8421504
176
     1
 40
1.0
176
     1
 90
        1
176
     1
 90
        6
176
     1
 90
        2
176
     1
 62
     7
176
     1
 90
        5
176
     1
 90
        0
176
     1
 90
        0
176
     1
290
     0
176
     1
 90
        1
176
     1
 40
0.0
176
     1
 90
        0
176
     1
290
     0
176
     1
290
     1
176
     1
290
     1
176
     1
290
     0
176
     1
290
     0
176
     1
290
     0
176
     1
290
     0
176
     1
290
     0
176
     1
290
     0
176
     1
 90
       50
176
     1
 40
0.0
176
     1
 40
1.0
176
     1
 90
        0
176
     1
 62
    18
420
        0
176
     1
 90
       50
176
     1
 90
        3
176
     1
 62
     5
420
      255
176
     1
290
     0
176
     1
 90
       50
176
     1
 90
       50
176
     1
 90
       50
176
     1
290
     0
176
     1
 90
       50
176
     1
 62
   256
176
     0
 40
1.0
176
     0
 90
        2
176
     1
  1
strokes_ogs.tif
176
     1
290
     0
176
     1
 40
1.0
176
     1
 40
1.0
176
     1
  0
VISUALSTYLE
  5
32
102
{ACAD_REACTORS
330
29
102
}
330
29
100
AcDbVisualStyle
  2
Conceptual
 70
     9
177
     3
291
     0
 70
    58
 90
        3
176
     1
 90
        2
176
     1
 90
        0
176
     1
 90
        0
176
     1
 40
0.6
176
     1
 40
30.0
176
     1
 62
     7
420
 16777215
176
     1
 90
        2
176
     1
 90
        2
176
     1
 62
     7
176
     1
 62
   257
176
     1
 90
        1
176
     1
 90
        1
176
     1
 40
179.0
176
     1
 90
        8
176
     1
 62
     7
176
     1
 40
1.0
176
     1
 90
        1
176
     1
 90
        6
176
     1
 90
        2
176
     1
 62
     7
176
     1
 90
        3
176
     1
 90
        0
176
     1
 90
        0
176
     1
290
     0
176
     1
 90
        1
176
     1
 40
0.0
176
     1
 90
        0
176
     1
290
     0
176
     1
290
     1
176
     1
290
     1
176
     1
290
     0
176
     1
290
     0
176
     1
290
     0
176
     1
290
     0
176
     1
290
     0
176
     1
290
     0
176
     1
 90
       50
176
     1
 40
0.0
176
     1
 40
1.0
176
     1
 90
        0
176
     1
 62
    18
420
        0
176
     1
 90
       50
176
     1
 90
        3
176
     1
 62
     5
420
      255
176
     1
290
     0
176
     1
 90
       50
176
     1
 90
       50
176
     1
 90
       50
176
     1
290
     0
176
     1
 90
       50
176
     1
 62
   256
176
     0
 40
1.0
176
     0
 90
        2
176
     1
  1
strokes_ogs.tif
176
     1
290
     0
176
     1
 40
1.0
176
     1
 40
1.0
176
     1
  0
VISUALSTYLE
  5
34
102
{ACAD_REACTORS
330
29
102
}
330
29
100
AcDbVisualStyle
  2
Dim
 70
    11
177
     3
291
     1
 70
    58
 90
        2
176
     1
 90
        2
176
     1
 90
        0
176
     1
 90
        0
176
     1
 40
0.6
176
     1
 40
30.0
176
     1
 62
     7
420
 16777215
176
     1
 90
        1
176
     1
 90
        4
176
     1
 62
     7
176
     1
 62
   257
176
     1
 90
        1
176
     1
 90
        1
176
     1
 40
1.0
176
     1
 90
        8
176
     1
 62
     7
176
     1
 40
1.0
176
     1
 90
        1
176
     1
 90
        6
176
     1
 90
        2
176
     1
 62
     7
176
     1
 90
        5
176
     1
 90
        0
176
     1
 90
        0
176
     1
290
     0
176
     1
 90
        1
176
     1
 40
-50.0
176
     1
 90
        0
176
     1
290
     0
176
     1
290
     1
176
     1
290
     1
176
     1
290
     0
176
     1
290
     0
176
     1
290
     0
176
     1
290
     0
176
     1
290
     0
176
     1
290
     0
176
     1
 90
       50
176
     1
 40
0.0
176
     1
 40
1.0
176
     1
 90
        0
176
     1
 62
    18
420
        0
176
     1
 90
       50
176
     1
 90
        3
176
     1
 62
     5
420
      255
176
     1
290
     0
176
     1
 90
       50
176
     1
 90
       50
176
     1
 90
       50
176
     1
290
     0
176
     1
 90
       50
176
     1
 62
   256
176
     0
 40
1.0
176
     0
 90
        2
176
     1
  1
strokes_ogs.tif
176
     1
290
     0
176
     1
 40
1.0
176
     1
 40
1.0
176
     1
  0
VISUALSTYLE
  5
41
102
{ACAD_REACTORS
330
29
102
}
330
29
100
AcDbVisualStyle
  2
EdgeColorOff
 70
    22
177
     3
291
     1
 70
    58
 90
        2
176
     0
 90
        2
176
     0
 90
        0
176
     0
 90
        0
176
     0
 40
0.6
176
     0
 40
30.0
176
     0
 62
     7
420
 16777215
176
     0
 90
        1
176
     0
 90
        4
176
     0
 62
     7
176
     0
 62
   257
176
     0
 90
        1
176
     0
 90
        1
176
     0
 40
1.0
176
     0
 90
        8
176
     2
 62
     7
176
     0
 40
1.0
176
     0
 90
        1
176
     0
 90
        6
176
     0
 90
        2
176
     0
 62
     7
176
     0
 90
        5
176
     0
 90
        0
176
     0
 90
        0
176
     0
290
     0
176
     0
 90
        1
176
     0
 40
0.0
176
     0
 90
        0
176
     0
290
     0
176
     0
290
     1
176
     0
290
     1
176
     0
290
     0
176
     0
290
     0
176
     0
290
     0
176
     0
290
     0
176
     0
290
     0
176
     0
290
     0
176
     0
 90
       50
176
     0
 40
0.0
176
     0
 40
1.0
176
     0
 90
        0
176
     0
 62
    18
420
        0
176
     0
 90
       50
176
     0
 90
        3
176
     0
 62
     5
420
      255
176
     0
290
     0
176
     0
 90
       50
176
     0
 90
       50
176
     0
 90
       50
176
     0
290
     0
176
     0
 90
       50
176
     0
 62
   256
176
     0
 40
1.0
176
     0
 90
        2
176
     0
  1
strokes_ogs.tif
176
     0
290
     0
176
     0
 40
1.0
176
     0
 40
1.0
176
     0
  0
VISUALSTYLE
  5
38
102
{ACAD_REACTORS
330
29
102
}
330
29
100
AcDbVisualStyle
  2
Facepattern
 70
    15
177
     3
291
     1
 70
    58
 90
        2
176
     1
 90
        2
176
     1
 90
        0
176
     1
 90
        0
176
     1
 40
0.6
176
     1
 40
30.0
176
     1
 62
     7
420
 16777215
176
     1
 90
        1
176
     1
 90
        4
176
     1
 62
     7
176
     1
 62
   257
176
     1
 90
        1
176
     1
 90
        1
176
     1
 40
1.0
176
     1
 90
        8
176
     1
 62
     7
176
     1
 40
1.0
176
     1
 90
        1
176
     1
 90
        6
176
     1
 90
        2
176
     1
 62
     7
176
     1
 90
        5
176
     1
 90
        0
176
     1
 90
        0
176
     1
290
     0
176
     1
 90
        1
176
     1
 40
0.0
176
     1
 90
        0
176
     1
290
     0
176
     1
290
     1
176
     1
290
     1
176
     1
290
     0
176
     1
290
     0
176
     1
290
     0
176
     1
290
     0
176
     1
290
     0
176
     1
290
     0
176
     1
 90
       50
176
     1
 40
0.0
176
     1
 40
1.0
176
     1
 90
        0
176
     1
 62
    18
420
        0
176
     1
 90
       50
176
     1
 90
        3
176
     1
 62
     5
420
      255
176
     1
290
     0
176
     1
 90
       50
176
     1
 90
       50
176
     1
 90
       50
176
     1
290
     0
176
     1
 90
       50
176
     1
 62
   256
176
     0
 40
1.0
176
     0
 90
        2
176
     1
  1
strokes_ogs.tif
176
     1
290
     0
176
     1
 40
1.0
176
     1
 40
1.0
176
     1
  0
VISUALSTYLE
  5
2A
102
{ACAD_REACTORS
330
29
102
}
330
29
100
AcDbVisualStyle
  2
Flat
 70
     0
177
     3
291
     1
 70
    58
 90
        2
176
     1
 90
        1
176
     1
 90
        1
176
     1
 90
        2
176
     1
 40
0.6
176
     1
 40
30.0
176
     1
 62
     7
420
 16777215
176
     1
 90
        0
176
     1
 90
        0
176
     1
 62
     7
176
     1
 62
   257
176
     1
 90
        1
176
     1
 90
        1
176
     1
 40
1.0
176
     1
 90
        8
176
     1
 62
     7
176
     1
 40
1.0
176
     1
 90
        1
176
     1
 90
        6
176
     1
 90
        2
176
     1
 62
     7
176
     1
 90
        5
176
     1
 90
        0
176
     1
 90
        0
176
     1
290
     0
176
     1
 90
       13
176
     1
 40
0.0
176
     1
 90
        0
176
     1
290
     0
176
     1
290
     1
176
     1
290
     1
176
     1
290
     0
176
     1
290
     0
176
     1
290
     0
176
     1
290
     0
176
     1
290
     0
176
     1
290
     0
176
     1
 90
       50
176
     1
 40
0.0
176
     1
 40
1.0
176
     1
 90
        0
176
     1
 62
    18
420
        0
176
     1
 90
       50
176
     1
 90
        3
176
     1
 62
     5
420
      255
176
     1
290
     0
176
     1
 90
       50
176
     1
 90
       50
176
     1
 90
       50
176
     1
290
     0
176
     1
 90
       50
176
     1
 62
   256
176
     0
 40
1.0
176
     0
 90
        2
176
     1
  1
strokes_ogs.tif
176
     1
290
     0
176
     1
 40
1.0
176
     1
 40
1.0
176
     1
  0
VISUALSTYLE
  5
2B
102
{ACAD_REACTORS
330
29
102
}
330
29
100
AcDbVisualStyle
  2
FlatWithEdges
 70
     1
177
     3
291
     1
 70
    58
 90
        2
176
     1
 90
        1
176
     1
 90
        1
176
     1
 90
        2
176
     1
 40
0.6
176
     1
 40
30.0
176
     1
 62
     7
420
 16777215
176
     1
 90
        1
176
     1
 90
        0
176
     1
 62
     7
176
     1
 62
   257
176
     1
 90
        1
176
     1
 90
        1
176
     1
 40
1.0
176
     1
 90
        0
176
     1
 62
   257
176
     1
 40
1.0
176
     1
 90
        1
176
     1
 90
        6
176
     1
 90
        2
176
     1
 62
     7
176
     1
 90
        5
176
     1
 90
        0
176
     1
 90
        0
176
     1
290
     0
176
     1
 90
       13
176
     1
 40
0.0
176
     1
 90
        0
176
     1
290
     0
176
     1
290
     1
176
     1
290
     1
176
     1
290
     0
176
     1
290
     0
176
     1
290
     0
176
     1
290
     0
176
     1
290
     0
176
     1
290
     0
176
     1
 90
       50
176
     1
 40
0.0
176
     1
 40
1.0
176
     1
 90
        0
176
     1
 62
    18
420
        0
176
     1
 90
       50
176
     1
 90
        3
176
     1
 62
     5
420
      255
176
     1
290
     0
176
     1
 90
       50
176
     1
 90
       50
176
     1
 90
       50
176
     1
290
     0
176
     1
 90
       50
176
     1
 62
   256
176
     0
 40
1.0
176
     0
 90
        2
176
     1
  1
strokes_ogs.tif
176
     1
290
     0
176
     1
 40
1.0
176
     1
 40
1.0
176
     1
  0
VISUALSTYLE
  5
2C
102
{ACAD_REACTORS
330
29
102
}
330
29
100
AcDbVisualStyle
  2
Gouraud
 70
     2
177
     3
291
     1
 70
    58
 90
        2
176
     1
 90
        2
176
     1
 90
        1
176
     1
 90
        2
176
     1
 40
0.6
176
     1
 40
30.0
176
     1
 62
     7
420
 16777215
176
     1
 90
        0
176
     1
 90
        0
176
     1
 62
     7
176
     1
 62
   257
176
     1
 90
        1
176
     1
 90
        1
176
     1
 40
1.0
176
     1
 90
        0
176
     1
 62
     7
176
     1
 40
1.0
176
     1
 90
        1
176
     1
 90
        6
176
     1
 90
        2
176
     1
 62
     7
176
     1
 90
        5
176
     1
 90
        0
176
     1
 90
        0
176
     1
290
     0
176
     1
 90
       13
176
     1
 40
0.0
176
     1
 90
        0
176
     1
290
     0
176
     1
290
     1
176
     1
290
     1
176
     1
290
     0
176
     1
290
     0
176
     1
290
     0
176
     1
290
     0
176
     1
290
     0
176
     1
290
     0
176
     1
 90
       50
176
     1
 40
0.0
176
     1
 40
1.0
176
     1
 90
        0
176
     1
 62
    18
420
        0
176
     1
 90
       50
176
     1
 90
        3
176
     1
 62
     5
420
      255
176
     1
290
     0
176
     1
 90
       50
176
     1
 90
       50
176
     1
 90
       50
176
     1
290
     0
176
     1
 90
       50
176
     1
 62
   256
176
     0
 40
1.0
176
     0
 90
        2
176
     1
  1
strokes_ogs.tif
176
     1
290
     0
176
     1
 40
1.0
176
     1
 40
1.0
176
     1
  0
VISUALSTYLE
  5
2D
102
{ACAD_REACTORS
330
29
102
}
330
29
100
AcDbVisualStyle
  2
GouraudWithEdges
 70
     3
177
     3
291
     1
 70
    58
 90
        2
176
     1
 90
        2
176
     1
 90
        1
176
     1
 90
        2
176
     1
 40
0.6
176
     1
 40
30.0
176
     1
 62
     7
420
 16777215
176
     1
 90
        1
176
     1
 90
        0
176
     1
 62
     7
176
     1
 62
   257
176
     1
 90
        1
176
     1
 90
        1
176
     1
 40
1.0
176
     1
 90
        0
176
     1
 62
   257
176
     1
 40
1.0
176
     1
 90
        1
176
     1
 90
        6
176
     1
 90
        2
176
     1
 62
     7
176
     1
 90
        5
176
     1
 90
        0
176
     1
 90
        0
176
     1
290
     0
176
     1
 90
       13
176
     1
 40
0.0
176
     1
 90
        0
176
     1
290
     0
176
     1
290
     1
176
     1
290
     1
176
     1
290
     0
176
     1
290
     0
176
     1
290
     0
176
     1
290
     0
176
     1
290
     0
176
     1
290
     0
176
     1
 90
       50
176
     1
 40
0.0
176
     1
 40
1.0
176
     1
 90
        0
176
     1
 62
    18
420
        0
176
     1
 90
       50
176
     1
 90
        3
176
     1
 62
     5
420
      255
176
     1
290
     0
176
     1
 90
       50
176
     1
 90
       50
176
     1
 90
       50
176
     1
290
     0
176
     1
 90
       50
176
     1
 62
   256
176
     0
 40
1.0
176
     0
 90
        2
176
     1
  1
strokes_ogs.tif
176
     1
290
     0
176
     1
 40
1.0
176
     1
 40
1.0
176
     1
  0
VISUALSTYLE
  5
31
102
{ACAD_REACTORS
330
29
102
}
330
29
100
AcDbVisualStyle
  2
Hidden
 70
     6
177
     3
291
     0
 70
    58
 90
        1
176
     1
 90
        2
176
     1
 90
        2
176
     1
 90
        0
176
     1
 40
0.6
176
     1
 40
30.0
176
     1
 62
     7
420
 16777215
176
     1
 90
        2
176
     1
 90
        2
176
     1
 62
     7
176
     1
 62
   257
176
     1
 90
        2
176
     1
 90
        1
176
     1
 40
40.0
176
     1
 90
        0
176
     1
 62
   257
176
     1
 40
1.0
176
     1
 90
        1
176
     1
 90
        6
176
     1
 90
        2
176
     1
 62
     7
176
     1
 90
        3
176
     1
 90
        0
176
     1
 90
        0
176
     1
290
     0
176
     1
 90
        1
176
     1
 40
0.0
176
     1
 90
        0
176
     1
290
     0
176
     1
290
     1
176
     1
290
     1
176
     1
290
     0
176
     1
290
     0
176
     1
290
     0
176
     1
290
     0
176
     1
290
     0
176
     1
290
     0
176
     1
 90
       50
176
     1
 40
0.0
176
     1
 40
1.0
176
     1
 90
        0
176
     1
 62
    18
420
        0
176
     1
 90
       50
176
     1
 90
        3
176
     1
 62
     5
420
      255
176
     1
290
     0
176
     1
 90
       50
176
     1
 90
       50
176
     1
 90
       50
176
     1
290
     0
176
     1
 90
       50
176
     1
 62
   256
176
     0
 40
1.0
176
     0
 90
        2
176
     1
  1
strokes_ogs.tif
176
     1
290
     0
176
     1
 40
1.0
176
     1
 40
1.0
176
     1
  0
VISUALSTYLE
  5
3F
102
{ACAD_REACTORS
330
29
102
}
330
29
100
AcDbVisualStyle
  2
JitterOff
 70
    20
177
     3
291
     1
 70
    58
 90
        2
176
     0
 90
        2
176
     0
 90
        0
176
     0
 90
        0
176
     0
 40
0.6
176
     0
 40
30.0
176
     0
 62
     7
420
 16777215
176
     0
 90
        1
176
     0
 90
        4
176
     0
 62
     7
176
     0
 62
   257
176
     0
 90
        1
176
     0
 90
        1
176
     0
 40
1.0
176
     0
 90
       10
176
     2
 62
     7
176
     0
 40
1.0
176
     0
 90
        1
176
     0
 90
        6
176
     0
 90
        2
176
     0
 62
     7
176
     0
 90
        5
176
     0
 90
        0
176
     0
 90
        0
176
     0
290
     0
176
     0
 90
        1
176
     0
 40
0.0
176
     0
 90
        0
176
     0
290
     0
176
     0
290
     1
176
     0
290
     1
176
     0
290
     0
176
     0
290
     0
176
     0
290
     0
176
     0
290
     0
176
     0
290
     0
176
     0
290
     0
176
     0
 90
       50
176
     0
 40
0.0
176
     0
 40
1.0
176
     0
 90
        0
176
     0
 62
    18
420
        0
176
     0
 90
       50
176
     0
 90
        3
176
     0
 62
     5
420
      255
176
     0
290
     0
176
     0
 90
       50
176
     0
 90
       50
176
     0
 90
       50
176
     0
290
     0
176
     0
 90
       50
176
     0
 62
   256
176
     0
 40
1.0
176
     0
 90
        2
176
     0
  1
strokes_ogs.tif
176
     0
290
     0
176
     0
 40
1.0
176
     0
 40
1.0
176
     0
  0
VISUALSTYLE
  5
37
102
{ACAD_REACTORS
330
29
102
}
330
29
100
AcDbVisualStyle
  2
Linepattern
 70
    14
177
     3
291
     1
 70
    58
 90
        2
176
     1
 90
        2
176
     1
 90
        0
176
     1
 90
        0
176
     1
 40
0.6
176
     1
 40
30.0
176
     1
 62
     7
420
 16777215
176
     1
 90
        1
176
     1
 90
        4
176
     1
 62
     7
176
     1
 62
   257
176
     1
 90
        7
176
     1
 90
        7
176
     1
 40
1.0
176
     1
 90
        8
176
     1
 62
     7
176
     1
 40
1.0
176
     1
 90
        1
176
     1
 90
        6
176
     1
 90
        2
176
     1
 62
     7
176
     1
 90
        5
176
     1
 90
        0
176
     1
 90
        0
176
     1
290
     0
176
     1
 90
        1
176
     1
 40
0.0
176
     1
 90
        0
176
     1
290
     0
176
     1
290
     1
176
     1
290
     1
176
     1
290
     0
176
     1
290
     0
176
     1
290
     0
176
     1
290
     0
176
     1
290
     0
176
     1
290
     0
176
     1
 90
       50
176
     1
 40
0.0
176
     1
 40
1.0
176
     1
 90
        0
176
     1
 62
    18
420
        0
176
     1
 90
       50
176
     1
 90
        3
176
     1
 62
     5
420
      255
176
     1
290
     0
176
     1
 90
       50
176
     1
 90
       50
176
     1
 90
       50
176
     1
290
     0
176
     1
 90
       50
176
     1
 62
   256
176
     0
 40
1.0
176
     0
 90
        2
176
     1
  1
strokes_ogs.tif
176
     1
290
     0
176
     1
 40
1.0
176
     1
 40
1.0
176
     1
  0
VISUALSTYLE
  5
40
102
{ACAD_REACTORS
330
29
102
}
330
29
100
AcDbVisualStyle
  2
OverhangOff
 70
    21
177
     3
291
     1
 70
    58
 90
        2
176
     0
 90
        2
176
     0
 90
        0
176
     0
 90
        0
176
     0
 40
0.6
176
     0
 40
30.0
176
     0
 62
     7
420
 16777215
176
     0
 90
        1
176
     0
 90
        4
176
     0
 62
     7
176
     0
 62
   257
176
     0
 90
        1
176
     0
 90
        1
176
     0
 40
1.0
176
     0
 90
        9
176
     2
 62
     7
176
     0
 40
1.0
176
     0
 90
        1
176
     0
 90
        6
176
     0
 90
        2
176
     0
 62
     7
176
     0
 90
        5
176
     0
 90
        0
176
     0
 90
        0
176
     0
290
     0
176
     0
 90
        1
176
     0
 40
0.0
176
     0
 90
        0
176
     0
290
     0
176
     0
290
     1
176
     0
290
     1
176
     0
290
     0
176
     0
290
     0
176
     0
290
     0
176
     0
290
     0
176
     0
290
     0
176
     0
290
     0
176
     0
 90
       50
176
     0
 40
0.0
176
     0
 40
1.0
176
     0
 90
        0
176
     0
 62
    18
420
        0
176
     0
 90
       50
176
     0
 90
        3
176
     0
 62
     5
420
      255
176
     0
290
     0
176
     0
 90
       50
176
     0
 90
       50
176
     0
 90
       50
176
     0
290
     0
176
     0
 90
       50
176
     0
 62
   256
176
     0
 40
1.0
176
     0
 90
        2
176
     0
  1
strokes_ogs.tif
176
     0
290
     0
176
     0
 40
1.0
176
     0
 40
1.0
176
     0
  0
VISUALSTYLE
  5
33
102
{ACAD_REACTORS
330
29
102
}
330
29
100
AcDbVisualStyle
  2
Realistic
 70
     8
177
     3
291
     0
 70
    58
 90
        2
176
     1
 90
        3
176
     1
 90
        0
176
     1
 90
        2
176
     1
 40
0.6
176
     1
 40
30.0
176
     1
 62
     7
420
 16777215
176
     1
 90
        0
176
     1
 90
        0
176
     1
 62
     7
176
     1
 62
   257
176
     1
 90
        1
176
     1
 90
        1
176
     1
 40
1.0
176
     1
 90
        8
176
     1
 62
   257
176
     1
 40
1.0
176
     1
 90
        1
176
     1
 90
        6
176
     1
 90
        2
176
     1
 62
     7
176
     1
 90
        3
176
     1
 90
        0
176
     1
 90
        0
176
     1
290
     0
176
     1
 90
       13
176
     1
 40
0.0
176
     1
 90
        0
176
     1
290
     0
176
     1
290
     1
176
     1
290
     1
176
     1
290
     0
176
     1
290
     0
176
     1
290
     0
176
     1
290
     0
176
     1
290
     0
176
     1
290
     0
176
     1
 90
       50
176
     1
 40
0.0
176
     1
 40
1.0
176
     1
 90
        0
176
     1
 62
    18
420
        0
176
     1
 90
       50
176
     1
 90
        3
176
     1
 62
     5
420
      255
176
     1
290
     0
176
     1
 90
       50
176
     1
 90
       50
176
     1
 90
       50
176
     1
290
     0
176
     1
 90
       50
176
     1
 62
   256
176
     0
 40
1.0
176
     0
 90
        2
176
     1
  1
strokes_ogs.tif
176
     1
290
     0
176
     1
 40
1.0
176
     1
 40
1.0
176
     1
  0
VISUALSTYLE
  5
3E
102
{ACAD_REACTORS
330
29
102
}
330
29
100
AcDbVisualStyle
  2
Shaded
 70
    27
177
     3
291
     0
 70
    58
 90
        2
176
     1
 90
        2
176
     1
 90
        1
176
     1
 90
        2
176
     1
 40
0.6
176
     1
 40
30.0
176
     1
 62
     7
420
 16777215
176
     1
 90
        0
176
     1
 90
        4
176
     1
 62
     7
176
     1
 62
   257
176
     1
 90
        1
176
     1
 90
        1
176
     1
 40
1.0
176
     1
 90
        8
176
     1
 62
   257
176
     1
 40
1.0
176
     1
 90
        1
176
     1
 90
        6
176
     1
 90
        2
176
     1
 62
     8
420
  7895160
176
     1
 90
        3
176
     1
 90
        0
176
     1
 90
        0
176
     1
290
     0
176
     1
 90
        5
176
     1
 40
0.0
176
     1
 90
        0
176
     1
290
     0
176
     1
290
     1
176
     1
290
     1
176
     1
290
     0
176
     1
290
     0
176
     1
290
     0
176
     1
290
     0
176
     1
290
     0
176
     1
290
     0
176
     1
 90
       50
176
     1
 40
0.0
176
     1
 40
1.0
176
     1
 90
        0
176
     1
 62
    18
420
        0
176
     1
 90
       50
176
     1
 90
        3
176
     1
 62
     5
420
      255
176
     1
290
     0
176
     1
 90
       50
176
     1
 90
       50
176
     1
 90
       50
176
     1
290
     0
176
     1
 90
       50
176
     1
 62
   256
176
     0
 40
1.0
176
     0
 90
        2
176
     1
  1
strokes_ogs.tif
176
     1
290
     0
176
     1
 40
1.0
176
     1
 40
1.0
176
     1
  0
VISUALSTYLE
  5
3D
102
{ACAD_REACTORS
330
29
102
}
330
29
100
AcDbVisualStyle
  2
Shaded with edges
 70
    26
177
     3
291
     0
 70
    58
 90
        2
176
     1
 90
        2
176
     1
 90
        1
176
     1
 90
        2
176
     1
 40
0.6
176
     1
 40
30.0
176
     1
 62
     7
420
 16777215
176
     1
 90
        1
176
     1
 90
        2
176
     1
 62
     7
176
     1
 62
   257
176
     1
 90
        2
176
     1
 90
        1
176
     1
 40
1.0
176
     1
 90
        8
176
     1
 62
   257
176
     1
 40
1.0
176
     1
 90
        1
176
     1
 90
        6
176
     1
 90
        2
176
     1
 62
     7
176
     1
 90
        3
176
     1
 90
        0
176
     1
 90
        0
176
     1
290
     0
176
     1
 90
        5
176
     1
 40
0.0
176
     1
 90
        0
176
     1
290
     0
176
     1
290
     1
176
     1
290
     1
176
     1
290
     0
176
     1
290
     0
176
     1
290
     0
176
     1
290
     0
176
     1
290
     0
176
     1
290
     0
176
     1
 90
       50
176
     1
 40
0.0
176
     1
 40
1.0
176
     1
 90
        0
176
     1
 62
    18
420
        0
176
     1
 90
       50
176
     1
 90
        3
176
     1
 62
     5
420
      255
176
     1
290
     0
176
     1
 90
       50
176
     1
 90
       50
176
     1
 90
       50
176
     1
290
     0
176
     1
 90
       50
176
     1
 62
   256
176
     0
 40
1.0
176
     0
 90
        2
176
     1
  1
strokes_ogs.tif
176
     1
290
     0
176
     1
 40
1.0
176
     1
 40
1.0
176
     1
  0
VISUALSTYLE
  5
3A
102
{ACAD_REACTORS
330
29
102
}
330
29
100
AcDbVisualStyle
  2
Shades of Gray
 70
    23
177
     3
291
     0
 70
    58
 90
        2
176
     1
 90
        2
176
     1
 90
        3
176
     1
 90
        0
176
     1
 40
0.6
176
     1
 40
30.0
176
     1
 62
     7
420
 16777215
176
     1
 90
        2
176
     1
 90
        2
176
     1
 62
     7
176
     1
 62
     7
176
     1
 90
        1
176
     1
 90
        1
176
     1
 40
40.0
176
     1
 90
        8
176
     1
 62
     7
176
     1
 40
1.0
176
     1
 90
        1
176
     1
 90
        6
176
     1
 90
        2
176
     1
 62
     7
176
     1
 90
        3
176
     1
 90
        0
176
     1
 90
        0
176
     1
290
     0
176
     1
 90
        1
176
     1
 40
0.0
176
     1
 90
        0
176
     1
290
     0
176
     1
290
     1
176
     1
290
     1
176
     1
290
     0
176
     1
290
     0
176
     1
290
     0
176
     1
290
     0
176
     1
290
     0
176
     1
290
     0
176
     1
 90
       50
176
     1
 40
0.0
176
     1
 40
1.0
176
     1
 90
        0
176
     1
 62
    18
420
        0
176
     1
 90
       50
176
     1
 90
        3
176
     1
 62
     5
420
      255
176
     1
290
     0
176
     1
 90
       50
176
     1
 90
       50
176
     1
 90
       50
176
     1
290
     0
176
     1
 90
       50
176
     1
 62
   256
176
     0
 40
1.0
176
     0
 90
        2
176
     1
  1
strokes_ogs.tif
176
     1
290
     0
176
     1
 40
1.0
176
     1
 40
1.0
176
     1
  0
VISUALSTYLE
  5
3B
102
{ACAD_REACTORS
330
29
102
}
330
29
100
AcDbVisualStyle
  2
Sketchy
 70
    24
177
     3
291
     0
 70
    58
 90
        1
176
     1
 90
        2
176
     1
 90
        2
176
     1
 90
        0
176
     1
 40
0.6
176
     1
 40
30.0
176
     1
 62
     7
420
 16777215
176
     1
 90
        2
176
     1
 90
        2
176
     1
 62
     7
176
     1
 62
     7
176
     1
 90
        1
176
     1
 90
        1
176
     1
 40
40.0
176
     1
 90
       11
176
     1
 62
     7
176
     1
 40
1.0
176
     1
 90
        1
176
     1
 90
        6
176
     1
 90
        2
176
     1
 62
     7
176
     1
 90
        6
176
     1
 90
        0
176
     1
 90
        0
176
     1
290
     0
176
     1
 90
        1
176
     1
 40
0.0
176
     1
 90
        0
176
     1
290
     0
176
     1
290
     1
176
     1
290
     1
176
     1
290
     0
176
     1
290
     0
176
     1
290
     0
176
     1
290
     0
176
     1
290
     0
176
     1
290
     0
176
     1
 90
       50
176
     1
 40
0.0
176
     1
 40
1.0
176
     1
 90
        0
176
     1
 62
    18
420
        0
176
     1
 90
       50
176
     1
 90
        3
176
     1
 62
     5
420
      255
176
     1
290
     0
176
     1
 90
       50
176
     1
 90
       50
176
     1
 90
       50
176
     1
290
     0
176
     1
 90
       50
176
     1
 62
   256
176
     0
 40
1.0
176
     0
 90
        2
176
     1
  1
strokes_ogs.tif
176
     1
290
     0
176
     1
 40
1.0
176
     1
 40
1.0
176
     1
  0
VISUALSTYLE
  5
36
102
{ACAD_REACTORS
330
29
102
}
330
29
100
AcDbVisualStyle
  2
Thicken
 70
    13
177
     3
291
     1
 70
    58
 90
        2
176
     1
 90
        2
176
     1
 90
        0
176
     1
 90
        0
176
     1
 40
0.6
176
     1
 40
30.0
176
     1
 62
     7
420
 16777215
176
     1
 90
        1
176
     1
 90
        4
176
     1
 62
     7
176
     1
 62
   257
176
     1
 90
        1
176
     1
 90
        1
176
     1
 40
1.0
176
     1
 90
       12
176
     1
 62
     7
176
     1
 40
1.0
176
     1
 90
        1
176
     1
 90
        6
176
     1
 90
        2
176
     1
 62
     7
176
     1
 90
        5
176
     1
 90
        0
176
     1
 90
        0
176
     1
290
     0
176
     1
 90
        1
176
     1
 40
0.0
176
     1
 90
        0
176
     1
290
     0
176
     1
290
     1
176
     1
290
     1
176
     1
290
     0
176
     1
290
     0
176
     1
290
     0
176
     1
290
     0
176
     1
290
     0
176
     1
290
     0
176
     1
 90
       50
176
     1
 40
0.0
176
     1
 40
1.0
176
     1
 90
        0
176
     1
 62
    18
420
        0
176
     1
 90
       50
176
     1
 90
        3
176
     1
 62
     5
420
      255
176
     1
290
     0
176
     1
 90
       50
176
     1
 90
       50
176
     1
 90
       50
176
     1
290
     0
176
     1
 90
       50
176
     1
 62
   256
176
     0
 40
1.0
176
     0
 90
        2
176
     1
  1
strokes_ogs.tif
176
     1
290
     0
176
     1
 40
1.0
176
     1
 40
1.0
176
     1
  0
VISUALSTYLE
  5
30
102
{ACAD_REACTORS
330
29
102
}
330
29
100
AcDbVisualStyle
  2
Wireframe
 70
     5
177
     3
291
     0
 70
    58
 90
        0
176
     1
 90
        2
176
     1
 90
        0
176
     1
 90
        0
176
     1
 40
0.6
176
     1
 40
30.0
176
     1
 62
     7
420
 16777215
176
     1
 90
        1
176
     1
 90
        4
176
     1
 62
     7
176
     1
 62
   257
176
     1
 90
        1
176
     1
 90
        1
176
     1
 40
1.0
176
     1
 90
        0
176
     1
 62
   257
176
     1
 40
1.0
176
     1
 90
        1
176
     1
 90
        6
176
     1
 90
        2
176
     1
 62
     7
176
     1
 90
        3
176
     1
 90
        0
176
     1
 90
        0
176
     1
290
     0
176
     1
 90
        1
176
     1
 40
0.0
176
     1
 90
        0
176
     1
290
     0
176
     1
290
     1
176
     1
290
     1
176
     1
290
     0
176
     1
290
     0
176
     1
290
     0
176
     1
290
     0
176
     1
290
     0
176
     1
290
     0
176
     1
 90
       50
176
     1
 40
0.0
176
     1
 40
1.0
176
     1
 90
        0
176
     1
 62
    18
420
        0
176
     1
 90
       50
176
     1
 90
        3
176
     1
 62
     5
420
      255
176
     1
290
     0
176
     1
 90
       50
176
     1
 90
       50
176
     1
 90
       50
176
     1
290
     0
176
     1
 90
       50
176
     1
 62
   256
176
     0
 40
1.0
176
     0
 90
        2
176
     1
  1
strokes_ogs.tif
176
     1
290
     0
176
     1
 40
1.0
176
     1
 40
1.0
176
     1
  0
VISUALSTYLE
  5
3C
102
{ACAD_REACTORS
330
29
102
}
330
29
100
AcDbVisualStyle
  2
X-Ray
 70
    25
177
     3
291
     0
 70
    58
 90
        2
176
     1
 90
        2
176
     1
 90
        1
176
     1
 90
        1
176
     1
 40
0.5
176
     1
 40
30.0
176
     1
 62
     7
420
 16777215
176
     1
 90
        1
176
     1
 90
        0
176
     1
 62
     7
176
     1
 62
   257
176
     1
 90
        1
176
     1
 90
        1
176
     1
 40
1.0
176
     1
 90
        8
176
     1
 62
     7
176
     1
 40
1.0
176
     1
 90
        1
176
     1
 90
        6
176
     1
 90
        2
176
     1
 62
     7
176
     1
 90
        3
176
     1
 90
        0
176
     1
 90
        0
176
     1
290
     0
176
     1
 90
       13
176
     1
 40
0.0
176
     1
 90
        0
176
     1
290
     0
176
     1
290
     1
176
     1
290
     1
176
     1
290
     0
176
     1
290
     0
176
     1
290
     0
176
     1
290
     0
176
     1
290
     0
176
     1
290
     0
176
     1
 90
       50
176
     1
 40
0.0
176
     1
 40
1.0
176
     1
 90
        0
176
     1
 62
    18
420
        0
176
     1
 90
       50
176
     1
 90
        3
176
     1
 62
     5
420
      255
176
     1
290
     0
176
     1
 90
       50
176
     1
 90
       50
176
     1
 90
       50
176
     1
290
     0
176
     1
 90
       50
176
     1
 62
   256
176
     0
 40
1.0
176
     0
 90
        2
176
     1
  1
strokes_ogs.tif
176
     1
290
     0
176
     1
 40
1.0
176
     1
 40
1.0
176
     1
  0
DICTIONARYVAR
  5
EC
102
{ACAD_REACTORS
330
E7
102
}
330
E7
100
DictionaryVariables
280
     0
  1
1:1
  0
DICTIONARYVAR
  5
E9
102
{ACAD_REACTORS
330
E7
102
}
330
E7
100
DictionaryVariables
280
     0
  1
STANDARD
  0
DICTIONARYVAR
  5
E8
102
{ACAD_REACTORS
330
E7
102
}
330
E7
100
DictionaryVariables
280
     0
  1
STANDARD
  0
DICTIONARYVAR
  5
EA
102
{ACAD_REACTORS
330
E7
102
}
330
E7
100
DictionaryVariables
280
     0
  1
Imperial24
  0
DICTIONARYVAR
  5
EB
102
{ACAD_REACTORS
330
E7
102
}
330
E7
100
DictionaryVariables
280
     0
  1
Imperial24
  0
DICTIONARY
  5
1A
330
19
100
AcDbDictionary
280
     1
281
     1
  3
BUMPTILE
360
1C
  3
DIFFUSETILE
360
1B
  3
OPACITYTILE
360
1F
  3
REFLECTIONTILE
360
1E
  3
REFRACTIONTILE
360
20
  3
SPECULARTILE
360
1D
  0
DICTIONARY
  5
12
330
11
100
AcDbDictionary
280
     1
281
     1
  3
BUMPTILE
360
14
  3
DIFFUSETILE
360
13
  3
OPACITYTILE
360
17
  3
REFLECTIONTILE
360
16
  3
REFRACTIONTILE
360
18
  3
SPECULARTILE
360
15
  0
DICTIONARY
  5
22
330
21
100
AcDbDictionary
280
     1
281
     1
  3
BUMPTILE
360
24
  3
DIFFUSETILE
360
23
  3
OPACITYTILE
360
27
  3
REFLECTIONTILE
360
26
  3
REFRACTIONTILE
360
28
  3
SPECULARTILE
360
25
  0
DICTIONARY
  5
ED
330
65
100
AcDbDictionary
280
     1
281
     1
  3
ACAD_ROUNDTRIP_2008_TABLESTYLE_CELLSTYLEMAP
360
EE
  0
XRECORD
  5
1C
102
{ACAD_REACTORS
330
1A
102
}
330
1A
100
AcDbXrecord
280
     1
270
     1
271
     1
  0
XRECORD
  5
1B
102
{ACAD_REACTORS
330
1A
102
}
330
1A
100
AcDbXrecord
280
     1
270
     1
271
     1
  0
XRECORD
  5
1F
102
{ACAD_REACTORS
330
1A
102
}
330
1A
100
AcDbXrecord
280
     1
270
     1
271
     1
  0
XRECORD
  5
1E
102
{ACAD_REACTORS
330
1A
102
}
330
1A
100
AcDbXrecord
280
     1
270
     1
271
     1
  0
XRECORD
  5
20
102
{ACAD_REACTORS
330
1A
102
}
330
1A
100
AcDbXrecord
280
     1
270
     1
271
     1
  0
XRECORD
  5
1D
102
{ACAD_REACTORS
330
1A
102
}
330
1A
100
AcDbXrecord
280
     1
270
     1
271
     1
  0
XRECORD
  5
14
102
{ACAD_REACTORS
330
12
102
}
330
12
100
AcDbXrecord
280
     1
270
     1
271
     1
  0
XRECORD
  5
13
102
{ACAD_REACTORS
330
12
102
}
330
12
100
AcDbXrecord
280
     1
270
     1
271
     1
  0
XRECORD
  5
17
102
{ACAD_REACTORS
330
12
102
}
330
12
100
AcDbXrecord
280
     1
270
     1
271
     1
  0
XRECORD
  5
16
102
{ACAD_REACTORS
330
12
102
}
330
12
100
AcDbXrecord
280
     1
270
     1
271
     1
  0
XRECORD
  5
18
102
{ACAD_REACTORS
330
12
102
}
330
12
100
AcDbXrecord
280
     1
270
     1
271
     1
  0
XRECORD
  5
15
102
{ACAD_REACTORS
330
12
102
}
330
12
100
AcDbXrecord
280
     1
270
     1
271
     1
  0
XRECORD
  5
24
102
{ACAD_REACTORS
330
22
102
}
330
22
100
AcDbXrecord
280
     1
270
     1
271
     1
  0
XRECORD
  5
23
102
{ACAD_REACTORS
330
22
102
}
330
22
100
AcDbXrecord
280
     1
270
     1
271
     1
  0
XRECORD
  5
27
102
{ACAD_REACTORS
330
22
102
}
330
22
100
AcDbXrecord
280
     1
270
     1
271
     1
  0
XRECORD
  5
26
102
{ACAD_REACTORS
330
22
102
}
330
22
100
AcDbXrecord
280
     1
270
     1
271
     1
  0
XRECORD
  5
28
102
{ACAD_REACTORS
330
22
102
}
330
22
100
AcDbXrecord
280
     1
270
     1
271
     1
  0
XRECORD
  5
25
102
{ACAD_REACTORS
330
22
102
}
330
22
100
AcDbXrecord
280
     1
270
     1
271
     1
  0
CELLSTYLEMAP
  5
EE
102
{ACAD_REACTORS
330
ED
102
}
330
ED
100
AcDbCellStyleMap
 90
        3
300
CELLSTYLE
  1
TABLEFORMAT_BEGIN
 90
        5
170
     1
 91
        0
 92
    32768
 62
   257
 93
        1
300
CONTENTFORMAT
  1
CONTENTFORMAT_BEGIN
 90
        0
 91
        0
 92
      512
 93
        0
300

 40
0.0
140
1.0
 94
        5
 62
     0
340
55
144
0.25
309
CONTENTFORMAT_END
171
     0
 94
        0
309
TABLEFORMAT_END
  1
CELLSTYLE_BEGIN
 90
        1
 91
        1
300
_TITLE
309
CELLSTYLE_END
300
CELLSTYLE
  1
TABLEFORMAT_BEGIN
 90
        5
170
     1
 91
        0
 92
        0
 62
   257
 93
        1
300
CONTENTFORMAT
  1
CONTENTFORMAT_BEGIN
 90
        0
 91
        0
 92
      512
 93
        0
300

 40
0.0
140
1.0
 94
        5
 62
     0
340
55
144
0.18
309
CONTENTFORMAT_END
171
     0
 94
        0
309
TABLEFORMAT_END
  1
CELLSTYLE_BEGIN
 90
        2
 91
        1
300
_HEADER
309
CELLSTYLE_END
300
CELLSTYLE
  1
TABLEFORMAT_BEGIN
 90
        5
170
     1
 91
        0
 92
        0
 62
   257
 93
        1
300
CONTENTFORMAT
  1
CONTENTFORMAT_BEGIN
 90
        0
 91
        0
 92
      512
 93
        0
300

 40
0.0
140
1.0
 94
        2
 62
     0
340
55
144
0.18
309
CONTENTFORMAT_END
171
     0
 94
        0
309
TABLEFORMAT_END
  1
CELLSTYLE_BEGIN
 90
        3
 91
        2
300
_DATA
309
CELLSTYLE_END
  0
ENDSEC
  0
EOF
