  0
SECTION
  2
HEADER
  9
$ACADVER
  1
AC1032
  9
$ACADMAINTVER
 90
      228
  9
$DWGCODEPAGE
  3
ANSI_1252
  9
$REQUIREDVERSIONS
160
                 0
  9
$INSBASE
 10
0.0
 20
0.0
 30
0.0
  9
$EXTMIN
 10
1.000000000000000E+20
 20
1.000000000000000E+20
 30
1.000000000000000E+20
  9
$EXTMAX
 10
-1.000000000000000E+20
 20
-1.000000000000000E+20
 30
-1.000000000000000E+20
  9
$LIMMIN
 10
0.0
 20
0.0
  9
$LIMMAX
 10
12.0
 20
9.0
  9
$ORTHOMODE
 70
     0
  9
$REGENMODE
 70
     1
  9
$FILLMODE
 70
     1
  9
$QTEXTMODE
 70
     0
  9
$MIRRTEXT
 70
     0
  9
$LTSCALE
 40
1.0
  9
$ATTMODE
 70
     1
  9
$TEXTSIZE
 40
0.2
  9
$TRACEWID
 40
0.05
  9
$TEXTSTYLE
  7
Standard
  9
$CLAYER
  8
0
  9
$CELTYPE
  6
ByLayer
  9
$CECOLOR
 62
   256
  9
$CELTSCALE
 40
1.0
  9
$DISPSILH
 70
     0
  9
$DIMSCALE
 40
1.0
  9
$DIMASZ
 40
0.18
  9
$DIMEXO
 40
0.0625
  9
$DIMDLI
 40
0.38
  9
$DIMRND
 40
0.0
  9
$DIMDLE
 40
0.0
  9
$DIMEXE
 40
0.18
  9
$DIMTP
 40
0.0
  9
$DIMTM
 40
0.0
  9
$DIMTXT
 40
0.18
  9
$DIMCEN
 40
0.09
  9
$DIMTSZ
 40
0.0
  9
$DIMTOL
 70
     0
  9
$DIMLIM
 70
     0
  9
$DIMTIH
 70
     1
  9
$DIMTOH
 70
     1
  9
$DIMSE1
 70
     0
  9
$DIMSE2
 70
     0
  9
$DIMTAD
 70
     0
  9
$DIMZIN
 70
     0
  9
$DIMBLK
  1

  9
$DIMASO
 70
     1
  9
$DIMSHO
 70
     1
  9
$DIMPOST
  1

  9
$DIMAPOST
  1

  9
$DIMALT
 70
     0
  9
$DIMALTD
 70
     2
  9
$DIMALTF
 40
25.4
  9
$DIMLFAC
 40
1.0
  9
$DIMTOFL
 70
     0
  9
$DIMTVP
 40
0.0
  9
$DIMTIX
 70
     0
  9
$DIMSOXD
 70
     0
  9
$DIMSAH
 70
     0
  9
$DIMBLK1
  1

  9
$DIMBLK2
  1

  9
$DIMSTYLE
  2
Standard
  9
$DIMCLRD
 70
     0
  9
$DIMCLRE
 70
     0
  9
$DIMCLRT
 70
     0
  9
$DIMTFAC
 40
1.0
  9
$DIMGAP
 40
0.09
  9
$DIMJUST
 70
     0
  9
$DIMSD1
 70
     0
  9
$DIMSD2
 70
     0
  9
$DIMTOLJ
 70
     1
  9
$DIMTZIN
 70
     0
  9
$DIMALTZ
 70
     0
  9
$DIMALTTZ
 70
     0
  9
$DIMUPT
 70
     0
  9
$DIMDEC
 70
     4
  9
$DIMTDEC
 70
     4
  9
$DIMALTU
 70
     2
  9
$DIMALTTD
 70
     2
  9
$DIMTXSTY
  7
Standard
  9
$DIMAUNIT
 70
     0
  9
$DIMADEC
 70
     0
  9
$DIMALTRND
 40
0.0
  9
$DIMAZIN
 70
     0
  9
$DIMDSEP
 70
    46
  9
$DIMATFIT
 70
     3
  9
$DIMFRAC
 70
     0
  9
$DIMLDRBLK
  1

  9
$DIMLUNIT
 70
     2
  9
$DIMLWD
 70
    -2
  9
$DIMLWE
 70
    -2
  9
$DIMTMOVE
 70
     0
  9
$DIMFXL
 40
1.0
  9
$DIMFXLON
 70
     0
  9
$DIMJOGANG
 40
0.7853981633974483
  9
$DIMTFILL
 70
     0
  9
$DIMTFILLCLR
 70
     0
  9
$DIMARCSYM
 70
     0
  9
$DIMLTYPE
  6

  9
$DIMLTEX1
  6

  9
$DIMLTEX2
  6

  9
$DIMTXTDIRECTION
 70
     0
  9
$LUNITS
 70
     2
  9
$LUPREC
 70
     4
  9
$SKETCHINC
 40
0.1
  9
$FILLETRAD
 40
0.0
  9
$AUNITS
 70
     0
  9
$AUPREC
 70
     0
  9
$MENU
  1
.
  9
$ELEVATION
 40
0.0
  9
$PELEVATION
 40
0.0
  9
$THICKNESS
 40
0.0
  9
$LIMCHECK
 70
     0
  9
$CHAMFERA
 40
0.0
  9
$CHAMFERB
 40
0.0
  9
$CHAMFERC
 40
0.0
  9
$CHAMFERD
 40
0.0
  9
$SKPOLY
 70
     0
  9
$TDCREATE
 40
2460185.617175926
  9
$TDUCREATE
 40
2460185.575509259
  9
$TDUPDATE
 40
2460185.617175926
  9
$TDUUPDATE
 40
2460185.575509259
  9
$TDINDWG
 40
0.0000000000
  9
$TDUSRTIMER
 40
0.0000000000
  9
$USRTIMER
 70
     1
  9
$ANGBASE
 50
0.0
  9
$ANGDIR
 70
     0
  9
$PDMODE
 70
     0
  9
$PDSIZE
 40
0.0
  9
$PLINEWID
 40
0.0
  9
$SPLFRAME
 70
     0
  9
$SPLINETYPE
 70
     6
  9
$SPLINESEGS
 70
     8
  9
$HANDSEED
  5
1BC
  9
$SURFTAB1
 70
     6
  9
$SURFTAB2
 70
     6
  9
$SURFTYPE
 70
     6
  9
$SURFU
 70
     6
  9
$SURFV
 70
     6
  9
$UCSBASE
  2

  9
$UCSNAME
  2

  9
$UCSORG
 10
0.0
 20
0.0
 30
0.0
  9
$UCSXDIR
 10
1.0
 20
0.0
 30
0.0
  9
$UCSYDIR
 10
0.0
 20
1.0
 30
0.0
  9
$UCSORTHOREF
  2

  9
$UCSORTHOVIEW
 70
     0
  9
$UCSORGTOP
 10
0.0
 20
0.0
 30
0.0
  9
$UCSORGBOTTOM
 10
0.0
 20
0.0
 30
0.0
  9
$UCSORGLEFT
 10
0.0
 20
0.0
 30
0.0
  9
$UCSORGRIGHT
 10
0.0
 20
0.0
 30
0.0
  9
$UCSORGFRONT
 10
0.0
 20
0.0
 30
0.0
  9
$UCSORGBACK
 10
0.0
 20
0.0
 30
0.0
  9
$PUCSBASE
  2

  9
$PUCSNAME
  2

  9
$PUCSORG
 10
0.0
 20
0.0
 30
0.0
  9
$PUCSXDIR
 10
1.0
 20
0.0
 30
0.0
  9
$PUCSYDIR
 10
0.0
 20
1.0
 30
0.0
  9
$PUCSORTHOREF
  2

  9
$PUCSORTHOVIEW
 70
     0
  9
$PUCSORGTOP
 10
0.0
 20
0.0
 30
0.0
  9
$PUCSORGBOTTOM
 10
0.0
 20
0.0
 30
0.0
  9
$PUCSORGLEFT
 10
0.0
 20
0.0
 30
0.0
  9
$PUCSORGRIGHT
 10
0.0
 20
0.0
 30
0.0
  9
$PUCSORGFRONT
 10
0.0
 20
0.0
 30
0.0
  9
$PUCSORGBACK
 10
0.0
 20
0.0
 30
0.0
  9
$USERI1
 70
     0
  9
$USERI2
 70
     0
  9
$USERI3
 70
     0
  9
$USERI4
 70
     0
  9
$USERI5
 70
     0
  9
$USERR1
 40
0.0
  9
$USERR2
 40
0.0
  9
$USERR3
 40
0.0
  9
$USERR4
 40
0.0
  9
$USERR5
 40
0.0
  9
$WORLDVIEW
 70
     1
  9
$SHADEDGE
 70
     3
  9
$SHADEDIF
 70
    70
  9
$TILEMODE
 70
     1
  9
$MAXACTVP
 70
    64
  9
$PINSBASE
 10
0.0
 20
0.0
 30
0.0
  9
$PLIMCHECK
 70
     0
  9
$PEXTMIN
 10
1.000000000000000E+20
 20
1.000000000000000E+20
 30
1.000000000000000E+20
  9
$PEXTMAX
 10
-1.000000000000000E+20
 20
-1.000000000000000E+20
 30
-1.000000000000000E+20
  9
$PLIMMIN
 10
0.0
 20
0.0
  9
$PLIMMAX
 10
12.0
 20
9.0
  9
$UNITMODE
 70
     0
  9
$VISRETAIN
 70
     1
  9
$PLINEGEN
 70
     0
  9
$PSLTSCALE
 70
     1
  9
$TREEDEPTH
 70
  3020
  9
$CMLSTYLE
  2
Standard
  9
$CMLJUST
 70
     0
  9
$CMLSCALE
 40
1.0
  9
$PROXYGRAPHICS
 70
     1
  9
$MEASUREMENT
 70
     0
  9
$CELWEIGHT
370
    -1
  9
$ENDCAPS
280
     0
  9
$JOINSTYLE
280
     0
  9
$LWDISPLAY
290
     1
  9
$INSUNITS
 70
     4
  9
$HYPERLINKBASE
  1

  9
$STYLESHEET
  1

  9
$XEDIT
290
     1
  9
$CEPSNTYPE
380
     0
  9
$PSTYLEMODE
290
     1
  9
$FINGERPRINTGUID
  2
{AF6A4260-91DE-5E4F-9D0A-11D2B192856C}
  9
$VERSIONGUID
  2
{D11903A1-D553-0B40-9A20-936D5E97B7CB}
  9
$EXTNAMES
290
     1
  9
$PSVPSCALE
 40
0.0
  9
$OLESTARTUP
290
     0
  9
$SORTENTS
280
   127
  9
$INDEXCTL
280
     0
  9
$HIDETEXT
280
     1
  9
$XCLIPFRAME
280
     2
  9
$HALOGAP
280
     0
  9
$OBSCOLOR
 70
   257
  9
$OBSLTYPE
280
     0
  9
$INTERSECTIONDISPLAY
280
     0
  9
$INTERSECTIONCOLOR
 70
   257
  9
$DIMASSOC
280
     2
  9
$PROJECTNAME
  1

  9
$CAMERADISPLAY
290
     0
  9
$LENSLENGTH
 40
50.0
  9
$CAMERAHEIGHT
 40
0.0
  9
$STEPSPERSEC
 40
2.0
  9
$STEPSIZE
 40
6.0
  9
$3DDWFPREC
 40
2.0
  9
$PSOLWIDTH
 40
0.25
  9
$PSOLHEIGHT
 40
4.0
  9
$LOFTANG1
 40
1.570796326794896
  9
$LOFTANG2
 40
1.570796326794896
  9
$LOFTMAG1
 40
0.0
  9
$LOFTMAG2
 40
0.0
  9
$LOFTPARAM
 70
     7
  9
$LOFTNORMALS
280
     1
  9
$LATITUDE
 40
37.795
  9
$LONGITUDE
 40
-122.394
  9
$NORTHDIRECTION
 40
0.0
  9
$TIMEZONE
 70
 -8000
  9
$LIGHTGLYPHDISPLAY
280
     1
  9
$TILEMODELIGHTSYNCH
280
     1
  9
$CMATERIAL
347
11
  9
$SOLIDHIST
280
     0
  9
$SHOWHIST
280
     1
  9
$DWFFRAME
280
     2
  9
$DGNFRAME
280
     0
  9
$REALWORLDSCALE
290
     1
  9
$INTERFERECOLOR
 62
     1
  9
$INTERFEREOBJVS
345
33
  9
$INTERFEREVPVS
346
30
  9
$CSHADOW
280
     0
  9
$SHADOWPLANELOCATION
 40
0.0
  0
ENDSEC
  0
SECTION
  2
CLASSES
  0
CLASS
  1
ACDBDICTIONARYWDFLT
  2
AcDbDictionaryWithDefault
  3
ObjectDBX Classes
 90
        0
 91
        1
280
     0
281
     0
  0
CLASS
  1
MATERIAL
  2
AcDbMaterial
  3
ObjectDBX Classes
 90
     1153
 91
        3
280
     0
281
     0
  0
CLASS
  1
VISUALSTYLE
  2
AcDbVisualStyle
  3
ObjectDBX Classes
 90
     4095
 91
       24
280
     0
281
     0
  0
CLASS
  1
SCALE
  2
AcDbScale
  3
ObjectDBX Classes
 90
     1153
 91
       17
280
     0
281
     0
  0
CLASS
  1
TABLESTYLE
  2
AcDbTableStyle
  3
ObjectDBX Classes
 90
     4095
 91
        1
280
     0
281
     0
  0
CLASS
  1
MLEADERSTYLE
  2
AcDbMLeaderStyle
  3
ACDB_MLEADERSTYLE_CLASS
 90
     4095
 91
        1
280
     0
281
     0
  0
CLASS
  1
ACDBSECTIONVIEWSTYLE
  2
AcDbSectionViewStyle
  3
ObjectDBX Classes
 90
     1025
 91
        1
280
     0
281
     0
  0
CLASS
  1
ACDBDETAILVIEWSTYLE
  2
AcDbDetailViewStyle
  3
ObjectDBX Classes
 90
     1025
 91
        1
280
     0
281
     0
  0
CLASS
  1
DICTIONARYVAR
  2
AcDbDictionaryVar
  3
ObjectDBX Classes
 90
        0
 91
        5
280
     0
281
     0
  0
CLASS
  1
CELLSTYLEMAP
  2
AcDbCellStyleMap
  3
ObjectDBX Classes
 90
     1152
 91
        1
280
     0
281
     0
  0
ENDSEC
  0
SECTION
  2
TABLES
  0
TABLE
  2
VPORT
  5
8
330
0
100
AcDbSymbolTable
 70
     1
  0
VPORT
  5
57
330
8
100
AcDbSymbolTableRecord
100
AcDbViewportTableRecord
  2
*Active
 70
     0
 10
0.0
 20
0.0
 11
1.0
 21
1.0
 12
0.0
 22
0.0
 13
0.0
 23
0.0
 14
1.0
 24
1.0
 15
0.0
 25
0.0
 16
0.0
 26
0.0
 36
1.0
 17
49.99999998749409
 27
-49.99999998749409
 37
0.0
 40
101.9999999744879
 41
1.0
 42
50.0
 43
0.0
 44
0.0
 50
0.0
 51
0.0
 71
     0
 72
   100
 73
     1
 74
     1
 75
     0
 76
     0
 77
     0
 78
     0
281
     0
 65
     1
110
0.0
120
0.0
130
0.0
111
1.0
121
0.0
131
0.0
112
0.0
122
1.0
132
0.0
 79
     0
146
0.0
 60
     3
 61
     5
292
     1
282
     1
141
0.0
142
0.0
 63
   250
421
  3355443
  0
ENDTAB
  0
TABLE
  2
LTYPE
  5
5
330
0
100
AcDbSymbolTable
 70
     1
  0
LTYPE
  5
5B
330
5
100
AcDbSymbolTableRecord
100
AcDbLinetypeTableRecord
  2
ByBlock
 70
     0
  3

 72
    65
 73
     0
 40
0.0
  0
LTYPE
  5
5C
330
5
100
AcDbSymbolTableRecord
100
AcDbLinetypeTableRecord
  2
ByLayer
 70
     0
  3

 72
    65
 73
     0
 40
0.0
  0
LTYPE
  5
5D
330
5
100
AcDbSymbolTableRecord
100
AcDbLinetypeTableRecord
  2
Continuous
 70
     0
  3
Solid line
 72
    65
 73
     0
 40
0.0
  0
ENDTAB
  0
TABLE
  2
LAYER
  5
2
330
0
100
AcDbSymbolTable
 70
     2
  0
LAYER
  5
54
330
2
100
AcDbSymbolTableRecord
100
AcDbLayerTableRecord
  2
0
 70
     0
 62
     7
  6
Continuous
370
    -3
390
F
347
21
348
0
  0
LAYER
  5
78
330
2
100
AcDbSymbolTableRecord
100
AcDbLayerTableRecord
  2
Camada 1
 70
     0
 62
     7
  6
Continuous
370
     0
390
F
347
21
348
0
  0
ENDTAB
  0
TABLE
  2
STYLE
  5
3
330
0
100
AcDbSymbolTable
 70
     2
  0
STYLE
  5
55
330
3
100
AcDbSymbolTableRecord
100
AcDbTextStyleTableRecord
  2
Standard
 70
     0
 40
0.0
 41
1.0
 50
0.0
 71
     0
 42
0.2
  3
txt
  4

  0
STYLE
  5
5A
330
3
100
AcDbSymbolTableRecord
100
AcDbTextStyleTableRecord
  2
Annotative
 70
     0
 40
0.0
 41
1.0
 50
0.0
 71
     0
 42
0.2
  3
txt
  4

1001
AcadAnnotative
1000
AnnotativeData
1002
{
1070
     1
1070
     1
1002
}
  0
ENDTAB
  0
TABLE
  2
VIEW
  5
6
330
0
100
AcDbSymbolTable
 70
     0
  0
ENDTAB
  0
TABLE
  2
UCS
  5
7
330
0
100
AcDbSymbolTable
 70
     0
  0
ENDTAB
  0
TABLE
  2
APPID
  5
9
330
0
100
AcDbSymbolTable
 70
     2
  0
APPID
  5
56
330
9
100
AcDbSymbolTableRecord
100
AcDbRegAppTableRecord
  2
ACAD
 70
     0
  0
APPID
  5
5E
330
9
100
AcDbSymbolTableRecord
100
AcDbRegAppTableRecord
  2
AcadAnnotative
 70
     0
  0
ENDTAB
  0
TABLE
  2
DIMSTYLE
  5
A
330
0
100
AcDbSymbolTable
 70
     2
100
AcDbDimStyleTable
 71
     0
  0
DIMSTYLE
105
58
330
A
100
AcDbSymbolTableRecord
100
AcDbDimStyleTableRecord
  2
Standard
 70
     0
340
55
  0
DIMSTYLE
105
59
330
A
100
AcDbSymbolTableRecord
100
AcDbDimStyleTableRecord
  2
Annotative
 70
     0
340
55
1001
AcadAnnotative
1000
AnnotativeData
1002
{
1070
     1
1070
     1
1002
}
  0
ENDTAB
  0
TABLE
  2
BLOCK_RECORD
  5
1
330
0
100
AcDbSymbolTable
 70
     2
  0
BLOCK_RECORD
  5
70
330
1
100
AcDbSymbolTableRecord
100
AcDbBlockTableRecord
  2
*Model_Space
340
73
 70
     0
280
     1
281
     0
  0
BLOCK_RECORD
  5
6C
330
1
100
AcDbSymbolTableRecord
100
AcDbBlockTableRecord
  2
*Paper_Space
340
6F
 70
     0
280
     1
281
     0
  0
BLOCK_RECORD
  5
74
330
1
100
AcDbSymbolTableRecord
100
AcDbBlockTableRecord
  2
*Paper_Space0
340
77
 70
     0
280
     1
281
     0
  0
BLOCK_RECORD
  5
79
330
1
100
AcDbSymbolTableRecord
100
AcDbBlockTableRecord
  2
Block_0
340
0
102
{BLKREFS
331
7A
102
}
 70
     0
280
     1
281
     0
  0
ENDTAB
  0
ENDSEC
  0
SECTION
  2
BLOCKS
  0
BLOCK
  5
71
330
70
100
AcDbEntity
  8
0
100
AcDbBlockBegin
  2
*Model_Space
 70
     0
 10
0.0
 20
0.0
 30
0.0
  3
*Model_Space
  1

  0
ENDBLK
  5
72
330
70
100
AcDbEntity
  8
0
100
AcDbBlockEnd
  0
BLOCK
  5
6D
330
6C
100
AcDbEntity
 67
     1
  8
0
100
AcDbBlockBegin
  2
*Paper_Space
 70
     0
 10
0.0
 20
0.0
 30
0.0
  3
*Paper_Space
  1

  0
ENDBLK
  5
6E
330
6C
100
AcDbEntity
 67
     1
  8
0
100
AcDbBlockEnd
  0
BLOCK
  5
75
330
74
100
AcDbEntity
 67
     1
  8
0
100
AcDbBlockBegin
  2
*Paper_Space0
 70
     0
 10
0.0
 20
0.0
 30
0.0
  3
*Paper_Space0
  1

  0
ENDBLK
  5
76
330
74
100
AcDbEntity
 67
     1
  8
0
100
AcDbBlockEnd
  0
BLOCK
  5
7B
330
79
100
AcDbEntity
  8
0
100
AcDbBlockBegin
  2
Block_0
 70
     0
 10
0.0
 20
0.0
 30
0.0
  3
Block_0
  1

  0
LWPOLYLINE
  5
7D
330
79
100
AcDbEntity
  8
Camada 1
 62
   250
420
  1907995
370
     9
100
AcDbPolyline
 90
        8
 70
     0
 43
0.0
 10
67.29835326212385
 20
-32.98452780935904
 10
67.24691795732893
 20
-32.98452780935904
 10
67.19548788448469
 20
-32.98452780935904
 10
67.16119768128894
 20
-32.98452780935904
 10
67.12691271004256
 20
-32.98452780935904
 10
67.0926225068468
 20
-32.98452780935904
 10
67.05833230364977
 20
-32.98452780935904
 10
67.04119243400128
 20
-32.98452780935904
  0
LWPOLYLINE
  5
7E
330
79
100
AcDbEntity
  8
Camada 1
 62
   250
420
  1907995
370
     9
100
AcDbPolyline
 90
        8
 70
     0
 43
0.0
 10
67.04119243400128
 20
-32.62449637164697
 10
67.05833230364977
 20
-32.62449637164697
 10
67.0926225068468
 20
-32.62449637164697
 10
67.12691271004256
 20
-32.62449637164697
 10
67.16119768128894
 20
-32.62449637164697
 10
67.19548788448469
 20
-32.62449637164697
 10
67.24691795732893
 20
-32.62449637164697
 10
67.29835326212385
 20
-32.62449637164697
  0
LINE
  5
7F
330
79
100
AcDbEntity
  8
Camada 1
 62
   250
420
  1907995
370
     9
100
AcDbLine
 10
67.04119243400128
 20
-32.98452780935904
 30
0.0
 11
67.04119243400128
 21
-32.62449637164697
 31
0.0
  0
LWPOLYLINE
  5
80
330
79
100
AcDbEntity
  8
Camada 1
 62
   250
420
  1907995
370
     9
100
AcDbPolyline
 90
        9
 70
     0
 43
0.0
 10
70.69287410056147
 20
-32.98452780935904
 10
70.69287410056147
 20
-32.98452780935904
 10
70.67572899896359
 20
-32.98452780935904
 10
70.65858389736572
 20
-32.98452780935904
 10
70.62429892611934
 20
-32.98452780935904
 10
70.5900087229223
 20
-32.98452780935904
 10
70.53857865007806
 20
-32.98452780935904
 10
70.50428844688231
 20
-32.98452780935904
 10
70.45285837403806
 20
-32.98452780935904
  0
LWPOLYLINE
  5
81
330
79
100
AcDbEntity
  8
Camada 1
 62
   250
420
  1907995
370
     9
100
AcDbPolyline
 90
        8
 70
     0
 43
0.0
 10
70.45285837403806
 20
-32.62449637164697
 10
70.50428844688231
 20
-32.62449637164697
 10
70.53857865007806
 20
-32.62449637164697
 10
70.5900087229223
 20
-32.62449637164697
 10
70.62429892611934
 20
-32.62449637164697
 10
70.65858389736572
 20
-32.62449637164697
 10
70.67572899896359
 20
-32.62449637164697
 10
70.69287410056147
 20
-32.62449637164697
  0
LINE
  5
82
330
79
100
AcDbEntity
  8
Camada 1
 62
   250
420
  1907995
370
     9
100
AcDbLine
 10
70.69287410056147
 20
-32.62449637164697
 30
0.0
 11
70.69287410056147
 21
-32.98452780935904
 31
0.0
  0
LINE
  5
83
330
79
100
AcDbEntity
  8
Camada 1
 62
   250
420
  1907995
370
     9
100
AcDbLine
 10
67.29835326212385
 20
-32.98452780935904
 30
0.0
 11
70.45285837403806
 21
-32.98452780935904
 31
0.0
  0
LINE
  5
84
330
79
100
AcDbEntity
  8
Camada 1
 62
   250
420
  1907995
370
     9
100
AcDbLine
 10
67.29835326212385
 20
-32.62449637164697
 30
0.0
 11
70.45285837403806
 21
-32.62449637164697
 31
0.0
  0
LINE
  5
85
330
79
100
AcDbEntity
  8
Camada 1
 62
   250
420
  1907995
370
     9
100
AcDbLine
 10
67.29835326212385
 20
-32.62449637164697
 30
0.0
 11
67.29835326212385
 21
-32.98452780935904
 31
0.0
  0
LINE
  5
86
330
79
100
AcDbEntity
  8
Camada 1
 62
   250
420
  1907995
370
     9
100
AcDbLine
 10
70.45285837403806
 20
-32.98452780935904
 30
0.0
 11
70.45285837403806
 21
-32.62449637164697
 31
0.0
  0
LWPOLYLINE
  5
87
330
79
100
AcDbEntity
  8
Camada 1
 62
   250
420
  1907995
370
     9
100
AcDbPolyline
 90
        9
 70
     0
 43
0.0
 10
71.05290030632447
 20
-43.51097142883574
 10
71.05290030632447
 20
-43.52812176238428
 10
71.05290030632447
 20
-43.56240150167999
 10
71.05290030632447
 20
-43.6309819080731
 10
71.05290030632447
 20
-43.71670218411406
 10
71.05290030632447
 20
-43.80242246015503
 10
71.05290030632447
 20
-43.87100286654781
 10
71.05290030632447
 20
-43.92243293939237
 10
71.05290030632447
 20
-43.93957280903991
  0
LWPOLYLINE
  5
88
330
79
100
AcDbEntity
  8
Camada 1
 62
   250
420
  1907995
370
     9
100
AcDbPolyline
 90
        9
 70
     0
 43
0.0
 10
71.05290030632447
 20
-40.97365335080647
 10
71.05290030632447
 20
-40.99079322045432
 10
71.05290030632447
 20
-41.04223375719957
 10
71.05290030632447
 20
-41.11080369969168
 10
71.05290030632447
 20
-41.19652397573264
 10
71.05290030632447
 20
-41.28224425177328
 10
71.05290030632447
 20
-41.35082465816639
 10
71.05290030632447
 20
-41.40225473101064
 10
71.05290030632447
 20
-41.41939460065882
  0
LWPOLYLINE
  5
89
330
79
100
AcDbEntity
  8
Camada 1
 62
   250
420
  1907995
370
     9
100
AcDbPolyline
 90
        9
 70
     0
 43
0.0
 10
71.05290030632447
 20
-42.24231762177145
 10
71.05290030632447
 20
-42.25945749141962
 10
71.05290030632447
 20
-42.31088756426387
 10
71.05290030632447
 20
-42.37946797065698
 10
71.05290030632447
 20
-42.46518824669762
 10
71.05290030632447
 20
-42.55090852273858
 10
71.05290030632447
 20
-42.61947846523069
 10
71.05290030632447
 20
-42.65376866842708
 10
71.05290030632447
 20
-42.67091900197594
  0
LWPOLYLINE
  5
8A
330
79
100
AcDbEntity
  8
Camada 1
 62
   250
420
  1907995
370
     9
100
AcDbPolyline
 90
        9
 70
     0
 43
0.0
 10
71.05290030632447
 20
-48.55132784559827
 10
71.05290030632447
 20
-48.56846771524644
 10
71.05290030632447
 20
-48.61989778809069
 10
71.05290030632447
 20
-48.68847819448379
 10
71.05290030632447
 20
-48.77419847052475
 10
71.05290030632447
 20
-48.8599187465654
 10
71.05290030632447
 20
-48.92849915295819
 10
71.05290030632447
 20
-48.97992922580275
 10
71.05290030632447
 20
-48.99706909545061
  0
LWPOLYLINE
  5
8B
330
79
100
AcDbEntity
  8
Camada 1
 62
   250
420
  1907995
370
     9
100
AcDbPolyline
 90
        9
 70
     0
 43
0.0
 10
71.05290030632447
 20
-44.76248536625218
 10
71.05290030632447
 20
-44.77963569980071
 10
71.05290030632447
 20
-44.83106577264497
 10
71.05290030632447
 20
-44.89964617903807
 10
71.05290030632447
 20
-44.98536645507904
 10
71.05290030632447
 20
-45.07108673111968
 10
71.05290030632447
 20
-45.13965667361211
 10
71.05290030632447
 20
-45.19108674645635
 10
71.05290030632447
 20
-45.2082370800049
  0
LWPOLYLINE
  5
8C
330
79
100
AcDbEntity
  8
Camada 1
 62
   250
420
  1907995
370
     9
100
AcDbPolyline
 90
        9
 70
     0
 43
0.0
 10
71.05290030632447
 20
-46.03114963721717
 10
71.05290030632447
 20
-46.0482895068647
 10
71.05290030632447
 20
-46.09973004361027
 10
71.05290030632447
 20
-46.16829998610206
 10
71.05290030632447
 20
-46.25402026214302
 10
71.05290030632447
 20
-46.33974053818397
 10
71.05290030632447
 20
-46.40832094457709
 10
71.05290030632447
 20
-46.45975101742133
 10
71.05290030632447
 20
-46.47689088706919
  0
LWPOLYLINE
  5
8D
330
79
100
AcDbEntity
  8
Camada 1
 62
   250
420
  1907995
370
     9
100
AcDbPolyline
 90
        9
 70
     0
 43
0.0
 10
71.05290030632447
 20
-35.9161570643961
 10
71.05290030632447
 20
-35.93329693404363
 10
71.05290030632447
 20
-35.9847374707892
 10
71.05290030632447
 20
-36.0533074132813
 10
71.05290030632447
 20
-36.13902768932195
 10
71.05290030632447
 20
-36.22474796536291
 10
71.05290030632447
 20
-36.29332837175602
 10
71.05290030632447
 20
-36.34475844460027
 10
71.05290030632447
 20
-36.36189831424812
  0
LWPOLYLINE
  5
8E
330
79
100
AcDbEntity
  8
Camada 1
 62
   250
420
  1907995
370
     9
100
AcDbPolyline
 90
        9
 70
     0
 43
0.0
 10
71.05290030632447
 20
-47.29981390818214
 10
71.05290030632447
 20
-47.31695377783
 10
71.05290030632447
 20
-47.35124398102671
 10
71.05290030632447
 20
-47.43696425706736
 10
71.05290030632447
 20
-47.50553419955946
 10
71.05290030632447
 20
-47.5912544756001
 10
71.05290030632447
 20
-47.67697475164107
 10
71.05290030632447
 20
-47.71126495483778
 10
71.05290030632447
 20
-47.72841528838664
  0
LWPOLYLINE
  5
8F
330
79
100
AcDbEntity
  8
Camada 1
 62
   250
420
  1907995
370
     9
100
AcDbPolyline
 90
        9
 70
     0
 43
0.0
 10
71.05290030632447
 20
-37.18482133536107
 10
71.05290030632447
 20
-37.20196120500893
 10
71.05290030632447
 20
-37.25339127785318
 10
71.05290030632447
 20
-37.32197168424629
 10
71.05290030632447
 20
-37.40769196028725
 10
71.05290030632447
 20
-37.49341223632821
 10
71.05290030632447
 20
-37.56198217882
 10
71.05290030632447
 20
-37.61342271556556
 10
71.05290030632447
 20
-37.6305625852131
  0
LWPOLYLINE
  5
90
330
79
100
AcDbEntity
  8
Camada 1
 62
   250
420
  1907995
370
     9
100
AcDbPolyline
 90
        9
 70
     0
 43
0.0
 10
71.05290030632447
 20
-39.70498907984181
 10
71.05290030632447
 20
-39.72213941339035
 10
71.05290030632447
 20
-39.7735694862346
 10
71.05290030632447
 20
-39.8421498926277
 10
71.05290030632447
 20
-39.92787016866834
 10
71.05290030632447
 20
-40.0135904447093
 10
71.05290030632447
 20
-40.08216038720173
 10
71.05290030632447
 20
-40.13359046004597
 10
71.05290030632447
 20
-40.15074079359452
  0
LWPOLYLINE
  5
91
330
79
100
AcDbEntity
  8
Camada 1
 62
   250
420
  1907995
370
     9
100
AcDbPolyline
 90
        9
 70
     0
 43
0.0
 10
71.05290030632447
 20
-38.45347514242537
 10
71.05290030632447
 20
-38.47062547597391
 10
71.05290030632447
 20
-38.50490521526962
 10
71.05290030632447
 20
-38.59062549131058
 10
71.05290030632447
 20
-38.67634576735122
 10
71.05290030632447
 20
-38.74492617374433
 10
71.05290030632447
 20
-38.83064644978529
 10
71.05290030632447
 20
-38.86493665298168
 10
71.05290030632447
 20
-38.88207652262954
  0
LWPOLYLINE
  5
92
330
79
100
AcDbEntity
  8
Camada 1
 62
   250
420
  1907995
370
     9
100
AcDbPolyline
 90
        8
 70
     0
 43
0.0
 10
67.29835326212385
 20
-81.09074253792755
 10
67.24691795732893
 20
-81.09074253792755
 10
67.19548788448469
 20
-81.09074253792755
 10
67.16119768128894
 20
-81.09074253792755
 10
67.12691271004256
 20
-81.09074253792755
 10
67.0926225068468
 20
-81.09074253792755
 10
67.05833230364977
 20
-81.09074253792755
 10
67.04119243400128
 20
-81.09074253792755
  0
LWPOLYLINE
  5
93
330
79
100
AcDbEntity
  8
Camada 1
 62
   250
420
  1907995
370
     9
100
AcDbPolyline
 90
        8
 70
     0
 43
0.0
 10
67.04119243400128
 20
-32.98452780935904
 10
67.05833230364977
 20
-32.98452780935904
 10
67.0926225068468
 20
-32.98452780935904
 10
67.12691271004256
 20
-32.98452780935904
 10
67.16119768128894
 20
-32.98452780935904
 10
67.19548788448469
 20
-32.98452780935904
 10
67.24691795732893
 20
-32.98452780935904
 10
67.29835326212385
 20
-32.98452780935904
  0
LINE
  5
94
330
79
100
AcDbEntity
  8
Camada 1
 62
   250
420
  1907995
370
     9
100
AcDbLine
 10
67.04119243400128
 20
-81.09074253792755
 30
0.0
 11
67.04119243400128
 21
-32.98452780935904
 31
0.0
  0
LWPOLYLINE
  5
95
330
79
100
AcDbEntity
  8
Camada 1
 62
   250
420
  1907995
370
     9
100
AcDbPolyline
 90
        9
 70
     0
 43
0.0
 10
70.69287410056147
 20
-81.09074253792755
 10
70.69287410056147
 20
-81.09074253792755
 10
70.67572899896359
 20
-81.09074253792755
 10
70.65858389736572
 20
-81.09074253792755
 10
70.62429892611934
 20
-81.09074253792755
 10
70.5900087229223
 20
-81.09074253792755
 10
70.53857865007806
 20
-81.09074253792755
 10
70.50428844688231
 20
-81.09074253792755
 10
70.45285837403806
 20
-81.09074253792755
  0
LWPOLYLINE
  5
96
330
79
100
AcDbEntity
  8
Camada 1
 62
   250
420
  1907995
370
     9
100
AcDbPolyline
 90
        8
 70
     0
 43
0.0
 10
70.45285837403806
 20
-32.98452780935904
 10
70.50428844688231
 20
-32.98452780935904
 10
70.53857865007806
 20
-32.98452780935904
 10
70.5900087229223
 20
-32.98452780935904
 10
70.62429892611934
 20
-32.98452780935904
 10
70.65858389736572
 20
-32.98452780935904
 10
70.67572899896359
 20
-32.98452780935904
 10
70.69287410056147
 20
-32.98452780935904
  0
LINE
  5
97
330
79
100
AcDbEntity
  8
Camada 1
 62
   250
420
  1907995
370
     9
100
AcDbLine
 10
70.69287410056147
 20
-32.98452780935904
 30
0.0
 11
70.69287410056147
 21
-81.09074253792755
 31
0.0
  0
LINE
  5
98
330
79
100
AcDbEntity
  8
Camada 1
 62
   250
420
  1907995
370
     9
100
AcDbLine
 10
67.29835326212385
 20
-81.09074253792755
 30
0.0
 11
70.45285837403806
 21
-81.09074253792755
 31
0.0
  0
LINE
  5
99
330
79
100
AcDbEntity
  8
Camada 1
 62
   250
420
  1907995
370
     9
100
AcDbLine
 10
67.29835326212385
 20
-32.98452780935904
 30
0.0
 11
70.45285837403806
 21
-32.98452780935904
 31
0.0
  0
LINE
  5
9A
330
79
100
AcDbEntity
  8
Camada 1
 62
   250
420
  1907995
370
     9
100
AcDbLine
 10
67.29835326212385
 20
-32.98452780935904
 30
0.0
 11
67.29835326212385
 21
-81.09074253792755
 31
0.0
  0
LINE
  5
9B
330
79
100
AcDbEntity
  8
Camada 1
 62
   250
420
  1907995
370
     9
100
AcDbLine
 10
70.45285837403806
 20
-81.09074253792755
 30
0.0
 11
70.45285837403806
 21
-32.98452780935904
 31
0.0
  0
LWPOLYLINE
  5
9C
330
79
100
AcDbEntity
  8
Camada 1
 62
   250
420
  1907995
370
     9
100
AcDbPolyline
 90
       25
 70
     0
 43
0.0
 10
71.00146500152828
 20
-84.86243468372476
 10
71.00146500152828
 20
-84.86243468372476
 10
70.98432513188106
 20
-84.86243468372476
 10
70.91574472548828
 20
-84.86243468372476
 10
70.81288457979979
 20
-84.86243468372476
 10
70.67572899896359
 20
-84.86243468372476
 10
70.50428844688231
 20
-84.86243468372476
 10
70.29856292355465
 20
-84.86243468372476
 10
70.07568706667846
 20
-84.86243468372476
 10
69.83567134015249
 20
-84.86243468372476
 10
69.5785105120312
 20
-84.86243468372476
 10
69.30420458231075
 20
-84.86243468372476
 10
69.01275878294054
 20
-84.86243468372476
 10
68.72130775162222
 20
-84.86243468372476
 10
68.44700182190178
 20
-84.86243468372476
 10
68.17269589218004
 20
-84.86243468372476
 10
67.89839519441027
 20
-84.86243468372476
 10
67.65837423593492
 20
-84.86243468372476
 10
67.43550361100938
 20
-84.86243468372476
 10
67.22977285573107
 20
-84.86243468372476
 10
67.07547740524765
 20
-84.86243468372476
 10
66.93832705636213
 20
-84.86243468372476
 10
66.83546167872297
 20
-84.86243468372476
 10
66.76688650428083
 20
-84.86243468372476
 10
66.7325963010838
 20
-84.86243468372476
  0
LWPOLYLINE
  5
9D
330
79
100
AcDbEntity
  8
Camada 1
 62
   250
420
  1907995
370
     9
100
AcDbPolyline
 90
       14
 70
     0
 43
0.0
 10
66.44115050171615
 20
-84.70813923324264
 10
66.44115050171615
 20
-84.70813923324264
 10
66.47543547296251
 20
-84.70813923324264
 10
66.56115574900252
 20
-84.70813923324264
 10
66.66402112664169
 20
-84.70813923324264
 10
66.81831657712509
 20
-84.70813923324264
 10
66.98975712920637
 20
-84.70813923324264
 10
67.21263298608256
 20
-84.70813923324264
 10
67.43550361100938
 20
-84.70813923324264
 10
67.69266443913195
 20
-84.70813923324264
 10
67.96697036885238
 20
-84.70813923324264
 10
68.25841616822133
 20
-84.70813923324264
 10
68.5670123011388
 20
-84.70813923324264
 10
68.87560320210562
 20
-84.70813923324264
  0
LWPOLYLINE
  5
9E
330
79
100
AcDbEntity
  8
Camada 1
 62
   250
420
  1907995
370
     9
100
AcDbPolyline
 90
       13
 70
     0
 43
0.0
 10
68.87560320210562
 20
-84.70813923324264
 10
69.16705423342522
 20
-84.70813923324264
 10
69.47564513439203
 20
-84.70813923324264
 10
69.76709616571035
 20
-84.70813923324264
 10
70.04140209543209
 20
-84.70813923324264
 10
70.29856292355465
 20
-84.70813923324264
 10
70.53857865007806
 20
-84.70813923324264
 10
70.744304173407
 20
-84.70813923324264
 10
70.91574472548828
 20
-84.70813923324264
 10
71.07004540792235
 20
-84.70813923324264
 10
71.17290555361084
 20
-84.70813923324264
 10
71.25862582965085
 20
-84.70813923324264
 10
71.29291603284788
 20
-84.70813923324264
  0
LWPOLYLINE
  5
9F
330
79
100
AcDbEntity
  8
Camada 1
 62
   250
420
  1907995
370
     9
100
AcDbPolyline
 90
       26
 70
     0
 43
0.0
 10
71.29291603284788
 20
-85.01673013420818
 10
71.29291603284788
 20
-85.01673013420818
 10
71.25862582965085
 20
-85.01673013420818
 10
71.17290555361084
 20
-85.01673013420818
 10
71.07004540792235
 20
-85.01673013420818
 10
70.91574472548828
 20
-85.01673013420818
 10
70.744304173407
 20
-85.01673013420818
 10
70.53857865007806
 20
-85.01673013420818
 10
70.29856292355465
 20
-85.01673013420818
 10
70.04140209543209
 20
-85.01673013420818
 10
69.76709616571035
 20
-85.01673013420818
 10
69.47564513439203
 20
-85.01673013420818
 10
69.16705423342522
 20
-85.01673013420818
 10
68.87560320210562
 20
-85.01673013420818
 10
68.5670123011388
 20
-85.01673013420818
 10
68.25841616822133
 20
-85.01673013420818
 10
67.96697036885238
 20
-85.01673013420818
 10
67.69266443913195
 20
-85.01673013420818
 10
67.43550361100938
 20
-85.01673013420818
 10
67.21263298608256
 20
-85.01673013420818
 10
66.98975712920637
 20
-85.01673013420818
 10
66.81831657712509
 20
-85.01673013420818
 10
66.66402112664169
 20
-85.01673013420818
 10
66.56115574900252
 20
-85.01673013420818
 10
66.47543547296251
 20
-85.01673013420818
 10
66.44115050171615
 20
-85.01673013420818
  0
LWPOLYLINE
  5
A0
330
79
100
AcDbEntity
  8
Camada 1
 62
   250
420
  1907995
370
     9
100
AcDbPolyline
 90
       25
 70
     0
 43
0.0
 10
71.00146500152828
 20
-84.14238227220131
 10
71.00146500152828
 20
-84.14238227220131
 10
70.98432513188106
 20
-84.14238227220131
 10
70.91574472548828
 20
-84.14238227220131
 10
70.81288457979979
 20
-84.14238227220131
 10
70.67572899896359
 20
-84.14238227220131
 10
70.50428844688231
 20
-84.14238227220131
 10
70.29856292355465
 20
-84.14238227220131
 10
70.07568706667846
 20
-84.14238227220131
 10
69.83567134015249
 20
-84.14238227220131
 10
69.5785105120312
 20
-84.14238227220131
 10
69.30420458231075
 20
-84.14238227220131
 10
69.01275878294054
 20
-84.14238227220131
 10
68.72130775162222
 20
-84.14238227220131
 10
68.44700182190178
 20
-84.14238227220131
 10
68.17269589218004
 20
-84.14238227220131
 10
67.89839519441027
 20
-84.14238227220131
 10
67.65837423593492
 20
-84.14238227220131
 10
67.43550361100938
 20
-84.14238227220131
 10
67.22977285573107
 20
-84.14238227220131
 10
67.07547740524765
 20
-84.14238227220131
 10
66.93832705636213
 20
-84.14238227220131
 10
66.83546167872297
 20
-84.14238227220131
 10
66.76688650428083
 20
-84.14238227220131
 10
66.7325963010838
 20
-84.14238227220131
  0
LWPOLYLINE
  5
A1
330
79
100
AcDbEntity
  8
Camada 1
 62
   250
420
  1907995
370
     9
100
AcDbPolyline
 90
       14
 70
     0
 43
0.0
 10
66.44115050171615
 20
-83.98808682171791
 10
66.44115050171615
 20
-83.98808682171791
 10
66.47543547296251
 20
-83.98808682171791
 10
66.56115574900252
 20
-83.98808682171791
 10
66.66402112664169
 20
-83.98808682171791
 10
66.81831657712509
 20
-83.98808682171791
 10
66.98975712920637
 20
-83.98808682171791
 10
67.21263298608256
 20
-83.98808682171791
 10
67.43550361100938
 20
-83.98808682171791
 10
67.69266443913195
 20
-83.98808682171791
 10
67.96697036885238
 20
-83.98808682171791
 10
68.25841616822133
 20
-83.98808682171791
 10
68.5670123011388
 20
-83.98808682171791
 10
68.87560320210562
 20
-83.98808682171791
  0
LWPOLYLINE
  5
A2
330
79
100
AcDbEntity
  8
Camada 1
 62
   250
420
  1907995
370
     9
100
AcDbPolyline
 90
       13
 70
     0
 43
0.0
 10
68.87560320210562
 20
-83.98808682171791
 10
69.16705423342522
 20
-83.98808682171791
 10
69.47564513439203
 20
-83.98808682171791
 10
69.76709616571035
 20
-83.98808682171791
 10
70.04140209543209
 20
-83.98808682171791
 10
70.29856292355465
 20
-83.98808682171791
 10
70.53857865007806
 20
-83.98808682171791
 10
70.744304173407
 20
-83.98808682171791
 10
70.91574472548828
 20
-83.98808682171791
 10
71.07004540792235
 20
-83.98808682171791
 10
71.17290555361084
 20
-83.98808682171791
 10
71.25862582965085
 20
-83.98808682171791
 10
71.29291603284788
 20
-83.98808682171791
  0
LWPOLYLINE
  5
A3
330
79
100
AcDbEntity
  8
Camada 1
 62
   250
420
  1907995
370
     9
100
AcDbPolyline
 90
       14
 70
     0
 43
0.0
 10
66.44115050171615
 20
-83.50805536866982
 10
66.44115050171615
 20
-83.50805536866982
 10
66.47543547296251
 20
-83.50805536866982
 10
66.56115574900252
 20
-83.50805536866982
 10
66.66402112664169
 20
-83.50805536866982
 10
66.81831657712509
 20
-83.50805536866982
 10
66.98975712920637
 20
-83.50805536866982
 10
67.21263298608256
 20
-83.50805536866982
 10
67.43550361100938
 20
-83.50805536866982
 10
67.69266443913195
 20
-83.50805536866982
 10
67.96697036885238
 20
-83.50805536866982
 10
68.25841616822133
 20
-83.50805536866982
 10
68.5670123011388
 20
-83.50805536866982
 10
68.87560320210562
 20
-83.50805536866982
  0
LWPOLYLINE
  5
A4
330
79
100
AcDbEntity
  8
Camada 1
 62
   250
420
  1907995
370
     9
100
AcDbPolyline
 90
       13
 70
     0
 43
0.0
 10
68.87560320210562
 20
-83.50805536866982
 10
69.16705423342522
 20
-83.50805536866982
 10
69.47564513439203
 20
-83.50805536866982
 10
69.76709616571035
 20
-83.50805536866982
 10
70.04140209543209
 20
-83.50805536866982
 10
70.29856292355465
 20
-83.50805536866982
 10
70.53857865007806
 20
-83.50805536866982
 10
70.744304173407
 20
-83.50805536866982
 10
70.91574472548828
 20
-83.50805536866982
 10
71.07004540792235
 20
-83.50805536866982
 10
71.17290555361084
 20
-83.50805536866982
 10
71.25862582965085
 20
-83.50805536866982
 10
71.29291603284788
 20
-83.50805536866982
  0
LWPOLYLINE
  5
A5
330
79
100
AcDbEntity
  8
Camada 1
 62
   250
420
  1907995
370
     9
100
AcDbPolyline
 90
       14
 70
     0
 43
0.0
 10
66.44115050171615
 20
-85.44533151441331
 10
66.44115050171615
 20
-85.44533151441331
 10
66.47543547296251
 20
-85.44533151441331
 10
66.56115574900252
 20
-85.44533151441331
 10
66.66402112664169
 20
-85.44533151441331
 10
66.81831657712509
 20
-85.44533151441331
 10
66.98975712920637
 20
-85.44533151441331
 10
67.21263298608256
 20
-85.44533151441331
 10
67.43550361100938
 20
-85.44533151441331
 10
67.69266443913195
 20
-85.44533151441331
 10
67.96697036885238
 20
-85.44533151441331
 10
68.25841616822133
 20
-85.44533151441331
 10
68.5670123011388
 20
-85.44533151441331
 10
68.87560320210562
 20
-85.44533151441331
  0
LWPOLYLINE
  5
A6
330
79
100
AcDbEntity
  8
Camada 1
 62
   250
420
  1907995
370
     9
100
AcDbPolyline
 90
       13
 70
     0
 43
0.0
 10
68.87560320210562
 20
-85.44533151441331
 10
69.16705423342522
 20
-85.44533151441331
 10
69.47564513439203
 20
-85.44533151441331
 10
69.76709616571035
 20
-85.44533151441331
 10
70.04140209543209
 20
-85.44533151441331
 10
70.29856292355465
 20
-85.44533151441331
 10
70.53857865007806
 20
-85.44533151441331
 10
70.744304173407
 20
-85.44533151441331
 10
70.91574472548828
 20
-85.44533151441331
 10
71.07004540792235
 20
-85.44533151441331
 10
71.17290555361084
 20
-85.44533151441331
 10
71.25862582965085
 20
-85.44533151441331
 10
71.29291603284788
 20
-85.44533151441331
  0
LWPOLYLINE
  5
A7
330
79
100
AcDbEntity
  8
Camada 1
 62
   250
420
  1907995
370
     9
100
AcDbPolyline
 90
       26
 70
     0
 43
0.0
 10
71.29291603284788
 20
-84.65670392844774
 10
71.29291603284788
 20
-84.65670392844774
 10
71.25862582965085
 20
-84.65670392844774
 10
71.17290555361084
 20
-84.65670392844774
 10
71.07004540792235
 20
-84.65670392844774
 10
70.91574472548828
 20
-84.65670392844774
 10
70.744304173407
 20
-84.65670392844774
 10
70.53857865007806
 20
-84.65670392844774
 10
70.29856292355465
 20
-84.65670392844774
 10
70.04140209543209
 20
-84.65670392844774
 10
69.76709616571035
 20
-84.65670392844774
 10
69.47564513439203
 20
-84.65670392844774
 10
69.16705423342522
 20
-84.65670392844774
 10
68.87560320210562
 20
-84.65670392844774
 10
68.5670123011388
 20
-84.65670392844774
 10
68.25841616822133
 20
-84.65670392844774
 10
67.96697036885238
 20
-84.65670392844774
 10
67.69266443913195
 20
-84.65670392844774
 10
67.43550361100938
 20
-84.65670392844774
 10
67.21263298608256
 20
-84.65670392844774
 10
66.98975712920637
 20
-84.65670392844774
 10
66.81831657712509
 20
-84.65670392844774
 10
66.66402112664169
 20
-84.65670392844774
 10
66.56115574900252
 20
-84.65670392844774
 10
66.47543547296251
 20
-84.65670392844774
 10
66.44115050171615
 20
-84.65670392844774
  0
LWPOLYLINE
  5
A8
330
79
100
AcDbEntity
  8
Camada 1
 62
   250
420
  1907995
370
     9
100
AcDbPolyline
 90
       25
 70
     0
 43
0.0
 10
71.00146500152828
 20
-84.50240847796305
 10
71.00146500152828
 20
-84.50240847796305
 10
70.98432513188106
 20
-84.50240847796305
 10
70.91574472548828
 20
-84.50240847796305
 10
70.81288457979979
 20
-84.50240847796305
 10
70.67572899896359
 20
-84.50240847796305
 10
70.50428844688231
 20
-84.50240847796305
 10
70.29856292355465
 20
-84.50240847796305
 10
70.07568706667846
 20
-84.50240847796305
 10
69.83567134015249
 20
-84.50240847796305
 10
69.5785105120312
 20
-84.50240847796305
 10
69.30420458231075
 20
-84.50240847796305
 10
69.01275878294054
 20
-84.50240847796305
 10
68.72130775162222
 20
-84.50240847796305
 10
68.44700182190178
 20
-84.50240847796305
 10
68.17269589218004
 20
-84.50240847796305
 10
67.89839519441027
 20
-84.50240847796305
 10
67.65837423593492
 20
-84.50240847796305
 10
67.43550361100938
 20
-84.50240847796305
 10
67.22977285573107
 20
-84.50240847796305
 10
67.07547740524765
 20
-84.50240847796305
 10
66.93832705636213
 20
-84.50240847796305
 10
66.83546167872297
 20
-84.50240847796305
 10
66.76688650428083
 20
-84.50240847796305
 10
66.7325963010838
 20
-84.50240847796305
  0
LWPOLYLINE
  5
A9
330
79
100
AcDbEntity
  8
Camada 1
 62
   250
420
  1907995
370
     9
100
AcDbPolyline
 90
       26
 70
     0
 43
0.0
 10
71.29291603284788
 20
-85.37675633996991
 10
71.29291603284788
 20
-85.37675633996991
 10
71.25862582965085
 20
-85.37675633996991
 10
71.17290555361084
 20
-85.37675633996991
 10
71.07004540792235
 20
-85.37675633996991
 10
70.91574472548828
 20
-85.37675633996991
 10
70.744304173407
 20
-85.37675633996991
 10
70.53857865007806
 20
-85.37675633996991
 10
70.29856292355465
 20
-85.37675633996991
 10
70.04140209543209
 20
-85.37675633996991
 10
69.76709616571035
 20
-85.37675633996991
 10
69.47564513439203
 20
-85.37675633996991
 10
69.16705423342522
 20
-85.37675633996991
 10
68.87560320210562
 20
-85.37675633996991
 10
68.5670123011388
 20
-85.37675633996991
 10
68.25841616822133
 20
-85.37675633996991
 10
67.96697036885238
 20
-85.37675633996991
 10
67.69266443913195
 20
-85.37675633996991
 10
67.43550361100938
 20
-85.37675633996991
 10
67.21263298608256
 20
-85.37675633996991
 10
66.98975712920637
 20
-85.37675633996991
 10
66.81831657712509
 20
-85.37675633996991
 10
66.66402112664169
 20
-85.37675633996991
 10
66.56115574900252
 20
-85.37675633996991
 10
66.47543547296251
 20
-85.37675633996991
 10
66.44115050171615
 20
-85.37675633996991
  0
LWPOLYLINE
  5
AA
330
79
100
AcDbEntity
  8
Camada 1
 62
   250
420
  1907995
370
     9
100
AcDbPolyline
 90
       26
 70
     0
 43
0.0
 10
71.29291603284788
 20
-86.16538392593676
 10
71.29291603284788
 20
-86.16538392593676
 10
71.25862582965085
 20
-86.16538392593676
 10
71.17290555361084
 20
-86.16538392593676
 10
71.07004540792235
 20
-86.16538392593676
 10
70.91574472548828
 20
-86.16538392593676
 10
70.744304173407
 20
-86.16538392593676
 10
70.53857865007806
 20
-86.16538392593676
 10
70.29856292355465
 20
-86.16538392593676
 10
70.04140209543209
 20
-86.16538392593676
 10
69.76709616571035
 20
-86.16538392593676
 10
69.47564513439203
 20
-86.16538392593676
 10
69.16705423342522
 20
-86.16538392593676
 10
68.87560320210562
 20
-86.16538392593676
 10
68.5670123011388
 20
-86.16538392593676
 10
68.25841616822133
 20
-86.16538392593676
 10
67.96697036885238
 20
-86.16538392593676
 10
67.69266443913195
 20
-86.16538392593676
 10
67.43550361100938
 20
-86.16538392593676
 10
67.21263298608256
 20
-86.16538392593676
 10
66.98975712920637
 20
-86.16538392593676
 10
66.81831657712509
 20
-86.16538392593676
 10
66.66402112664169
 20
-86.16538392593676
 10
66.56115574900252
 20
-86.16538392593676
 10
66.47543547296251
 20
-86.16538392593676
 10
66.44115050171615
 20
-86.16538392593676
  0
LWPOLYLINE
  5
AB
330
79
100
AcDbEntity
  8
Camada 1
 62
   250
420
  1907995
370
     9
100
AcDbPolyline
 90
       26
 70
     0
 43
0.0
 10
71.29291603284788
 20
-86.11394862114186
 10
71.29291603284788
 20
-86.11394862114186
 10
71.25862582965085
 20
-86.11394862114186
 10
71.17290555361084
 20
-86.11394862114186
 10
71.07004540792235
 20
-86.11394862114186
 10
70.91574472548828
 20
-86.11394862114186
 10
70.744304173407
 20
-86.11394862114186
 10
70.53857865007806
 20
-86.11394862114186
 10
70.29856292355465
 20
-86.11394862114186
 10
70.04140209543209
 20
-86.11394862114186
 10
69.76709616571035
 20
-86.11394862114186
 10
69.47564513439203
 20
-86.11394862114186
 10
69.16705423342522
 20
-86.11394862114186
 10
68.87560320210562
 20
-86.11394862114186
 10
68.5670123011388
 20
-86.11394862114186
 10
68.25841616822133
 20
-86.11394862114186
 10
67.96697036885238
 20
-86.11394862114186
 10
67.69266443913195
 20
-86.11394862114186
 10
67.43550361100938
 20
-86.11394862114186
 10
67.21263298608256
 20
-86.11394862114186
 10
66.98975712920637
 20
-86.11394862114186
 10
66.81831657712509
 20
-86.11394862114186
 10
66.66402112664169
 20
-86.11394862114186
 10
66.56115574900252
 20
-86.11394862114186
 10
66.47543547296251
 20
-86.11394862114186
 10
66.44115050171615
 20
-86.11394862114186
  0
LWPOLYLINE
  5
AC
330
79
100
AcDbEntity
  8
Camada 1
 62
   250
420
  1907995
370
     9
100
AcDbPolyline
 90
       25
 70
     0
 43
0.0
 10
71.00146500152828
 20
-85.95965317065845
 10
71.00146500152828
 20
-85.95965317065845
 10
70.98432513188106
 20
-85.95965317065845
 10
70.91574472548828
 20
-85.95965317065845
 10
70.81288457979979
 20
-85.95965317065845
 10
70.67572899896359
 20
-85.95965317065845
 10
70.50428844688231
 20
-85.95965317065845
 10
70.29856292355465
 20
-85.95965317065845
 10
70.07568706667846
 20
-85.95965317065845
 10
69.83567134015249
 20
-85.95965317065845
 10
69.5785105120312
 20
-85.95965317065845
 10
69.30420458231075
 20
-85.95965317065845
 10
69.01275878294054
 20
-85.95965317065845
 10
68.72130775162222
 20
-85.95965317065845
 10
68.44700182190178
 20
-85.95965317065845
 10
68.17269589218004
 20
-85.95965317065845
 10
67.89839519441027
 20
-85.95965317065845
 10
67.65837423593492
 20
-85.95965317065845
 10
67.43550361100938
 20
-85.95965317065845
 10
67.22977285573107
 20
-85.95965317065845
 10
67.07547740524765
 20
-85.95965317065845
 10
66.93832705636213
 20
-85.95965317065845
 10
66.83546167872297
 20
-85.95965317065845
 10
66.76688650428083
 20
-85.95965317065845
 10
66.7325963010838
 20
-85.95965317065845
  0
LWPOLYLINE
  5
AD
330
79
100
AcDbEntity
  8
Camada 1
 62
   250
420
  1907995
370
     9
100
AcDbPolyline
 90
       25
 70
     0
 43
0.0
 10
71.00146500152828
 20
-85.239600759135
 10
71.00146500152828
 20
-85.239600759135
 10
70.98432513188106
 20
-85.239600759135
 10
70.91574472548828
 20
-85.239600759135
 10
70.81288457979979
 20
-85.239600759135
 10
70.67572899896359
 20
-85.239600759135
 10
70.50428844688231
 20
-85.239600759135
 10
70.29856292355465
 20
-85.239600759135
 10
70.07568706667846
 20
-85.239600759135
 10
69.83567134015249
 20
-85.239600759135
 10
69.5785105120312
 20
-85.239600759135
 10
69.30420458231075
 20
-85.239600759135
 10
69.01275878294054
 20
-85.239600759135
 10
68.72130775162222
 20
-85.239600759135
 10
68.44700182190178
 20
-85.239600759135
 10
68.17269589218004
 20
-85.239600759135
 10
67.89839519441027
 20
-85.239600759135
 10
67.65837423593492
 20
-85.239600759135
 10
67.43550361100938
 20
-85.239600759135
 10
67.22977285573107
 20
-85.239600759135
 10
67.07547740524765
 20
-85.239600759135
 10
66.93832705636213
 20
-85.239600759135
 10
66.83546167872297
 20
-85.239600759135
 10
66.76688650428083
 20
-85.239600759135
 10
66.7325963010838
 20
-85.239600759135
  0
LWPOLYLINE
  5
AE
330
79
100
AcDbEntity
  8
Camada 1
 62
   250
420
  1907995
370
     9
100
AcDbPolyline
 90
       14
 70
     0
 43
0.0
 10
66.44115050171615
 20
-85.08530530865158
 10
66.44115050171615
 20
-85.08530530865158
 10
66.47543547296251
 20
-85.08530530865158
 10
66.56115574900252
 20
-85.08530530865158
 10
66.66402112664169
 20
-85.08530530865158
 10
66.81831657712509
 20
-85.08530530865158
 10
66.98975712920637
 20
-85.08530530865158
 10
67.21263298608256
 20
-85.08530530865158
 10
67.43550361100938
 20
-85.08530530865158
 10
67.69266443913195
 20
-85.08530530865158
 10
67.96697036885238
 20
-85.08530530865158
 10
68.25841616822133
 20
-85.08530530865158
 10
68.5670123011388
 20
-85.08530530865158
 10
68.87560320210562
 20
-85.08530530865158
  0
LWPOLYLINE
  5
AF
330
79
100
AcDbEntity
  8
Camada 1
 62
   250
420
  1907995
370
     9
100
AcDbPolyline
 90
       13
 70
     0
 43
0.0
 10
68.87560320210562
 20
-85.08530530865158
 10
69.16705423342522
 20
-85.08530530865158
 10
69.47564513439203
 20
-85.08530530865158
 10
69.76709616571035
 20
-85.08530530865158
 10
70.04140209543209
 20
-85.08530530865158
 10
70.29856292355465
 20
-85.08530530865158
 10
70.53857865007806
 20
-85.08530530865158
 10
70.744304173407
 20
-85.08530530865158
 10
70.91574472548828
 20
-85.08530530865158
 10
71.07004540792235
 20
-85.08530530865158
 10
71.17290555361084
 20
-85.08530530865158
 10
71.25862582965085
 20
-85.08530530865158
 10
71.29291603284788
 20
-85.08530530865158
  0
LWPOLYLINE
  5
B0
330
79
100
AcDbEntity
  8
Camada 1
 62
   250
420
  1907995
370
     9
100
AcDbPolyline
 90
       26
 70
     0
 43
0.0
 10
71.29291603284788
 20
-84.27953785303751
 10
71.29291603284788
 20
-84.27953785303751
 10
71.25862582965085
 20
-84.27953785303751
 10
71.17290555361084
 20
-84.27953785303751
 10
71.07004540792235
 20
-84.27953785303751
 10
70.91574472548828
 20
-84.27953785303751
 10
70.744304173407
 20
-84.27953785303751
 10
70.53857865007806
 20
-84.27953785303751
 10
70.29856292355465
 20
-84.27953785303751
 10
70.04140209543209
 20
-84.27953785303751
 10
69.76709616571035
 20
-84.27953785303751
 10
69.47564513439203
 20
-84.27953785303751
 10
69.16705423342522
 20
-84.27953785303751
 10
68.87560320210562
 20
-84.27953785303751
 10
68.5670123011388
 20
-84.27953785303751
 10
68.25841616822133
 20
-84.27953785303751
 10
67.96697036885238
 20
-84.27953785303751
 10
67.69266443913195
 20
-84.27953785303751
 10
67.43550361100938
 20
-84.27953785303751
 10
67.21263298608256
 20
-84.27953785303751
 10
66.98975712920637
 20
-84.27953785303751
 10
66.81831657712509
 20
-84.27953785303751
 10
66.66402112664169
 20
-84.27953785303751
 10
66.56115574900252
 20
-84.27953785303751
 10
66.47543547296251
 20
-84.27953785303751
 10
66.44115050171615
 20
-84.27953785303751
  0
LWPOLYLINE
  5
B1
330
79
100
AcDbEntity
  8
Camada 1
 62
   250
420
  1907995
370
     9
100
AcDbPolyline
 90
       14
 70
     0
 43
0.0
 10
66.44115050171615
 20
-84.34811302747965
 10
66.44115050171615
 20
-84.34811302747965
 10
66.47543547296251
 20
-84.34811302747965
 10
66.56115574900252
 20
-84.34811302747965
 10
66.66402112664169
 20
-84.34811302747965
 10
66.81831657712509
 20
-84.34811302747965
 10
66.98975712920637
 20
-84.34811302747965
 10
67.21263298608256
 20
-84.34811302747965
 10
67.43550361100938
 20
-84.34811302747965
 10
67.69266443913195
 20
-84.34811302747965
 10
67.96697036885238
 20
-84.34811302747965
 10
68.25841616822133
 20
-84.34811302747965
 10
68.5670123011388
 20
-84.34811302747965
 10
68.87560320210562
 20
-84.34811302747965
  0
LWPOLYLINE
  5
B2
330
79
100
AcDbEntity
  8
Camada 1
 62
   250
420
  1907995
370
     9
100
AcDbPolyline
 90
       13
 70
     0
 43
0.0
 10
68.87560320210562
 20
-84.34811302747965
 10
69.16705423342522
 20
-84.34811302747965
 10
69.47564513439203
 20
-84.34811302747965
 10
69.76709616571035
 20
-84.34811302747965
 10
70.04140209543209
 20
-84.34811302747965
 10
70.29856292355465
 20
-84.34811302747965
 10
70.53857865007806
 20
-84.34811302747965
 10
70.744304173407
 20
-84.34811302747965
 10
70.91574472548828
 20
-84.34811302747965
 10
71.07004540792235
 20
-84.34811302747965
 10
71.17290555361084
 20
-84.34811302747965
 10
71.25862582965085
 20
-84.34811302747965
 10
71.29291603284788
 20
-84.34811302747965
  0
LWPOLYLINE
  5
B3
330
79
100
AcDbEntity
  8
Camada 1
 62
   250
420
  1907995
370
     9
100
AcDbPolyline
 90
       25
 70
     0
 43
0.0
 10
71.00146500152828
 20
-85.59962696489673
 10
71.00146500152828
 20
-85.59962696489673
 10
70.98432513188106
 20
-85.59962696489673
 10
70.91574472548828
 20
-85.59962696489673
 10
70.81288457979979
 20
-85.59962696489673
 10
70.67572899896359
 20
-85.59962696489673
 10
70.50428844688231
 20
-85.59962696489673
 10
70.29856292355465
 20
-85.59962696489673
 10
70.07568706667846
 20
-85.59962696489673
 10
69.83567134015249
 20
-85.59962696489673
 10
69.5785105120312
 20
-85.59962696489673
 10
69.30420458231075
 20
-85.59962696489673
 10
69.01275878294054
 20
-85.59962696489673
 10
68.72130775162222
 20
-85.59962696489673
 10
68.44700182190178
 20
-85.59962696489673
 10
68.17269589218004
 20
-85.59962696489673
 10
67.89839519441027
 20
-85.59962696489673
 10
67.65837423593492
 20
-85.59962696489673
 10
67.43550361100938
 20
-85.59962696489673
 10
67.22977285573107
 20
-85.59962696489673
 10
67.07547740524765
 20
-85.59962696489673
 10
66.93832705636213
 20
-85.59962696489673
 10
66.83546167872297
 20
-85.59962696489673
 10
66.76688650428083
 20
-85.59962696489673
 10
66.7325963010838
 20
-85.59962696489673
  0
LWPOLYLINE
  5
B4
330
79
100
AcDbEntity
  8
Camada 1
 62
   250
420
  1907995
370
     9
100
AcDbPolyline
 90
       26
 70
     0
 43
0.0
 10
71.29291603284788
 20
-85.75392241538013
 10
71.29291603284788
 20
-85.75392241538013
 10
71.25862582965085
 20
-85.75392241538013
 10
71.17290555361084
 20
-85.75392241538013
 10
71.07004540792235
 20
-85.75392241538013
 10
70.91574472548828
 20
-85.75392241538013
 10
70.744304173407
 20
-85.75392241538013
 10
70.53857865007806
 20
-85.75392241538013
 10
70.29856292355465
 20
-85.75392241538013
 10
70.04140209543209
 20
-85.75392241538013
 10
69.76709616571035
 20
-85.75392241538013
 10
69.47564513439203
 20
-85.75392241538013
 10
69.16705423342522
 20
-85.75392241538013
 10
68.87560320210562
 20
-85.75392241538013
 10
68.5670123011388
 20
-85.75392241538013
 10
68.25841616822133
 20
-85.75392241538013
 10
67.96697036885238
 20
-85.75392241538013
 10
67.69266443913195
 20
-85.75392241538013
 10
67.43550361100938
 20
-85.75392241538013
 10
67.21263298608256
 20
-85.75392241538013
 10
66.98975712920637
 20
-85.75392241538013
 10
66.81831657712509
 20
-85.75392241538013
 10
66.66402112664169
 20
-85.75392241538013
 10
66.56115574900252
 20
-85.75392241538013
 10
66.47543547296251
 20
-85.75392241538013
 10
66.44115050171615
 20
-85.75392241538013
  0
LWPOLYLINE
  5
B5
330
79
100
AcDbEntity
  8
Camada 1
 62
   250
420
  1907995
370
     9
100
AcDbPolyline
 90
       14
 70
     0
 43
0.0
 10
66.44115050171615
 20
-85.80535772017503
 10
66.44115050171615
 20
-85.80535772017503
 10
66.47543547296251
 20
-85.80535772017503
 10
66.56115574900252
 20
-85.80535772017503
 10
66.66402112664169
 20
-85.80535772017503
 10
66.81831657712509
 20
-85.80535772017503
 10
66.98975712920637
 20
-85.80535772017503
 10
67.21263298608256
 20
-85.80535772017503
 10
67.43550361100938
 20
-85.80535772017503
 10
67.69266443913195
 20
-85.80535772017503
 10
67.96697036885238
 20
-85.80535772017503
 10
68.25841616822133
 20
-85.80535772017503
 10
68.5670123011388
 20
-85.80535772017503
 10
68.87560320210562
 20
-85.80535772017503
  0
LWPOLYLINE
  5
B6
330
79
100
AcDbEntity
  8
Camada 1
 62
   250
420
  1907995
370
     9
100
AcDbPolyline
 90
       13
 70
     0
 43
0.0
 10
68.87560320210562
 20
-85.80535772017503
 10
69.16705423342522
 20
-85.80535772017503
 10
69.47564513439203
 20
-85.80535772017503
 10
69.76709616571035
 20
-85.80535772017503
 10
70.04140209543209
 20
-85.80535772017503
 10
70.29856292355465
 20
-85.80535772017503
 10
70.53857865007806
 20
-85.80535772017503
 10
70.744304173407
 20
-85.80535772017503
 10
70.91574472548828
 20
-85.80535772017503
 10
71.07004540792235
 20
-85.80535772017503
 10
71.17290555361084
 20
-85.80535772017503
 10
71.25862582965085
 20
-85.80535772017503
 10
71.29291603284788
 20
-85.80535772017503
  0
LINE
  5
B7
330
79
100
AcDbEntity
  8
Camada 1
 62
   250
420
  1907995
370
     9
100
AcDbLine
 10
71.05290030632447
 20
-43.51097142883574
 30
0.0
 11
70.69287410056147
 21
-43.44240148634364
 31
0.0
  0
LINE
  5
B8
330
79
100
AcDbEntity
  8
Camada 1
 62
   250
420
  1907995
370
     9
100
AcDbLine
 10
70.69287410056147
 20
-44.00815321543302
 30
0.0
 11
71.05290030632447
 21
-43.93957280903991
 31
0.0
  0
LINE
  5
B9
330
79
100
AcDbEntity
  8
Camada 1
 62
   250
420
  1907995
370
     9
100
AcDbLine
 10
71.05290030632447
 20
-40.97365335080647
 30
0.0
 11
70.69287410056147
 21
-40.90507294441336
 31
0.0
  0
LINE
  5
BA
330
79
100
AcDbEntity
  8
Camada 1
 62
   250
420
  1907995
370
     9
100
AcDbLine
 10
70.69287410056147
 20
-41.4879750070516
 30
0.0
 11
71.05290030632447
 21
-41.41939460065882
 31
0.0
  0
LINE
  5
BB
330
79
100
AcDbEntity
  8
Camada 1
 62
   250
420
  1907995
370
     9
100
AcDbLine
 10
71.05290030632447
 20
-42.24231762177145
 30
0.0
 11
70.69287410056147
 21
-42.17373721537867
 31
0.0
  0
LINE
  5
BC
330
79
100
AcDbEntity
  8
Camada 1
 62
   250
420
  1907995
370
     9
100
AcDbLine
 10
70.69287410056147
 20
-42.73948894446804
 30
0.0
 11
71.05290030632447
 21
-42.67091900197594
 31
0.0
  0
LINE
  5
BD
330
79
100
AcDbEntity
  8
Camada 1
 62
   250
420
  1907995
370
     9
100
AcDbLine
 10
71.05290030632447
 20
-48.55132784559827
 30
0.0
 11
70.69287410056147
 21
-48.49989777275402
 31
0.0
  0
LINE
  5
BE
330
79
100
AcDbEntity
  8
Camada 1
 62
   250
420
  1907995
370
     9
100
AcDbLine
 10
70.69287410056147
 20
-49.06564950184372
 30
0.0
 11
71.05290030632447
 21
-48.99706909545061
 31
0.0
  0
LINE
  5
BF
330
79
100
AcDbEntity
  8
Camada 1
 62
   250
420
  1907995
370
     9
100
AcDbLine
 10
71.05290030632447
 20
-44.76248536625218
 30
0.0
 11
70.69287410056147
 21
-44.69391542375976
 31
0.0
  0
LINE
  5
C0
330
79
100
AcDbEntity
  8
Camada 1
 62
   250
420
  1907995
370
     9
100
AcDbLine
 10
70.69287410056147
 20
-45.27680702249732
 30
0.0
 11
71.05290030632447
 21
-45.2082370800049
 31
0.0
  0
LINE
  5
C1
330
79
100
AcDbEntity
  8
Camada 1
 62
   250
420
  1907995
370
     9
100
AcDbLine
 10
71.05290030632447
 20
-46.03114963721717
 30
0.0
 11
70.69287410056147
 21
-45.96256923082406
 31
0.0
  0
LINE
  5
C2
330
79
100
AcDbEntity
  8
Camada 1
 62
   250
420
  1907995
370
     9
100
AcDbLine
 10
70.69287410056147
 20
-46.52833142381444
 30
0.0
 11
71.05290030632447
 21
-46.47689088706919
 31
0.0
  0
LINE
  5
C3
330
79
100
AcDbEntity
  8
Camada 1
 62
   250
420
  1907995
370
     9
100
AcDbLine
 10
71.05290030632447
 20
-35.9161570643961
 30
0.0
 11
70.69287410056147
 21
-35.86472699155184
 31
0.0
  0
LINE
  5
C4
330
79
100
AcDbEntity
  8
Camada 1
 62
   250
420
  1907995
370
     9
100
AcDbLine
 10
70.69287410056147
 20
-36.43047872064123
 30
0.0
 11
71.05290030632447
 21
-36.36189831424812
 31
0.0
  0
LINE
  5
C5
330
79
100
AcDbEntity
  8
Camada 1
 62
   250
420
  1907995
370
     9
100
AcDbLine
 10
71.05290030632447
 20
-47.29981390818214
 30
0.0
 11
70.69287410056147
 21
-47.23123350178904
 31
0.0
  0
LINE
  5
C6
330
79
100
AcDbEntity
  8
Camada 1
 62
   250
420
  1907995
370
     9
100
AcDbLine
 10
70.69287410056147
 20
-47.79698523087842
 30
0.0
 11
71.05290030632447
 21
-47.72841528838664
 31
0.0
  0
LINE
  5
C7
330
79
100
AcDbEntity
  8
Camada 1
 62
   250
420
  1907995
370
     9
100
AcDbLine
 10
71.05290030632447
 20
-37.18482133536107
 30
0.0
 11
70.69287410056147
 21
-37.11624092896829
 31
0.0
  0
LINE
  5
C8
330
79
100
AcDbEntity
  8
Camada 1
 62
   250
420
  1907995
370
     9
100
AcDbLine
 10
70.69287410056147
 20
-37.68199265805735
 30
0.0
 11
71.05290030632447
 21
-37.6305625852131
 31
0.0
  0
LINE
  5
C9
330
79
100
AcDbEntity
  8
Camada 1
 62
   250
420
  1907995
370
     9
100
AcDbLine
 10
71.05290030632447
 20
-39.70498907984181
 30
0.0
 11
70.69287410056147
 21
-39.65355900699724
 31
0.0
  0
LINE
  5
CA
330
79
100
AcDbEntity
  8
Camada 1
 62
   250
420
  1907995
370
     9
100
AcDbLine
 10
70.69287410056147
 20
-40.21931073608662
 30
0.0
 11
71.05290030632447
 21
-40.15074079359452
 31
0.0
  0
LINE
  5
CB
330
79
100
AcDbEntity
  8
Camada 1
 62
   250
420
  1907995
370
     9
100
AcDbLine
 10
71.05290030632447
 20
-38.45347514242537
 30
0.0
 11
70.69287410056147
 21
-38.38490519993295
 31
0.0
  0
LINE
  5
CC
330
79
100
AcDbEntity
  8
Camada 1
 62
   250
420
  1907995
370
     9
100
AcDbLine
 10
70.69287410056147
 20
-38.95065692902265
 30
0.0
 11
71.05290030632447
 21
-38.88207652262954
 31
0.0
  0
LINE
  5
CD
330
79
100
AcDbEntity
  8
Camada 1
 62
   250
420
  1907995
370
     9
100
AcDbLine
 10
71.29291603284788
 20
-84.70813923324264
 30
0.0
 11
71.29291603284788
 21
-84.65670392844774
 31
0.0
  0
LINE
  5
CE
330
79
100
AcDbEntity
  8
Camada 1
 62
   250
420
  1907995
370
     9
100
AcDbLine
 10
66.44115050171615
 20
-84.65670392844774
 30
0.0
 11
66.44115050171615
 21
-84.70813923324264
 31
0.0
  0
LINE
  5
CF
330
79
100
AcDbEntity
  8
Camada 1
 62
   250
420
  1907995
370
     9
100
AcDbLine
 10
71.00146500152828
 20
-84.14238227220131
 30
0.0
 11
71.29291603284788
 21
-83.98808682171791
 31
0.0
  0
LINE
  5
D0
330
79
100
AcDbEntity
  8
Camada 1
 62
   250
420
  1907995
370
     9
100
AcDbLine
 10
66.44115050171615
 20
-83.98808682171791
 30
0.0
 11
66.7325963010838
 21
-84.14238227220131
 31
0.0
  0
LINE
  5
D1
330
79
100
AcDbEntity
  8
Camada 1
 62
   250
420
  1907995
370
     9
100
AcDbLine
 10
66.7325963010838
 20
-84.86243468372476
 30
0.0
 11
66.44115050171615
 21
-85.01673013420818
 31
0.0
  0
LINE
  5
D2
330
79
100
AcDbEntity
  8
Camada 1
 62
   250
420
  1907995
370
     9
100
AcDbLine
 10
71.29291603284788
 20
-85.01673013420818
 30
0.0
 11
71.00146500152828
 21
-84.86243468372476
 31
0.0
  0
LINE
  5
D3
330
79
100
AcDbEntity
  8
Camada 1
 62
   250
420
  1907995
370
     9
100
AcDbLine
 10
71.00146500152828
 20
-85.59962696489673
 30
0.0
 11
71.29291603284788
 21
-85.44533151441331
 31
0.0
  0
LINE
  5
D4
330
79
100
AcDbEntity
  8
Camada 1
 62
   250
420
  1907995
370
     9
100
AcDbLine
 10
66.44115050171615
 20
-85.44533151441331
 30
0.0
 11
66.7325963010838
 21
-85.59962696489673
 31
0.0
  0
LINE
  5
D5
330
79
100
AcDbEntity
  8
Camada 1
 62
   250
420
  1907995
370
     9
100
AcDbLine
 10
67.31549313177234
 20
-81.09074253792755
 30
0.0
 11
66.44115050171615
 21
-83.50805536866982
 31
0.0
  0
LINE
  5
D6
330
79
100
AcDbEntity
  8
Camada 1
 62
   250
420
  1907995
370
     9
100
AcDbLine
 10
71.29291603284788
 20
-83.50805536866982
 30
0.0
 11
70.41856817084102
 21
-81.09074253792755
 31
0.0
  0
LINE
  5
D7
330
79
100
AcDbEntity
  8
Camada 1
 62
   250
420
  1907995
370
     9
100
AcDbLine
 10
71.00146500152828
 20
-84.86243468372476
 30
0.0
 11
71.29291603284788
 21
-84.70813923324264
 31
0.0
  0
LINE
  5
D8
330
79
100
AcDbEntity
  8
Camada 1
 62
   250
420
  1907995
370
     9
100
AcDbLine
 10
66.44115050171615
 20
-84.70813923324264
 30
0.0
 11
66.7325963010838
 21
-84.86243468372476
 31
0.0
  0
LINE
  5
D9
330
79
100
AcDbEntity
  8
Camada 1
 62
   250
420
  1907995
370
     9
100
AcDbLine
 10
71.29291603284788
 20
-85.08530530865158
 30
0.0
 11
71.29291603284788
 21
-85.01673013420818
 31
0.0
  0
LINE
  5
DA
330
79
100
AcDbEntity
  8
Camada 1
 62
   250
420
  1907995
370
     9
100
AcDbLine
 10
66.44115050171615
 20
-85.01673013420818
 30
0.0
 11
66.44115050171615
 21
-85.08530530865158
 31
0.0
  0
LINE
  5
DB
330
79
100
AcDbEntity
  8
Camada 1
 62
   250
420
  1907995
370
     9
100
AcDbLine
 10
66.7325963010838
 20
-84.14238227220131
 30
0.0
 11
66.44115050171615
 21
-84.27953785303751
 31
0.0
  0
LINE
  5
DC
330
79
100
AcDbEntity
  8
Camada 1
 62
   250
420
  1907995
370
     9
100
AcDbLine
 10
71.29291603284788
 20
-84.27953785303751
 30
0.0
 11
71.00146500152828
 21
-84.14238227220131
 31
0.0
  0
LINE
  5
DD
330
79
100
AcDbEntity
  8
Camada 1
 62
   250
420
  1907995
370
     9
100
AcDbLine
 10
71.29291603284788
 20
-83.98808682171791
 30
0.0
 11
71.29291603284788
 21
-83.50805536866982
 31
0.0
  0
LINE
  5
DE
330
79
100
AcDbEntity
  8
Camada 1
 62
   250
420
  1907995
370
     9
100
AcDbLine
 10
66.44115050171615
 20
-83.50805536866982
 30
0.0
 11
66.44115050171615
 21
-83.98808682171791
 31
0.0
  0
LINE
  5
DF
330
79
100
AcDbEntity
  8
Camada 1
 62
   250
420
  1907995
370
     9
100
AcDbLine
 10
71.29291603284788
 20
-85.44533151441331
 30
0.0
 11
71.29291603284788
 21
-85.37675633996991
 31
0.0
  0
LINE
  5
E0
330
79
100
AcDbEntity
  8
Camada 1
 62
   250
420
  1907995
370
     9
100
AcDbLine
 10
66.44115050171615
 20
-85.37675633996991
 30
0.0
 11
66.44115050171615
 21
-85.44533151441331
 31
0.0
  0
LINE
  5
E1
330
79
100
AcDbEntity
  8
Camada 1
 62
   250
420
  1907995
370
     9
100
AcDbLine
 10
66.7325963010838
 20
-84.50240847796305
 30
0.0
 11
66.44115050171615
 21
-84.65670392844774
 31
0.0
  0
LINE
  5
E2
330
79
100
AcDbEntity
  8
Camada 1
 62
   250
420
  1907995
370
     9
100
AcDbLine
 10
71.29291603284788
 20
-84.65670392844774
 30
0.0
 11
71.00146500152828
 21
-84.50240847796305
 31
0.0
  0
LINE
  5
E3
330
79
100
AcDbEntity
  8
Camada 1
 62
   250
420
  1907995
370
     9
100
AcDbLine
 10
71.00146500152828
 20
-84.50240847796305
 30
0.0
 11
71.29291603284788
 21
-84.34811302747965
 31
0.0
  0
LINE
  5
E4
330
79
100
AcDbEntity
  8
Camada 1
 62
   250
420
  1907995
370
     9
100
AcDbLine
 10
66.44115050171615
 20
-84.34811302747965
 30
0.0
 11
66.7325963010838
 21
-84.50240847796305
 31
0.0
  0
LINE
  5
E5
330
79
100
AcDbEntity
  8
Camada 1
 62
   250
420
  1907995
370
     9
100
AcDbLine
 10
66.7325963010838
 20
-85.239600759135
 30
0.0
 11
66.44115050171615
 21
-85.37675633996991
 31
0.0
  0
LINE
  5
E6
330
79
100
AcDbEntity
  8
Camada 1
 62
   250
420
  1907995
370
     9
100
AcDbLine
 10
71.29291603284788
 20
-85.37675633996991
 30
0.0
 11
71.00146500152828
 21
-85.239600759135
 31
0.0
  0
LINE
  5
E7
330
79
100
AcDbEntity
  8
Camada 1
 62
   250
420
  1907995
370
     9
100
AcDbLine
 10
71.29291603284788
 20
-86.16538392593676
 30
0.0
 11
71.29291603284788
 21
-86.11394862114186
 31
0.0
  0
LINE
  5
E8
330
79
100
AcDbEntity
  8
Camada 1
 62
   250
420
  1907995
370
     9
100
AcDbLine
 10
66.44115050171615
 20
-86.11394862114186
 30
0.0
 11
66.44115050171615
 21
-86.16538392593676
 31
0.0
  0
LINE
  5
E9
330
79
100
AcDbEntity
  8
Camada 1
 62
   250
420
  1907995
370
     9
100
AcDbLine
 10
66.7325963010838
 20
-85.95965317065845
 30
0.0
 11
66.44115050171615
 21
-86.11394862114186
 31
0.0
  0
LINE
  5
EA
330
79
100
AcDbEntity
  8
Camada 1
 62
   250
420
  1907995
370
     9
100
AcDbLine
 10
71.29291603284788
 20
-86.11394862114186
 30
0.0
 11
71.00146500152828
 21
-85.95965317065845
 31
0.0
  0
LINE
  5
EB
330
79
100
AcDbEntity
  8
Camada 1
 62
   250
420
  1907995
370
     9
100
AcDbLine
 10
71.00146500152828
 20
-85.95965317065845
 30
0.0
 11
71.29291603284788
 21
-85.80535772017503
 31
0.0
  0
LINE
  5
EC
330
79
100
AcDbEntity
  8
Camada 1
 62
   250
420
  1907995
370
     9
100
AcDbLine
 10
66.44115050171615
 20
-85.80535772017503
 30
0.0
 11
66.7325963010838
 21
-85.95965317065845
 31
0.0
  0
LINE
  5
ED
330
79
100
AcDbEntity
  8
Camada 1
 62
   250
420
  1907995
370
     9
100
AcDbLine
 10
71.00146500152828
 20
-85.239600759135
 30
0.0
 11
71.29291603284788
 21
-85.08530530865158
 31
0.0
  0
LINE
  5
EE
330
79
100
AcDbEntity
  8
Camada 1
 62
   250
420
  1907995
370
     9
100
AcDbLine
 10
66.44115050171615
 20
-85.08530530865158
 30
0.0
 11
66.7325963010838
 21
-85.239600759135
 31
0.0
  0
LINE
  5
EF
330
79
100
AcDbEntity
  8
Camada 1
 62
   250
420
  1907995
370
     9
100
AcDbLine
 10
71.29291603284788
 20
-84.34811302747965
 30
0.0
 11
71.29291603284788
 21
-84.27953785303751
 31
0.0
  0
LINE
  5
F0
330
79
100
AcDbEntity
  8
Camada 1
 62
   250
420
  1907995
370
     9
100
AcDbLine
 10
66.44115050171615
 20
-84.27953785303751
 30
0.0
 11
66.44115050171615
 21
-84.34811302747965
 31
0.0
  0
LINE
  5
F1
330
79
100
AcDbEntity
  8
Camada 1
 62
   250
420
  1907995
370
     9
100
AcDbLine
 10
66.7325963010838
 20
-85.59962696489673
 30
0.0
 11
66.44115050171615
 21
-85.75392241538013
 31
0.0
  0
LINE
  5
F2
330
79
100
AcDbEntity
  8
Camada 1
 62
   250
420
  1907995
370
     9
100
AcDbLine
 10
71.29291603284788
 20
-85.75392241538013
 30
0.0
 11
71.00146500152828
 21
-85.59962696489673
 31
0.0
  0
LINE
  5
F3
330
79
100
AcDbEntity
  8
Camada 1
 62
   250
420
  1907995
370
     9
100
AcDbLine
 10
71.29291603284788
 20
-85.80535772017503
 30
0.0
 11
71.29291603284788
 21
-85.75392241538013
 31
0.0
  0
LINE
  5
F4
330
79
100
AcDbEntity
  8
Camada 1
 62
   250
420
  1907995
370
     9
100
AcDbLine
 10
66.44115050171615
 20
-85.75392241538013
 30
0.0
 11
66.44115050171615
 21
-85.80535772017503
 31
0.0
  0
LWPOLYLINE
  5
F5
330
79
100
AcDbEntity
  8
Camada 1
 62
   250
420
  1907995
370
     9
100
AcDbPolyline
 90
        9
 70
     0
 43
0.0
 10
28.70708394214061
 20
-32.62449637164697
 10
28.70708394214061
 20
-32.62449637164697
 10
28.72422904373881
 20
-32.62449637164697
 10
28.75851663096019
 20
-32.62449637164697
 10
28.77565911658306
 20
-32.62449637164697
 10
28.80994931977977
 20
-32.62449637164697
 10
28.86137939262402
 20
-32.62449637164697
 10
28.9128120814436
 20
-32.62449637164697
 10
28.94709966866498
 20
-32.62449637164697
  0
LWPOLYLINE
  5
F6
330
79
100
AcDbEntity
  8
Camada 1
 62
   250
420
  1907995
370
     9
100
AcDbPolyline
 90
        8
 70
     0
 43
0.0
 10
28.94709966866498
 20
-32.98451734545836
 10
28.9128120814436
 20
-32.98451734545836
 10
28.86137939262402
 20
-32.98451734545836
 10
28.80994931977977
 20
-32.98451734545836
 10
28.77565911658306
 20
-32.98451734545836
 10
28.75851663096019
 20
-32.98451734545836
 10
28.72422904373881
 20
-32.98451734545836
 10
28.70708394214061
 20
-32.98451734545836
  0
LINE
  5
F7
330
79
100
AcDbEntity
  8
Camada 1
 62
   250
420
  1907995
370
     9
100
AcDbLine
 10
28.70708394214061
 20
-32.98451734545836
 30
0.0
 11
28.70708394214061
 21
-32.62449637164697
 31
0.0
  0
LINE
  5
F8
330
79
100
AcDbEntity
  8
Camada 1
 62
   250
420
  1907995
370
     9
100
AcDbLine
 10
28.94709966866498
 20
-32.62449637164697
 30
0.0
 11
36.97051802928382
 21
-32.62449637164697
 31
0.0
  0
LINE
  5
F9
330
79
100
AcDbEntity
  8
Camada 1
 62
   250
420
  1907995
370
     9
100
AcDbLine
 10
28.94709966866498
 20
-32.98451734545836
 30
0.0
 11
36.97051802928382
 21
-32.98451734545836
 31
0.0
  0
LINE
  5
FA
330
79
100
AcDbEntity
  8
Camada 1
 62
   250
420
  1907995
370
     9
100
AcDbLine
 10
28.94709966866498
 20
-32.62449637164697
 30
0.0
 11
28.94709966866498
 21
-32.98451734545836
 31
0.0
  0
LWPOLYLINE
  5
FB
330
79
100
AcDbEntity
  8
Camada 1
 62
   250
420
  1907995
370
     9
100
AcDbPolyline
 90
        8
 70
     0
 43
0.0
 10
36.97051802928382
 20
-32.62449637164697
 10
37.02195071810372
 20
-32.62449637164697
 10
37.0562383053251
 20
-32.62449637164697
 10
37.10767099414468
 20
-32.62449637164697
 10
37.14195858136606
 20
-32.62449637164697
 10
37.17624616858713
 20
-32.62449637164697
 10
37.19339127018532
 20
-32.62449637164697
 10
37.21053637178352
 20
-32.62449637164697
  0
LWPOLYLINE
  5
FC
330
79
100
AcDbEntity
  8
Camada 1
 62
   250
420
  1907995
370
     9
100
AcDbPolyline
 90
        9
 70
     0
 43
0.0
 10
37.21053637178352
 20
-32.98451734545836
 10
37.21053637178352
 20
-32.98451734545836
 10
37.19339127018532
 20
-32.98451734545836
 10
37.17624616858713
 20
-32.98451734545836
 10
37.14195858136606
 20
-32.98451734545836
 10
37.10767099414468
 20
-32.98451734545836
 10
37.0562383053251
 20
-32.98451734545836
 10
37.02195071810372
 20
-32.98451734545836
 10
36.97051802928382
 20
-32.98451734545836
  0
LINE
  5
FD
330
79
100
AcDbEntity
  8
Camada 1
 62
   250
420
  1907995
370
     9
100
AcDbLine
 10
36.97051802928382
 20
-32.98451734545836
 30
0.0
 11
36.97051802928382
 21
-32.62449637164697
 31
0.0
  0
LINE
  5
FE
330
79
100
AcDbEntity
  8
Camada 1
 62
   250
420
  1907995
370
     9
100
AcDbLine
 10
37.21053637178352
 20
-32.62449637164697
 30
0.0
 11
37.21053637178352
 21
-32.98451734545836
 31
0.0
  0
LWPOLYLINE
  5
FF
330
79
100
AcDbEntity
  8
Camada 1
 62
   250
420
  1907995
370
     9
100
AcDbPolyline
 90
        8
 70
     0
 43
0.0
 10
28.94709966866498
 20
-81.09074253792755
 10
28.9128120814436
 20
-81.09074253792755
 10
28.86137939262402
 20
-81.09074253792755
 10
28.80994931977977
 20
-81.09074253792755
 10
28.77565911658306
 20
-81.09074253792755
 10
28.75851663096019
 20
-81.09074253792755
 10
28.72422904373881
 20
-81.09074253792755
 10
28.70708394214061
 20
-81.09074253792755
  0
LWPOLYLINE
  5
100
330
79
100
AcDbEntity
  8
Camada 1
 62
   250
420
  1907995
370
     9
100
AcDbPolyline
 90
        9
 70
     0
 43
0.0
 10
28.70708394214061
 20
-32.98451734545836
 10
28.70708394214061
 20
-32.98451734545836
 10
28.72422904373881
 20
-32.98451734545836
 10
28.75851663096019
 20
-32.98451734545836
 10
28.77565911658306
 20
-32.98451734545836
 10
28.80994931977977
 20
-32.98451734545836
 10
28.86137939262402
 20
-32.98451734545836
 10
28.9128120814436
 20
-32.98451734545836
 10
28.94709966866498
 20
-32.98451734545836
  0
LINE
  5
101
330
79
100
AcDbEntity
  8
Camada 1
 62
   250
420
  1907995
370
     9
100
AcDbLine
 10
28.70708394214061
 20
-81.09074253792755
 30
0.0
 11
28.70708394214061
 21
-32.98451734545836
 31
0.0
  0
LWPOLYLINE
  5
102
330
79
100
AcDbEntity
  8
Camada 1
 62
   250
420
  1907995
370
     9
100
AcDbPolyline
 90
        9
 70
     0
 43
0.0
 10
37.21053637178352
 20
-81.09074253792755
 10
37.21053637178352
 20
-81.09074253792755
 10
37.19339127018532
 20
-81.09074253792755
 10
37.17624616858713
 20
-81.09074253792755
 10
37.14195858136606
 20
-81.09074253792755
 10
37.10767099414468
 20
-81.09074253792755
 10
37.0562383053251
 20
-81.09074253792755
 10
37.02195071810372
 20
-81.09074253792755
 10
36.97051802928382
 20
-81.09074253792755
  0
LWPOLYLINE
  5
103
330
79
100
AcDbEntity
  8
Camada 1
 62
   250
420
  1907995
370
     9
100
AcDbPolyline
 90
        8
 70
     0
 43
0.0
 10
36.97051802928382
 20
-32.98451734545836
 10
37.02195071810372
 20
-32.98451734545836
 10
37.0562383053251
 20
-32.98451734545836
 10
37.10767099414468
 20
-32.98451734545836
 10
37.14195858136606
 20
-32.98451734545836
 10
37.17624616858713
 20
-32.98451734545836
 10
37.19339127018532
 20
-32.98451734545836
 10
37.21053637178352
 20
-32.98451734545836
  0
LINE
  5
104
330
79
100
AcDbEntity
  8
Camada 1
 62
   250
420
  1907995
370
     9
100
AcDbLine
 10
37.21053637178352
 20
-32.98451734545836
 30
0.0
 11
37.21053637178352
 21
-81.09074253792755
 31
0.0
  0
LINE
  5
105
330
79
100
AcDbEntity
  8
Camada 1
 62
   250
420
  1907995
370
     9
100
AcDbLine
 10
28.94709966866498
 20
-81.09074253792755
 30
0.0
 11
36.97051802928382
 21
-81.09074253792755
 31
0.0
  0
LINE
  5
106
330
79
100
AcDbEntity
  8
Camada 1
 62
   250
420
  1907995
370
     9
100
AcDbLine
 10
28.94709966866498
 20
-32.98451734545836
 30
0.0
 11
36.97051802928382
 21
-32.98451734545836
 31
0.0
  0
LINE
  5
107
330
79
100
AcDbEntity
  8
Camada 1
 62
   250
420
  1907995
370
     9
100
AcDbLine
 10
36.97051802928382
 20
-81.09074253792755
 30
0.0
 11
36.97051802928382
 21
-32.98451734545836
 31
0.0
  0
LINE
  5
108
330
79
100
AcDbEntity
  8
Camada 1
 62
   250
420
  1907995
370
     9
100
AcDbLine
 10
28.94709966866498
 20
-32.98451734545836
 30
0.0
 11
28.94709966866498
 21
-81.09074253792755
 31
0.0
  0
LWPOLYLINE
  5
109
330
79
100
AcDbEntity
  8
Camada 1
 62
   250
420
  1907995
370
     9
100
AcDbPolyline
 90
       18
 70
     0
 43
0.0
 10
30.37005677413836
 20
-43.71670218411406
 10
30.38720187573656
 20
-43.81956232980257
 10
30.43863456455581
 20
-43.92243293939237
 10
30.52435484059678
 20
-43.97386301223662
 10
30.62721760226093
 20
-44.00815321543302
 10
30.73008297989976
 20
-43.99100288188416
 10
30.83294574156392
 20
-43.95672314258876
 10
30.90152353198137
 20
-43.87100286654781
 10
30.93581111920275
 20
-43.76813225695831
 10
30.93581111920275
 20
-43.66527211126949
 10
30.90152353198137
 20
-43.57955183522853
 10
30.83294574156392
 20
-43.49383155918789
 10
30.73008297989976
 20
-43.44240148634364
 10
30.62721760226093
 20
-43.44240148634364
 10
30.52435484059678
 20
-43.47668122563935
 10
30.43863456455581
 20
-43.52812176238428
 10
30.38720187573656
 20
-43.61384203842525
 10
30.37005677413836
 20
-43.71670218411406
  0
LWPOLYLINE
  5
10A
330
79
100
AcDbEntity
  8
Camada 1
 62
   250
420
  1907995
370
     9
100
AcDbPolyline
 90
       18
 70
     0
 43
0.0
 10
30.37005677413836
 20
-47.50553419955946
 10
30.38720187573656
 20
-47.60840480914896
 10
30.43863456455581
 20
-47.71126495483778
 10
30.52435484059678
 20
-47.76269502768203
 10
30.62721760226093
 20
-47.79698523087842
 10
30.73008297989976
 20
-47.77984536123088
 10
30.83294574156392
 20
-47.74555515803417
 10
30.90152353198137
 20
-47.65983488199321
 10
30.93581111920275
 20
-47.57411460595256
 10
30.93581111920275
 20
-47.45410412671521
 10
30.90152353198137
 20
-47.36838385067424
 10
30.83294574156392
 20
-47.2826635746336
 10
30.73008297989976
 20
-47.24837337143689
 10
30.62721760226093
 20
-47.23123350178904
 10
30.52435484059678
 20
-47.26552370498575
 10
30.43863456455581
 20
-47.31695377783
 10
30.38720187573656
 20
-47.40267405387096
 10
30.37005677413836
 20
-47.50553419955946
  0
LWPOLYLINE
  5
10B
330
79
100
AcDbEntity
  8
Camada 1
 62
   250
420
  1907995
370
     9
100
AcDbPolyline
 90
       17
 70
     0
 43
0.0
 10
30.86723594476031
 20
-46.25402026214302
 10
30.85009084316211
 20
-46.16829998610206
 10
30.81580325594073
 20
-46.09973004361027
 10
30.73008297989976
 20
-46.0482895068647
 10
30.66150518948231
 20
-46.03114963721717
 10
30.57578491344135
 20
-46.0482895068647
 10
30.50720973899858
 20
-46.09973004361027
 10
30.455777050179
 20
-46.16829998610206
 10
30.43863456455581
 20
-46.25402026214302
 10
30.455777050179
 20
-46.33974053818397
 10
30.50720973899858
 20
-46.40832094457709
 10
30.57578491344135
 20
-46.45975101742133
 10
30.66150518948231
 20
-46.47689088706919
 10
30.73008297989976
 20
-46.45975101742133
 10
30.81580325594073
 20
-46.40832094457709
 10
30.85009084316211
 20
-46.33974053818397
 10
30.86723594476031
 20
-46.25402026214302
  0
LWPOLYLINE
  5
10C
330
79
100
AcDbEntity
  8
Camada 1
 62
   250
420
  1907995
370
     9
100
AcDbPolyline
 90
       18
 70
     0
 43
0.0
 10
30.37005677413836
 20
-46.25402026214302
 10
30.38720187573656
 20
-46.35689087173283
 10
30.43863456455581
 20
-46.44261114777348
 10
30.52435484059678
 20
-46.5111810902659
 10
30.62721760226093
 20
-46.52833142381444
 10
30.73008297989976
 20
-46.52833142381444
 10
30.83294574156392
 20
-46.47689088706919
 10
30.90152353198137
 20
-46.39117061102854
 10
30.93581111920275
 20
-46.30545033498759
 10
30.93581111920275
 20
-46.20259018929877
 10
30.90152353198137
 20
-46.09973004361027
 10
30.83294574156392
 20
-46.03114963721717
 10
30.73008297989976
 20
-45.97971956437291
 10
30.62721760226093
 20
-45.96256923082406
 10
30.52435484059678
 20
-45.99685943402045
 10
30.43863456455581
 20
-46.06543984041356
 10
30.38720187573656
 20
-46.15116011645452
 10
30.37005677413836
 20
-46.25402026214302
  0
LWPOLYLINE
  5
10D
330
79
100
AcDbEntity
  8
Camada 1
 62
   250
420
  1907995
370
     9
100
AcDbPolyline
 90
       17
 70
     0
 43
0.0
 10
30.86723594476031
 20
-44.98536645507904
 10
30.85009084316211
 20
-44.89964617903807
 10
30.81580325594073
 20
-44.83106577264497
 10
30.73008297989976
 20
-44.77963569980071
 10
30.66150518948231
 20
-44.76248536625218
 10
30.57578491344135
 20
-44.77963569980071
 10
30.50720973899858
 20
-44.83106577264497
 10
30.455777050179
 20
-44.89964617903807
 10
30.43863456455581
 20
-44.98536645507904
 10
30.455777050179
 20
-45.07108673111968
 10
30.50720973899858
 20
-45.13965667361211
 10
30.57578491344135
 20
-45.19108674645635
 10
30.66150518948231
 20
-45.2082370800049
 10
30.73008297989976
 20
-45.19108674645635
 10
30.81580325594073
 20
-45.13965667361211
 10
30.85009084316211
 20
-45.07108673111968
 10
30.86723594476031
 20
-44.98536645507904
  0
LWPOLYLINE
  5
10E
330
79
100
AcDbEntity
  8
Camada 1
 62
   250
420
  1907995
370
     9
100
AcDbPolyline
 90
       18
 70
     0
 43
0.0
 10
30.37005677413836
 20
-44.98536645507904
 10
30.38720187573656
 20
-45.08822660076754
 10
30.43863456455581
 20
-45.17394687680883
 10
30.52435484059678
 20
-45.24252728320161
 10
30.62721760226093
 20
-45.27680702249732
 10
30.73008297989976
 20
-45.25966715284947
 10
30.83294574156392
 20
-45.2082370800049
 10
30.90152353198137
 20
-45.13965667361211
 10
30.93581111920275
 20
-45.03679652792329
 10
30.93581111920275
 20
-44.93392591833379
 10
30.90152353198137
 20
-44.83106577264497
 10
30.83294574156392
 20
-44.76248536625218
 10
30.73008297989976
 20
-44.71105529340761
 10
30.62721760226093
 20
-44.71105529340761
 10
30.52435484059678
 20
-44.72820562695647
 10
30.43863456455581
 20
-44.7967755694489
 10
30.38720187573656
 20
-44.88249584548954
 10
30.37005677413836
 20
-44.98536645507904
  0
LWPOLYLINE
  5
10F
330
79
100
AcDbEntity
  8
Camada 1
 62
   250
420
  1907995
370
     9
100
AcDbPolyline
 90
       17
 70
     0
 43
0.0
 10
30.86723594476031
 20
-36.13902768932195
 10
30.85009084316211
 20
-36.0533074132813
 10
30.81580325594073
 20
-35.9847270068882
 10
30.73008297989976
 20
-35.93329693404363
 10
30.66150518948231
 20
-35.9161570643961
 10
30.57578491344135
 20
-35.93329693404363
 10
30.50720973899858
 20
-35.9847270068882
 10
30.455777050179
 20
-36.0533074132813
 10
30.43863456455581
 20
-36.13902768932195
 10
30.455777050179
 20
-36.22474796536291
 10
30.50720973899858
 20
-36.29332837175602
 10
30.57578491344135
 20
-36.34475844460027
 10
30.66150518948231
 20
-36.36189831424812
 10
30.73008297989976
 20
-36.34475844460027
 10
30.81580325594073
 20
-36.29332837175602
 10
30.85009084316211
 20
-36.22474796536291
 10
30.86723594476031
 20
-36.13902768932195
  0
LWPOLYLINE
  5
110
330
79
100
AcDbEntity
  8
Camada 1
 62
   250
420
  1907995
370
     9
100
AcDbPolyline
 90
       18
 70
     0
 43
0.0
 10
30.37005677413836
 20
-36.13902768932195
 10
30.38720187573656
 20
-36.24188783501077
 10
30.43863456455581
 20
-36.32760811105173
 10
30.52435484059678
 20
-36.39618851744483
 10
30.62721760226093
 20
-36.43047872064123
 10
30.73008297989976
 20
-36.41332838709269
 10
30.83294574156392
 20
-36.36189831424812
 10
30.90152353198137
 20
-36.29332837175602
 10
30.93581111920275
 20
-36.19045776216652
 10
30.93581111920275
 20
-36.0875976164777
 10
30.90152353198137
 20
-35.9847270068882
 10
30.83294574156392
 20
-35.9161570643961
 10
30.73008297989976
 20
-35.86472699155184
 10
30.62721760226093
 20
-35.86472699155184
 10
30.52435484059678
 20
-35.88186686119938
 10
30.43863456455581
 20
-35.95044726759249
 10
30.38720187573656
 20
-36.03616754363345
 10
30.37005677413836
 20
-36.13902768932195
  0
LWPOLYLINE
  5
111
330
79
100
AcDbEntity
  8
Camada 1
 62
   250
420
  1907995
370
     9
100
AcDbPolyline
 90
       17
 70
     0
 43
0.0
 10
30.86723594476031
 20
-42.46518824669762
 10
30.85009084316211
 20
-42.37946797065698
 10
30.81580325594073
 20
-42.31088756426387
 10
30.73008297989976
 20
-42.25945749141962
 10
30.66150518948231
 20
-42.24231762177145
 10
30.57578491344135
 20
-42.25945749141962
 10
30.50720973899858
 20
-42.31088756426387
 10
30.455777050179
 20
-42.37946797065698
 10
30.43863456455581
 20
-42.46518824669762
 10
30.455777050179
 20
-42.55090852273858
 10
30.50720973899858
 20
-42.61947846523069
 10
30.57578491344135
 20
-42.65376866842708
 10
30.66150518948231
 20
-42.67091900197594
 10
30.73008297989976
 20
-42.65376866842708
 10
30.81580325594073
 20
-42.61947846523069
 10
30.85009084316211
 20
-42.55090852273858
 10
30.86723594476031
 20
-42.46518824669762
  0
LWPOLYLINE
  5
112
330
79
100
AcDbEntity
  8
Camada 1
 62
   250
420
  1907995
370
     9
100
AcDbPolyline
 90
       18
 70
     0
 43
0.0
 10
30.37005677413836
 20
-42.46518824669762
 10
30.38720187573656
 20
-42.56804839238644
 10
30.43863456455581
 20
-42.65376866842708
 10
30.52435484059678
 20
-42.70519874127133
 10
30.62721760226093
 20
-42.73948894446804
 10
30.73008297989976
 20
-42.73948894446804
 10
30.83294574156392
 20
-42.68805887162379
 10
30.90152353198137
 20
-42.60233859558283
 10
30.93581111920275
 20
-42.51661831954186
 10
30.93581111920275
 20
-42.41375817385337
 10
30.90152353198137
 20
-42.31088756426387
 10
30.83294574156392
 20
-42.22516728822291
 10
30.73008297989976
 20
-42.19087708502652
 10
30.62721760226093
 20
-42.17373721537867
 10
30.52435484059678
 20
-42.20802741857506
 10
30.43863456455581
 20
-42.25945749141962
 10
30.38720187573656
 20
-42.36231763710812
 10
30.37005677413836
 20
-42.46518824669762
  0
LWPOLYLINE
  5
113
330
79
100
AcDbEntity
  8
Camada 1
 62
   250
420
  1907995
370
     9
100
AcDbPolyline
 90
       17
 70
     0
 43
0.0
 10
30.86723594476031
 20
-41.19652397573264
 10
30.85009084316211
 20
-41.11080369969168
 10
30.81580325594073
 20
-41.04223375719957
 10
30.73008297989976
 20
-40.99079322045432
 10
30.66150518948231
 20
-40.97365335080647
 10
30.57578491344135
 20
-40.99079322045432
 10
30.50720973899858
 20
-41.04223375719957
 10
30.455777050179
 20
-41.11080369969168
 10
30.43863456455581
 20
-41.19652397573264
 10
30.455777050179
 20
-41.28224425177328
 10
30.50720973899858
 20
-41.35082465816639
 10
30.57578491344135
 20
-41.40225473101064
 10
30.66150518948231
 20
-41.41939460065882
 10
30.73008297989976
 20
-41.40225473101064
 10
30.81580325594073
 20
-41.35082465816639
 10
30.85009084316211
 20
-41.28224425177328
 10
30.86723594476031
 20
-41.19652397573264
  0
LWPOLYLINE
  5
114
330
79
100
AcDbEntity
  8
Camada 1
 62
   250
420
  1907995
370
     9
100
AcDbPolyline
 90
       18
 70
     0
 43
0.0
 10
30.37005677413836
 20
-41.19652397573264
 10
30.38720187573656
 20
-41.29939458532214
 10
30.43863456455581
 20
-41.38511486136311
 10
30.52435484059678
 20
-41.45368480385521
 10
30.62721760226093
 20
-41.47083513740406
 10
30.73008297989976
 20
-41.47083513740406
 10
30.83294574156392
 20
-41.41939460065882
 10
30.90152353198137
 20
-41.35082465816639
 10
30.93581111920275
 20
-41.24795404857721
 10
30.93581111920275
 20
-41.1450939028884
 10
30.90152353198137
 20
-41.04223375719957
 10
30.83294574156392
 20
-40.97365335080647
 10
30.73008297989976
 20
-40.92222327796221
 10
30.62721760226093
 20
-40.90507294441336
 10
30.52435484059678
 20
-40.93936314761007
 10
30.43863456455581
 20
-41.00794355400318
 10
30.38720187573656
 20
-41.09366383004414
 10
30.37005677413836
 20
-41.19652397573264
  0
LWPOLYLINE
  5
115
330
79
100
AcDbEntity
  8
Camada 1
 62
   250
420
  1907995
370
     9
100
AcDbPolyline
 90
       17
 70
     0
 43
0.0
 10
30.86723594476031
 20
-39.92787016866834
 10
30.85009084316211
 20
-39.8421498926277
 10
30.81580325594073
 20
-39.7735694862346
 10
30.73008297989976
 20
-39.72213941339035
 10
30.66150518948231
 20
-39.70498907984181
 10
30.57578491344135
 20
-39.72213941339035
 10
30.50720973899858
 20
-39.7735694862346
 10
30.455777050179
 20
-39.8421498926277
 10
30.43863456455581
 20
-39.92787016866834
 10
30.455777050179
 20
-40.0135904447093
 10
30.50720973899858
 20
-40.08216038720173
 10
30.57578491344135
 20
-40.13359046004597
 10
30.66150518948231
 20
-40.15074079359452
 10
30.73008297989976
 20
-40.13359046004597
 10
30.81580325594073
 20
-40.08216038720173
 10
30.85009084316211
 20
-40.0135904447093
 10
30.86723594476031
 20
-39.92787016866834
  0
LWPOLYLINE
  5
116
330
79
100
AcDbEntity
  8
Camada 1
 62
   250
420
  1907995
370
     9
100
AcDbPolyline
 90
       18
 70
     0
 43
0.0
 10
30.37005677413836
 20
-39.92787016866834
 10
30.38720187573656
 20
-40.03073031435716
 10
30.43863456455581
 20
-40.11645059039812
 10
30.52435484059678
 20
-40.18503099679091
 10
30.62721760226093
 20
-40.21931073608662
 10
30.73008297989976
 20
-40.20217086643909
 10
30.83294574156392
 20
-40.15074079359452
 10
30.90152353198137
 20
-40.08216038720173
 10
30.93581111920275
 20
-39.97930024151292
 10
30.93581111920275
 20
-39.87642963192342
 10
30.90152353198137
 20
-39.79070935588246
 10
30.83294574156392
 20
-39.70498907984181
 10
30.73008297989976
 20
-39.65355900699724
 10
30.62721760226093
 20
-39.65355900699724
 10
30.52435484059678
 20
-39.6707093405461
 10
30.43863456455581
 20
-39.73927928303821
 10
30.38720187573656
 20
-39.82499955907917
 10
30.37005677413836
 20
-39.92787016866834
  0
LWPOLYLINE
  5
117
330
79
100
AcDbEntity
  8
Camada 1
 62
   250
420
  1907995
370
     9
100
AcDbPolyline
 90
       17
 70
     0
 43
0.0
 10
30.86723594476031
 20
-38.67634576735122
 10
30.85009084316211
 20
-38.59062549131058
 10
30.81580325594073
 20
-38.50490521526962
 10
30.73008297989976
 20
-38.47061501207291
 10
30.66150518948231
 20
-38.45347514242537
 10
30.57578491344135
 20
-38.47061501207291
 10
30.50720973899858
 20
-38.50490521526962
 10
30.455777050179
 20
-38.59062549131058
 10
30.43863456455581
 20
-38.67634576735122
 10
30.455777050179
 20
-38.74492617374433
 10
30.50720973899858
 20
-38.83064644978529
 10
30.57578491344135
 20
-38.86493665298168
 10
30.66150518948231
 20
-38.88207652262954
 10
30.73008297989976
 20
-38.86493665298168
 10
30.81580325594073
 20
-38.83064644978529
 10
30.85009084316211
 20
-38.74492617374433
 10
30.86723594476031
 20
-38.67634576735122
  0
LWPOLYLINE
  5
118
330
79
100
AcDbEntity
  8
Camada 1
 62
   250
420
  1907995
370
     9
100
AcDbPolyline
 90
       18
 70
     0
 43
0.0
 10
30.37005677413836
 20
-38.67634576735122
 10
30.38720187573656
 20
-38.77921637694104
 10
30.43863456455581
 20
-38.86493665298168
 10
30.52435484059678
 20
-38.91636672582593
 10
30.62721760226093
 20
-38.95065692902265
 10
30.73008297989976
 20
-38.93350659547379
 10
30.83294574156392
 20
-38.8992163922774
 10
30.90152353198137
 20
-38.81349611623644
 10
30.93581111920275
 20
-38.72777584019547
 10
30.93581111920275
 20
-38.62491569450698
 10
30.90152353198137
 20
-38.52205554881815
 10
30.83294574156392
 20
-38.43633527277719
 10
30.73008297989976
 20
-38.40204506958112
 10
30.62721760226093
 20
-38.38489473603227
 10
30.52435484059678
 20
-38.41918493922866
 10
30.43863456455581
 20
-38.47061501207291
 10
30.38720187573656
 20
-38.57348562166272
 10
30.37005677413836
 20
-38.67634576735122
  0
LWPOLYLINE
  5
119
330
79
100
AcDbEntity
  8
Camada 1
 62
   250
420
  1907995
370
     9
100
AcDbPolyline
 90
       17
 70
     0
 43
0.0
 10
30.86723594476031
 20
-37.40769196028725
 10
30.85009084316211
 20
-37.32197168424629
 10
30.81580325594073
 20
-37.25339127785318
 10
30.73008297989976
 20
-37.20196120500893
 10
30.66150518948231
 20
-37.18481087146007
 10
30.57578491344135
 20
-37.20196120500893
 10
30.50720973899858
 20
-37.25339127785318
 10
30.455777050179
 20
-37.32197168424629
 10
30.43863456455581
 20
-37.40769196028725
 10
30.455777050179
 20
-37.49341223632821
 10
30.50720973899858
 20
-37.56198217882
 10
30.57578491344135
 20
-37.61341225166456
 10
30.66150518948231
 20
-37.6305625852131
 10
30.73008297989976
 20
-37.61341225166456
 10
30.81580325594073
 20
-37.56198217882
 10
30.85009084316211
 20
-37.49341223632821
 10
30.86723594476031
 20
-37.40769196028725
  0
LWPOLYLINE
  5
11A
330
79
100
AcDbEntity
  8
Camada 1
 62
   250
420
  1907995
370
     9
100
AcDbPolyline
 90
       18
 70
     0
 43
0.0
 10
30.37005677413836
 20
-37.40769196028725
 10
30.38720187573656
 20
-37.51055210597574
 10
30.43863456455581
 20
-37.59627238201671
 10
30.52435484059678
 20
-37.66485278840981
 10
30.62721760226093
 20
-37.68199265805735
 10
30.73008297989976
 20
-37.68199265805735
 10
30.83294574156392
 20
-37.6305625852131
 10
30.90152353198137
 20
-37.56198217882
 10
30.93581111920275
 20
-37.4591220331315
 10
30.93581111920275
 20
-37.35625142354168
 10
30.90152353198137
 20
-37.25339127785318
 10
30.83294574156392
 20
-37.18481087146007
 10
30.73008297989976
 20
-37.13338079861582
 10
30.62721760226093
 20
-37.11624092896829
 10
30.52435484059678
 20
-37.15053113216468
 10
30.43863456455581
 20
-37.21910107465678
 10
30.38720187573656
 20
-37.30482135069742
 10
30.37005677413836
 20
-37.40769196028725
  0
LWPOLYLINE
  5
11B
330
79
100
AcDbEntity
  8
Camada 1
 62
   250
420
  1907995
370
     9
100
AcDbPolyline
 90
       17
 70
     0
 43
0.0
 10
30.86723594476031
 20
-47.50553419955946
 10
30.85009084316211
 20
-47.43696425706736
 10
30.81580325594073
 20
-47.35124398102671
 10
30.73008297989976
 20
-47.31695377783
 10
30.66150518948231
 20
-47.29981390818214
 10
30.57578491344135
 20
-47.31695377783
 10
30.50720973899858
 20
-47.35124398102671
 10
30.455777050179
 20
-47.43696425706736
 10
30.43863456455581
 20
-47.50553419955946
 10
30.455777050179
 20
-47.5912544756001
 10
30.50720973899858
 20
-47.67697475164107
 10
30.57578491344135
 20
-47.71126495483778
 10
30.66150518948231
 20
-47.72841528838664
 10
30.73008297989976
 20
-47.71126495483778
 10
30.81580325594073
 20
-47.67697475164107
 10
30.85009084316211
 20
-47.5912544756001
 10
30.86723594476031
 20
-47.50553419955946
  0
LWPOLYLINE
  5
11C
330
79
100
AcDbEntity
  8
Camada 1
 62
   250
420
  1907995
370
     9
100
AcDbPolyline
 90
       17
 70
     0
 43
0.0
 10
30.86723594476031
 20
-43.71670218411406
 10
30.85009084316211
 20
-43.6309819080731
 10
30.81580325594073
 20
-43.56240150167999
 10
30.73008297989976
 20
-43.52812176238428
 10
30.66150518948231
 20
-43.51097142883574
 10
30.57578491344135
 20
-43.52812176238428
 10
30.50720973899858
 20
-43.56240150167999
 10
30.455777050179
 20
-43.6309819080731
 10
30.43863456455581
 20
-43.71670218411406
 10
30.455777050179
 20
-43.80242246015503
 10
30.50720973899858
 20
-43.87100286654781
 10
30.57578491344135
 20
-43.92243293939237
 10
30.66150518948231
 20
-43.93957280903991
 10
30.73008297989976
 20
-43.92243293939237
 10
30.81580325594073
 20
-43.87100286654781
 10
30.85009084316211
 20
-43.80242246015503
 10
30.86723594476031
 20
-43.71670218411406
  0
LWPOLYLINE
  5
11D
330
79
100
AcDbEntity
  8
Camada 1
 62
   250
420
  1907995
370
     9
100
AcDbPolyline
 90
       17
 70
     0
 43
0.0
 10
30.86723594476031
 20
-48.77419847052475
 10
30.85009084316211
 20
-48.68847819448379
 10
30.81580325594073
 20
-48.61989778809069
 10
30.73008297989976
 20
-48.56846771524644
 10
30.66150518948231
 20
-48.55132784559827
 10
30.57578491344135
 20
-48.56846771524644
 10
30.50720973899858
 20
-48.61989778809069
 10
30.455777050179
 20
-48.68847819448379
 10
30.43863456455581
 20
-48.77419847052475
 10
30.455777050179
 20
-48.8599187465654
 10
30.50720973899858
 20
-48.92849915295819
 10
30.57578491344135
 20
-48.97992922580275
 10
30.66150518948231
 20
-48.99706909545061
 10
30.73008297989976
 20
-48.97992922580275
 10
30.81580325594073
 20
-48.92849915295819
 10
30.85009084316211
 20
-48.8599187465654
 10
30.86723594476031
 20
-48.77419847052475
  0
LWPOLYLINE
  5
11E
330
79
100
AcDbEntity
  8
Camada 1
 62
   250
420
  1907995
370
     9
100
AcDbPolyline
 90
       18
 70
     0
 43
0.0
 10
30.37005677413836
 20
-48.77419847052475
 10
30.38720187573656
 20
-48.87705861621326
 10
30.43863456455581
 20
-48.9627788922539
 10
30.52435484059678
 20
-49.031359298647
 10
30.62721760226093
 20
-49.06564950184372
 10
30.73008297989976
 20
-49.04849916829486
 10
30.83294574156392
 20
-48.99706909545061
 10
30.90152353198137
 20
-48.92849915295819
 10
30.93581111920275
 20
-48.825628543369
 10
30.93581111920275
 20
-48.72276839768019
 10
30.90152353198137
 20
-48.61989778809069
 10
30.83294574156392
 20
-48.55132784559827
 10
30.73008297989976
 20
-48.49989777275402
 10
30.62721760226093
 20
-48.49989777275402
 10
30.52435484059678
 20
-48.5170376424022
 10
30.43863456455581
 20
-48.58561804879498
 10
30.38720187573656
 20
-48.67133832483562
 10
30.37005677413836
 20
-48.77419847052475
  0
LWPOLYLINE
  5
11F
330
79
100
AcDbEntity
  8
Camada 1
 62
   250
420
  1907995
370
     9
100
AcDbPolyline
 90
       17
 70
     0
 43
0.0
 10
32.41020091349571
 20
-39.92787016866834
 10
32.39305581189751
 20
-39.8421498926277
 10
32.34162312307793
 20
-39.7735694862346
 10
32.27304794863517
 20
-39.72213941339035
 10
32.18732767259452
 20
-39.70498907984181
 10
32.10160739655356
 20
-39.72213941339035
 10
32.03302960613579
 20
-39.7735694862346
 10
31.98159953329122
 20
-39.8421498926277
 10
31.96445443169334
 20
-39.92787016866834
 10
31.98159953329122
 20
-40.0135904447093
 10
32.03302960613579
 20
-40.08216038720173
 10
32.10160739655356
 20
-40.13359046004597
 10
32.18732767259452
 20
-40.15074079359452
 10
32.27304794863517
 20
-40.13359046004597
 10
32.34162312307793
 20
-40.08216038720173
 10
32.39305581189751
 20
-40.0135904447093
 10
32.41020091349571
 20
-39.92787016866834
  0
LWPOLYLINE
  5
120
330
79
100
AcDbEntity
  8
Camada 1
 62
   250
420
  1907995
370
     9
100
AcDbPolyline
 90
       18
 70
     0
 43
0.0
 10
31.89587925725057
 20
-39.92787016866834
 10
31.91302174287376
 20
-40.03073031435716
 10
31.98159953329122
 20
-40.11645059039812
 10
32.05017470773398
 20
-40.18503099679091
 10
32.15304008537315
 20
-40.21931073608662
 10
32.25590284703697
 20
-40.20217086643909
 10
32.35876822467613
 20
-40.15074079359452
 10
32.4273433991189
 20
-40.08216038720173
 10
32.46163098634028
 20
-39.97930024151292
 10
32.46163098634028
 20
-39.87642963192342
 10
32.4273433991189
 20
-39.79070935588246
 10
32.35876822467613
 20
-39.70498907984181
 10
32.25590284703697
 20
-39.65355900699724
 10
32.15304008537315
 20
-39.65355900699724
 10
32.05017470773398
 20
-39.6707093405461
 10
31.98159953329122
 20
-39.73927928303821
 10
31.91302174287376
 20
-39.82499955907917
 10
31.89587925725057
 20
-39.92787016866834
  0
LWPOLYLINE
  5
121
330
79
100
AcDbEntity
  8
Camada 1
 62
   250
420
  1907995
370
     9
100
AcDbPolyline
 90
       18
 70
     0
 43
0.0
 10
31.89587925725057
 20
-42.46518824669762
 10
31.91302174287376
 20
-42.56804839238644
 10
31.98159953329122
 20
-42.65376866842708
 10
32.05017470773398
 20
-42.70519874127133
 10
32.15304008537315
 20
-42.73948894446804
 10
32.25590284703697
 20
-42.73948894446804
 10
32.35876822467613
 20
-42.68805887162379
 10
32.4273433991189
 20
-42.60233859558283
 10
32.46163098634028
 20
-42.51661831954186
 10
32.46163098634028
 20
-42.41375817385337
 10
32.4273433991189
 20
-42.31088756426387
 10
32.35876822467613
 20
-42.22516728822291
 10
32.25590284703697
 20
-42.19087708502652
 10
32.15304008537315
 20
-42.17373721537867
 10
32.05017470773398
 20
-42.20802741857506
 10
31.98159953329122
 20
-42.25945749141962
 10
31.91302174287376
 20
-42.36231763710812
 10
31.89587925725057
 20
-42.46518824669762
  0
LWPOLYLINE
  5
122
330
79
100
AcDbEntity
  8
Camada 1
 62
   250
420
  1907995
370
     9
100
AcDbPolyline
 90
       18
 70
     0
 43
0.0
 10
31.89587925725057
 20
-47.50553419955946
 10
31.91302174287376
 20
-47.60840480914896
 10
31.98159953329122
 20
-47.71126495483778
 10
32.05017470773398
 20
-47.76269502768203
 10
32.15304008537315
 20
-47.79698523087842
 10
32.25590284703697
 20
-47.77984536123088
 10
32.35876822467613
 20
-47.74555515803417
 10
32.4273433991189
 20
-47.65983488199321
 10
32.46163098634028
 20
-47.57411460595256
 10
32.46163098634028
 20
-47.45410412671521
 10
32.4273433991189
 20
-47.36838385067424
 10
32.35876822467613
 20
-47.2826635746336
 10
32.25590284703697
 20
-47.24837337143689
 10
32.15304008537315
 20
-47.23123350178904
 10
32.05017470773398
 20
-47.26552370498575
 10
31.98159953329122
 20
-47.31695377783
 10
31.91302174287376
 20
-47.40267405387096
 10
31.89587925725057
 20
-47.50553419955946
  0
LWPOLYLINE
  5
123
330
79
100
AcDbEntity
  8
Camada 1
 62
   250
420
  1907995
370
     9
100
AcDbPolyline
 90
       18
 70
     0
 43
0.0
 10
31.89587925725057
 20
-43.71670218411406
 10
31.91302174287376
 20
-43.81956232980257
 10
31.98159953329122
 20
-43.92243293939237
 10
32.05017470773398
 20
-43.97386301223662
 10
32.15304008537315
 20
-44.00815321543302
 10
32.25590284703697
 20
-43.99100288188416
 10
32.35876822467613
 20
-43.95672314258876
 10
32.4273433991189
 20
-43.87100286654781
 10
32.46163098634028
 20
-43.76813225695831
 10
32.46163098634028
 20
-43.66527211126949
 10
32.4273433991189
 20
-43.57955183522853
 10
32.35876822467613
 20
-43.49383155918789
 10
32.25590284703697
 20
-43.44240148634364
 10
32.15304008537315
 20
-43.44240148634364
 10
32.05017470773398
 20
-43.47668122563935
 10
31.98159953329122
 20
-43.52812176238428
 10
31.91302174287376
 20
-43.61384203842525
 10
31.89587925725057
 20
-43.71670218411406
  0
LWPOLYLINE
  5
124
330
79
100
AcDbEntity
  8
Camada 1
 62
   250
420
  1907995
370
     9
100
AcDbPolyline
 90
       17
 70
     0
 43
0.0
 10
32.41020091349571
 20
-43.71670218411406
 10
32.39305581189751
 20
-43.6309819080731
 10
32.34162312307793
 20
-43.56240150167999
 10
32.27304794863517
 20
-43.52812176238428
 10
32.18732767259452
 20
-43.51097142883574
 10
32.10160739655356
 20
-43.52812176238428
 10
32.03302960613579
 20
-43.56240150167999
 10
31.98159953329122
 20
-43.6309819080731
 10
31.96445443169334
 20
-43.71670218411406
 10
31.98159953329122
 20
-43.80242246015503
 10
32.03302960613579
 20
-43.87100286654781
 10
32.10160739655356
 20
-43.92243293939237
 10
32.18732767259452
 20
-43.93957280903991
 10
32.27304794863517
 20
-43.92243293939237
 10
32.34162312307793
 20
-43.87100286654781
 10
32.39305581189751
 20
-43.80242246015503
 10
32.41020091349571
 20
-43.71670218411406
  0
LWPOLYLINE
  5
125
330
79
100
AcDbEntity
  8
Camada 1
 62
   250
420
  1907995
370
     9
100
AcDbPolyline
 90
       17
 70
     0
 43
0.0
 10
32.41020091349571
 20
-41.19652397573264
 10
32.39305581189751
 20
-41.11080369969168
 10
32.34162312307793
 20
-41.04223375719957
 10
32.27304794863517
 20
-40.99079322045432
 10
32.18732767259452
 20
-40.97365335080647
 10
32.10160739655356
 20
-40.99079322045432
 10
32.03302960613579
 20
-41.04223375719957
 10
31.98159953329122
 20
-41.11080369969168
 10
31.96445443169334
 20
-41.19652397573264
 10
31.98159953329122
 20
-41.28224425177328
 10
32.03302960613579
 20
-41.35082465816639
 10
32.10160739655356
 20
-41.40225473101064
 10
32.18732767259452
 20
-41.41939460065882
 10
32.27304794863517
 20
-41.40225473101064
 10
32.34162312307793
 20
-41.35082465816639
 10
32.39305581189751
 20
-41.28224425177328
 10
32.41020091349571
 20
-41.19652397573264
  0
LWPOLYLINE
  5
126
330
79
100
AcDbEntity
  8
Camada 1
 62
   250
420
  1907995
370
     9
100
AcDbPolyline
 90
       18
 70
     0
 43
0.0
 10
31.89587925725057
 20
-41.19652397573264
 10
31.91302174287376
 20
-41.29939458532214
 10
31.98159953329122
 20
-41.38511486136311
 10
32.05017470773398
 20
-41.45368480385521
 10
32.15304008537315
 20
-41.47083513740406
 10
32.25590284703697
 20
-41.47083513740406
 10
32.35876822467613
 20
-41.41939460065882
 10
32.4273433991189
 20
-41.35082465816639
 10
32.46163098634028
 20
-41.24795404857721
 10
32.46163098634028
 20
-41.1450939028884
 10
32.4273433991189
 20
-41.04223375719957
 10
32.35876822467613
 20
-40.97365335080647
 10
32.25590284703697
 20
-40.92222327796221
 10
32.15304008537315
 20
-40.90507294441336
 10
32.05017470773398
 20
-40.93936314761007
 10
31.98159953329122
 20
-41.00794355400318
 10
31.91302174287376
 20
-41.09366383004414
 10
31.89587925725057
 20
-41.19652397573264
  0
LWPOLYLINE
  5
127
330
79
100
AcDbEntity
  8
Camada 1
 62
   250
420
  1907995
370
     9
100
AcDbPolyline
 90
       18
 70
     0
 43
0.0
 10
31.89587925725057
 20
-37.40769196028725
 10
31.91302174287376
 20
-37.51055210597574
 10
31.98159953329122
 20
-37.59627238201671
 10
32.05017470773398
 20
-37.66485278840981
 10
32.15304008537315
 20
-37.68199265805735
 10
32.25590284703697
 20
-37.68199265805735
 10
32.35876822467613
 20
-37.6305625852131
 10
32.4273433991189
 20
-37.56198217882
 10
32.46163098634028
 20
-37.4591220331315
 10
32.46163098634028
 20
-37.35625142354168
 10
32.4273433991189
 20
-37.25339127785318
 10
32.35876822467613
 20
-37.18481087146007
 10
32.25590284703697
 20
-37.13338079861582
 10
32.15304008537315
 20
-37.11624092896829
 10
32.05017470773398
 20
-37.15053113216468
 10
31.98159953329122
 20
-37.21910107465678
 10
31.91302174287376
 20
-37.30482135069742
 10
31.89587925725057
 20
-37.40769196028725
  0
LWPOLYLINE
  5
128
330
79
100
AcDbEntity
  8
Camada 1
 62
   250
420
  1907995
370
     9
100
AcDbPolyline
 90
       17
 70
     0
 43
0.0
 10
32.41020091349571
 20
-36.13902768932195
 10
32.39305581189751
 20
-36.0533074132813
 10
32.34162312307793
 20
-35.9847270068882
 10
32.27304794863517
 20
-35.93329693404363
 10
32.18732767259452
 20
-35.9161570643961
 10
32.10160739655356
 20
-35.93329693404363
 10
32.03302960613579
 20
-35.9847270068882
 10
31.98159953329122
 20
-36.0533074132813
 10
31.96445443169334
 20
-36.13902768932195
 10
31.98159953329122
 20
-36.22474796536291
 10
32.03302960613579
 20
-36.29332837175602
 10
32.10160739655356
 20
-36.34475844460027
 10
32.18732767259452
 20
-36.36189831424812
 10
32.27304794863517
 20
-36.34475844460027
 10
32.34162312307793
 20
-36.29332837175602
 10
32.39305581189751
 20
-36.22474796536291
 10
32.41020091349571
 20
-36.13902768932195
  0
LWPOLYLINE
  5
129
330
79
100
AcDbEntity
  8
Camada 1
 62
   250
420
  1907995
370
     9
100
AcDbPolyline
 90
       18
 70
     0
 43
0.0
 10
31.89587925725057
 20
-36.13902768932195
 10
31.91302174287376
 20
-36.24188783501077
 10
31.98159953329122
 20
-36.32760811105173
 10
32.05017470773398
 20
-36.39618851744483
 10
32.15304008537315
 20
-36.43047872064123
 10
32.25590284703697
 20
-36.41332838709269
 10
32.35876822467613
 20
-36.36189831424812
 10
32.4273433991189
 20
-36.29332837175602
 10
32.46163098634028
 20
-36.19045776216652
 10
32.46163098634028
 20
-36.0875976164777
 10
32.4273433991189
 20
-35.9847270068882
 10
32.35876822467613
 20
-35.9161570643961
 10
32.25590284703697
 20
-35.86472699155184
 10
32.15304008537315
 20
-35.86472699155184
 10
32.05017470773398
 20
-35.88186686119938
 10
31.98159953329122
 20
-35.95044726759249
 10
31.91302174287376
 20
-36.03616754363345
 10
31.89587925725057
 20
-36.13902768932195
  0
LWPOLYLINE
  5
12A
330
79
100
AcDbEntity
  8
Camada 1
 62
   250
420
  1907995
370
     9
100
AcDbPolyline
 90
       18
 70
     0
 43
0.0
 10
31.89587925725057
 20
-38.67634576735122
 10
31.91302174287376
 20
-38.77921637694104
 10
31.98159953329122
 20
-38.86493665298168
 10
32.05017470773398
 20
-38.91636672582593
 10
32.15304008537315
 20
-38.95065692902265
 10
32.25590284703697
 20
-38.93350659547379
 10
32.35876822467613
 20
-38.8992163922774
 10
32.4273433991189
 20
-38.81349611623644
 10
32.46163098634028
 20
-38.72777584019547
 10
32.46163098634028
 20
-38.62491569450698
 10
32.4273433991189
 20
-38.52205554881815
 10
32.35876822467613
 20
-38.43633527277719
 10
32.25590284703697
 20
-38.40204506958112
 10
32.15304008537315
 20
-38.38489473603227
 10
32.05017470773398
 20
-38.41918493922866
 10
31.98159953329122
 20
-38.47061501207291
 10
31.91302174287376
 20
-38.57348562166272
 10
31.89587925725057
 20
-38.67634576735122
  0
LWPOLYLINE
  5
12B
330
79
100
AcDbEntity
  8
Camada 1
 62
   250
420
  1907995
370
     9
100
AcDbPolyline
 90
       17
 70
     0
 43
0.0
 10
32.41020091349571
 20
-46.25402026214302
 10
32.39305581189751
 20
-46.16829998610206
 10
32.34162312307793
 20
-46.09973004361027
 10
32.27304794863517
 20
-46.0482895068647
 10
32.18732767259452
 20
-46.03114963721717
 10
32.10160739655356
 20
-46.0482895068647
 10
32.03302960613579
 20
-46.09973004361027
 10
31.98159953329122
 20
-46.16829998610206
 10
31.96445443169334
 20
-46.25402026214302
 10
31.98159953329122
 20
-46.33974053818397
 10
32.03302960613579
 20
-46.40832094457709
 10
32.10160739655356
 20
-46.45975101742133
 10
32.18732767259452
 20
-46.47689088706919
 10
32.27304794863517
 20
-46.45975101742133
 10
32.34162312307793
 20
-46.40832094457709
 10
32.39305581189751
 20
-46.33974053818397
 10
32.41020091349571
 20
-46.25402026214302
  0
LWPOLYLINE
  5
12C
330
79
100
AcDbEntity
  8
Camada 1
 62
   250
420
  1907995
370
     9
100
AcDbPolyline
 90
       18
 70
     0
 43
0.0
 10
31.89587925725057
 20
-46.25402026214302
 10
31.91302174287376
 20
-46.35689087173283
 10
31.98159953329122
 20
-46.44261114777348
 10
32.05017470773398
 20
-46.5111810902659
 10
32.15304008537315
 20
-46.52833142381444
 10
32.25590284703697
 20
-46.52833142381444
 10
32.35876822467613
 20
-46.47689088706919
 10
32.4273433991189
 20
-46.39117061102854
 10
32.46163098634028
 20
-46.30545033498759
 10
32.46163098634028
 20
-46.20259018929877
 10
32.4273433991189
 20
-46.09973004361027
 10
32.35876822467613
 20
-46.03114963721717
 10
32.25590284703697
 20
-45.97971956437291
 10
32.15304008537315
 20
-45.96256923082406
 10
32.05017470773398
 20
-45.99685943402045
 10
31.98159953329122
 20
-46.06543984041356
 10
31.91302174287376
 20
-46.15116011645452
 10
31.89587925725057
 20
-46.25402026214302
  0
LWPOLYLINE
  5
12D
330
79
100
AcDbEntity
  8
Camada 1
 62
   250
420
  1907995
370
     9
100
AcDbPolyline
 90
       17
 70
     0
 43
0.0
 10
32.41020091349571
 20
-47.50553419955946
 10
32.39305581189751
 20
-47.43696425706736
 10
32.34162312307793
 20
-47.35124398102671
 10
32.27304794863517
 20
-47.31695377783
 10
32.18732767259452
 20
-47.29981390818214
 10
32.10160739655356
 20
-47.31695377783
 10
32.03302960613579
 20
-47.35124398102671
 10
31.98159953329122
 20
-47.43696425706736
 10
31.96445443169334
 20
-47.50553419955946
 10
31.98159953329122
 20
-47.5912544756001
 10
32.03302960613579
 20
-47.67697475164107
 10
32.10160739655356
 20
-47.71126495483778
 10
32.18732767259452
 20
-47.72841528838664
 10
32.27304794863517
 20
-47.71126495483778
 10
32.34162312307793
 20
-47.67697475164107
 10
32.39305581189751
 20
-47.5912544756001
 10
32.41020091349571
 20
-47.50553419955946
  0
LWPOLYLINE
  5
12E
330
79
100
AcDbEntity
  8
Camada 1
 62
   250
420
  1907995
370
     9
100
AcDbPolyline
 90
       18
 70
     0
 43
0.0
 10
31.89587925725057
 20
-44.98536645507904
 10
31.91302174287376
 20
-45.08822660076754
 10
31.98159953329122
 20
-45.17394687680883
 10
32.05017470773398
 20
-45.24252728320161
 10
32.15304008537315
 20
-45.27680702249732
 10
32.25590284703697
 20
-45.25966715284947
 10
32.35876822467613
 20
-45.2082370800049
 10
32.4273433991189
 20
-45.13965667361211
 10
32.46163098634028
 20
-45.03679652792329
 10
32.46163098634028
 20
-44.93392591833379
 10
32.4273433991189
 20
-44.83106577264497
 10
32.35876822467613
 20
-44.76248536625218
 10
32.25590284703697
 20
-44.71105529340761
 10
32.15304008537315
 20
-44.71105529340761
 10
32.05017470773398
 20
-44.72820562695647
 10
31.98159953329122
 20
-44.7967755694489
 10
31.91302174287376
 20
-44.88249584548954
 10
31.89587925725057
 20
-44.98536645507904
  0
LWPOLYLINE
  5
12F
330
79
100
AcDbEntity
  8
Camada 1
 62
   250
420
  1907995
370
     9
100
AcDbPolyline
 90
       17
 70
     0
 43
0.0
 10
32.41020091349571
 20
-38.67634576735122
 10
32.39305581189751
 20
-38.59062549131058
 10
32.34162312307793
 20
-38.50490521526962
 10
32.27304794863517
 20
-38.47061501207291
 10
32.18732767259452
 20
-38.45347514242537
 10
32.10160739655356
 20
-38.47061501207291
 10
32.03302960613579
 20
-38.50490521526962
 10
31.98159953329122
 20
-38.59062549131058
 10
31.96445443169334
 20
-38.67634576735122
 10
31.98159953329122
 20
-38.74492617374433
 10
32.03302960613579
 20
-38.83064644978529
 10
32.10160739655356
 20
-38.86493665298168
 10
32.18732767259452
 20
-38.88207652262954
 10
32.27304794863517
 20
-38.86493665298168
 10
32.34162312307793
 20
-38.83064644978529
 10
32.39305581189751
 20
-38.74492617374433
 10
32.41020091349571
 20
-38.67634576735122
  0
LWPOLYLINE
  5
130
330
79
100
AcDbEntity
  8
Camada 1
 62
   250
420
  1907995
370
     9
100
AcDbPolyline
 90
       17
 70
     0
 43
0.0
 10
32.41020091349571
 20
-44.98536645507904
 10
32.39305581189751
 20
-44.89964617903807
 10
32.34162312307793
 20
-44.83106577264497
 10
32.27304794863517
 20
-44.77963569980071
 10
32.18732767259452
 20
-44.76248536625218
 10
32.10160739655356
 20
-44.77963569980071
 10
32.03302960613579
 20
-44.83106577264497
 10
31.98159953329122
 20
-44.89964617903807
 10
31.96445443169334
 20
-44.98536645507904
 10
31.98159953329122
 20
-45.07108673111968
 10
32.03302960613579
 20
-45.13965667361211
 10
32.10160739655356
 20
-45.19108674645635
 10
32.18732767259452
 20
-45.2082370800049
 10
32.27304794863517
 20
-45.19108674645635
 10
32.34162312307793
 20
-45.13965667361211
 10
32.39305581189751
 20
-45.07108673111968
 10
32.41020091349571
 20
-44.98536645507904
  0
LWPOLYLINE
  5
131
330
79
100
AcDbEntity
  8
Camada 1
 62
   250
420
  1907995
370
     9
100
AcDbPolyline
 90
       17
 70
     0
 43
0.0
 10
32.41020091349571
 20
-37.40769196028725
 10
32.39305581189751
 20
-37.32197168424629
 10
32.34162312307793
 20
-37.25339127785318
 10
32.27304794863517
 20
-37.20196120500893
 10
32.18732767259452
 20
-37.18481087146007
 10
32.10160739655356
 20
-37.20196120500893
 10
32.03302960613579
 20
-37.25339127785318
 10
31.98159953329122
 20
-37.32197168424629
 10
31.96445443169334
 20
-37.40769196028725
 10
31.98159953329122
 20
-37.49341223632821
 10
32.03302960613579
 20
-37.56198217882
 10
32.10160739655356
 20
-37.61341225166456
 10
32.18732767259452
 20
-37.6305625852131
 10
32.27304794863517
 20
-37.61341225166456
 10
32.34162312307793
 20
-37.56198217882
 10
32.39305581189751
 20
-37.49341223632821
 10
32.41020091349571
 20
-37.40769196028725
  0
LWPOLYLINE
  5
132
330
79
100
AcDbEntity
  8
Camada 1
 62
   250
420
  1907995
370
     9
100
AcDbPolyline
 90
       17
 70
     0
 43
0.0
 10
32.41020091349571
 20
-42.46518824669762
 10
32.39305581189751
 20
-42.37946797065698
 10
32.34162312307793
 20
-42.31088756426387
 10
32.27304794863517
 20
-42.25945749141962
 10
32.18732767259452
 20
-42.24231762177145
 10
32.10160739655356
 20
-42.25945749141962
 10
32.03302960613579
 20
-42.31088756426387
 10
31.98159953329122
 20
-42.37946797065698
 10
31.96445443169334
 20
-42.46518824669762
 10
31.98159953329122
 20
-42.55090852273858
 10
32.03302960613579
 20
-42.61947846523069
 10
32.10160739655356
 20
-42.65376866842708
 10
32.18732767259452
 20
-42.67091900197594
 10
32.27304794863517
 20
-42.65376866842708
 10
32.34162312307793
 20
-42.61947846523069
 10
32.39305581189751
 20
-42.55090852273858
 10
32.41020091349571
 20
-42.46518824669762
  0
LWPOLYLINE
  5
133
330
79
100
AcDbEntity
  8
Camada 1
 62
   250
420
  1907995
370
     9
100
AcDbPolyline
 90
       17
 70
     0
 43
0.0
 10
32.41020091349571
 20
-48.77419847052475
 10
32.39305581189751
 20
-48.68847819448379
 10
32.34162312307793
 20
-48.61989778809069
 10
32.27304794863517
 20
-48.56846771524644
 10
32.18732767259452
 20
-48.55132784559827
 10
32.10160739655356
 20
-48.56846771524644
 10
32.03302960613579
 20
-48.61989778809069
 10
31.98159953329122
 20
-48.68847819448379
 10
31.96445443169334
 20
-48.77419847052475
 10
31.98159953329122
 20
-48.8599187465654
 10
32.03302960613579
 20
-48.92849915295819
 10
32.10160739655356
 20
-48.97992922580275
 10
32.18732767259452
 20
-48.99706909545061
 10
32.27304794863517
 20
-48.97992922580275
 10
32.34162312307793
 20
-48.92849915295819
 10
32.39305581189751
 20
-48.8599187465654
 10
32.41020091349571
 20
-48.77419847052475
  0
LWPOLYLINE
  5
134
330
79
100
AcDbEntity
  8
Camada 1
 62
   250
420
  1907995
370
     9
100
AcDbPolyline
 90
       18
 70
     0
 43
0.0
 10
31.89587925725057
 20
-48.77419847052475
 10
31.91302174287376
 20
-48.87705861621326
 10
31.98159953329122
 20
-48.9627788922539
 10
32.05017470773398
 20
-49.031359298647
 10
32.15304008537315
 20
-49.06564950184372
 10
32.25590284703697
 20
-49.04849916829486
 10
32.35876822467613
 20
-48.99706909545061
 10
32.4273433991189
 20
-48.92849915295819
 10
32.46163098634028
 20
-48.825628543369
 10
32.46163098634028
 20
-48.72276839768019
 10
32.4273433991189
 20
-48.61989778809069
 10
32.35876822467613
 20
-48.55132784559827
 10
32.25590284703697
 20
-48.49989777275402
 10
32.15304008537315
 20
-48.49989777275402
 10
32.05017470773398
 20
-48.5170376424022
 10
31.98159953329122
 20
-48.58561804879498
 10
31.91302174287376
 20
-48.67133832483562
 10
31.89587925725057
 20
-48.77419847052475
  0
LWPOLYLINE
  5
135
330
79
100
AcDbEntity
  8
Camada 1
 62
   250
420
  1907995
370
     9
100
AcDbPolyline
 90
       17
 70
     0
 43
0.0
 10
33.93602078063292
 20
-36.13902768932195
 10
33.91887567903439
 20
-36.0533074132813
 10
33.86744560619014
 20
-35.9847270068882
 10
33.79886781577269
 20
-35.93329693404363
 10
33.71314753973173
 20
-35.9161570643961
 10
33.62742726369077
 20
-35.93329693404363
 10
33.55885208924832
 20
-35.9847270068882
 10
33.50741940042875
 20
-36.0533074132813
 10
33.49027429883022
 20
-36.13902768932195
 10
33.50741940042875
 20
-36.22474796536291
 10
33.55885208924832
 20
-36.29332837175602
 10
33.62742726369077
 20
-36.34475844460027
 10
33.71314753973173
 20
-36.36189831424812
 10
33.79886781577269
 20
-36.34475844460027
 10
33.86744560619014
 20
-36.29332837175602
 10
33.91887567903439
 20
-36.22474796536291
 10
33.93602078063292
 20
-36.13902768932195
  0
LWPOLYLINE
  5
136
330
79
100
AcDbEntity
  8
Camada 1
 62
   250
420
  1907995
370
     9
100
AcDbPolyline
 90
       18
 70
     0
 43
0.0
 10
33.43884422598597
 20
-36.13902768932195
 10
33.45598671160884
 20
-36.24188783501077
 10
33.50741940042875
 20
-36.32760811105173
 10
33.59313967646939
 20
-36.39618851744483
 10
33.69600505410854
 20
-36.43047872064123
 10
33.79886781577269
 20
-36.41332838709269
 10
33.88458809181333
 20
-36.36189831424812
 10
33.95316588223111
 20
-36.29332837175602
 10
33.98745346945249
 20
-36.19045776216652
 10
33.98745346945249
 20
-36.0875976164777
 10
33.95316588223111
 20
-35.9847270068882
 10
33.88458809181333
 20
-35.9161570643961
 10
33.79886781577269
 20
-35.86472699155184
 10
33.69600505410854
 20
-35.86472699155184
 10
33.59313967646939
 20
-35.88186686119938
 10
33.50741940042875
 20
-35.95044726759249
 10
33.45598671160884
 20
-36.03616754363345
 10
33.43884422598597
 20
-36.13902768932195
  0
LWPOLYLINE
  5
137
330
79
100
AcDbEntity
  8
Camada 1
 62
   250
420
  1907995
370
     9
100
AcDbPolyline
 90
       17
 70
     0
 43
0.0
 10
33.93602078063292
 20
-48.77419847052475
 10
33.91887567903439
 20
-48.68847819448379
 10
33.86744560619014
 20
-48.61989778809069
 10
33.79886781577269
 20
-48.56846771524644
 10
33.71314753973173
 20
-48.55132784559827
 10
33.62742726369077
 20
-48.56846771524644
 10
33.55885208924832
 20
-48.61989778809069
 10
33.50741940042875
 20
-48.68847819448379
 10
33.49027429883022
 20
-48.77419847052475
 10
33.50741940042875
 20
-48.8599187465654
 10
33.55885208924832
 20
-48.92849915295819
 10
33.62742726369077
 20
-48.97992922580275
 10
33.71314753973173
 20
-48.99706909545061
 10
33.79886781577269
 20
-48.97992922580275
 10
33.86744560619014
 20
-48.92849915295819
 10
33.91887567903439
 20
-48.8599187465654
 10
33.93602078063292
 20
-48.77419847052475
  0
LWPOLYLINE
  5
138
330
79
100
AcDbEntity
  8
Camada 1
 62
   250
420
  1907995
370
     9
100
AcDbPolyline
 90
       18
 70
     0
 43
0.0
 10
33.43884422598597
 20
-48.77419847052475
 10
33.45598671160884
 20
-48.87705861621326
 10
33.50741940042875
 20
-48.9627788922539
 10
33.59313967646939
 20
-49.031359298647
 10
33.69600505410854
 20
-49.06564950184372
 10
33.79886781577269
 20
-49.04849916829486
 10
33.88458809181333
 20
-48.99706909545061
 10
33.95316588223111
 20
-48.92849915295819
 10
33.98745346945249
 20
-48.825628543369
 10
33.98745346945249
 20
-48.72276839768019
 10
33.95316588223111
 20
-48.61989778809069
 10
33.88458809181333
 20
-48.55132784559827
 10
33.79886781577269
 20
-48.49989777275402
 10
33.69600505410854
 20
-48.49989777275402
 10
33.59313967646939
 20
-48.5170376424022
 10
33.50741940042875
 20
-48.58561804879498
 10
33.45598671160884
 20
-48.67133832483562
 10
33.43884422598597
 20
-48.77419847052475
  0
LWPOLYLINE
  5
139
330
79
100
AcDbEntity
  8
Camada 1
 62
   250
420
  1907995
370
     9
100
AcDbPolyline
 90
       17
 70
     0
 43
0.0
 10
33.93602078063292
 20
-47.50553419955946
 10
33.91887567903439
 20
-47.43696425706736
 10
33.86744560619014
 20
-47.35124398102671
 10
33.79886781577269
 20
-47.31695377783
 10
33.71314753973173
 20
-47.29981390818214
 10
33.62742726369077
 20
-47.31695377783
 10
33.55885208924832
 20
-47.35124398102671
 10
33.50741940042875
 20
-47.43696425706736
 10
33.49027429883022
 20
-47.50553419955946
 10
33.50741940042875
 20
-47.5912544756001
 10
33.55885208924832
 20
-47.67697475164107
 10
33.62742726369077
 20
-47.71126495483778
 10
33.71314753973173
 20
-47.72841528838664
 10
33.79886781577269
 20
-47.71126495483778
 10
33.86744560619014
 20
-47.67697475164107
 10
33.91887567903439
 20
-47.5912544756001
 10
33.93602078063292
 20
-47.50553419955946
  0
LWPOLYLINE
  5
13A
330
79
100
AcDbEntity
  8
Camada 1
 62
   250
420
  1907995
370
     9
100
AcDbPolyline
 90
       18
 70
     0
 43
0.0
 10
33.43884422598597
 20
-47.50553419955946
 10
33.45598671160884
 20
-47.60840480914896
 10
33.50741940042875
 20
-47.71126495483778
 10
33.59313967646939
 20
-47.76269502768203
 10
33.69600505410854
 20
-47.79698523087842
 10
33.79886781577269
 20
-47.77984536123088
 10
33.88458809181333
 20
-47.74555515803417
 10
33.95316588223111
 20
-47.65983488199321
 10
33.98745346945249
 20
-47.57411460595256
 10
33.98745346945249
 20
-47.45410412671521
 10
33.95316588223111
 20
-47.36838385067424
 10
33.88458809181333
 20
-47.2826635746336
 10
33.79886781577269
 20
-47.24837337143689
 10
33.69600505410854
 20
-47.23123350178904
 10
33.59313967646939
 20
-47.26552370498575
 10
33.50741940042875
 20
-47.31695377783
 10
33.45598671160884
 20
-47.40267405387096
 10
33.43884422598597
 20
-47.50553419955946
  0
LWPOLYLINE
  5
13B
330
79
100
AcDbEntity
  8
Camada 1
 62
   250
420
  1907995
370
     9
100
AcDbPolyline
 90
       18
 70
     0
 43
0.0
 10
33.43884422598597
 20
-43.71670218411406
 10
33.45598671160884
 20
-43.81956232980257
 10
33.50741940042875
 20
-43.92243293939237
 10
33.59313967646939
 20
-43.97386301223662
 10
33.69600505410854
 20
-44.00815321543302
 10
33.79886781577269
 20
-43.99100288188416
 10
33.88458809181333
 20
-43.95672314258876
 10
33.95316588223111
 20
-43.87100286654781
 10
33.98745346945249
 20
-43.76813225695831
 10
33.98745346945249
 20
-43.66527211126949
 10
33.95316588223111
 20
-43.57955183522853
 10
33.88458809181333
 20
-43.49383155918789
 10
33.79886781577269
 20
-43.44240148634364
 10
33.69600505410854
 20
-43.44240148634364
 10
33.59313967646939
 20
-43.47668122563935
 10
33.50741940042875
 20
-43.52812176238428
 10
33.45598671160884
 20
-43.61384203842525
 10
33.43884422598597
 20
-43.71670218411406
  0
LWPOLYLINE
  5
13C
330
79
100
AcDbEntity
  8
Camada 1
 62
   250
420
  1907995
370
     9
100
AcDbPolyline
 90
       17
 70
     0
 43
0.0
 10
33.93602078063292
 20
-41.19652397573264
 10
33.91887567903439
 20
-41.11080369969168
 10
33.86744560619014
 20
-41.04223375719957
 10
33.79886781577269
 20
-40.99079322045432
 10
33.71314753973173
 20
-40.97365335080647
 10
33.62742726369077
 20
-40.99079322045432
 10
33.55885208924832
 20
-41.04223375719957
 10
33.50741940042875
 20
-41.11080369969168
 10
33.49027429883022
 20
-41.19652397573264
 10
33.50741940042875
 20
-41.28224425177328
 10
33.55885208924832
 20
-41.35082465816639
 10
33.62742726369077
 20
-41.40225473101064
 10
33.71314753973173
 20
-41.41939460065882
 10
33.79886781577269
 20
-41.40225473101064
 10
33.86744560619014
 20
-41.35082465816639
 10
33.91887567903439
 20
-41.28224425177328
 10
33.93602078063292
 20
-41.19652397573264
  0
LWPOLYLINE
  5
13D
330
79
100
AcDbEntity
  8
Camada 1
 62
   250
420
  1907995
370
     9
100
AcDbPolyline
 90
       18
 70
     0
 43
0.0
 10
33.43884422598597
 20
-41.19652397573264
 10
33.45598671160884
 20
-41.29939458532214
 10
33.50741940042875
 20
-41.38511486136311
 10
33.59313967646939
 20
-41.45368480385521
 10
33.69600505410854
 20
-41.47083513740406
 10
33.79886781577269
 20
-41.47083513740406
 10
33.88458809181333
 20
-41.41939460065882
 10
33.95316588223111
 20
-41.35082465816639
 10
33.98745346945249
 20
-41.24795404857721
 10
33.98745346945249
 20
-41.1450939028884
 10
33.95316588223111
 20
-41.04223375719957
 10
33.88458809181333
 20
-40.97365335080647
 10
33.79886781577269
 20
-40.92222327796221
 10
33.69600505410854
 20
-40.90507294441336
 10
33.59313967646939
 20
-40.93936314761007
 10
33.50741940042875
 20
-41.00794355400318
 10
33.45598671160884
 20
-41.09366383004414
 10
33.43884422598597
 20
-41.19652397573264
  0
LWPOLYLINE
  5
13E
330
79
100
AcDbEntity
  8
Camada 1
 62
   250
420
  1907995
370
     9
100
AcDbPolyline
 90
       18
 70
     0
 43
0.0
 10
33.43884422598597
 20
-42.46518824669762
 10
33.45598671160884
 20
-42.56804839238644
 10
33.50741940042875
 20
-42.65376866842708
 10
33.59313967646939
 20
-42.70519874127133
 10
33.69600505410854
 20
-42.73948894446804
 10
33.79886781577269
 20
-42.73948894446804
 10
33.88458809181333
 20
-42.68805887162379
 10
33.95316588223111
 20
-42.60233859558283
 10
33.98745346945249
 20
-42.51661831954186
 10
33.98745346945249
 20
-42.41375817385337
 10
33.95316588223111
 20
-42.31088756426387
 10
33.88458809181333
 20
-42.22516728822291
 10
33.79886781577269
 20
-42.19087708502652
 10
33.69600505410854
 20
-42.17373721537867
 10
33.59313967646939
 20
-42.20802741857506
 10
33.50741940042875
 20
-42.25945749141962
 10
33.45598671160884
 20
-42.36231763710812
 10
33.43884422598597
 20
-42.46518824669762
  0
LWPOLYLINE
  5
13F
330
79
100
AcDbEntity
  8
Camada 1
 62
   250
420
  1907995
370
     9
100
AcDbPolyline
 90
       17
 70
     0
 43
0.0
 10
33.93602078063292
 20
-43.71670218411406
 10
33.91887567903439
 20
-43.6309819080731
 10
33.86744560619014
 20
-43.56240150167999
 10
33.79886781577269
 20
-43.52812176238428
 10
33.71314753973173
 20
-43.51097142883574
 10
33.62742726369077
 20
-43.52812176238428
 10
33.55885208924832
 20
-43.56240150167999
 10
33.50741940042875
 20
-43.6309819080731
 10
33.49027429883022
 20
-43.71670218411406
 10
33.50741940042875
 20
-43.80242246015503
 10
33.55885208924832
 20
-43.87100286654781
 10
33.62742726369077
 20
-43.92243293939237
 10
33.71314753973173
 20
-43.93957280903991
 10
33.79886781577269
 20
-43.92243293939237
 10
33.86744560619014
 20
-43.87100286654781
 10
33.91887567903439
 20
-43.80242246015503
 10
33.93602078063292
 20
-43.71670218411406
  0
LWPOLYLINE
  5
140
330
79
100
AcDbEntity
  8
Camada 1
 62
   250
420
  1907995
370
     9
100
AcDbPolyline
 90
       17
 70
     0
 43
0.0
 10
33.93602078063292
 20
-38.67634576735122
 10
33.91887567903439
 20
-38.59062549131058
 10
33.86744560619014
 20
-38.50490521526962
 10
33.79886781577269
 20
-38.47061501207291
 10
33.71314753973173
 20
-38.45347514242537
 10
33.62742726369077
 20
-38.47061501207291
 10
33.55885208924832
 20
-38.50490521526962
 10
33.50741940042875
 20
-38.59062549131058
 10
33.49027429883022
 20
-38.67634576735122
 10
33.50741940042875
 20
-38.74492617374433
 10
33.55885208924832
 20
-38.83064644978529
 10
33.62742726369077
 20
-38.86493665298168
 10
33.71314753973173
 20
-38.88207652262954
 10
33.79886781577269
 20
-38.86493665298168
 10
33.86744560619014
 20
-38.83064644978529
 10
33.91887567903439
 20
-38.74492617374433
 10
33.93602078063292
 20
-38.67634576735122
  0
LWPOLYLINE
  5
141
330
79
100
AcDbEntity
  8
Camada 1
 62
   250
420
  1907995
370
     9
100
AcDbPolyline
 90
       18
 70
     0
 43
0.0
 10
33.43884422598597
 20
-38.67634576735122
 10
33.45598671160884
 20
-38.77921637694104
 10
33.50741940042875
 20
-38.86493665298168
 10
33.59313967646939
 20
-38.91636672582593
 10
33.69600505410854
 20
-38.95065692902265
 10
33.79886781577269
 20
-38.93350659547379
 10
33.88458809181333
 20
-38.8992163922774
 10
33.95316588223111
 20
-38.81349611623644
 10
33.98745346945249
 20
-38.72777584019547
 10
33.98745346945249
 20
-38.62491569450698
 10
33.95316588223111
 20
-38.52205554881815
 10
33.88458809181333
 20
-38.43633527277719
 10
33.79886781577269
 20
-38.40204506958112
 10
33.69600505410854
 20
-38.38489473603227
 10
33.59313967646939
 20
-38.41918493922866
 10
33.50741940042875
 20
-38.47061501207291
 10
33.45598671160884
 20
-38.57348562166272
 10
33.43884422598597
 20
-38.67634576735122
  0
LWPOLYLINE
  5
142
330
79
100
AcDbEntity
  8
Camada 1
 62
   250
420
  1907995
370
     9
100
AcDbPolyline
 90
       17
 70
     0
 43
0.0
 10
33.93602078063292
 20
-42.46518824669762
 10
33.91887567903439
 20
-42.37946797065698
 10
33.86744560619014
 20
-42.31088756426387
 10
33.79886781577269
 20
-42.25945749141962
 10
33.71314753973173
 20
-42.24231762177145
 10
33.62742726369077
 20
-42.25945749141962
 10
33.55885208924832
 20
-42.31088756426387
 10
33.50741940042875
 20
-42.37946797065698
 10
33.49027429883022
 20
-42.46518824669762
 10
33.50741940042875
 20
-42.55090852273858
 10
33.55885208924832
 20
-42.61947846523069
 10
33.62742726369077
 20
-42.65376866842708
 10
33.71314753973173
 20
-42.67091900197594
 10
33.79886781577269
 20
-42.65376866842708
 10
33.86744560619014
 20
-42.61947846523069
 10
33.91887567903439
 20
-42.55090852273858
 10
33.93602078063292
 20
-42.46518824669762
  0
LWPOLYLINE
  5
143
330
79
100
AcDbEntity
  8
Camada 1
 62
   250
420
  1907995
370
     9
100
AcDbPolyline
 90
       17
 70
     0
 43
0.0
 10
33.93602078063292
 20
-39.92787016866834
 10
33.91887567903439
 20
-39.8421498926277
 10
33.86744560619014
 20
-39.7735694862346
 10
33.79886781577269
 20
-39.72213941339035
 10
33.71314753973173
 20
-39.70498907984181
 10
33.62742726369077
 20
-39.72213941339035
 10
33.55885208924832
 20
-39.7735694862346
 10
33.50741940042875
 20
-39.8421498926277
 10
33.49027429883022
 20
-39.92787016866834
 10
33.50741940042875
 20
-40.0135904447093
 10
33.55885208924832
 20
-40.08216038720173
 10
33.62742726369077
 20
-40.13359046004597
 10
33.71314753973173
 20
-40.15074079359452
 10
33.79886781577269
 20
-40.13359046004597
 10
33.86744560619014
 20
-40.08216038720173
 10
33.91887567903439
 20
-40.0135904447093
 10
33.93602078063292
 20
-39.92787016866834
  0
LWPOLYLINE
  5
144
330
79
100
AcDbEntity
  8
Camada 1
 62
   250
420
  1907995
370
     9
100
AcDbPolyline
 90
       18
 70
     0
 43
0.0
 10
33.43884422598597
 20
-39.92787016866834
 10
33.45598671160884
 20
-40.03073031435716
 10
33.50741940042875
 20
-40.11645059039812
 10
33.59313967646939
 20
-40.18503099679091
 10
33.69600505410854
 20
-40.21931073608662
 10
33.79886781577269
 20
-40.20217086643909
 10
33.88458809181333
 20
-40.15074079359452
 10
33.95316588223111
 20
-40.08216038720173
 10
33.98745346945249
 20
-39.97930024151292
 10
33.98745346945249
 20
-39.87642963192342
 10
33.95316588223111
 20
-39.79070935588246
 10
33.88458809181333
 20
-39.70498907984181
 10
33.79886781577269
 20
-39.65355900699724
 10
33.69600505410854
 20
-39.65355900699724
 10
33.59313967646939
 20
-39.6707093405461
 10
33.50741940042875
 20
-39.73927928303821
 10
33.45598671160884
 20
-39.82499955907917
 10
33.43884422598597
 20
-39.92787016866834
  0
LWPOLYLINE
  5
145
330
79
100
AcDbEntity
  8
Camada 1
 62
   250
420
  1907995
370
     9
100
AcDbPolyline
 90
       17
 70
     0
 43
0.0
 10
33.93602078063292
 20
-46.25402026214302
 10
33.91887567903439
 20
-46.16829998610206
 10
33.86744560619014
 20
-46.09973004361027
 10
33.79886781577269
 20
-46.0482895068647
 10
33.71314753973173
 20
-46.03114963721717
 10
33.62742726369077
 20
-46.0482895068647
 10
33.55885208924832
 20
-46.09973004361027
 10
33.50741940042875
 20
-46.16829998610206
 10
33.49027429883022
 20
-46.25402026214302
 10
33.50741940042875
 20
-46.33974053818397
 10
33.55885208924832
 20
-46.40832094457709
 10
33.62742726369077
 20
-46.45975101742133
 10
33.71314753973173
 20
-46.47689088706919
 10
33.79886781577269
 20
-46.45975101742133
 10
33.86744560619014
 20
-46.40832094457709
 10
33.91887567903439
 20
-46.33974053818397
 10
33.93602078063292
 20
-46.25402026214302
  0
LWPOLYLINE
  5
146
330
79
100
AcDbEntity
  8
Camada 1
 62
   250
420
  1907995
370
     9
100
AcDbPolyline
 90
       18
 70
     0
 43
0.0
 10
33.43884422598597
 20
-46.25402026214302
 10
33.45598671160884
 20
-46.35689087173283
 10
33.50741940042875
 20
-46.44261114777348
 10
33.59313967646939
 20
-46.5111810902659
 10
33.69600505410854
 20
-46.52833142381444
 10
33.79886781577269
 20
-46.52833142381444
 10
33.88458809181333
 20
-46.47689088706919
 10
33.95316588223111
 20
-46.39117061102854
 10
33.98745346945249
 20
-46.30545033498759
 10
33.98745346945249
 20
-46.20259018929877
 10
33.95316588223111
 20
-46.09973004361027
 10
33.88458809181333
 20
-46.03114963721717
 10
33.79886781577269
 20
-45.97971956437291
 10
33.69600505410854
 20
-45.96256923082406
 10
33.59313967646939
 20
-45.99685943402045
 10
33.50741940042875
 20
-46.06543984041356
 10
33.45598671160884
 20
-46.15116011645452
 10
33.43884422598597
 20
-46.25402026214302
  0
LWPOLYLINE
  5
147
330
79
100
AcDbEntity
  8
Camada 1
 62
   250
420
  1907995
370
     9
100
AcDbPolyline
 90
       17
 70
     0
 43
0.0
 10
33.93602078063292
 20
-37.40769196028725
 10
33.91887567903439
 20
-37.32197168424629
 10
33.86744560619014
 20
-37.25339127785318
 10
33.79886781577269
 20
-37.20196120500893
 10
33.71314753973173
 20
-37.18481087146007
 10
33.62742726369077
 20
-37.20196120500893
 10
33.55885208924832
 20
-37.25339127785318
 10
33.50741940042875
 20
-37.32197168424629
 10
33.49027429883022
 20
-37.40769196028725
 10
33.50741940042875
 20
-37.49341223632821
 10
33.55885208924832
 20
-37.56198217882
 10
33.62742726369077
 20
-37.61341225166456
 10
33.71314753973173
 20
-37.6305625852131
 10
33.79886781577269
 20
-37.61341225166456
 10
33.86744560619014
 20
-37.56198217882
 10
33.91887567903439
 20
-37.49341223632821
 10
33.93602078063292
 20
-37.40769196028725
  0
LWPOLYLINE
  5
148
330
79
100
AcDbEntity
  8
Camada 1
 62
   250
420
  1907995
370
     9
100
AcDbPolyline
 90
       18
 70
     0
 43
0.0
 10
33.43884422598597
 20
-37.40769196028725
 10
33.45598671160884
 20
-37.51055210597574
 10
33.50741940042875
 20
-37.59627238201671
 10
33.59313967646939
 20
-37.66485278840981
 10
33.69600505410854
 20
-37.68199265805735
 10
33.79886781577269
 20
-37.68199265805735
 10
33.88458809181333
 20
-37.6305625852131
 10
33.95316588223111
 20
-37.56198217882
 10
33.98745346945249
 20
-37.4591220331315
 10
33.98745346945249
 20
-37.35625142354168
 10
33.95316588223111
 20
-37.25339127785318
 10
33.88458809181333
 20
-37.18481087146007
 10
33.79886781577269
 20
-37.13338079861582
 10
33.69600505410854
 20
-37.11624092896829
 10
33.59313967646939
 20
-37.15053113216468
 10
33.50741940042875
 20
-37.21910107465678
 10
33.45598671160884
 20
-37.30482135069742
 10
33.43884422598597
 20
-37.40769196028725
  0
LWPOLYLINE
  5
149
330
79
100
AcDbEntity
  8
Camada 1
 62
   250
420
  1907995
370
     9
100
AcDbPolyline
 90
       17
 70
     0
 43
0.0
 10
33.93602078063292
 20
-44.98536645507904
 10
33.91887567903439
 20
-44.89964617903807
 10
33.86744560619014
 20
-44.83106577264497
 10
33.79886781577269
 20
-44.77963569980071
 10
33.71314753973173
 20
-44.76248536625218
 10
33.62742726369077
 20
-44.77963569980071
 10
33.55885208924832
 20
-44.83106577264497
 10
33.50741940042875
 20
-44.89964617903807
 10
33.49027429883022
 20
-44.98536645507904
 10
33.50741940042875
 20
-45.07108673111968
 10
33.55885208924832
 20
-45.13965667361211
 10
33.62742726369077
 20
-45.19108674645635
 10
33.71314753973173
 20
-45.2082370800049
 10
33.79886781577269
 20
-45.19108674645635
 10
33.86744560619014
 20
-45.13965667361211
 10
33.91887567903439
 20
-45.07108673111968
 10
33.93602078063292
 20
-44.98536645507904
  0
LWPOLYLINE
  5
14A
330
79
100
AcDbEntity
  8
Camada 1
 62
   250
420
  1907995
370
     9
100
AcDbPolyline
 90
       18
 70
     0
 43
0.0
 10
33.43884422598597
 20
-44.98536645507904
 10
33.45598671160884
 20
-45.08822660076754
 10
33.50741940042875
 20
-45.17394687680883
 10
33.59313967646939
 20
-45.24252728320161
 10
33.69600505410854
 20
-45.27680702249732
 10
33.79886781577269
 20
-45.25966715284947
 10
33.88458809181333
 20
-45.2082370800049
 10
33.95316588223111
 20
-45.13965667361211
 10
33.98745346945249
 20
-45.03679652792329
 10
33.98745346945249
 20
-44.93392591833379
 10
33.95316588223111
 20
-44.83106577264497
 10
33.88458809181333
 20
-44.76248536625218
 10
33.79886781577269
 20
-44.71105529340761
 10
33.69600505410854
 20
-44.71105529340761
 10
33.59313967646939
 20
-44.72820562695647
 10
33.50741940042875
 20
-44.7967755694489
 10
33.45598671160884
 20
-44.88249584548954
 10
33.43884422598597
 20
-44.98536645507904
  0
LWPOLYLINE
  5
14B
330
79
100
AcDbEntity
  8
Camada 1
 62
   250
420
  1907995
370
     9
100
AcDbPolyline
 90
       18
 70
     0
 43
0.0
 10
34.96466409312319
 20
-42.46518824669762
 10
34.98180919472138
 20
-42.56804839238644
 10
35.03323926756563
 20
-42.65376866842708
 10
35.11895954360659
 20
-42.70519874127133
 10
35.22182492124575
 20
-42.73948894446804
 10
35.32469029888491
 20
-42.73948894446804
 10
35.41041057492555
 20
-42.68805887162379
 10
35.49613085096651
 20
-42.60233859558283
 10
35.53041843818789
 20
-42.51661831954186
 10
35.53041843818789
 20
-42.41375817385337
 10
35.49613085096651
 20
-42.31088756426387
 10
35.41041057492555
 20
-42.22516728822291
 10
35.32469029888491
 20
-42.19087708502652
 10
35.22182492124575
 20
-42.17373721537867
 10
35.11895954360659
 20
-42.20802741857506
 10
35.03323926756563
 20
-42.25945749141962
 10
34.98180919472138
 20
-42.36231763710812
 10
34.96466409312319
 20
-42.46518824669762
  0
LWPOLYLINE
  5
14C
330
79
100
AcDbEntity
  8
Camada 1
 62
   250
420
  1907995
370
     9
100
AcDbPolyline
 90
       17
 70
     0
 43
0.0
 10
35.4618406477698
 20
-41.19652397573264
 10
35.44469816214693
 20
-41.11080369969168
 10
35.41041057492555
 20
-41.04223375719957
 10
35.32469029888491
 20
-40.99079322045432
 10
35.23897002284395
 20
-40.97365335080647
 10
35.17039223242617
 20
-40.99079322045432
 10
35.08467195638521
 20
-41.04223375719957
 10
35.05038436916414
 20
-41.11080369969168
 10
35.03323926756563
 20
-41.19652397573264
 10
35.05038436916414
 20
-41.28224425177328
 10
35.08467195638521
 20
-41.35082465816639
 10
35.17039223242617
 20
-41.40225473101064
 10
35.23897002284395
 20
-41.41939460065882
 10
35.32469029888491
 20
-41.40225473101064
 10
35.41041057492555
 20
-41.35082465816639
 10
35.44469816214693
 20
-41.28224425177328
 10
35.4618406477698
 20
-41.19652397573264
  0
LWPOLYLINE
  5
14D
330
79
100
AcDbEntity
  8
Camada 1
 62
   250
420
  1907995
370
     9
100
AcDbPolyline
 90
       18
 70
     0
 43
0.0
 10
34.96466409312319
 20
-41.19652397573264
 10
34.98180919472138
 20
-41.29939458532214
 10
35.03323926756563
 20
-41.38511486136311
 10
35.11895954360659
 20
-41.45368480385521
 10
35.22182492124575
 20
-41.47083513740406
 10
35.32469029888491
 20
-41.47083513740406
 10
35.41041057492555
 20
-41.41939460065882
 10
35.49613085096651
 20
-41.35082465816639
 10
35.53041843818789
 20
-41.24795404857721
 10
35.53041843818789
 20
-41.1450939028884
 10
35.49613085096651
 20
-41.04223375719957
 10
35.41041057492555
 20
-40.97365335080647
 10
35.32469029888491
 20
-40.92222327796221
 10
35.22182492124575
 20
-40.90507294441336
 10
35.11895954360659
 20
-40.93936314761007
 10
35.03323926756563
 20
-41.00794355400318
 10
34.98180919472138
 20
-41.09366383004414
 10
34.96466409312319
 20
-41.19652397573264
  0
LWPOLYLINE
  5
14E
330
79
100
AcDbEntity
  8
Camada 1
 62
   250
420
  1907995
370
     9
100
AcDbPolyline
 90
       17
 70
     0
 43
0.0
 10
35.4618406477698
 20
-42.46518824669762
 10
35.44469816214693
 20
-42.37946797065698
 10
35.41041057492555
 20
-42.31088756426387
 10
35.32469029888491
 20
-42.25945749141962
 10
35.23897002284395
 20
-42.24231762177145
 10
35.17039223242617
 20
-42.25945749141962
 10
35.08467195638521
 20
-42.31088756426387
 10
35.05038436916414
 20
-42.37946797065698
 10
35.03323926756563
 20
-42.46518824669762
 10
35.05038436916414
 20
-42.55090852273858
 10
35.08467195638521
 20
-42.61947846523069
 10
35.17039223242617
 20
-42.65376866842708
 10
35.23897002284395
 20
-42.67091900197594
 10
35.32469029888491
 20
-42.65376866842708
 10
35.41041057492555
 20
-42.61947846523069
 10
35.44469816214693
 20
-42.55090852273858
 10
35.4618406477698
 20
-42.46518824669762
  0
LWPOLYLINE
  5
14F
330
79
100
AcDbEntity
  8
Camada 1
 62
   250
420
  1907995
370
     9
100
AcDbPolyline
 90
       18
 70
     0
 43
0.0
 10
34.96466409312319
 20
-36.13902768932195
 10
34.98180919472138
 20
-36.24188783501077
 10
35.03323926756563
 20
-36.32760811105173
 10
35.11895954360659
 20
-36.39618851744483
 10
35.22182492124575
 20
-36.43047872064123
 10
35.32469029888491
 20
-36.41332838709269
 10
35.41041057492555
 20
-36.36189831424812
 10
35.49613085096651
 20
-36.29332837175602
 10
35.53041843818789
 20
-36.19045776216652
 10
35.53041843818789
 20
-36.0875976164777
 10
35.49613085096651
 20
-35.9847270068882
 10
35.41041057492555
 20
-35.9161570643961
 10
35.32469029888491
 20
-35.86472699155184
 10
35.22182492124575
 20
-35.86472699155184
 10
35.11895954360659
 20
-35.88186686119938
 10
35.03323926756563
 20
-35.95044726759249
 10
34.98180919472138
 20
-36.03616754363345
 10
34.96466409312319
 20
-36.13902768932195
  0
LWPOLYLINE
  5
150
330
79
100
AcDbEntity
  8
Camada 1
 62
   250
420
  1907995
370
     9
100
AcDbPolyline
 90
       18
 70
     0
 43
0.0
 10
34.96466409312319
 20
-48.77419847052475
 10
34.98180919472138
 20
-48.87705861621326
 10
35.03323926756563
 20
-48.9627788922539
 10
35.11895954360659
 20
-49.031359298647
 10
35.22182492124575
 20
-49.06564950184372
 10
35.32469029888491
 20
-49.04849916829486
 10
35.41041057492555
 20
-48.99706909545061
 10
35.49613085096651
 20
-48.92849915295819
 10
35.53041843818789
 20
-48.825628543369
 10
35.53041843818789
 20
-48.72276839768019
 10
35.49613085096651
 20
-48.61989778809069
 10
35.41041057492555
 20
-48.55132784559827
 10
35.32469029888491
 20
-48.49989777275402
 10
35.22182492124575
 20
-48.49989777275402
 10
35.11895954360659
 20
-48.5170376424022
 10
35.03323926756563
 20
-48.58561804879498
 10
34.98180919472138
 20
-48.67133832483562
 10
34.96466409312319
 20
-48.77419847052475
  0
LWPOLYLINE
  5
151
330
79
100
AcDbEntity
  8
Camada 1
 62
   250
420
  1907995
370
     9
100
AcDbPolyline
 90
       18
 70
     0
 43
0.0
 10
34.96466409312319
 20
-47.50553419955946
 10
34.98180919472138
 20
-47.60840480914896
 10
35.03323926756563
 20
-47.71126495483778
 10
35.11895954360659
 20
-47.76269502768203
 10
35.22182492124575
 20
-47.79698523087842
 10
35.32469029888491
 20
-47.77984536123088
 10
35.41041057492555
 20
-47.74555515803417
 10
35.49613085096651
 20
-47.65983488199321
 10
35.53041843818789
 20
-47.57411460595256
 10
35.53041843818789
 20
-47.45410412671521
 10
35.49613085096651
 20
-47.36838385067424
 10
35.41041057492555
 20
-47.2826635746336
 10
35.32469029888491
 20
-47.24837337143689
 10
35.22182492124575
 20
-47.23123350178904
 10
35.11895954360659
 20
-47.26552370498575
 10
35.03323926756563
 20
-47.31695377783
 10
34.98180919472138
 20
-47.40267405387096
 10
34.96466409312319
 20
-47.50553419955946
  0
LWPOLYLINE
  5
152
330
79
100
AcDbEntity
  8
Camada 1
 62
   250
420
  1907995
370
     9
100
AcDbPolyline
 90
       17
 70
     0
 43
0.0
 10
35.4618406477698
 20
-39.92787016866834
 10
35.44469816214693
 20
-39.8421498926277
 10
35.41041057492555
 20
-39.7735694862346
 10
35.32469029888491
 20
-39.72213941339035
 10
35.23897002284395
 20
-39.70498907984181
 10
35.17039223242617
 20
-39.72213941339035
 10
35.08467195638521
 20
-39.7735694862346
 10
35.05038436916414
 20
-39.8421498926277
 10
35.03323926756563
 20
-39.92787016866834
 10
35.05038436916414
 20
-40.0135904447093
 10
35.08467195638521
 20
-40.08216038720173
 10
35.17039223242617
 20
-40.13359046004597
 10
35.23897002284395
 20
-40.15074079359452
 10
35.32469029888491
 20
-40.13359046004597
 10
35.41041057492555
 20
-40.08216038720173
 10
35.44469816214693
 20
-40.0135904447093
 10
35.4618406477698
 20
-39.92787016866834
  0
LWPOLYLINE
  5
153
330
79
100
AcDbEntity
  8
Camada 1
 62
   250
420
  1907995
370
     9
100
AcDbPolyline
 90
       18
 70
     0
 43
0.0
 10
34.96466409312319
 20
-39.92787016866834
 10
34.98180919472138
 20
-40.03073031435716
 10
35.03323926756563
 20
-40.11645059039812
 10
35.11895954360659
 20
-40.18503099679091
 10
35.22182492124575
 20
-40.21931073608662
 10
35.32469029888491
 20
-40.20217086643909
 10
35.41041057492555
 20
-40.15074079359452
 10
35.49613085096651
 20
-40.08216038720173
 10
35.53041843818789
 20
-39.97930024151292
 10
35.53041843818789
 20
-39.87642963192342
 10
35.49613085096651
 20
-39.79070935588246
 10
35.41041057492555
 20
-39.70498907984181
 10
35.32469029888491
 20
-39.65355900699724
 10
35.22182492124575
 20
-39.65355900699724
 10
35.11895954360659
 20
-39.6707093405461
 10
35.03323926756563
 20
-39.73927928303821
 10
34.98180919472138
 20
-39.82499955907917
 10
34.96466409312319
 20
-39.92787016866834
  0
LWPOLYLINE
  5
154
330
79
100
AcDbEntity
  8
Camada 1
 62
   250
420
  1907995
370
     9
100
AcDbPolyline
 90
       17
 70
     0
 43
0.0
 10
35.4618406477698
 20
-48.77419847052475
 10
35.44469816214693
 20
-48.68847819448379
 10
35.41041057492555
 20
-48.61989778809069
 10
35.32469029888491
 20
-48.56846771524644
 10
35.23897002284395
 20
-48.55132784559827
 10
35.17039223242617
 20
-48.56846771524644
 10
35.08467195638521
 20
-48.61989778809069
 10
35.05038436916414
 20
-48.68847819448379
 10
35.03323926756563
 20
-48.77419847052475
 10
35.05038436916414
 20
-48.8599187465654
 10
35.08467195638521
 20
-48.92849915295819
 10
35.17039223242617
 20
-48.97992922580275
 10
35.23897002284395
 20
-48.99706909545061
 10
35.32469029888491
 20
-48.97992922580275
 10
35.41041057492555
 20
-48.92849915295819
 10
35.44469816214693
 20
-48.8599187465654
 10
35.4618406477698
 20
-48.77419847052475
  0
LWPOLYLINE
  5
155
330
79
100
AcDbEntity
  8
Camada 1
 62
   250
420
  1907995
370
     9
100
AcDbPolyline
 90
       17
 70
     0
 43
0.0
 10
35.4618406477698
 20
-37.40769196028725
 10
35.44469816214693
 20
-37.32197168424629
 10
35.41041057492555
 20
-37.25339127785318
 10
35.32469029888491
 20
-37.20196120500893
 10
35.23897002284395
 20
-37.18481087146007
 10
35.17039223242617
 20
-37.20196120500893
 10
35.08467195638521
 20
-37.25339127785318
 10
35.05038436916414
 20
-37.32197168424629
 10
35.03323926756563
 20
-37.40769196028725
 10
35.05038436916414
 20
-37.49341223632821
 10
35.08467195638521
 20
-37.56198217882
 10
35.17039223242617
 20
-37.61341225166456
 10
35.23897002284395
 20
-37.6305625852131
 10
35.32469029888491
 20
-37.61341225166456
 10
35.41041057492555
 20
-37.56198217882
 10
35.44469816214693
 20
-37.49341223632821
 10
35.4618406477698
 20
-37.40769196028725
  0
LWPOLYLINE
  5
156
330
79
100
AcDbEntity
  8
Camada 1
 62
   250
420
  1907995
370
     9
100
AcDbPolyline
 90
       18
 70
     0
 43
0.0
 10
34.96466409312319
 20
-37.40769196028725
 10
34.98180919472138
 20
-37.51055210597574
 10
35.03323926756563
 20
-37.59627238201671
 10
35.11895954360659
 20
-37.66485278840981
 10
35.22182492124575
 20
-37.68199265805735
 10
35.32469029888491
 20
-37.68199265805735
 10
35.41041057492555
 20
-37.6305625852131
 10
35.49613085096651
 20
-37.56198217882
 10
35.53041843818789
 20
-37.4591220331315
 10
35.53041843818789
 20
-37.35625142354168
 10
35.49613085096651
 20
-37.25339127785318
 10
35.41041057492555
 20
-37.18481087146007
 10
35.32469029888491
 20
-37.13338079861582
 10
35.22182492124575
 20
-37.11624092896829
 10
35.11895954360659
 20
-37.15053113216468
 10
35.03323926756563
 20
-37.21910107465678
 10
34.98180919472138
 20
-37.30482135069742
 10
34.96466409312319
 20
-37.40769196028725
  0
LWPOLYLINE
  5
157
330
79
100
AcDbEntity
  8
Camada 1
 62
   250
420
  1907995
370
     9
100
AcDbPolyline
 90
       17
 70
     0
 43
0.0
 10
35.4618406477698
 20
-46.25402026214302
 10
35.44469816214693
 20
-46.16829998610206
 10
35.41041057492555
 20
-46.09973004361027
 10
35.32469029888491
 20
-46.0482895068647
 10
35.23897002284395
 20
-46.03114963721717
 10
35.17039223242617
 20
-46.0482895068647
 10
35.08467195638521
 20
-46.09973004361027
 10
35.05038436916414
 20
-46.16829998610206
 10
35.03323926756563
 20
-46.25402026214302
 10
35.05038436916414
 20
-46.33974053818397
 10
35.08467195638521
 20
-46.40832094457709
 10
35.17039223242617
 20
-46.45975101742133
 10
35.23897002284395
 20
-46.47689088706919
 10
35.32469029888491
 20
-46.45975101742133
 10
35.41041057492555
 20
-46.40832094457709
 10
35.44469816214693
 20
-46.33974053818397
 10
35.4618406477698
 20
-46.25402026214302
  0
LWPOLYLINE
  5
158
330
79
100
AcDbEntity
  8
Camada 1
 62
   250
420
  1907995
370
     9
100
AcDbPolyline
 90
       18
 70
     0
 43
0.0
 10
34.96466409312319
 20
-46.25402026214302
 10
34.98180919472138
 20
-46.35689087173283
 10
35.03323926756563
 20
-46.44261114777348
 10
35.11895954360659
 20
-46.5111810902659
 10
35.22182492124575
 20
-46.52833142381444
 10
35.32469029888491
 20
-46.52833142381444
 10
35.41041057492555
 20
-46.47689088706919
 10
35.49613085096651
 20
-46.39117061102854
 10
35.53041843818789
 20
-46.30545033498759
 10
35.53041843818789
 20
-46.20259018929877
 10
35.49613085096651
 20
-46.09973004361027
 10
35.41041057492555
 20
-46.03114963721717
 10
35.32469029888491
 20
-45.97971956437291
 10
35.22182492124575
 20
-45.96256923082406
 10
35.11895954360659
 20
-45.99685943402045
 10
35.03323926756563
 20
-46.06543984041356
 10
34.98180919472138
 20
-46.15116011645452
 10
34.96466409312319
 20
-46.25402026214302
  0
LWPOLYLINE
  5
159
330
79
100
AcDbEntity
  8
Camada 1
 62
   250
420
  1907995
370
     9
100
AcDbPolyline
 90
       17
 70
     0
 43
0.0
 10
35.4618406477698
 20
-38.67634576735122
 10
35.44469816214693
 20
-38.59062549131058
 10
35.41041057492555
 20
-38.50490521526962
 10
35.32469029888491
 20
-38.47061501207291
 10
35.23897002284395
 20
-38.45347514242537
 10
35.17039223242617
 20
-38.47061501207291
 10
35.08467195638521
 20
-38.50490521526962
 10
35.05038436916414
 20
-38.59062549131058
 10
35.03323926756563
 20
-38.67634576735122
 10
35.05038436916414
 20
-38.74492617374433
 10
35.08467195638521
 20
-38.83064644978529
 10
35.17039223242617
 20
-38.86493665298168
 10
35.23897002284395
 20
-38.88207652262954
 10
35.32469029888491
 20
-38.86493665298168
 10
35.41041057492555
 20
-38.83064644978529
 10
35.44469816214693
 20
-38.74492617374433
 10
35.4618406477698
 20
-38.67634576735122
  0
LWPOLYLINE
  5
15A
330
79
100
AcDbEntity
  8
Camada 1
 62
   250
420
  1907995
370
     9
100
AcDbPolyline
 90
       18
 70
     0
 43
0.0
 10
34.96466409312319
 20
-38.67634576735122
 10
34.98180919472138
 20
-38.77921637694104
 10
35.03323926756563
 20
-38.86493665298168
 10
35.11895954360659
 20
-38.91636672582593
 10
35.22182492124575
 20
-38.95065692902265
 10
35.32469029888491
 20
-38.93350659547379
 10
35.41041057492555
 20
-38.8992163922774
 10
35.49613085096651
 20
-38.81349611623644
 10
35.53041843818789
 20
-38.72777584019547
 10
35.53041843818789
 20
-38.62491569450698
 10
35.49613085096651
 20
-38.52205554881815
 10
35.41041057492555
 20
-38.43633527277719
 10
35.32469029888491
 20
-38.40204506958112
 10
35.22182492124575
 20
-38.38489473603227
 10
35.11895954360659
 20
-38.41918493922866
 10
35.03323926756563
 20
-38.47061501207291
 10
34.98180919472138
 20
-38.57348562166272
 10
34.96466409312319
 20
-38.67634576735122
  0
LWPOLYLINE
  5
15B
330
79
100
AcDbEntity
  8
Camada 1
 62
   250
420
  1907995
370
     9
100
AcDbPolyline
 90
       17
 70
     0
 43
0.0
 10
35.4618406477698
 20
-47.50553419955946
 10
35.44469816214693
 20
-47.43696425706736
 10
35.41041057492555
 20
-47.35124398102671
 10
35.32469029888491
 20
-47.31695377783
 10
35.23897002284395
 20
-47.29981390818214
 10
35.17039223242617
 20
-47.31695377783
 10
35.08467195638521
 20
-47.35124398102671
 10
35.05038436916414
 20
-47.43696425706736
 10
35.03323926756563
 20
-47.50553419955946
 10
35.05038436916414
 20
-47.5912544756001
 10
35.08467195638521
 20
-47.67697475164107
 10
35.17039223242617
 20
-47.71126495483778
 10
35.23897002284395
 20
-47.72841528838664
 10
35.32469029888491
 20
-47.71126495483778
 10
35.41041057492555
 20
-47.67697475164107
 10
35.44469816214693
 20
-47.5912544756001
 10
35.4618406477698
 20
-47.50553419955946
  0
LWPOLYLINE
  5
15C
330
79
100
AcDbEntity
  8
Camada 1
 62
   250
420
  1907995
370
     9
100
AcDbPolyline
 90
       17
 70
     0
 43
0.0
 10
35.4618406477698
 20
-43.71670218411406
 10
35.44469816214693
 20
-43.6309819080731
 10
35.41041057492555
 20
-43.56240150167999
 10
35.32469029888491
 20
-43.52812176238428
 10
35.23897002284395
 20
-43.51097142883574
 10
35.17039223242617
 20
-43.52812176238428
 10
35.08467195638521
 20
-43.56240150167999
 10
35.05038436916414
 20
-43.6309819080731
 10
35.03323926756563
 20
-43.71670218411406
 10
35.05038436916414
 20
-43.80242246015503
 10
35.08467195638521
 20
-43.87100286654781
 10
35.17039223242617
 20
-43.92243293939237
 10
35.23897002284395
 20
-43.93957280903991
 10
35.32469029888491
 20
-43.92243293939237
 10
35.41041057492555
 20
-43.87100286654781
 10
35.44469816214693
 20
-43.80242246015503
 10
35.4618406477698
 20
-43.71670218411406
  0
LWPOLYLINE
  5
15D
330
79
100
AcDbEntity
  8
Camada 1
 62
   250
420
  1907995
370
     9
100
AcDbPolyline
 90
       18
 70
     0
 43
0.0
 10
34.96466409312319
 20
-43.71670218411406
 10
34.98180919472138
 20
-43.81956232980257
 10
35.03323926756563
 20
-43.92243293939237
 10
35.11895954360659
 20
-43.97386301223662
 10
35.22182492124575
 20
-44.00815321543302
 10
35.32469029888491
 20
-43.99100288188416
 10
35.41041057492555
 20
-43.95672314258876
 10
35.49613085096651
 20
-43.87100286654781
 10
35.53041843818789
 20
-43.76813225695831
 10
35.53041843818789
 20
-43.66527211126949
 10
35.49613085096651
 20
-43.57955183522853
 10
35.41041057492555
 20
-43.49383155918789
 10
35.32469029888491
 20
-43.44240148634364
 10
35.22182492124575
 20
-43.44240148634364
 10
35.11895954360659
 20
-43.47668122563935
 10
35.03323926756563
 20
-43.52812176238428
 10
34.98180919472138
 20
-43.61384203842525
 10
34.96466409312319
 20
-43.71670218411406
  0
LWPOLYLINE
  5
15E
330
79
100
AcDbEntity
  8
Camada 1
 62
   250
420
  1907995
370
     9
100
AcDbPolyline
 90
       17
 70
     0
 43
0.0
 10
35.4618406477698
 20
-36.13902768932195
 10
35.44469816214693
 20
-36.0533074132813
 10
35.41041057492555
 20
-35.9847270068882
 10
35.32469029888491
 20
-35.93329693404363
 10
35.23897002284395
 20
-35.9161570643961
 10
35.17039223242617
 20
-35.93329693404363
 10
35.08467195638521
 20
-35.9847270068882
 10
35.05038436916414
 20
-36.0533074132813
 10
35.03323926756563
 20
-36.13902768932195
 10
35.05038436916414
 20
-36.22474796536291
 10
35.08467195638521
 20
-36.29332837175602
 10
35.17039223242617
 20
-36.34475844460027
 10
35.23897002284395
 20
-36.36189831424812
 10
35.32469029888491
 20
-36.34475844460027
 10
35.41041057492555
 20
-36.29332837175602
 10
35.44469816214693
 20
-36.22474796536291
 10
35.4618406477698
 20
-36.13902768932195
  0
LWPOLYLINE
  5
15F
330
79
100
AcDbEntity
  8
Camada 1
 62
   250
420
  1907995
370
     9
100
AcDbPolyline
 90
       17
 70
     0
 43
0.0
 10
35.4618406477698
 20
-44.98536645507904
 10
35.44469816214693
 20
-44.89964617903807
 10
35.41041057492555
 20
-44.83106577264497
 10
35.32469029888491
 20
-44.77963569980071
 10
35.23897002284395
 20
-44.76248536625218
 10
35.17039223242617
 20
-44.77963569980071
 10
35.08467195638521
 20
-44.83106577264497
 10
35.05038436916414
 20
-44.89964617903807
 10
35.03323926756563
 20
-44.98536645507904
 10
35.05038436916414
 20
-45.07108673111968
 10
35.08467195638521
 20
-45.13965667361211
 10
35.17039223242617
 20
-45.19108674645635
 10
35.23897002284395
 20
-45.2082370800049
 10
35.32469029888491
 20
-45.19108674645635
 10
35.41041057492555
 20
-45.13965667361211
 10
35.44469816214693
 20
-45.07108673111968
 10
35.4618406477698
 20
-44.98536645507904
  0
LWPOLYLINE
  5
160
330
79
100
AcDbEntity
  8
Camada 1
 62
   250
420
  1907995
370
     9
100
AcDbPolyline
 90
       18
 70
     0
 43
0.0
 10
34.96466409312319
 20
-44.98536645507904
 10
34.98180919472138
 20
-45.08822660076754
 10
35.03323926756563
 20
-45.17394687680883
 10
35.11895954360659
 20
-45.24252728320161
 10
35.22182492124575
 20
-45.27680702249732
 10
35.32469029888491
 20
-45.25966715284947
 10
35.41041057492555
 20
-45.2082370800049
 10
35.49613085096651
 20
-45.13965667361211
 10
35.53041843818789
 20
-45.03679652792329
 10
35.53041843818789
 20
-44.93392591833379
 10
35.49613085096651
 20
-44.83106577264497
 10
35.41041057492555
 20
-44.76248536625218
 10
35.32469029888491
 20
-44.71105529340761
 10
35.22182492124575
 20
-44.71105529340761
 10
35.11895954360659
 20
-44.72820562695647
 10
35.03323926756563
 20
-44.7967755694489
 10
34.98180919472138
 20
-44.88249584548954
 10
34.96466409312319
 20
-44.98536645507904
  0
LWPOLYLINE
  5
161
330
79
100
AcDbEntity
  8
Camada 1
 62
   250
420
  1907995
370
     9
100
AcDbPolyline
 90
       25
 70
     0
 43
0.0
 10
35.10181705798372
 20
-84.14238227220131
 10
35.08467195638521
 20
-84.14238227220131
 10
35.03323926756563
 20
-84.14238227220131
 10
34.9303765059018
 20
-84.14238227220131
 10
34.81036864263977
 20
-84.14238227220131
 10
34.63892809055817
 20
-84.14238227220131
 10
34.45034243687805
 20
-84.14238227220131
 10
34.22746919597687
 20
-84.14238227220131
 10
33.98745346945249
 20
-84.14238227220131
 10
33.73029264132993
 20
-84.14238227220131
 10
33.45598671160884
 20
-84.14238227220131
 10
33.18168339786341
 20
-84.14238227220131
 10
32.89023236654445
 20
-84.14238227220131
 10
32.5987839512005
 20
-84.14238227220131
 10
32.32448063745475
 20
-84.14238227220131
 10
32.06731980933218
 20
-84.14238227220131
 10
31.81015898120961
 20
-84.14238227220131
 10
31.58728574030843
 20
-84.14238227220131
 10
31.38155760100544
 20
-84.14238227220131
 10
31.19297194732532
 20
-84.14238227220131
 10
31.0558189824651
 20
-84.14238227220131
 10
30.93581111920275
 20
-84.14238227220131
 10
30.86723594476031
 20
-84.14238227220131
 10
30.83294574156392
 20
-84.14238227220131
 10
30.81580325594073
 20
-84.14238227220131
  0
LWPOLYLINE
  5
162
330
79
100
AcDbEntity
  8
Camada 1
 62
   250
420
  1907995
370
     9
100
AcDbPolyline
 90
       26
 70
     0
 43
0.0
 10
35.39326547332735
 20
-84.27953262108685
 10
35.37612037172916
 20
-84.27953262108685
 10
35.30754519728671
 20
-84.27953262108685
 10
35.22182492124575
 20
-84.27953262108685
 10
35.08467195638521
 20
-84.27953262108685
 10
34.9303765059018
 20
-84.27953262108685
 10
34.74179085222168
 20
-84.27953262108685
 10
34.51891761132049
 20
-84.27953262108685
 10
34.26175678319824
 20
-84.27953262108685
 10
34.00459595507568
 20
-84.27953262108685
 10
33.71314753973173
 20
-84.27953262108685
 10
33.42169912438778
 20
-84.27953262108685
 10
33.11310560744563
 20
-84.27953262108685
 10
32.80451209050349
 20
-84.27953262108685
 10
32.51306367515954
 20
-84.27953262108685
 10
32.20447015821739
 20
-84.27953262108685
 10
31.93016684447196
 20
-84.27953262108685
 10
31.65586091475087
 20
-84.27953262108685
 10
31.41584518822682
 20
-84.27953262108685
 10
31.19297194732532
 20
-84.27953262108685
 10
31.00438629364552
 20
-84.27953262108685
 10
30.83294574156392
 20
-84.27953262108685
 10
30.69579539267838
 20
-84.27953262108685
 10
30.61007511663774
 20
-84.27953262108685
 10
30.55864242781816
 20
-84.27953262108685
 10
30.52435484059678
 20
-84.27953262108685
  0
LWPOLYLINE
  5
163
330
79
100
AcDbEntity
  8
Camada 1
 62
   250
420
  1907995
370
     9
100
AcDbPolyline
 90
       25
 70
     0
 43
0.0
 10
35.10181705798372
 20
-84.50240847796305
 10
35.08467195638521
 20
-84.50240847796305
 10
35.03323926756563
 20
-84.50240847796305
 10
34.9303765059018
 20
-84.50240847796305
 10
34.81036864263977
 20
-84.50240847796305
 10
34.63892809055817
 20
-84.50240847796305
 10
34.45034243687805
 20
-84.50240847796305
 10
34.22746919597687
 20
-84.50240847796305
 10
33.98745346945249
 20
-84.50240847796305
 10
33.73029264132993
 20
-84.50240847796305
 10
33.45598671160884
 20
-84.50240847796305
 10
33.18168339786341
 20
-84.50240847796305
 10
32.89023236654445
 20
-84.50240847796305
 10
32.5987839512005
 20
-84.50240847796305
 10
32.32448063745475
 20
-84.50240847796305
 10
32.06731980933218
 20
-84.50240847796305
 10
31.81015898120961
 20
-84.50240847796305
 10
31.58728574030843
 20
-84.50240847796305
 10
31.38155760100544
 20
-84.50240847796305
 10
31.19297194732532
 20
-84.50240847796305
 10
31.0558189824651
 20
-84.50240847796305
 10
30.93581111920275
 20
-84.50240847796305
 10
30.86723594476031
 20
-84.50240847796305
 10
30.83294574156392
 20
-84.50240847796305
 10
30.81580325594073
 20
-84.50240847796305
  0
LWPOLYLINE
  5
164
330
79
100
AcDbEntity
  8
Camada 1
 62
   250
420
  1907995
370
     9
100
AcDbPolyline
 90
       26
 70
     0
 43
0.0
 10
30.52435484059678
 20
-84.34811302747965
 10
30.55864242781816
 20
-84.34811302747965
 10
30.61007511663774
 20
-84.34811302747965
 10
30.69579539267838
 20
-84.34811302747965
 10
30.83294574156392
 20
-84.34811302747965
 10
31.00438629364552
 20
-84.34811302747965
 10
31.19297194732532
 20
-84.34811302747965
 10
31.41584518822682
 20
-84.34811302747965
 10
31.65586091475087
 20
-84.34811302747965
 10
31.93016684447196
 20
-84.34811302747965
 10
32.20447015821739
 20
-84.34811302747965
 10
32.51306367515954
 20
-84.34811302747965
 10
32.80451209050349
 20
-84.34811302747965
 10
33.11310560744563
 20
-84.34811302747965
 10
33.42169912438778
 20
-84.34811302747965
 10
33.71314753973173
 20
-84.34811302747965
 10
34.00459595507568
 20
-84.34811302747965
 10
34.26175678319824
 20
-84.34811302747965
 10
34.51891761132049
 20
-84.34811302747965
 10
34.74179085222168
 20
-84.34811302747965
 10
34.9303765059018
 20
-84.34811302747965
 10
35.08467195638521
 20
-84.34811302747965
 10
35.22182492124575
 20
-84.34811302747965
 10
35.30754519728671
 20
-84.34811302747965
 10
35.37612037172916
 20
-84.34811302747965
 10
35.39326547332735
 20
-84.34811302747965
  0
LWPOLYLINE
  5
165
330
79
100
AcDbEntity
  8
Camada 1
 62
   250
420
  1907995
370
     9
100
AcDbPolyline
 90
       26
 70
     0
 43
0.0
 10
35.39326547332735
 20
-84.65670392844774
 10
35.37612037172916
 20
-84.65670392844774
 10
35.30754519728671
 20
-84.65670392844774
 10
35.22182492124575
 20
-84.65670392844774
 10
35.08467195638521
 20
-84.65670392844774
 10
34.9303765059018
 20
-84.65670392844774
 10
34.74179085222168
 20
-84.65670392844774
 10
34.51891761132049
 20
-84.65670392844774
 10
34.26175678319824
 20
-84.65670392844774
 10
34.00459595507568
 20
-84.65670392844774
 10
33.71314753973173
 20
-84.65670392844774
 10
33.42169912438778
 20
-84.65670392844774
 10
33.11310560744563
 20
-84.65670392844774
 10
32.80451209050349
 20
-84.65670392844774
 10
32.51306367515954
 20
-84.65670392844774
 10
32.20447015821739
 20
-84.65670392844774
 10
31.93016684447196
 20
-84.65670392844774
 10
31.65586091475087
 20
-84.65670392844774
 10
31.41584518822682
 20
-84.65670392844774
 10
31.19297194732532
 20
-84.65670392844774
 10
31.00438629364552
 20
-84.65670392844774
 10
30.83294574156392
 20
-84.65670392844774
 10
30.69579539267838
 20
-84.65670392844774
 10
30.61007511663774
 20
-84.65670392844774
 10
30.55864242781816
 20
-84.65670392844774
 10
30.52435484059678
 20
-84.65670392844774
  0
LWPOLYLINE
  5
166
330
79
100
AcDbEntity
  8
Camada 1
 62
   250
420
  1907995
370
     9
100
AcDbPolyline
 90
       25
 70
     0
 43
0.0
 10
35.10181705798372
 20
-84.86243468372476
 10
35.08467195638521
 20
-84.86243468372476
 10
35.03323926756563
 20
-84.86243468372476
 10
34.9303765059018
 20
-84.86243468372476
 10
34.81036864263977
 20
-84.86243468372476
 10
34.63892809055817
 20
-84.86243468372476
 10
34.45034243687805
 20
-84.86243468372476
 10
34.22746919597687
 20
-84.86243468372476
 10
33.98745346945249
 20
-84.86243468372476
 10
33.73029264132993
 20
-84.86243468372476
 10
33.45598671160884
 20
-84.86243468372476
 10
33.18168339786341
 20
-84.86243468372476
 10
32.89023236654445
 20
-84.86243468372476
 10
32.5987839512005
 20
-84.86243468372476
 10
32.32448063745475
 20
-84.86243468372476
 10
32.06731980933218
 20
-84.86243468372476
 10
31.81015898120961
 20
-84.86243468372476
 10
31.58728574030843
 20
-84.86243468372476
 10
31.38155760100544
 20
-84.86243468372476
 10
31.19297194732532
 20
-84.86243468372476
 10
31.0558189824651
 20
-84.86243468372476
 10
30.93581111920275
 20
-84.86243468372476
 10
30.86723594476031
 20
-84.86243468372476
 10
30.83294574156392
 20
-84.86243468372476
 10
30.81580325594073
 20
-84.86243468372476
  0
LWPOLYLINE
  5
167
330
79
100
AcDbEntity
  8
Camada 1
 62
   250
420
  1907995
370
     9
100
AcDbPolyline
 90
       26
 70
     0
 43
0.0
 10
30.52435484059678
 20
-84.708134001292
 10
30.55864242781816
 20
-84.708134001292
 10
30.61007511663774
 20
-84.708134001292
 10
30.69579539267838
 20
-84.708134001292
 10
30.83294574156392
 20
-84.708134001292
 10
31.00438629364552
 20
-84.708134001292
 10
31.19297194732532
 20
-84.708134001292
 10
31.41584518822682
 20
-84.708134001292
 10
31.65586091475087
 20
-84.708134001292
 10
31.93016684447196
 20
-84.708134001292
 10
32.20447015821739
 20
-84.708134001292
 10
32.51306367515954
 20
-84.708134001292
 10
32.80451209050349
 20
-84.708134001292
 10
33.11310560744563
 20
-84.708134001292
 10
33.42169912438778
 20
-84.708134001292
 10
33.71314753973173
 20
-84.708134001292
 10
34.00459595507568
 20
-84.708134001292
 10
34.26175678319824
 20
-84.708134001292
 10
34.51891761132049
 20
-84.708134001292
 10
34.74179085222168
 20
-84.708134001292
 10
34.9303765059018
 20
-84.708134001292
 10
35.08467195638521
 20
-84.708134001292
 10
35.22182492124575
 20
-84.708134001292
 10
35.30754519728671
 20
-84.708134001292
 10
35.37612037172916
 20
-84.708134001292
 10
35.39326547332735
 20
-84.708134001292
  0
LWPOLYLINE
  5
168
330
79
100
AcDbEntity
  8
Camada 1
 62
   250
420
  1907995
370
     9
100
AcDbPolyline
 90
       26
 70
     0
 43
0.0
 10
35.39326547332735
 20
-85.01673013420818
 10
35.37612037172916
 20
-85.01673013420818
 10
35.30754519728671
 20
-85.01673013420818
 10
35.22182492124575
 20
-85.01673013420818
 10
35.08467195638521
 20
-85.01673013420818
 10
34.9303765059018
 20
-85.01673013420818
 10
34.74179085222168
 20
-85.01673013420818
 10
34.51891761132049
 20
-85.01673013420818
 10
34.26175678319824
 20
-85.01673013420818
 10
34.00459595507568
 20
-85.01673013420818
 10
33.71314753973173
 20
-85.01673013420818
 10
33.42169912438778
 20
-85.01673013420818
 10
33.11310560744563
 20
-85.01673013420818
 10
32.80451209050349
 20
-85.01673013420818
 10
32.51306367515954
 20
-85.01673013420818
 10
32.20447015821739
 20
-85.01673013420818
 10
31.93016684447196
 20
-85.01673013420818
 10
31.65586091475087
 20
-85.01673013420818
 10
31.41584518822682
 20
-85.01673013420818
 10
31.19297194732532
 20
-85.01673013420818
 10
31.00438629364552
 20
-85.01673013420818
 10
30.83294574156392
 20
-85.01673013420818
 10
30.69579539267838
 20
-85.01673013420818
 10
30.61007511663774
 20
-85.01673013420818
 10
30.55864242781816
 20
-85.01673013420818
 10
30.52435484059678
 20
-85.01673013420818
  0
LWPOLYLINE
  5
169
330
79
100
AcDbEntity
  8
Camada 1
 62
   250
420
  1907995
370
     9
100
AcDbPolyline
 90
       25
 70
     0
 43
0.0
 10
35.10181705798372
 20
-85.239600759135
 10
35.08467195638521
 20
-85.239600759135
 10
35.03323926756563
 20
-85.239600759135
 10
34.9303765059018
 20
-85.239600759135
 10
34.81036864263977
 20
-85.239600759135
 10
34.63892809055817
 20
-85.239600759135
 10
34.45034243687805
 20
-85.239600759135
 10
34.22746919597687
 20
-85.239600759135
 10
33.98745346945249
 20
-85.239600759135
 10
33.73029264132993
 20
-85.239600759135
 10
33.45598671160884
 20
-85.239600759135
 10
33.18168339786341
 20
-85.239600759135
 10
32.89023236654445
 20
-85.239600759135
 10
32.5987839512005
 20
-85.239600759135
 10
32.32448063745475
 20
-85.239600759135
 10
32.06731980933218
 20
-85.239600759135
 10
31.81015898120961
 20
-85.239600759135
 10
31.58728574030843
 20
-85.239600759135
 10
31.38155760100544
 20
-85.239600759135
 10
31.19297194732532
 20
-85.239600759135
 10
31.0558189824651
 20
-85.239600759135
 10
30.93581111920275
 20
-85.239600759135
 10
30.86723594476031
 20
-85.239600759135
 10
30.83294574156392
 20
-85.239600759135
 10
30.81580325594073
 20
-85.239600759135
  0
LWPOLYLINE
  5
16A
330
79
100
AcDbEntity
  8
Camada 1
 62
   250
420
  1907995
370
     9
100
AcDbPolyline
 90
       26
 70
     0
 43
0.0
 10
30.52435484059678
 20
-85.08530530865158
 10
30.55864242781816
 20
-85.08530530865158
 10
30.61007511663774
 20
-85.08530530865158
 10
30.69579539267838
 20
-85.08530530865158
 10
30.83294574156392
 20
-85.08530530865158
 10
31.00438629364552
 20
-85.08530530865158
 10
31.19297194732532
 20
-85.08530530865158
 10
31.41584518822682
 20
-85.08530530865158
 10
31.65586091475087
 20
-85.08530530865158
 10
31.93016684447196
 20
-85.08530530865158
 10
32.20447015821739
 20
-85.08530530865158
 10
32.51306367515954
 20
-85.08530530865158
 10
32.80451209050349
 20
-85.08530530865158
 10
33.11310560744563
 20
-85.08530530865158
 10
33.42169912438778
 20
-85.08530530865158
 10
33.71314753973173
 20
-85.08530530865158
 10
34.00459595507568
 20
-85.08530530865158
 10
34.26175678319824
 20
-85.08530530865158
 10
34.51891761132049
 20
-85.08530530865158
 10
34.74179085222168
 20
-85.08530530865158
 10
34.9303765059018
 20
-85.08530530865158
 10
35.08467195638521
 20
-85.08530530865158
 10
35.22182492124575
 20
-85.08530530865158
 10
35.30754519728671
 20
-85.08530530865158
 10
35.37612037172916
 20
-85.08530530865158
 10
35.39326547332735
 20
-85.08530530865158
  0
LWPOLYLINE
  5
16B
330
79
100
AcDbEntity
  8
Camada 1
 62
   250
420
  1907995
370
     9
100
AcDbPolyline
 90
       26
 70
     0
 43
0.0
 10
35.39326547332735
 20
-85.37675633996991
 10
35.37612037172916
 20
-85.37675633996991
 10
35.30754519728671
 20
-85.37675633996991
 10
35.22182492124575
 20
-85.37675633996991
 10
35.08467195638521
 20
-85.37675633996991
 10
34.9303765059018
 20
-85.37675633996991
 10
34.74179085222168
 20
-85.37675633996991
 10
34.51891761132049
 20
-85.37675633996991
 10
34.26175678319824
 20
-85.37675633996991
 10
34.00459595507568
 20
-85.37675633996991
 10
33.71314753973173
 20
-85.37675633996991
 10
33.42169912438778
 20
-85.37675633996991
 10
33.11310560744563
 20
-85.37675633996991
 10
32.80451209050349
 20
-85.37675633996991
 10
32.51306367515954
 20
-85.37675633996991
 10
32.20447015821739
 20
-85.37675633996991
 10
31.93016684447196
 20
-85.37675633996991
 10
31.65586091475087
 20
-85.37675633996991
 10
31.41584518822682
 20
-85.37675633996991
 10
31.19297194732532
 20
-85.37675633996991
 10
31.00438629364552
 20
-85.37675633996991
 10
30.83294574156392
 20
-85.37675633996991
 10
30.69579539267838
 20
-85.37675633996991
 10
30.61007511663774
 20
-85.37675633996991
 10
30.55864242781816
 20
-85.37675633996991
 10
30.52435484059678
 20
-85.37675633996991
  0
LWPOLYLINE
  5
16C
330
79
100
AcDbEntity
  8
Camada 1
 62
   250
420
  1907995
370
     9
100
AcDbPolyline
 90
       25
 70
     0
 43
0.0
 10
35.10181705798372
 20
-85.59962696489673
 10
35.08467195638521
 20
-85.59962696489673
 10
35.03323926756563
 20
-85.59962696489673
 10
34.9303765059018
 20
-85.59962696489673
 10
34.81036864263977
 20
-85.59962696489673
 10
34.63892809055817
 20
-85.59962696489673
 10
34.45034243687805
 20
-85.59962696489673
 10
34.22746919597687
 20
-85.59962696489673
 10
33.98745346945249
 20
-85.59962696489673
 10
33.73029264132993
 20
-85.59962696489673
 10
33.45598671160884
 20
-85.59962696489673
 10
33.18168339786341
 20
-85.59962696489673
 10
32.89023236654445
 20
-85.59962696489673
 10
32.5987839512005
 20
-85.59962696489673
 10
32.32448063745475
 20
-85.59962696489673
 10
32.06731980933218
 20
-85.59962696489673
 10
31.81015898120961
 20
-85.59962696489673
 10
31.58728574030843
 20
-85.59962696489673
 10
31.38155760100544
 20
-85.59962696489673
 10
31.19297194732532
 20
-85.59962696489673
 10
31.0558189824651
 20
-85.59962696489673
 10
30.93581111920275
 20
-85.59962696489673
 10
30.86723594476031
 20
-85.59962696489673
 10
30.83294574156392
 20
-85.59962696489673
 10
30.81580325594073
 20
-85.59962696489673
  0
LWPOLYLINE
  5
16D
330
79
100
AcDbEntity
  8
Camada 1
 62
   250
420
  1907995
370
     9
100
AcDbPolyline
 90
       26
 70
     0
 43
0.0
 10
30.52435484059678
 20
-85.44533151441331
 10
30.55864242781816
 20
-85.44533151441331
 10
30.61007511663774
 20
-85.44533151441331
 10
30.69579539267838
 20
-85.44533151441331
 10
30.83294574156392
 20
-85.44533151441331
 10
31.00438629364552
 20
-85.44533151441331
 10
31.19297194732532
 20
-85.44533151441331
 10
31.41584518822682
 20
-85.44533151441331
 10
31.65586091475087
 20
-85.44533151441331
 10
31.93016684447196
 20
-85.44533151441331
 10
32.20447015821739
 20
-85.44533151441331
 10
32.51306367515954
 20
-85.44533151441331
 10
32.80451209050349
 20
-85.44533151441331
 10
33.11310560744563
 20
-85.44533151441331
 10
33.42169912438778
 20
-85.44533151441331
 10
33.71314753973173
 20
-85.44533151441331
 10
34.00459595507568
 20
-85.44533151441331
 10
34.26175678319824
 20
-85.44533151441331
 10
34.51891761132049
 20
-85.44533151441331
 10
34.74179085222168
 20
-85.44533151441331
 10
34.9303765059018
 20
-85.44533151441331
 10
35.08467195638521
 20
-85.44533151441331
 10
35.22182492124575
 20
-85.44533151441331
 10
35.30754519728671
 20
-85.44533151441331
 10
35.37612037172916
 20
-85.44533151441331
 10
35.39326547332735
 20
-85.44533151441331
  0
LWPOLYLINE
  5
16E
330
79
100
AcDbEntity
  8
Camada 1
 62
   250
420
  1907995
370
     9
100
AcDbPolyline
 90
       26
 70
     0
 43
0.0
 10
35.39326547332735
 20
-86.1653786939861
 10
35.37612037172916
 20
-86.1653786939861
 10
35.30754519728671
 20
-86.1653786939861
 10
35.22182492124575
 20
-86.1653786939861
 10
35.08467195638521
 20
-86.1653786939861
 10
34.9303765059018
 20
-86.1653786939861
 10
34.74179085222168
 20
-86.1653786939861
 10
34.51891761132049
 20
-86.1653786939861
 10
34.26175678319824
 20
-86.1653786939861
 10
34.00459595507568
 20
-86.1653786939861
 10
33.71314753973173
 20
-86.1653786939861
 10
33.42169912438778
 20
-86.1653786939861
 10
33.11310560744563
 20
-86.1653786939861
 10
32.80451209050349
 20
-86.1653786939861
 10
32.51306367515954
 20
-86.1653786939861
 10
32.20447015821739
 20
-86.1653786939861
 10
31.93016684447196
 20
-86.1653786939861
 10
31.65586091475087
 20
-86.1653786939861
 10
31.41584518822682
 20
-86.1653786939861
 10
31.19297194732532
 20
-86.1653786939861
 10
31.00438629364552
 20
-86.1653786939861
 10
30.83294574156392
 20
-86.1653786939861
 10
30.69579539267838
 20
-86.1653786939861
 10
30.61007511663774
 20
-86.1653786939861
 10
30.55864242781816
 20
-86.1653786939861
 10
30.52435484059678
 20
-86.1653786939861
  0
LWPOLYLINE
  5
16F
330
79
100
AcDbEntity
  8
Camada 1
 62
   250
420
  1907995
370
     9
100
AcDbPolyline
 90
       26
 70
     0
 43
0.0
 10
35.39326547332735
 20
-86.11394862114186
 10
35.37612037172916
 20
-86.11394862114186
 10
35.30754519728671
 20
-86.11394862114186
 10
35.22182492124575
 20
-86.11394862114186
 10
35.08467195638521
 20
-86.11394862114186
 10
34.9303765059018
 20
-86.11394862114186
 10
34.74179085222168
 20
-86.11394862114186
 10
34.51891761132049
 20
-86.11394862114186
 10
34.26175678319824
 20
-86.11394862114186
 10
34.00459595507568
 20
-86.11394862114186
 10
33.71314753973173
 20
-86.11394862114186
 10
33.42169912438778
 20
-86.11394862114186
 10
33.11310560744563
 20
-86.11394862114186
 10
32.80451209050349
 20
-86.11394862114186
 10
32.51306367515954
 20
-86.11394862114186
 10
32.20447015821739
 20
-86.11394862114186
 10
31.93016684447196
 20
-86.11394862114186
 10
31.65586091475087
 20
-86.11394862114186
 10
31.41584518822682
 20
-86.11394862114186
 10
31.19297194732532
 20
-86.11394862114186
 10
31.00438629364552
 20
-86.11394862114186
 10
30.83294574156392
 20
-86.11394862114186
 10
30.69579539267838
 20
-86.11394862114186
 10
30.61007511663774
 20
-86.11394862114186
 10
30.55864242781816
 20
-86.11394862114186
 10
30.52435484059678
 20
-86.11394862114186
  0
LWPOLYLINE
  5
170
330
79
100
AcDbEntity
  8
Camada 1
 62
   250
420
  1907995
370
     9
100
AcDbPolyline
 90
       25
 70
     0
 43
0.0
 10
35.10181705798372
 20
-85.95965317065845
 10
35.08467195638521
 20
-85.95965317065845
 10
35.03323926756563
 20
-85.95965317065845
 10
34.9303765059018
 20
-85.95965317065845
 10
34.81036864263977
 20
-85.95965317065845
 10
34.63892809055817
 20
-85.95965317065845
 10
34.45034243687805
 20
-85.95965317065845
 10
34.22746919597687
 20
-85.95965317065845
 10
33.98745346945249
 20
-85.95965317065845
 10
33.73029264132993
 20
-85.95965317065845
 10
33.45598671160884
 20
-85.95965317065845
 10
33.18168339786341
 20
-85.95965317065845
 10
32.89023236654445
 20
-85.95965317065845
 10
32.5987839512005
 20
-85.95965317065845
 10
32.32448063745475
 20
-85.95965317065845
 10
32.06731980933218
 20
-85.95965317065845
 10
31.81015898120961
 20
-85.95965317065845
 10
31.58728574030843
 20
-85.95965317065845
 10
31.38155760100544
 20
-85.95965317065845
 10
31.19297194732532
 20
-85.95965317065845
 10
31.0558189824651
 20
-85.95965317065845
 10
30.93581111920275
 20
-85.95965317065845
 10
30.86723594476031
 20
-85.95965317065845
 10
30.83294574156392
 20
-85.95965317065845
 10
30.81580325594073
 20
-85.95965317065845
  0
LWPOLYLINE
  5
171
330
79
100
AcDbEntity
  8
Camada 1
 62
   250
420
  1907995
370
     9
100
AcDbPolyline
 90
       26
 70
     0
 43
0.0
 10
35.39326547332735
 20
-85.75392241538013
 10
35.37612037172916
 20
-85.75392241538013
 10
35.30754519728671
 20
-85.75392241538013
 10
35.22182492124575
 20
-85.75392241538013
 10
35.08467195638521
 20
-85.75392241538013
 10
34.9303765059018
 20
-85.75392241538013
 10
34.74179085222168
 20
-85.75392241538013
 10
34.51891761132049
 20
-85.75392241538013
 10
34.26175678319824
 20
-85.75392241538013
 10
34.00459595507568
 20
-85.75392241538013
 10
33.71314753973173
 20
-85.75392241538013
 10
33.42169912438778
 20
-85.75392241538013
 10
33.11310560744563
 20
-85.75392241538013
 10
32.80451209050349
 20
-85.75392241538013
 10
32.51306367515954
 20
-85.75392241538013
 10
32.20447015821739
 20
-85.75392241538013
 10
31.93016684447196
 20
-85.75392241538013
 10
31.65586091475087
 20
-85.75392241538013
 10
31.41584518822682
 20
-85.75392241538013
 10
31.19297194732532
 20
-85.75392241538013
 10
31.00438629364552
 20
-85.75392241538013
 10
30.83294574156392
 20
-85.75392241538013
 10
30.69579539267838
 20
-85.75392241538013
 10
30.61007511663774
 20
-85.75392241538013
 10
30.55864242781816
 20
-85.75392241538013
 10
30.52435484059678
 20
-85.75392241538013
  0
LWPOLYLINE
  5
172
330
79
100
AcDbEntity
  8
Camada 1
 62
   250
420
  1907995
370
     9
100
AcDbPolyline
 90
       26
 70
     0
 43
0.0
 10
30.52435484059678
 20
-85.80535772017503
 10
30.55864242781816
 20
-85.80535772017503
 10
30.61007511663774
 20
-85.80535772017503
 10
30.69579539267838
 20
-85.80535772017503
 10
30.83294574156392
 20
-85.80535772017503
 10
31.00438629364552
 20
-85.80535772017503
 10
31.19297194732532
 20
-85.80535772017503
 10
31.41584518822682
 20
-85.80535772017503
 10
31.65586091475087
 20
-85.80535772017503
 10
31.93016684447196
 20
-85.80535772017503
 10
32.20447015821739
 20
-85.80535772017503
 10
32.51306367515954
 20
-85.80535772017503
 10
32.80451209050349
 20
-85.80535772017503
 10
33.11310560744563
 20
-85.80535772017503
 10
33.42169912438778
 20
-85.80535772017503
 10
33.71314753973173
 20
-85.80535772017503
 10
34.00459595507568
 20
-85.80535772017503
 10
34.26175678319824
 20
-85.80535772017503
 10
34.51891761132049
 20
-85.80535772017503
 10
34.74179085222168
 20
-85.80535772017503
 10
34.9303765059018
 20
-85.80535772017503
 10
35.08467195638521
 20
-85.80535772017503
 10
35.22182492124575
 20
-85.80535772017503
 10
35.30754519728671
 20
-85.80535772017503
 10
35.37612037172916
 20
-85.80535772017503
 10
35.39326547332735
 20
-85.80535772017503
  0
LWPOLYLINE
  5
173
330
79
100
AcDbEntity
  8
Camada 1
 62
   250
420
  1907995
370
     9
100
AcDbPolyline
 90
       26
 70
     0
 43
0.0
 10
30.52435484059678
 20
-83.98808682171791
 10
30.55864242781816
 20
-83.98808682171791
 10
30.61007511663774
 20
-83.98808682171791
 10
30.69579539267838
 20
-83.98808682171791
 10
30.83294574156392
 20
-83.98808682171791
 10
31.00438629364552
 20
-83.98808682171791
 10
31.19297194732532
 20
-83.98808682171791
 10
31.41584518822682
 20
-83.98808682171791
 10
31.65586091475087
 20
-83.98808682171791
 10
31.93016684447196
 20
-83.98808682171791
 10
32.20447015821739
 20
-83.98808682171791
 10
32.51306367515954
 20
-83.98808682171791
 10
32.80451209050349
 20
-83.98808682171791
 10
33.11310560744563
 20
-83.98808682171791
 10
33.42169912438778
 20
-83.98808682171791
 10
33.71314753973173
 20
-83.98808682171791
 10
34.00459595507568
 20
-83.98808682171791
 10
34.26175678319824
 20
-83.98808682171791
 10
34.51891761132049
 20
-83.98808682171791
 10
34.74179085222168
 20
-83.98808682171791
 10
34.9303765059018
 20
-83.98808682171791
 10
35.08467195638521
 20
-83.98808682171791
 10
35.22182492124575
 20
-83.98808682171791
 10
35.30754519728671
 20
-83.98808682171791
 10
35.37612037172916
 20
-83.98808682171791
 10
35.39326547332735
 20
-83.98808682171791
  0
LWPOLYLINE
  5
174
330
79
100
AcDbEntity
  8
Camada 1
 62
   250
420
  1907995
370
     9
100
AcDbPolyline
 90
       26
 70
     0
 43
0.0
 10
30.52435484059678
 20
-83.50805013671914
 10
30.55864242781816
 20
-83.50805013671914
 10
30.61007511663774
 20
-83.50805013671914
 10
30.69579539267838
 20
-83.50805013671914
 10
30.83294574156392
 20
-83.50805013671914
 10
31.00438629364552
 20
-83.50805013671914
 10
31.19297194732532
 20
-83.50805013671914
 10
31.41584518822682
 20
-83.50805013671914
 10
31.65586091475087
 20
-83.50805013671914
 10
31.93016684447196
 20
-83.50805013671914
 10
32.20447015821739
 20
-83.50805013671914
 10
32.51306367515954
 20
-83.50805013671914
 10
32.80451209050349
 20
-83.50805013671914
 10
33.11310560744563
 20
-83.50805013671914
 10
33.42169912438778
 20
-83.50805013671914
 10
33.71314753973173
 20
-83.50805013671914
 10
34.00459595507568
 20
-83.50805013671914
 10
34.26175678319824
 20
-83.50805013671914
 10
34.51891761132049
 20
-83.50805013671914
 10
34.74179085222168
 20
-83.50805013671914
 10
34.9303765059018
 20
-83.50805013671914
 10
35.08467195638521
 20
-83.50805013671914
 10
35.22182492124575
 20
-83.50805013671914
 10
35.30754519728671
 20
-83.50805013671914
 10
35.37612037172916
 20
-83.50805013671914
 10
35.39326547332735
 20
-83.50805013671914
  0
LINE
  5
175
330
79
100
AcDbEntity
  8
Camada 1
 62
   250
420
  1907995
370
     9
100
AcDbLine
 10
31.41584518822682
 20
-81.09074253792755
 30
0.0
 11
30.52435484059678
 21
-83.50805013671914
 31
0.0
  0
LINE
  5
176
330
79
100
AcDbEntity
  8
Camada 1
 62
   250
420
  1907995
370
     9
100
AcDbLine
 10
35.39326547332735
 20
-83.50805013671914
 30
0.0
 11
34.51891761132049
 21
-81.09074253792755
 31
0.0
  0
LINE
  5
177
330
79
100
AcDbEntity
  8
Camada 1
 62
   250
420
  1907995
370
     9
100
AcDbLine
 10
30.81580325594073
 20
-84.14238227220131
 30
0.0
 11
30.52435484059678
 21
-84.27953262108685
 31
0.0
  0
LINE
  5
178
330
79
100
AcDbEntity
  8
Camada 1
 62
   250
420
  1907995
370
     9
100
AcDbLine
 10
35.39326547332735
 20
-84.27953262108685
 30
0.0
 11
35.10181705798372
 21
-84.14238227220131
 31
0.0
  0
LINE
  5
179
330
79
100
AcDbEntity
  8
Camada 1
 62
   250
420
  1907995
370
     9
100
AcDbLine
 10
35.10181705798372
 20
-84.14238227220131
 30
0.0
 11
35.39326547332735
 21
-83.98808682171791
 31
0.0
  0
LINE
  5
17A
330
79
100
AcDbEntity
  8
Camada 1
 62
   250
420
  1907995
370
     9
100
AcDbLine
 10
30.52435484059678
 20
-83.98808682171791
 30
0.0
 11
30.81580325594073
 21
-84.14238227220131
 31
0.0
  0
LINE
  5
17B
330
79
100
AcDbEntity
  8
Camada 1
 62
   250
420
  1907995
370
     9
100
AcDbLine
 10
35.39326547332735
 20
-84.34811302747965
 30
0.0
 11
35.39326547332735
 21
-84.27953262108685
 31
0.0
  0
LINE
  5
17C
330
79
100
AcDbEntity
  8
Camada 1
 62
   250
420
  1907995
370
     9
100
AcDbLine
 10
30.52435484059678
 20
-84.27953262108685
 30
0.0
 11
30.52435484059678
 21
-84.34811302747965
 31
0.0
  0
LINE
  5
17D
330
79
100
AcDbEntity
  8
Camada 1
 62
   250
420
  1907995
370
     9
100
AcDbLine
 10
30.81580325594073
 20
-84.50240847796305
 30
0.0
 11
30.52435484059678
 21
-84.65670392844774
 31
0.0
  0
LINE
  5
17E
330
79
100
AcDbEntity
  8
Camada 1
 62
   250
420
  1907995
370
     9
100
AcDbLine
 10
35.39326547332735
 20
-84.65670392844774
 30
0.0
 11
35.10181705798372
 21
-84.50240847796305
 31
0.0
  0
LINE
  5
17F
330
79
100
AcDbEntity
  8
Camada 1
 62
   250
420
  1907995
370
     9
100
AcDbLine
 10
35.10181705798372
 20
-84.50240847796305
 30
0.0
 11
35.39326547332735
 21
-84.34811302747965
 31
0.0
  0
LINE
  5
180
330
79
100
AcDbEntity
  8
Camada 1
 62
   250
420
  1907995
370
     9
100
AcDbLine
 10
30.52435484059678
 20
-84.34811302747965
 30
0.0
 11
30.81580325594073
 21
-84.50240847796305
 31
0.0
  0
LINE
  5
181
330
79
100
AcDbEntity
  8
Camada 1
 62
   250
420
  1907995
370
     9
100
AcDbLine
 10
35.39326547332735
 20
-84.708134001292
 30
0.0
 11
35.39326547332735
 21
-84.65670392844774
 31
0.0
  0
LINE
  5
182
330
79
100
AcDbEntity
  8
Camada 1
 62
   250
420
  1907995
370
     9
100
AcDbLine
 10
30.52435484059678
 20
-84.65670392844774
 30
0.0
 11
30.52435484059678
 21
-84.708134001292
 31
0.0
  0
LINE
  5
183
330
79
100
AcDbEntity
  8
Camada 1
 62
   250
420
  1907995
370
     9
100
AcDbLine
 10
30.81580325594073
 20
-84.86243468372476
 30
0.0
 11
30.52435484059678
 21
-85.01673013420818
 31
0.0
  0
LINE
  5
184
330
79
100
AcDbEntity
  8
Camada 1
 62
   250
420
  1907995
370
     9
100
AcDbLine
 10
35.39326547332735
 20
-85.01673013420818
 30
0.0
 11
35.10181705798372
 21
-84.86243468372476
 31
0.0
  0
LINE
  5
185
330
79
100
AcDbEntity
  8
Camada 1
 62
   250
420
  1907995
370
     9
100
AcDbLine
 10
35.10181705798372
 20
-84.86243468372476
 30
0.0
 11
35.39326547332735
 21
-84.708134001292
 31
0.0
  0
LINE
  5
186
330
79
100
AcDbEntity
  8
Camada 1
 62
   250
420
  1907995
370
     9
100
AcDbLine
 10
30.52435484059678
 20
-84.708134001292
 30
0.0
 11
30.81580325594073
 21
-84.86243468372476
 31
0.0
  0
LINE
  5
187
330
79
100
AcDbEntity
  8
Camada 1
 62
   250
420
  1907995
370
     9
100
AcDbLine
 10
35.39326547332735
 20
-85.08530530865158
 30
0.0
 11
35.39326547332735
 21
-85.01673013420818
 31
0.0
  0
LINE
  5
188
330
79
100
AcDbEntity
  8
Camada 1
 62
   250
420
  1907995
370
     9
100
AcDbLine
 10
30.52435484059678
 20
-85.01673013420818
 30
0.0
 11
30.52435484059678
 21
-85.08530530865158
 31
0.0
  0
LINE
  5
189
330
79
100
AcDbEntity
  8
Camada 1
 62
   250
420
  1907995
370
     9
100
AcDbLine
 10
30.81580325594073
 20
-85.239600759135
 30
0.0
 11
30.52435484059678
 21
-85.37675633996991
 31
0.0
  0
LINE
  5
18A
330
79
100
AcDbEntity
  8
Camada 1
 62
   250
420
  1907995
370
     9
100
AcDbLine
 10
35.39326547332735
 20
-85.37675633996991
 30
0.0
 11
35.10181705798372
 21
-85.239600759135
 31
0.0
  0
LINE
  5
18B
330
79
100
AcDbEntity
  8
Camada 1
 62
   250
420
  1907995
370
     9
100
AcDbLine
 10
35.10181705798372
 20
-85.239600759135
 30
0.0
 11
35.39326547332735
 21
-85.08530530865158
 31
0.0
  0
LINE
  5
18C
330
79
100
AcDbEntity
  8
Camada 1
 62
   250
420
  1907995
370
     9
100
AcDbLine
 10
30.52435484059678
 20
-85.08530530865158
 30
0.0
 11
30.81580325594073
 21
-85.239600759135
 31
0.0
  0
LINE
  5
18D
330
79
100
AcDbEntity
  8
Camada 1
 62
   250
420
  1907995
370
     9
100
AcDbLine
 10
35.39326547332735
 20
-85.44533151441331
 30
0.0
 11
35.39326547332735
 21
-85.37675633996991
 31
0.0
  0
LINE
  5
18E
330
79
100
AcDbEntity
  8
Camada 1
 62
   250
420
  1907995
370
     9
100
AcDbLine
 10
30.52435484059678
 20
-85.37675633996991
 30
0.0
 11
30.52435484059678
 21
-85.44533151441331
 31
0.0
  0
LINE
  5
18F
330
79
100
AcDbEntity
  8
Camada 1
 62
   250
420
  1907995
370
     9
100
AcDbLine
 10
30.81580325594073
 20
-85.59962696489673
 30
0.0
 11
30.52435484059678
 21
-85.75392241538013
 31
0.0
  0
LINE
  5
190
330
79
100
AcDbEntity
  8
Camada 1
 62
   250
420
  1907995
370
     9
100
AcDbLine
 10
35.39326547332735
 20
-85.75392241538013
 30
0.0
 11
35.10181705798372
 21
-85.59962696489673
 31
0.0
  0
LINE
  5
191
330
79
100
AcDbEntity
  8
Camada 1
 62
   250
420
  1907995
370
     9
100
AcDbLine
 10
35.10181705798372
 20
-85.59962696489673
 30
0.0
 11
35.39326547332735
 21
-85.44533151441331
 31
0.0
  0
LINE
  5
192
330
79
100
AcDbEntity
  8
Camada 1
 62
   250
420
  1907995
370
     9
100
AcDbLine
 10
30.52435484059678
 20
-85.44533151441331
 30
0.0
 11
30.81580325594073
 21
-85.59962696489673
 31
0.0
  0
LINE
  5
193
330
79
100
AcDbEntity
  8
Camada 1
 62
   250
420
  1907995
370
     9
100
AcDbLine
 10
35.39326547332735
 20
-86.1653786939861
 30
0.0
 11
35.39326547332735
 21
-86.11394862114186
 31
0.0
  0
LINE
  5
194
330
79
100
AcDbEntity
  8
Camada 1
 62
   250
420
  1907995
370
     9
100
AcDbLine
 10
30.52435484059678
 20
-86.11394862114186
 30
0.0
 11
30.52435484059678
 21
-86.1653786939861
 31
0.0
  0
LINE
  5
195
330
79
100
AcDbEntity
  8
Camada 1
 62
   250
420
  1907995
370
     9
100
AcDbLine
 10
30.81580325594073
 20
-85.95965317065845
 30
0.0
 11
30.52435484059678
 21
-86.11394862114186
 31
0.0
  0
LINE
  5
196
330
79
100
AcDbEntity
  8
Camada 1
 62
   250
420
  1907995
370
     9
100
AcDbLine
 10
35.39326547332735
 20
-86.11394862114186
 30
0.0
 11
35.10181705798372
 21
-85.95965317065845
 31
0.0
  0
LINE
  5
197
330
79
100
AcDbEntity
  8
Camada 1
 62
   250
420
  1907995
370
     9
100
AcDbLine
 10
35.10181705798372
 20
-85.95965317065845
 30
0.0
 11
35.39326547332735
 21
-85.80535772017503
 31
0.0
  0
LINE
  5
198
330
79
100
AcDbEntity
  8
Camada 1
 62
   250
420
  1907995
370
     9
100
AcDbLine
 10
30.52435484059678
 20
-85.80535772017503
 30
0.0
 11
30.81580325594073
 21
-85.95965317065845
 31
0.0
  0
LINE
  5
199
330
79
100
AcDbEntity
  8
Camada 1
 62
   250
420
  1907995
370
     9
100
AcDbLine
 10
35.39326547332735
 20
-85.80535772017503
 30
0.0
 11
35.39326547332735
 21
-85.75392241538013
 31
0.0
  0
LINE
  5
19A
330
79
100
AcDbEntity
  8
Camada 1
 62
   250
420
  1907995
370
     9
100
AcDbLine
 10
30.52435484059678
 20
-85.75392241538013
 30
0.0
 11
30.52435484059678
 21
-85.80535772017503
 31
0.0
  0
LINE
  5
19B
330
79
100
AcDbEntity
  8
Camada 1
 62
   250
420
  1907995
370
     9
100
AcDbLine
 10
35.39326547332735
 20
-83.98808682171791
 30
0.0
 11
35.39326547332735
 21
-83.50805013671914
 31
0.0
  0
LINE
  5
19C
330
79
100
AcDbEntity
  8
Camada 1
 62
   250
420
  1907995
370
     9
100
AcDbLine
 10
30.52435484059678
 20
-83.50805013671914
 30
0.0
 11
30.52435484059678
 21
-83.98808682171791
 31
0.0
  0
LWPOLYLINE
  5
19D
330
79
100
AcDbEntity
  8
Camada 1
 62
   250
420
  1907995
370
     9
100
AcDbPolyline
 90
        9
 70
     0
 43
0.0
 10
28.94709966866498
 20
-14.4346579813375
 10
28.9128120814436
 20
-14.4346579813375
 10
28.86137939262402
 20
-14.45179785098568
 10
28.80994670380444
 20
-14.46893772063322
 10
28.77565911658306
 20
-14.50322792382993
 10
28.75851401498486
 20
-14.53751812702664
 10
28.72422642776348
 20
-14.57180833022303
 10
28.70708394214061
 20
-14.62323840306728
 10
28.70708394214061
 20
-14.67466847591153
  0
LINE
  5
19E
330
79
100
AcDbEntity
  8
Camada 1
 62
   250
420
  1907995
370
     9
100
AcDbLine
 10
37.21053375580851
 20
-17.82917881977544
 30
0.0
 11
37.21053375580851
 21
-14.67466847591153
 31
0.0
  0
LINE
  5
19F
330
79
100
AcDbEntity
  8
Camada 1
 62
   250
420
  1907995
370
     9
100
AcDbLine
 10
36.97051802928382
 20
-14.4346579813375
 30
0.0
 11
28.94709966866498
 21
-14.4346579813375
 31
0.0
  0
LINE
  5
1A0
330
79
100
AcDbEntity
  8
Camada 1
 62
   250
420
  1907995
370
     9
100
AcDbLine
 10
28.70708394214061
 20
-14.67466847591153
 30
0.0
 11
28.70708394214061
 21
-17.82917881977544
 31
0.0
  0
LWPOLYLINE
  5
1A1
330
79
100
AcDbEntity
  8
Camada 1
 62
   250
420
  1907995
370
     9
100
AcDbPolyline
 90
        9
 70
     0
 43
0.0
 10
28.70708394214061
 20
-17.82917881977544
 10
28.70708394214061
 20
-17.88060889262001
 10
28.72422642776348
 20
-17.93203896546426
 10
28.75851401498486
 20
-17.96632916866065
 10
28.77565911658306
 20
-18.00061937185737
 10
28.80994670380444
 20
-18.03490957505344
 10
28.86137939262402
 20
-18.05204944470162
 10
28.9128120814436
 20
-18.06918931434915
 10
28.94709966866498
 20
-18.06918931434915
  0
LINE
  5
1A2
330
79
100
AcDbEntity
  8
Camada 1
 62
   250
420
  1907995
370
     9
100
AcDbLine
 10
28.94709966866498
 20
-18.06918931434915
 30
0.0
 11
36.97051802928382
 21
-18.06918931434915
 31
0.0
  0
LWPOLYLINE
  5
1A3
330
79
100
AcDbEntity
  8
Camada 1
 62
   250
420
  1907995
370
     9
100
AcDbPolyline
 90
        9
 70
     0
 43
0.0
 10
36.97051802928382
 20
-18.06918931434915
 10
37.02195071810372
 20
-18.06918931434915
 10
37.0562383053251
 20
-18.05204944470162
 10
37.10767099414468
 20
-18.03490957505344
 10
37.14195858136606
 20
-18.00061937185737
 10
37.17624616858713
 20
-17.96632916866065
 10
37.19339127018532
 20
-17.93203896546426
 10
37.21053375580851
 20
-17.88060889262001
 10
37.21053375580851
 20
-17.82917881977544
  0
LWPOLYLINE
  5
1A4
330
79
100
AcDbEntity
  8
Camada 1
 62
   250
420
  1907995
370
     9
100
AcDbPolyline
 90
        9
 70
     0
 43
0.0
 10
37.21053375580851
 20
-14.67466847591153
 10
37.21053375580851
 20
-14.62323840306728
 10
37.19339127018532
 20
-14.57180833022303
 10
37.17624616858713
 20
-14.53751812702664
 10
37.14195858136606
 20
-14.50322792382993
 10
37.10767099414468
 20
-14.46893772063322
 10
37.0562383053251
 20
-14.45179785098568
 10
37.02195071810372
 20
-14.4346579813375
 10
36.97051802928382
 20
-14.4346579813375
  0
LWPOLYLINE
  5
1A5
330
79
100
AcDbEntity
  8
Camada 1
 62
   250
420
  1907995
370
     9
100
AcDbPolyline
 90
        9
 70
     0
 43
0.0
 10
33.93602078063292
 20
-18.44636062170907
 10
33.91887567903439
 20
-18.44636062170907
 10
33.86744299021482
 20
-18.44636062170907
 10
33.79886781577269
 20
-18.44636062170907
 10
33.71314753973173
 20
-18.44636062170907
 10
33.62742726369077
 20
-18.44636062170907
 10
33.55884947327299
 20
-18.44636062170907
 10
33.50741940042875
 20
-18.44636062170907
 10
33.49027429883022
 20
-18.44636062170907
  0
LWPOLYLINE
  5
1A6
330
79
100
AcDbEntity
  8
Camada 1
 62
   250
420
  1907995
370
     9
100
AcDbPolyline
 90
        9
 70
     0
 43
0.0
 10
32.41019829752037
 20
-18.44636062170907
 10
32.39305581189751
 20
-18.44636062170907
 10
32.34162312307793
 20
-18.44636062170907
 10
32.27304533266015
 20
-18.44636062170907
 10
32.1873250566192
 20
-18.44636062170907
 10
32.10160478057823
 20
-18.44636062170907
 10
32.03302960613579
 20
-18.44636062170907
 10
31.98159691731621
 20
-18.44636062170907
 10
31.96445443169334
 20
-18.44636062170907
  0
LWPOLYLINE
  5
1A7
330
79
100
AcDbEntity
  8
Camada 1
 62
   250
420
  1907995
370
     9
100
AcDbPolyline
 90
        9
 70
     0
 43
0.0
 10
30.86723332878498
 20
-18.44636062170907
 10
30.85009084316211
 20
-18.44636062170907
 10
30.8158006399654
 20
-18.44636062170907
 10
30.73008036392475
 20
-18.44636062170907
 10
30.66150518948231
 20
-18.44636062170907
 10
30.57578491344135
 20
-18.44636062170907
 10
30.50720973899858
 20
-18.44636062170907
 10
30.455777050179
 20
-18.44636062170907
 10
30.4386319485808
 20
-18.44636062170907
  0
LWPOLYLINE
  5
1A8
330
79
100
AcDbEntity
  8
Camada 1
 62
   250
420
  1907995
370
     9
100
AcDbPolyline
 90
        9
 70
     0
 43
0.0
 10
35.4618406477698
 20
-18.44636062170907
 10
35.4446955461716
 20
-18.44636062170907
 10
35.41040795895054
 20
-18.44636062170907
 10
35.32468768290958
 20
-18.44636062170907
 10
35.23896740686861
 20
-18.44636062170907
 10
35.17039223242617
 20
-18.44636062170907
 10
35.08467195638521
 20
-18.44636062170907
 10
35.05038436916414
 20
-18.44636062170907
 10
35.03323926756563
 20
-18.44636062170907
  0
LWPOLYLINE
  5
1A9
330
79
100
AcDbEntity
  8
Camada 1
 62
   250
420
  1907995
370
     9
100
AcDbPolyline
 90
       14
 70
     0
 43
0.0
 10
34.57035030014007
 20
-14.4346579813375
 10
34.51891761132049
 20
-14.38321744459257
 10
34.26175678319824
 20
-14.19463702286279
 10
34.00459595507568
 20
-14.05748667397758
 10
33.71314753973173
 20
-13.93747619474022
 10
33.42169912438778
 20
-13.86889578834744
 10
33.11310560744563
 20
-13.83461604905173
 10
32.80451209050349
 20
-13.83461604905173
 10
32.51306367515954
 20
-13.86889578834744
 10
32.20447015821739
 20
-13.93747619474022
 10
31.93016422849663
 20
-14.05748667397758
 10
31.65586091475087
 20
-14.19463702286279
 10
31.4158425722515
 20
-14.38321744459257
 10
31.34726739780905
 20
-14.4346579813375
  0
LWPOLYLINE
  5
1AA
330
79
100
AcDbEntity
  8
Camada 1
 62
   250
420
  1907995
370
     9
100
AcDbPolyline
 90
       14
 70
     0
 43
0.0
 10
31.34726739780905
 20
-18.06918931434915
 10
31.4158425722515
 20
-18.1206298510944
 10
31.65586091475087
 20
-18.30921027282418
 10
31.93016422849663
 20
-18.44636062170907
 10
32.20447015821739
 20
-18.56637110094675
 10
32.51306367515954
 20
-18.63495150733986
 10
32.80451209050349
 20
-18.66923124663525
 10
33.11310560744563
 20
-18.66923124663525
 10
33.42169912438778
 20
-18.63495150733986
 10
33.71314753973173
 20
-18.56637110094675
 10
34.00459595507568
 20
-18.44636062170907
 10
34.26175678319824
 20
-18.30921027282418
 10
34.51891761132049
 20
-18.1206298510944
 10
34.57035030014007
 20
-18.06918931434915
  0
LINE
  5
1AB
330
79
100
AcDbEntity
  8
Camada 1
 62
   250
420
  1907995
370
     9
100
AcDbLine
 10
33.93602078063292
 20
-18.44636062170907
 30
0.0
 11
34.00459595507568
 21
-18.06918931434915
 31
0.0
  0
LINE
  5
1AC
330
79
100
AcDbEntity
  8
Camada 1
 62
   250
420
  1907995
370
     9
100
AcDbLine
 10
33.43884161001065
 20
-18.06918931434915
 30
0.0
 11
33.49027429883022
 21
-18.44636062170907
 31
0.0
  0
LINE
  5
1AD
330
79
100
AcDbEntity
  8
Camada 1
 62
   250
420
  1907995
370
     9
100
AcDbLine
 10
32.41019829752037
 20
-18.44636062170907
 30
0.0
 11
32.46163098634028
 21
-18.06918931434915
 31
0.0
  0
LINE
  5
1AE
330
79
100
AcDbEntity
  8
Camada 1
 62
   250
420
  1907995
370
     9
100
AcDbLine
 10
31.89587664127524
 20
-18.06918931434915
 30
0.0
 11
31.96445443169334
 21
-18.44636062170907
 31
0.0
  0
LINE
  5
1AF
330
79
100
AcDbEntity
  8
Camada 1
 62
   250
420
  1907995
370
     9
100
AcDbLine
 10
30.86723332878498
 20
-18.44636062170907
 30
0.0
 11
30.93581111920275
 21
-18.06918931434915
 31
0.0
  0
LINE
  5
1B0
330
79
100
AcDbEntity
  8
Camada 1
 62
   250
420
  1907995
370
     9
100
AcDbLine
 10
30.37005677413836
 20
-18.06918931434915
 30
0.0
 11
30.4386319485808
 21
-18.44636062170907
 31
0.0
  0
LINE
  5
1B1
330
79
100
AcDbEntity
  8
Camada 1
 62
   250
420
  1907995
370
     9
100
AcDbLine
 10
35.4618406477698
 20
-18.44636062170907
 30
0.0
 11
35.53041582221256
 21
-18.06918931434915
 31
0.0
  0
LINE
  5
1B2
330
79
100
AcDbEntity
  8
Camada 1
 62
   250
420
  1907995
370
     9
100
AcDbLine
 10
34.96466409312319
 20
-18.06918931434915
 30
0.0
 11
35.03323926756563
 21
-18.44636062170907
 31
0.0
  0
ENDBLK
  5
7C
330
79
100
AcDbEntity
  8
0
100
AcDbBlockEnd
  0
ENDSEC
  0
SECTION
  2
ENTITIES
  0
INSERT
  5
7A
330
70
100
AcDbEntity
  8
Camada 1
100
AcDbBlockReference
  2
Block_0
 10
0.0
 20
0.0
 30
0.0
  0
ENDSEC
  0
SECTION
  2
OBJECTS
  0
DICTIONARY
  5
C
330
0
100
AcDbDictionary
281
     1
  3
ACAD_COLOR
350
63
  3
ACAD_DETAILVIEWSTYLE
350
6A
  3
ACAD_GROUP
350
D
  3
ACAD_LAYOUT
350
62
  3
ACAD_MATERIAL
350
10
  3
ACAD_MLEADERSTYLE
350
66
  3
ACAD_MLINESTYLE
350
5F
  3
ACAD_PLOTSETTINGS
350
61
  3
ACAD_PLOTSTYLENAME
350
E
  3
ACAD_SCALELIST
350
42
  3
ACAD_SECTIONVIEWSTYLE
350
68
  3
ACAD_TABLESTYLE
350
64
  3
ACAD_VISUALSTYLE
350
29
  3
ACDB_RECOMPOSE_DATA
350
1BB
  3
AcDbVariableDictionary
350
1B3
  0
DICTIONARY
  5
63
102
{ACAD_REACTORS
330
C
102
}
330
C
100
AcDbDictionary
281
     1
  0
DICTIONARY
  5
6A
102
{ACAD_REACTORS
330
C
102
}
330
C
100
AcDbDictionary
281
     1
  3
Imperial24
350
6B
  0
DICTIONARY
  5
D
102
{ACAD_REACTORS
330
C
102
}
330
C
100
AcDbDictionary
281
     1
  0
DICTIONARY
  5
62
102
{ACAD_REACTORS
330
C
102
}
330
C
100
AcDbDictionary
281
     1
  3
Layout1
350
6F
  3
Layout2
350
77
  3
Model
350
73
  0
DICTIONARY
  5
10
102
{ACAD_REACTORS
330
C
102
}
330
C
100
AcDbDictionary
281
     1
  3
ByBlock
350
19
  3
ByLayer
350
11
  3
Global
350
21
  0
DICTIONARY
  5
66
102
{ACAD_REACTORS
330
C
102
}
330
C
100
AcDbDictionary
281
     1
  3
Standard
350
67
  0
DICTIONARY
  5
5F
102
{ACAD_REACTORS
330
C
102
}
330
C
100
AcDbDictionary
281
     1
  3
Standard
350
60
  0
DICTIONARY
  5
61
102
{ACAD_REACTORS
330
C
102
}
330
C
100
AcDbDictionary
281
     1
  0
ACDBDICTIONARYWDFLT
  5
E
102
{ACAD_REACTORS
330
C
102
}
330
C
100
AcDbDictionary
281
     1
  3
Normal
350
F
100
AcDbDictionaryWithDefault
340
F
  0
DICTIONARY
  5
42
102
{ACAD_REACTORS
330
C
102
}
330
C
100
AcDbDictionary
281
     1
  3
A0
350
43
  3
A1
350
44
  3
A2
350
45
  3
A3
350
46
  3
A4
350
47
  3
A5
350
48
  3
A6
350
49
  3
A7
350
4A
  3
A8
350
4B
  3
A9
350
4C
  3
B0
350
4D
  3
B1
350
4E
  3
B2
350
4F
  3
B3
350
50
  3
B4
350
51
  3
B5
350
52
  3
B6
350
53
  0
DICTIONARY
  5
68
102
{ACAD_REACTORS
330
C
102
}
330
C
100
AcDbDictionary
281
     1
  3
Imperial24
350
69
  0
DICTIONARY
  5
64
102
{ACAD_REACTORS
330
C
102
}
330
C
100
AcDbDictionary
281
     1
  3
Standard
350
65
  0
DICTIONARY
  5
29
102
{ACAD_REACTORS
330
C
102
}
330
C
100
AcDbDictionary
281
     1
  3
2dWireframe
350
2F
  3
Basic
350
2E
  3
Brighten
350
35
  3
ColorChange
350
39
  3
Conceptual
350
32
  3
Dim
350
34
  3
EdgeColorOff
350
41
  3
Facepattern
350
38
  3
Flat
350
2A
  3
FlatWithEdges
350
2B
  3
Gouraud
350
2C
  3
GouraudWithEdges
350
2D
  3
Hidden
350
31
  3
JitterOff
350
3F
  3
Linepattern
350
37
  3
OverhangOff
350
40
  3
Realistic
350
33
  3
Shaded
350
3E
  3
Shaded with edges
350
3D
  3
Shades of Gray
350
3A
  3
Sketchy
350
3B
  3
Thicken
350
36
  3
Wireframe
350
30
  3
X-Ray
350
3C
  0
XRECORD
  5
1BB
102
{ACAD_REACTORS
330
C
102
}
330
C
100
AcDbXrecord
280
     1
 90
        1
330
65
  0
DICTIONARY
  5
1B3
102
{ACAD_REACTORS
330
C
102
}
330
C
100
AcDbDictionary
281
     1
  3
CANNOSCALE
350
1B8
  3
CMLEADERSTYLE
350
1B5
  3
CTABLESTYLE
350
1B4
  3
CVIEWDETAILSTYLE
350
1B6
  3
CVIEWSECTIONSTYLE
350
1B7
  0
ACDBDETAILVIEWSTYLE
  5
6B
102
{ACAD_REACTORS
330
6A
102
}
330
6A
100
AcDbModelDocViewStyle
 70
     0
  3
Imperial24
290
     1
300
Imperial24
 90
        0
100
AcDbDetailViewStyle
 70
     0
 71
     0
 90
        3
 71
     1
340
55
 62
   256
 40
0.24
340
0
 62
   256
 40
0.24
300

 40
0.36
280
     3
 71
     2
340
5D
 90
       25
 62
   256
 71
     3
340
55
 62
   256
 40
0.24
 90
        1
 40
0.75
 90
        1
300
%<\AcVar ViewType \f "%tc1">% %<\AcVar ViewDetailId>%\PSCALE %<\AcVar ViewScale \f "%sn">%
 71
     4
340
5D
 90
       25
 62
   256
340
5D
 90
       25
 62
   256
280
     0
  0
LAYOUT
  5
6F
102
{ACAD_REACTORS
330
62
102
}
330
62
100
AcDbPlotSettings
  1

  2

  4

  6

 40
0.0
 41
0.0
 42
0.0
 43
0.0
 44
0.0
 45
0.0
 46
0.0
 47
0.0
 48
0.0
 49
0.0
140
0.0
141
0.0
142
1.0
143
1.0
 70
   688
 72
     0
 73
     0
 74
     5
  7

 75
    16
147
1.0
 76
     0
 77
     2
 78
   300
148
0.0
149
0.0
100
AcDbLayout
  1
Layout1
 70
     1
 71
     1
 10
0.0
 20
0.0
 11
12.0
 21
9.0
 12
0.0
 22
0.0
 32
0.0
 14
0.0
 24
0.0
 34
0.0
 15
0.0
 25
0.0
 35
0.0
146
0.0
 13
0.0
 23
0.0
 33
0.0
 16
1.0
 26
0.0
 36
0.0
 17
0.0
 27
1.0
 37
0.0
 76
     0
330
6C
  0
LAYOUT
  5
77
102
{ACAD_REACTORS
330
62
102
}
330
62
100
AcDbPlotSettings
  1

  2

  4

  6

 40
0.0
 41
0.0
 42
0.0
 43
0.0
 44
0.0
 45
0.0
 46
0.0
 47
0.0
 48
0.0
 49
0.0
140
0.0
141
0.0
142
1.0
143
1.0
 70
   688
 72
     0
 73
     0
 74
     5
  7

 75
    16
147
1.0
 76
     0
 77
     2
 78
   300
148
0.0
149
0.0
100
AcDbLayout
  1
Layout2
 70
     1
 71
     2
 10
0.0
 20
0.0
 11
12.0
 21
9.0
 12
0.0
 22
0.0
 32
0.0
 14
0.0
 24
0.0
 34
0.0
 15
0.0
 25
0.0
 35
0.0
146
0.0
 13
0.0
 23
0.0
 33
0.0
 16
1.0
 26
0.0
 36
0.0
 17
0.0
 27
1.0
 37
0.0
 76
     0
330
74
  0
LAYOUT
  5
73
102
{ACAD_REACTORS
330
62
102
}
330
62
100
AcDbPlotSettings
  1

  2

  4

  6

 40
0.0
 41
0.0
 42
0.0
 43
0.0
 44
0.0
 45
0.0
 46
0.0
 47
0.0
 48
0.0
 49
0.0
140
0.0
141
0.0
142
1.0
143
1.0
 70
  1712
 72
     0
 73
     0
 74
     0
  7

 75
     0
147
1.0
 76
     0
 77
     2
 78
   300
148
0.0
149
0.0
100
AcDbLayout
  1
Model
 70
     1
 71
     0
 10
0.0
 20
0.0
 11
12.0
 21
9.0
 12
0.0
 22
0.0
 32
0.0
 14
0.0
 24
0.0
 34
0.0
 15
0.0
 25
0.0
 35
0.0
146
0.0
 13
0.0
 23
0.0
 33
0.0
 16
1.0
 26
0.0
 36
0.0
 17
0.0
 27
1.0
 37
0.0
 76
     0
330
70
  0
MATERIAL
  5
19
102
{ACAD_XDICTIONARY
360
1A
102
}
102
{ACAD_REACTORS
330
10
102
}
330
10
100
AcDbMaterial
  1
ByBlock
 72
     0
 43
0.0208333333333333
 43
0.0
 43
0.0
 43
0.0
 43
0.0
 43
0.0208333333333333
 43
0.0
 43
0.0
 43
0.0
 43
0.0
 43
1.0
 43
0.0
 43
0.0
 43
0.0
 43
0.0
 43
1.0
 77
     0
 47
0.0208333333333333
 47
0.0
 47
0.0
 47
0.0
 47
0.0
 47
0.0208333333333333
 47
0.0
 47
0.0
 47
0.0
 47
0.0
 47
1.0
 47
0.0
 47
0.0
 47
0.0
 47
0.0
 47
1.0
171
     0
 49
0.0208333333333333
 49
0.0
 49
0.0
 49
0.0
 49
0.0
 49
0.0208333333333333
 49
0.0
 49
0.0
 49
0.0
 49
0.0
 49
1.0
 49
0.0
 49
0.0
 49
0.0
 49
0.0
 49
1.0
175
     0
142
0.0208333333333333
142
0.0
142
0.0
142
0.0
142
0.0
142
0.0208333333333333
142
0.0
142
0.0
142
0.0
142
0.0
142
1.0
142
0.0
142
0.0
142
0.0
142
0.0
142
1.0
179
     0
144
0.0208333333333333
144
0.0
144
0.0
144
0.0
144
0.0
144
0.0208333333333333
144
0.0
144
0.0
144
0.0
144
0.0
144
1.0
144
0.0
144
0.0
144
0.0
144
0.0
144
1.0
147
0.0208333333333333
147
0.0
147
0.0
147
0.0
147
0.0
147
0.0208333333333333
147
0.0
147
0.0
147
0.0
147
0.0
147
1.0
147
0.0
147
0.0
147
0.0
147
0.0
147
1.0
  0
MATERIAL
  5
11
102
{ACAD_XDICTIONARY
360
12
102
}
102
{ACAD_REACTORS
330
10
102
}
330
10
100
AcDbMaterial
  1
ByLayer
 72
     0
 43
0.0208333333333333
 43
0.0
 43
0.0
 43
0.0
 43
0.0
 43
0.0208333333333333
 43
0.0
 43
0.0
 43
0.0
 43
0.0
 43
1.0
 43
0.0
 43
0.0
 43
0.0
 43
0.0
 43
1.0
 77
     0
 47
0.0208333333333333
 47
0.0
 47
0.0
 47
0.0
 47
0.0
 47
0.0208333333333333
 47
0.0
 47
0.0
 47
0.0
 47
0.0
 47
1.0
 47
0.0
 47
0.0
 47
0.0
 47
0.0
 47
1.0
171
     0
 49
0.0208333333333333
 49
0.0
 49
0.0
 49
0.0
 49
0.0
 49
0.0208333333333333
 49
0.0
 49
0.0
 49
0.0
 49
0.0
 49
1.0
 49
0.0
 49
0.0
 49
0.0
 49
0.0
 49
1.0
175
     0
142
0.0208333333333333
142
0.0
142
0.0
142
0.0
142
0.0
142
0.0208333333333333
142
0.0
142
0.0
142
0.0
142
0.0
142
1.0
142
0.0
142
0.0
142
0.0
142
0.0
142
1.0
179
     0
144
0.0208333333333333
144
0.0
144
0.0
144
0.0
144
0.0
144
0.0208333333333333
144
0.0
144
0.0
144
0.0
144
0.0
144
1.0
144
0.0
144
0.0
144
0.0
144
0.0
144
1.0
147
0.0208333333333333
147
0.0
147
0.0
147
0.0
147
0.0
147
0.0208333333333333
147
0.0
147
0.0
147
0.0
147
0.0
147
1.0
147
0.0
147
0.0
147
0.0
147
0.0
147
1.0
  0
MATERIAL
  5
21
102
{ACAD_XDICTIONARY
360
22
102
}
102
{ACAD_REACTORS
330
10
102
}
330
10
100
AcDbMaterial
  1
Global
 72
     0
 43
0.0208333333333333
 43
0.0
 43
0.0
 43
0.0
 43
0.0
 43
0.0208333333333333
 43
0.0
 43
0.0
 43
0.0
 43
0.0
 43
1.0
 43
0.0
 43
0.0
 43
0.0
 43
0.0
 43
1.0
 77
     0
 47
0.0208333333333333
 47
0.0
 47
0.0
 47
0.0
 47
0.0
 47
0.0208333333333333
 47
0.0
 47
0.0
 47
0.0
 47
0.0
 47
1.0
 47
0.0
 47
0.0
 47
0.0
 47
0.0
 47
1.0
171
     0
 49
0.0208333333333333
 49
0.0
 49
0.0
 49
0.0
 49
0.0
 49
0.0208333333333333
 49
0.0
 49
0.0
 49
0.0
 49
0.0
 49
1.0
 49
0.0
 49
0.0
 49
0.0
 49
0.0
 49
1.0
175
     0
142
0.0208333333333333
142
0.0
142
0.0
142
0.0
142
0.0
142
0.0208333333333333
142
0.0
142
0.0
142
0.0
142
0.0
142
1.0
142
0.0
142
0.0
142
0.0
142
0.0
142
1.0
179
     0
144
0.0208333333333333
144
0.0
144
0.0
144
0.0
144
0.0
144
0.0208333333333333
144
0.0
144
0.0
144
0.0
144
0.0
144
1.0
144
0.0
144
0.0
144
0.0
144
0.0
144
1.0
147
0.0208333333333333
147
0.0
147
0.0
147
0.0
147
0.0
147
0.0208333333333333
147
0.0
147
0.0
147
0.0
147
0.0
147
1.0
147
0.0
147
0.0
147
0.0
147
0.0
147
1.0
  0
MLEADERSTYLE
  5
67
102
{ACAD_REACTORS
330
66
102
}
330
66
100
AcDbMLeaderStyle
179
     2
170
     2
171
     1
172
     0
 90
        2
 40
0.0
 41
0.0
173
     1
 91
-1056964608
340
5B
 92
       -2
290
     1
 42
0.09
291
     1
 43
0.36
  3
Standard
 44
0.18
300

342
55
174
     1
178
     6
175
     1
176
     0
 93
-1056964608
 45
0.18
292
     0
297
     0
 46
0.18
 94
-1056964608
 47
1.0
 49
1.0
140
1.0
293
     1
141
0.0
294
     1
177
     0
142
1.0
295
     1
296
     0
143
0.125
271
     0
272
     9
273
     9
298
     1
  0
MLINESTYLE
  5
60
102
{ACAD_REACTORS
330
5F
102
}
330
5F
100
AcDbMlineStyle
  2
STANDARD
 70
     0
  3

 62
   256
 51
90.0
 52
90.0
 71
     2
 49
0.5
 62
   256
  6
BYLAYER
 49
-0.5
 62
   256
  6
BYLAYER
  0
ACDBPLACEHOLDER
  5
F
102
{ACAD_REACTORS
330
E
102
}
330
E
  0
SCALE
  5
43
102
{ACAD_REACTORS
330
42
102
}
330
42
100
AcDbScale
 70
     0
300
1:1
140
1.0
141
1.0
290
     1
  0
SCALE
  5
44
102
{ACAD_REACTORS
330
42
102
}
330
42
100
AcDbScale
 70
     0
300
1/128" = 1'-0"
140
0.0078125
141
12.0
290
     0
  0
SCALE
  5
45
102
{ACAD_REACTORS
330
42
102
}
330
42
100
AcDbScale
 70
     0
300
1/64" = 1'-0"
140
0.015625
141
12.0
290
     0
  0
SCALE
  5
46
102
{ACAD_REACTORS
330
42
102
}
330
42
100
AcDbScale
 70
     0
300
1/32" = 1'-0"
140
0.03125
141
12.0
290
     0
  0
SCALE
  5
47
102
{ACAD_REACTORS
330
42
102
}
330
42
100
AcDbScale
 70
     0
300
1/16" = 1'-0"
140
0.0625
141
12.0
290
     0
  0
SCALE
  5
48
102
{ACAD_REACTORS
330
42
102
}
330
42
100
AcDbScale
 70
     0
300
3/32" = 1'-0"
140
0.09375
141
12.0
290
     0
  0
SCALE
  5
49
102
{ACAD_REACTORS
330
42
102
}
330
42
100
AcDbScale
 70
     0
300
1/8" = 1'-0"
140
0.125
141
12.0
290
     0
  0
SCALE
  5
4A
102
{ACAD_REACTORS
330
42
102
}
330
42
100
AcDbScale
 70
     0
300
3/16" = 1'-0"
140
0.1875
141
12.0
290
     0
  0
SCALE
  5
4B
102
{ACAD_REACTORS
330
42
102
}
330
42
100
AcDbScale
 70
     0
300
1/4" = 1'-0"
140
0.25
141
12.0
290
     0
  0
SCALE
  5
4C
102
{ACAD_REACTORS
330
42
102
}
330
42
100
AcDbScale
 70
     0
300
3/8" = 1'-0"
140
0.375
141
12.0
290
     0
  0
SCALE
  5
4D
102
{ACAD_REACTORS
330
42
102
}
330
42
100
AcDbScale
 70
     0
300
1/2" = 1'-0"
140
0.5
141
12.0
290
     0
  0
SCALE
  5
4E
102
{ACAD_REACTORS
330
42
102
}
330
42
100
AcDbScale
 70
     0
300
3/4" = 1'-0"
140
0.75
141
12.0
290
     0
  0
SCALE
  5
4F
102
{ACAD_REACTORS
330
42
102
}
330
42
100
AcDbScale
 70
     0
300
1" = 1'-0"
140
1.0
141
12.0
290
     0
  0
SCALE
  5
50
102
{ACAD_REACTORS
330
42
102
}
330
42
100
AcDbScale
 70
     0
300
1-1/2" = 1'-0"
140
1.5
141
12.0
290
     0
  0
SCALE
  5
51
102
{ACAD_REACTORS
330
42
102
}
330
42
100
AcDbScale
 70
     0
300
3" = 1'-0"
140
3.0
141
12.0
290
     0
  0
SCALE
  5
52
102
{ACAD_REACTORS
330
42
102
}
330
42
100
AcDbScale
 70
     0
300
6" = 1'-0"
140
6.0
141
12.0
290
     0
  0
SCALE
  5
53
102
{ACAD_REACTORS
330
42
102
}
330
42
100
AcDbScale
 70
     0
300
1'-0" = 1'-0"
140
12.0
141
12.0
290
     0
  0
ACDBSECTIONVIEWSTYLE
  5
69
102
{ACAD_REACTORS
330
68
102
}
330
68
100
AcDbModelDocViewStyle
 70
     0
  3
Imperial24
290
     1
300
Imperial24
 90
        0
100
AcDbSectionViewStyle
 70
     0
 71
     0
 90
       78
 71
     1
340
55
 62
   256
 40
0.24
340
0
340
0
 62
   256
 40
0.24
300
I, O, Q, S, X, Z
 40
0.48
 90
        3
 40
0.18
 90
        1
 71
     2
340
5D
 90
       25
 62
   256
340
5D
 90
       50
 62
   256
 40
0.24
 40
0.0
 40
0.24
 71
     3
340
55
 62
   256
 40
0.24
 90
        1
 40
0.75
 90
        1
300
%<\AcVar ViewType \f "%tc1">% %<\AcVar ViewSectionStartId>%-%<\AcVar ViewSectionEndId>%\PSCALE %<\AcVar ViewScale \f "%sn">%
 71
     4
 62
   256
 62
   257
300
ANSI31
 40
1.0
 90
        0
290
     0
290
     0
 90
        6
 40
0.0
 40
1.570796326794896
 40
0.2617993877991494
 40
1.308996938995747
 40
-0.2617993877991494
 40
1.832595714594046
  0
TABLESTYLE
  5
65
102
{ACAD_XDICTIONARY
360
1B9
102
}
102
{ACAD_REACTORS
330
64
102
}
330
64
100
AcDbTableStyle
280
     0
  3
Standard
 70
     0
 71
     0
 40
0.06
 41
0.06
280
     0
281
     0
  7
Standard
140
0.18
170
     2
 62
     0
 63
     7
283
     0
 90
      512
 91
        0
  1

274
    -2
284
     1
 64
     0
275
    -2
285
     1
 65
     0
276
    -2
286
     1
 66
     0
277
    -2
287
     1
 67
     0
278
    -2
288
     1
 68
     0
279
    -2
289
     1
 69
     0
  7
Standard
140
0.25
170
     5
 62
     0
 63
     7
283
     0
 90
      512
 91
        0
  1

274
    -2
284
     1
 64
     0
275
    -2
285
     1
 65
     0
276
    -2
286
     1
 66
     0
277
    -2
287
     1
 67
     0
278
    -2
288
     1
 68
     0
279
    -2
289
     1
 69
     0
  7
Standard
140
0.18
170
     5
 62
     0
 63
     7
283
     0
 90
      512
 91
        0
  1

274
    -2
284
     1
 64
     0
275
    -2
285
     1
 65
     0
276
    -2
286
     1
 66
     0
277
    -2
287
     1
 67
     0
278
    -2
288
     1
 68
     0
279
    -2
289
     1
 69
     0
  0
VISUALSTYLE
  5
2F
102
{ACAD_REACTORS
330
29
102
}
330
29
100
AcDbVisualStyle
  2
2dWireframe
 70
     4
177
     3
291
     0
 70
    58
 90
        0
176
     1
 90
        2
176
     1
 90
        0
176
     1
 90
        0
176
     1
 40
0.6
176
     1
 40
30.0
176
     1
 62
     7
420
 16777215
176
     1
 90
        1
176
     1
 90
        4
176
     1
 62
     7
176
     1
 62
   257
176
     1
 90
        1
176
     1
 90
        1
176
     1
 40
1.0
176
     1
 90
        0
176
     1
 62
   257
176
     1
 40
1.0
176
     1
 90
        1
176
     1
 90
        6
176
     1
 90
        2
176
     1
 62
     7
176
     1
 90
        5
176
     1
 90
        0
176
     1
 90
        0
176
     1
290
     0
176
     1
 90
        1
176
     1
 40
0.0
176
     1
 90
        0
176
     1
290
     1
176
     1
290
     1
176
     1
290
     0
176
     1
290
     0
176
     1
290
     0
176
     1
290
     0
176
     1
290
     0
176
     1
290
     0
176
     1
290
     0
176
     1
 90
       50
176
     1
 40
0.0
176
     1
 40
1.0
176
     1
 90
        0
176
     1
 62
    18
420
        0
176
     1
 90
       50
176
     1
 90
        3
176
     1
 62
     5
420
      255
176
     1
290
     0
176
     1
 90
       50
176
     1
 90
       50
176
     1
 90
       50
176
     1
290
     0
176
     1
 90
       50
176
     1
 62
   256
176
     0
 40
1.0
176
     0
 90
        2
176
     1
  1
strokes_ogs.tif
176
     1
290
     0
176
     1
 40
1.0
176
     1
 40
1.0
176
     1
  0
VISUALSTYLE
  5
2E
102
{ACAD_REACTORS
330
29
102
}
330
29
100
AcDbVisualStyle
  2
Basic
 70
     7
177
     3
291
     1
 70
    58
 90
        1
176
     1
 90
        0
176
     1
 90
        1
176
     1
 90
        0
176
     1
 40
0.6
176
     1
 40
30.0
176
     1
 62
     7
420
 16777215
176
     1
 90
        0
176
     1
 90
        4
176
     1
 62
     7
176
     1
 62
   257
176
     1
 90
        1
176
     1
 90
        1
176
     1
 40
1.0
176
     1
 90
        8
176
     1
 62
     7
176
     1
 40
1.0
176
     1
 90
        1
176
     1
 90
        6
176
     1
 90
        2
176
     1
 62
     7
176
     1
 90
        5
176
     1
 90
        0
176
     1
 90
        0
176
     1
290
     0
176
     1
 90
        1
176
     1
 40
0.0
176
     1
 90
        0
176
     1
290
     0
176
     1
290
     1
176
     1
290
     1
176
     1
290
     0
176
     1
290
     0
176
     1
290
     0
176
     1
290
     0
176
     1
290
     0
176
     1
290
     0
176
     1
 90
       50
176
     1
 40
0.0
176
     1
 40
1.0
176
     1
 90
        0
176
     1
 62
    18
420
        0
176
     1
 90
       50
176
     1
 90
        3
176
     1
 62
     5
420
      255
176
     1
290
     0
176
     1
 90
       50
176
     1
 90
       50
176
     1
 90
       50
176
     1
290
     0
176
     1
 90
       50
176
     1
 62
   256
176
     0
 40
1.0
176
     0
 90
        2
176
     1
  1
strokes_ogs.tif
176
     1
290
     0
176
     1
 40
1.0
176
     1
 40
1.0
176
     1
  0
VISUALSTYLE
  5
35
102
{ACAD_REACTORS
330
29
102
}
330
29
100
AcDbVisualStyle
  2
Brighten
 70
    12
177
     3
291
     1
 70
    58
 90
        2
176
     1
 90
        2
176
     1
 90
        0
176
     1
 90
        0
176
     1
 40
0.6
176
     1
 40
30.0
176
     1
 62
     7
420
 16777215
176
     1
 90
        1
176
     1
 90
        4
176
     1
 62
     7
176
     1
 62
   257
176
     1
 90
        1
176
     1
 90
        1
176
     1
 40
1.0
176
     1
 90
        8
176
     1
 62
     7
176
     1
 40
1.0
176
     1
 90
        1
176
     1
 90
        6
176
     1
 90
        2
176
     1
 62
     7
176
     1
 90
        5
176
     1
 90
        0
176
     1
 90
        0
176
     1
290
     0
176
     1
 90
        1
176
     1
 40
50.0
176
     1
 90
        0
176
     1
290
     0
176
     1
290
     1
176
     1
290
     1
176
     1
290
     0
176
     1
290
     0
176
     1
290
     0
176
     1
290
     0
176
     1
290
     0
176
     1
290
     0
176
     1
 90
       50
176
     1
 40
0.0
176
     1
 40
1.0
176
     1
 90
        0
176
     1
 62
    18
420
        0
176
     1
 90
       50
176
     1
 90
        3
176
     1
 62
     5
420
      255
176
     1
290
     0
176
     1
 90
       50
176
     1
 90
       50
176
     1
 90
       50
176
     1
290
     0
176
     1
 90
       50
176
     1
 62
   256
176
     0
 40
1.0
176
     0
 90
        2
176
     1
  1
strokes_ogs.tif
176
     1
290
     0
176
     1
 40
1.0
176
     1
 40
1.0
176
     1
  0
VISUALSTYLE
  5
39
102
{ACAD_REACTORS
330
29
102
}
330
29
100
AcDbVisualStyle
  2
ColorChange
 70
    16
177
     3
291
     1
 70
    58
 90
        2
176
     1
 90
        2
176
     1
 90
        3
176
     1
 90
        0
176
     1
 40
0.6
176
     1
 40
30.0
176
     1
 62
     8
420
  8421504
176
     1
 90
        1
176
     1
 90
        4
176
     1
 62
     7
176
     1
 62
   257
176
     1
 90
        1
176
     1
 90
        1
176
     1
 40
1.0
176
     1
 90
        8
176
     1
 62
     8
420
  8421504
176
     1
 40
1.0
176
     1
 90
        1
176
     1
 90
        6
176
     1
 90
        2
176
     1
 62
     7
176
     1
 90
        5
176
     1
 90
        0
176
     1
 90
        0
176
     1
290
     0
176
     1
 90
        1
176
     1
 40
0.0
176
     1
 90
        0
176
     1
290
     0
176
     1
290
     1
176
     1
290
     1
176
     1
290
     0
176
     1
290
     0
176
     1
290
     0
176
     1
290
     0
176
     1
290
     0
176
     1
290
     0
176
     1
 90
       50
176
     1
 40
0.0
176
     1
 40
1.0
176
     1
 90
        0
176
     1
 62
    18
420
        0
176
     1
 90
       50
176
     1
 90
        3
176
     1
 62
     5
420
      255
176
     1
290
     0
176
     1
 90
       50
176
     1
 90
       50
176
     1
 90
       50
176
     1
290
     0
176
     1
 90
       50
176
     1
 62
   256
176
     0
 40
1.0
176
     0
 90
        2
176
     1
  1
strokes_ogs.tif
176
     1
290
     0
176
     1
 40
1.0
176
     1
 40
1.0
176
     1
  0
VISUALSTYLE
  5
32
102
{ACAD_REACTORS
330
29
102
}
330
29
100
AcDbVisualStyle
  2
Conceptual
 70
     9
177
     3
291
     0
 70
    58
 90
        3
176
     1
 90
        2
176
     1
 90
        0
176
     1
 90
        0
176
     1
 40
0.6
176
     1
 40
30.0
176
     1
 62
     7
420
 16777215
176
     1
 90
        2
176
     1
 90
        2
176
     1
 62
     7
176
     1
 62
   257
176
     1
 90
        1
176
     1
 90
        1
176
     1
 40
179.0
176
     1
 90
        8
176
     1
 62
     7
176
     1
 40
1.0
176
     1
 90
        1
176
     1
 90
        6
176
     1
 90
        2
176
     1
 62
     7
176
     1
 90
        3
176
     1
 90
        0
176
     1
 90
        0
176
     1
290
     0
176
     1
 90
        1
176
     1
 40
0.0
176
     1
 90
        0
176
     1
290
     0
176
     1
290
     1
176
     1
290
     1
176
     1
290
     0
176
     1
290
     0
176
     1
290
     0
176
     1
290
     0
176
     1
290
     0
176
     1
290
     0
176
     1
 90
       50
176
     1
 40
0.0
176
     1
 40
1.0
176
     1
 90
        0
176
     1
 62
    18
420
        0
176
     1
 90
       50
176
     1
 90
        3
176
     1
 62
     5
420
      255
176
     1
290
     0
176
     1
 90
       50
176
     1
 90
       50
176
     1
 90
       50
176
     1
290
     0
176
     1
 90
       50
176
     1
 62
   256
176
     0
 40
1.0
176
     0
 90
        2
176
     1
  1
strokes_ogs.tif
176
     1
290
     0
176
     1
 40
1.0
176
     1
 40
1.0
176
     1
  0
VISUALSTYLE
  5
34
102
{ACAD_REACTORS
330
29
102
}
330
29
100
AcDbVisualStyle
  2
Dim
 70
    11
177
     3
291
     1
 70
    58
 90
        2
176
     1
 90
        2
176
     1
 90
        0
176
     1
 90
        0
176
     1
 40
0.6
176
     1
 40
30.0
176
     1
 62
     7
420
 16777215
176
     1
 90
        1
176
     1
 90
        4
176
     1
 62
     7
176
     1
 62
   257
176
     1
 90
        1
176
     1
 90
        1
176
     1
 40
1.0
176
     1
 90
        8
176
     1
 62
     7
176
     1
 40
1.0
176
     1
 90
        1
176
     1
 90
        6
176
     1
 90
        2
176
     1
 62
     7
176
     1
 90
        5
176
     1
 90
        0
176
     1
 90
        0
176
     1
290
     0
176
     1
 90
        1
176
     1
 40
-50.0
176
     1
 90
        0
176
     1
290
     0
176
     1
290
     1
176
     1
290
     1
176
     1
290
     0
176
     1
290
     0
176
     1
290
     0
176
     1
290
     0
176
     1
290
     0
176
     1
290
     0
176
     1
 90
       50
176
     1
 40
0.0
176
     1
 40
1.0
176
     1
 90
        0
176
     1
 62
    18
420
        0
176
     1
 90
       50
176
     1
 90
        3
176
     1
 62
     5
420
      255
176
     1
290
     0
176
     1
 90
       50
176
     1
 90
       50
176
     1
 90
       50
176
     1
290
     0
176
     1
 90
       50
176
     1
 62
   256
176
     0
 40
1.0
176
     0
 90
        2
176
     1
  1
strokes_ogs.tif
176
     1
290
     0
176
     1
 40
1.0
176
     1
 40
1.0
176
     1
  0
VISUALSTYLE
  5
41
102
{ACAD_REACTORS
330
29
102
}
330
29
100
AcDbVisualStyle
  2
EdgeColorOff
 70
    22
177
     3
291
     1
 70
    58
 90
        2
176
     0
 90
        2
176
     0
 90
        0
176
     0
 90
        0
176
     0
 40
0.6
176
     0
 40
30.0
176
     0
 62
     7
420
 16777215
176
     0
 90
        1
176
     0
 90
        4
176
     0
 62
     7
176
     0
 62
   257
176
     0
 90
        1
176
     0
 90
        1
176
     0
 40
1.0
176
     0
 90
        8
176
     2
 62
     7
176
     0
 40
1.0
176
     0
 90
        1
176
     0
 90
        6
176
     0
 90
        2
176
     0
 62
     7
176
     0
 90
        5
176
     0
 90
        0
176
     0
 90
        0
176
     0
290
     0
176
     0
 90
        1
176
     0
 40
0.0
176
     0
 90
        0
176
     0
290
     0
176
     0
290
     1
176
     0
290
     1
176
     0
290
     0
176
     0
290
     0
176
     0
290
     0
176
     0
290
     0
176
     0
290
     0
176
     0
290
     0
176
     0
 90
       50
176
     0
 40
0.0
176
     0
 40
1.0
176
     0
 90
        0
176
     0
 62
    18
420
        0
176
     0
 90
       50
176
     0
 90
        3
176
     0
 62
     5
420
      255
176
     0
290
     0
176
     0
 90
       50
176
     0
 90
       50
176
     0
 90
       50
176
     0
290
     0
176
     0
 90
       50
176
     0
 62
   256
176
     0
 40
1.0
176
     0
 90
        2
176
     0
  1
strokes_ogs.tif
176
     0
290
     0
176
     0
 40
1.0
176
     0
 40
1.0
176
     0
  0
VISUALSTYLE
  5
38
102
{ACAD_REACTORS
330
29
102
}
330
29
100
AcDbVisualStyle
  2
Facepattern
 70
    15
177
     3
291
     1
 70
    58
 90
        2
176
     1
 90
        2
176
     1
 90
        0
176
     1
 90
        0
176
     1
 40
0.6
176
     1
 40
30.0
176
     1
 62
     7
420
 16777215
176
     1
 90
        1
176
     1
 90
        4
176
     1
 62
     7
176
     1
 62
   257
176
     1
 90
        1
176
     1
 90
        1
176
     1
 40
1.0
176
     1
 90
        8
176
     1
 62
     7
176
     1
 40
1.0
176
     1
 90
        1
176
     1
 90
        6
176
     1
 90
        2
176
     1
 62
     7
176
     1
 90
        5
176
     1
 90
        0
176
     1
 90
        0
176
     1
290
     0
176
     1
 90
        1
176
     1
 40
0.0
176
     1
 90
        0
176
     1
290
     0
176
     1
290
     1
176
     1
290
     1
176
     1
290
     0
176
     1
290
     0
176
     1
290
     0
176
     1
290
     0
176
     1
290
     0
176
     1
290
     0
176
     1
 90
       50
176
     1
 40
0.0
176
     1
 40
1.0
176
     1
 90
        0
176
     1
 62
    18
420
        0
176
     1
 90
       50
176
     1
 90
        3
176
     1
 62
     5
420
      255
176
     1
290
     0
176
     1
 90
       50
176
     1
 90
       50
176
     1
 90
       50
176
     1
290
     0
176
     1
 90
       50
176
     1
 62
   256
176
     0
 40
1.0
176
     0
 90
        2
176
     1
  1
strokes_ogs.tif
176
     1
290
     0
176
     1
 40
1.0
176
     1
 40
1.0
176
     1
  0
VISUALSTYLE
  5
2A
102
{ACAD_REACTORS
330
29
102
}
330
29
100
AcDbVisualStyle
  2
Flat
 70
     0
177
     3
291
     1
 70
    58
 90
        2
176
     1
 90
        1
176
     1
 90
        1
176
     1
 90
        2
176
     1
 40
0.6
176
     1
 40
30.0
176
     1
 62
     7
420
 16777215
176
     1
 90
        0
176
     1
 90
        0
176
     1
 62
     7
176
     1
 62
   257
176
     1
 90
        1
176
     1
 90
        1
176
     1
 40
1.0
176
     1
 90
        8
176
     1
 62
     7
176
     1
 40
1.0
176
     1
 90
        1
176
     1
 90
        6
176
     1
 90
        2
176
     1
 62
     7
176
     1
 90
        5
176
     1
 90
        0
176
     1
 90
        0
176
     1
290
     0
176
     1
 90
       13
176
     1
 40
0.0
176
     1
 90
        0
176
     1
290
     0
176
     1
290
     1
176
     1
290
     1
176
     1
290
     0
176
     1
290
     0
176
     1
290
     0
176
     1
290
     0
176
     1
290
     0
176
     1
290
     0
176
     1
 90
       50
176
     1
 40
0.0
176
     1
 40
1.0
176
     1
 90
        0
176
     1
 62
    18
420
        0
176
     1
 90
       50
176
     1
 90
        3
176
     1
 62
     5
420
      255
176
     1
290
     0
176
     1
 90
       50
176
     1
 90
       50
176
     1
 90
       50
176
     1
290
     0
176
     1
 90
       50
176
     1
 62
   256
176
     0
 40
1.0
176
     0
 90
        2
176
     1
  1
strokes_ogs.tif
176
     1
290
     0
176
     1
 40
1.0
176
     1
 40
1.0
176
     1
  0
VISUALSTYLE
  5
2B
102
{ACAD_REACTORS
330
29
102
}
330
29
100
AcDbVisualStyle
  2
FlatWithEdges
 70
     1
177
     3
291
     1
 70
    58
 90
        2
176
     1
 90
        1
176
     1
 90
        1
176
     1
 90
        2
176
     1
 40
0.6
176
     1
 40
30.0
176
     1
 62
     7
420
 16777215
176
     1
 90
        1
176
     1
 90
        0
176
     1
 62
     7
176
     1
 62
   257
176
     1
 90
        1
176
     1
 90
        1
176
     1
 40
1.0
176
     1
 90
        0
176
     1
 62
   257
176
     1
 40
1.0
176
     1
 90
        1
176
     1
 90
        6
176
     1
 90
        2
176
     1
 62
     7
176
     1
 90
        5
176
     1
 90
        0
176
     1
 90
        0
176
     1
290
     0
176
     1
 90
       13
176
     1
 40
0.0
176
     1
 90
        0
176
     1
290
     0
176
     1
290
     1
176
     1
290
     1
176
     1
290
     0
176
     1
290
     0
176
     1
290
     0
176
     1
290
     0
176
     1
290
     0
176
     1
290
     0
176
     1
 90
       50
176
     1
 40
0.0
176
     1
 40
1.0
176
     1
 90
        0
176
     1
 62
    18
420
        0
176
     1
 90
       50
176
     1
 90
        3
176
     1
 62
     5
420
      255
176
     1
290
     0
176
     1
 90
       50
176
     1
 90
       50
176
     1
 90
       50
176
     1
290
     0
176
     1
 90
       50
176
     1
 62
   256
176
     0
 40
1.0
176
     0
 90
        2
176
     1
  1
strokes_ogs.tif
176
     1
290
     0
176
     1
 40
1.0
176
     1
 40
1.0
176
     1
  0
VISUALSTYLE
  5
2C
102
{ACAD_REACTORS
330
29
102
}
330
29
100
AcDbVisualStyle
  2
Gouraud
 70
     2
177
     3
291
     1
 70
    58
 90
        2
176
     1
 90
        2
176
     1
 90
        1
176
     1
 90
        2
176
     1
 40
0.6
176
     1
 40
30.0
176
     1
 62
     7
420
 16777215
176
     1
 90
        0
176
     1
 90
        0
176
     1
 62
     7
176
     1
 62
   257
176
     1
 90
        1
176
     1
 90
        1
176
     1
 40
1.0
176
     1
 90
        0
176
     1
 62
     7
176
     1
 40
1.0
176
     1
 90
        1
176
     1
 90
        6
176
     1
 90
        2
176
     1
 62
     7
176
     1
 90
        5
176
     1
 90
        0
176
     1
 90
        0
176
     1
290
     0
176
     1
 90
       13
176
     1
 40
0.0
176
     1
 90
        0
176
     1
290
     0
176
     1
290
     1
176
     1
290
     1
176
     1
290
     0
176
     1
290
     0
176
     1
290
     0
176
     1
290
     0
176
     1
290
     0
176
     1
290
     0
176
     1
 90
       50
176
     1
 40
0.0
176
     1
 40
1.0
176
     1
 90
        0
176
     1
 62
    18
420
        0
176
     1
 90
       50
176
     1
 90
        3
176
     1
 62
     5
420
      255
176
     1
290
     0
176
     1
 90
       50
176
     1
 90
       50
176
     1
 90
       50
176
     1
290
     0
176
     1
 90
       50
176
     1
 62
   256
176
     0
 40
1.0
176
     0
 90
        2
176
     1
  1
strokes_ogs.tif
176
     1
290
     0
176
     1
 40
1.0
176
     1
 40
1.0
176
     1
  0
VISUALSTYLE
  5
2D
102
{ACAD_REACTORS
330
29
102
}
330
29
100
AcDbVisualStyle
  2
GouraudWithEdges
 70
     3
177
     3
291
     1
 70
    58
 90
        2
176
     1
 90
        2
176
     1
 90
        1
176
     1
 90
        2
176
     1
 40
0.6
176
     1
 40
30.0
176
     1
 62
     7
420
 16777215
176
     1
 90
        1
176
     1
 90
        0
176
     1
 62
     7
176
     1
 62
   257
176
     1
 90
        1
176
     1
 90
        1
176
     1
 40
1.0
176
     1
 90
        0
176
     1
 62
   257
176
     1
 40
1.0
176
     1
 90
        1
176
     1
 90
        6
176
     1
 90
        2
176
     1
 62
     7
176
     1
 90
        5
176
     1
 90
        0
176
     1
 90
        0
176
     1
290
     0
176
     1
 90
       13
176
     1
 40
0.0
176
     1
 90
        0
176
     1
290
     0
176
     1
290
     1
176
     1
290
     1
176
     1
290
     0
176
     1
290
     0
176
     1
290
     0
176
     1
290
     0
176
     1
290
     0
176
     1
290
     0
176
     1
 90
       50
176
     1
 40
0.0
176
     1
 40
1.0
176
     1
 90
        0
176
     1
 62
    18
420
        0
176
     1
 90
       50
176
     1
 90
        3
176
     1
 62
     5
420
      255
176
     1
290
     0
176
     1
 90
       50
176
     1
 90
       50
176
     1
 90
       50
176
     1
290
     0
176
     1
 90
       50
176
     1
 62
   256
176
     0
 40
1.0
176
     0
 90
        2
176
     1
  1
strokes_ogs.tif
176
     1
290
     0
176
     1
 40
1.0
176
     1
 40
1.0
176
     1
  0
VISUALSTYLE
  5
31
102
{ACAD_REACTORS
330
29
102
}
330
29
100
AcDbVisualStyle
  2
Hidden
 70
     6
177
     3
291
     0
 70
    58
 90
        1
176
     1
 90
        2
176
     1
 90
        2
176
     1
 90
        0
176
     1
 40
0.6
176
     1
 40
30.0
176
     1
 62
     7
420
 16777215
176
     1
 90
        2
176
     1
 90
        2
176
     1
 62
     7
176
     1
 62
   257
176
     1
 90
        2
176
     1
 90
        1
176
     1
 40
40.0
176
     1
 90
        0
176
     1
 62
   257
176
     1
 40
1.0
176
     1
 90
        1
176
     1
 90
        6
176
     1
 90
        2
176
     1
 62
     7
176
     1
 90
        3
176
     1
 90
        0
176
     1
 90
        0
176
     1
290
     0
176
     1
 90
        1
176
     1
 40
0.0
176
     1
 90
        0
176
     1
290
     0
176
     1
290
     1
176
     1
290
     1
176
     1
290
     0
176
     1
290
     0
176
     1
290
     0
176
     1
290
     0
176
     1
290
     0
176
     1
290
     0
176
     1
 90
       50
176
     1
 40
0.0
176
     1
 40
1.0
176
     1
 90
        0
176
     1
 62
    18
420
        0
176
     1
 90
       50
176
     1
 90
        3
176
     1
 62
     5
420
      255
176
     1
290
     0
176
     1
 90
       50
176
     1
 90
       50
176
     1
 90
       50
176
     1
290
     0
176
     1
 90
       50
176
     1
 62
   256
176
     0
 40
1.0
176
     0
 90
        2
176
     1
  1
strokes_ogs.tif
176
     1
290
     0
176
     1
 40
1.0
176
     1
 40
1.0
176
     1
  0
VISUALSTYLE
  5
3F
102
{ACAD_REACTORS
330
29
102
}
330
29
100
AcDbVisualStyle
  2
JitterOff
 70
    20
177
     3
291
     1
 70
    58
 90
        2
176
     0
 90
        2
176
     0
 90
        0
176
     0
 90
        0
176
     0
 40
0.6
176
     0
 40
30.0
176
     0
 62
     7
420
 16777215
176
     0
 90
        1
176
     0
 90
        4
176
     0
 62
     7
176
     0
 62
   257
176
     0
 90
        1
176
     0
 90
        1
176
     0
 40
1.0
176
     0
 90
       10
176
     2
 62
     7
176
     0
 40
1.0
176
     0
 90
        1
176
     0
 90
        6
176
     0
 90
        2
176
     0
 62
     7
176
     0
 90
        5
176
     0
 90
        0
176
     0
 90
        0
176
     0
290
     0
176
     0
 90
        1
176
     0
 40
0.0
176
     0
 90
        0
176
     0
290
     0
176
     0
290
     1
176
     0
290
     1
176
     0
290
     0
176
     0
290
     0
176
     0
290
     0
176
     0
290
     0
176
     0
290
     0
176
     0
290
     0
176
     0
 90
       50
176
     0
 40
0.0
176
     0
 40
1.0
176
     0
 90
        0
176
     0
 62
    18
420
        0
176
     0
 90
       50
176
     0
 90
        3
176
     0
 62
     5
420
      255
176
     0
290
     0
176
     0
 90
       50
176
     0
 90
       50
176
     0
 90
       50
176
     0
290
     0
176
     0
 90
       50
176
     0
 62
   256
176
     0
 40
1.0
176
     0
 90
        2
176
     0
  1
strokes_ogs.tif
176
     0
290
     0
176
     0
 40
1.0
176
     0
 40
1.0
176
     0
  0
VISUALSTYLE
  5
37
102
{ACAD_REACTORS
330
29
102
}
330
29
100
AcDbVisualStyle
  2
Linepattern
 70
    14
177
     3
291
     1
 70
    58
 90
        2
176
     1
 90
        2
176
     1
 90
        0
176
     1
 90
        0
176
     1
 40
0.6
176
     1
 40
30.0
176
     1
 62
     7
420
 16777215
176
     1
 90
        1
176
     1
 90
        4
176
     1
 62
     7
176
     1
 62
   257
176
     1
 90
        7
176
     1
 90
        7
176
     1
 40
1.0
176
     1
 90
        8
176
     1
 62
     7
176
     1
 40
1.0
176
     1
 90
        1
176
     1
 90
        6
176
     1
 90
        2
176
     1
 62
     7
176
     1
 90
        5
176
     1
 90
        0
176
     1
 90
        0
176
     1
290
     0
176
     1
 90
        1
176
     1
 40
0.0
176
     1
 90
        0
176
     1
290
     0
176
     1
290
     1
176
     1
290
     1
176
     1
290
     0
176
     1
290
     0
176
     1
290
     0
176
     1
290
     0
176
     1
290
     0
176
     1
290
     0
176
     1
 90
       50
176
     1
 40
0.0
176
     1
 40
1.0
176
     1
 90
        0
176
     1
 62
    18
420
        0
176
     1
 90
       50
176
     1
 90
        3
176
     1
 62
     5
420
      255
176
     1
290
     0
176
     1
 90
       50
176
     1
 90
       50
176
     1
 90
       50
176
     1
290
     0
176
     1
 90
       50
176
     1
 62
   256
176
     0
 40
1.0
176
     0
 90
        2
176
     1
  1
strokes_ogs.tif
176
     1
290
     0
176
     1
 40
1.0
176
     1
 40
1.0
176
     1
  0
VISUALSTYLE
  5
40
102
{ACAD_REACTORS
330
29
102
}
330
29
100
AcDbVisualStyle
  2
OverhangOff
 70
    21
177
     3
291
     1
 70
    58
 90
        2
176
     0
 90
        2
176
     0
 90
        0
176
     0
 90
        0
176
     0
 40
0.6
176
     0
 40
30.0
176
     0
 62
     7
420
 16777215
176
     0
 90
        1
176
     0
 90
        4
176
     0
 62
     7
176
     0
 62
   257
176
     0
 90
        1
176
     0
 90
        1
176
     0
 40
1.0
176
     0
 90
        9
176
     2
 62
     7
176
     0
 40
1.0
176
     0
 90
        1
176
     0
 90
        6
176
     0
 90
        2
176
     0
 62
     7
176
     0
 90
        5
176
     0
 90
        0
176
     0
 90
        0
176
     0
290
     0
176
     0
 90
        1
176
     0
 40
0.0
176
     0
 90
        0
176
     0
290
     0
176
     0
290
     1
176
     0
290
     1
176
     0
290
     0
176
     0
290
     0
176
     0
290
     0
176
     0
290
     0
176
     0
290
     0
176
     0
290
     0
176
     0
 90
       50
176
     0
 40
0.0
176
     0
 40
1.0
176
     0
 90
        0
176
     0
 62
    18
420
        0
176
     0
 90
       50
176
     0
 90
        3
176
     0
 62
     5
420
      255
176
     0
290
     0
176
     0
 90
       50
176
     0
 90
       50
176
     0
 90
       50
176
     0
290
     0
176
     0
 90
       50
176
     0
 62
   256
176
     0
 40
1.0
176
     0
 90
        2
176
     0
  1
strokes_ogs.tif
176
     0
290
     0
176
     0
 40
1.0
176
     0
 40
1.0
176
     0
  0
VISUALSTYLE
  5
33
102
{ACAD_REACTORS
330
29
102
}
330
29
100
AcDbVisualStyle
  2
Realistic
 70
     8
177
     3
291
     0
 70
    58
 90
        2
176
     1
 90
        3
176
     1
 90
        0
176
     1
 90
        2
176
     1
 40
0.6
176
     1
 40
30.0
176
     1
 62
     7
420
 16777215
176
     1
 90
        0
176
     1
 90
        0
176
     1
 62
     7
176
     1
 62
   257
176
     1
 90
        1
176
     1
 90
        1
176
     1
 40
1.0
176
     1
 90
        8
176
     1
 62
   257
176
     1
 40
1.0
176
     1
 90
        1
176
     1
 90
        6
176
     1
 90
        2
176
     1
 62
     7
176
     1
 90
        3
176
     1
 90
        0
176
     1
 90
        0
176
     1
290
     0
176
     1
 90
       13
176
     1
 40
0.0
176
     1
 90
        0
176
     1
290
     0
176
     1
290
     1
176
     1
290
     1
176
     1
290
     0
176
     1
290
     0
176
     1
290
     0
176
     1
290
     0
176
     1
290
     0
176
     1
290
     0
176
     1
 90
       50
176
     1
 40
0.0
176
     1
 40
1.0
176
     1
 90
        0
176
     1
 62
    18
420
        0
176
     1
 90
       50
176
     1
 90
        3
176
     1
 62
     5
420
      255
176
     1
290
     0
176
     1
 90
       50
176
     1
 90
       50
176
     1
 90
       50
176
     1
290
     0
176
     1
 90
       50
176
     1
 62
   256
176
     0
 40
1.0
176
     0
 90
        2
176
     1
  1
strokes_ogs.tif
176
     1
290
     0
176
     1
 40
1.0
176
     1
 40
1.0
176
     1
  0
VISUALSTYLE
  5
3E
102
{ACAD_REACTORS
330
29
102
}
330
29
100
AcDbVisualStyle
  2
Shaded
 70
    27
177
     3
291
     0
 70
    58
 90
        2
176
     1
 90
        2
176
     1
 90
        1
176
     1
 90
        2
176
     1
 40
0.6
176
     1
 40
30.0
176
     1
 62
     7
420
 16777215
176
     1
 90
        0
176
     1
 90
        4
176
     1
 62
     7
176
     1
 62
   257
176
     1
 90
        1
176
     1
 90
        1
176
     1
 40
1.0
176
     1
 90
        8
176
     1
 62
   257
176
     1
 40
1.0
176
     1
 90
        1
176
     1
 90
        6
176
     1
 90
        2
176
     1
 62
     8
420
  7895160
176
     1
 90
        3
176
     1
 90
        0
176
     1
 90
        0
176
     1
290
     0
176
     1
 90
        5
176
     1
 40
0.0
176
     1
 90
        0
176
     1
290
     0
176
     1
290
     1
176
     1
290
     1
176
     1
290
     0
176
     1
290
     0
176
     1
290
     0
176
     1
290
     0
176
     1
290
     0
176
     1
290
     0
176
     1
 90
       50
176
     1
 40
0.0
176
     1
 40
1.0
176
     1
 90
        0
176
     1
 62
    18
420
        0
176
     1
 90
       50
176
     1
 90
        3
176
     1
 62
     5
420
      255
176
     1
290
     0
176
     1
 90
       50
176
     1
 90
       50
176
     1
 90
       50
176
     1
290
     0
176
     1
 90
       50
176
     1
 62
   256
176
     0
 40
1.0
176
     0
 90
        2
176
     1
  1
strokes_ogs.tif
176
     1
290
     0
176
     1
 40
1.0
176
     1
 40
1.0
176
     1
  0
VISUALSTYLE
  5
3D
102
{ACAD_REACTORS
330
29
102
}
330
29
100
AcDbVisualStyle
  2
Shaded with edges
 70
    26
177
     3
291
     0
 70
    58
 90
        2
176
     1
 90
        2
176
     1
 90
        1
176
     1
 90
        2
176
     1
 40
0.6
176
     1
 40
30.0
176
     1
 62
     7
420
 16777215
176
     1
 90
        1
176
     1
 90
        2
176
     1
 62
     7
176
     1
 62
   257
176
     1
 90
        2
176
     1
 90
        1
176
     1
 40
1.0
176
     1
 90
        8
176
     1
 62
   257
176
     1
 40
1.0
176
     1
 90
        1
176
     1
 90
        6
176
     1
 90
        2
176
     1
 62
     7
176
     1
 90
        3
176
     1
 90
        0
176
     1
 90
        0
176
     1
290
     0
176
     1
 90
        5
176
     1
 40
0.0
176
     1
 90
        0
176
     1
290
     0
176
     1
290
     1
176
     1
290
     1
176
     1
290
     0
176
     1
290
     0
176
     1
290
     0
176
     1
290
     0
176
     1
290
     0
176
     1
290
     0
176
     1
 90
       50
176
     1
 40
0.0
176
     1
 40
1.0
176
     1
 90
        0
176
     1
 62
    18
420
        0
176
     1
 90
       50
176
     1
 90
        3
176
     1
 62
     5
420
      255
176
     1
290
     0
176
     1
 90
       50
176
     1
 90
       50
176
     1
 90
       50
176
     1
290
     0
176
     1
 90
       50
176
     1
 62
   256
176
     0
 40
1.0
176
     0
 90
        2
176
     1
  1
strokes_ogs.tif
176
     1
290
     0
176
     1
 40
1.0
176
     1
 40
1.0
176
     1
  0
VISUALSTYLE
  5
3A
102
{ACAD_REACTORS
330
29
102
}
330
29
100
AcDbVisualStyle
  2
Shades of Gray
 70
    23
177
     3
291
     0
 70
    58
 90
        2
176
     1
 90
        2
176
     1
 90
        3
176
     1
 90
        0
176
     1
 40
0.6
176
     1
 40
30.0
176
     1
 62
     7
420
 16777215
176
     1
 90
        2
176
     1
 90
        2
176
     1
 62
     7
176
     1
 62
     7
176
     1
 90
        1
176
     1
 90
        1
176
     1
 40
40.0
176
     1
 90
        8
176
     1
 62
     7
176
     1
 40
1.0
176
     1
 90
        1
176
     1
 90
        6
176
     1
 90
        2
176
     1
 62
     7
176
     1
 90
        3
176
     1
 90
        0
176
     1
 90
        0
176
     1
290
     0
176
     1
 90
        1
176
     1
 40
0.0
176
     1
 90
        0
176
     1
290
     0
176
     1
290
     1
176
     1
290
     1
176
     1
290
     0
176
     1
290
     0
176
     1
290
     0
176
     1
290
     0
176
     1
290
     0
176
     1
290
     0
176
     1
 90
       50
176
     1
 40
0.0
176
     1
 40
1.0
176
     1
 90
        0
176
     1
 62
    18
420
        0
176
     1
 90
       50
176
     1
 90
        3
176
     1
 62
     5
420
      255
176
     1
290
     0
176
     1
 90
       50
176
     1
 90
       50
176
     1
 90
       50
176
     1
290
     0
176
     1
 90
       50
176
     1
 62
   256
176
     0
 40
1.0
176
     0
 90
        2
176
     1
  1
strokes_ogs.tif
176
     1
290
     0
176
     1
 40
1.0
176
     1
 40
1.0
176
     1
  0
VISUALSTYLE
  5
3B
102
{ACAD_REACTORS
330
29
102
}
330
29
100
AcDbVisualStyle
  2
Sketchy
 70
    24
177
     3
291
     0
 70
    58
 90
        1
176
     1
 90
        2
176
     1
 90
        2
176
     1
 90
        0
176
     1
 40
0.6
176
     1
 40
30.0
176
     1
 62
     7
420
 16777215
176
     1
 90
        2
176
     1
 90
        2
176
     1
 62
     7
176
     1
 62
     7
176
     1
 90
        1
176
     1
 90
        1
176
     1
 40
40.0
176
     1
 90
       11
176
     1
 62
     7
176
     1
 40
1.0
176
     1
 90
        1
176
     1
 90
        6
176
     1
 90
        2
176
     1
 62
     7
176
     1
 90
        6
176
     1
 90
        0
176
     1
 90
        0
176
     1
290
     0
176
     1
 90
        1
176
     1
 40
0.0
176
     1
 90
        0
176
     1
290
     0
176
     1
290
     1
176
     1
290
     1
176
     1
290
     0
176
     1
290
     0
176
     1
290
     0
176
     1
290
     0
176
     1
290
     0
176
     1
290
     0
176
     1
 90
       50
176
     1
 40
0.0
176
     1
 40
1.0
176
     1
 90
        0
176
     1
 62
    18
420
        0
176
     1
 90
       50
176
     1
 90
        3
176
     1
 62
     5
420
      255
176
     1
290
     0
176
     1
 90
       50
176
     1
 90
       50
176
     1
 90
       50
176
     1
290
     0
176
     1
 90
       50
176
     1
 62
   256
176
     0
 40
1.0
176
     0
 90
        2
176
     1
  1
strokes_ogs.tif
176
     1
290
     0
176
     1
 40
1.0
176
     1
 40
1.0
176
     1
  0
VISUALSTYLE
  5
36
102
{ACAD_REACTORS
330
29
102
}
330
29
100
AcDbVisualStyle
  2
Thicken
 70
    13
177
     3
291
     1
 70
    58
 90
        2
176
     1
 90
        2
176
     1
 90
        0
176
     1
 90
        0
176
     1
 40
0.6
176
     1
 40
30.0
176
     1
 62
     7
420
 16777215
176
     1
 90
        1
176
     1
 90
        4
176
     1
 62
     7
176
     1
 62
   257
176
     1
 90
        1
176
     1
 90
        1
176
     1
 40
1.0
176
     1
 90
       12
176
     1
 62
     7
176
     1
 40
1.0
176
     1
 90
        1
176
     1
 90
        6
176
     1
 90
        2
176
     1
 62
     7
176
     1
 90
        5
176
     1
 90
        0
176
     1
 90
        0
176
     1
290
     0
176
     1
 90
        1
176
     1
 40
0.0
176
     1
 90
        0
176
     1
290
     0
176
     1
290
     1
176
     1
290
     1
176
     1
290
     0
176
     1
290
     0
176
     1
290
     0
176
     1
290
     0
176
     1
290
     0
176
     1
290
     0
176
     1
 90
       50
176
     1
 40
0.0
176
     1
 40
1.0
176
     1
 90
        0
176
     1
 62
    18
420
        0
176
     1
 90
       50
176
     1
 90
        3
176
     1
 62
     5
420
      255
176
     1
290
     0
176
     1
 90
       50
176
     1
 90
       50
176
     1
 90
       50
176
     1
290
     0
176
     1
 90
       50
176
     1
 62
   256
176
     0
 40
1.0
176
     0
 90
        2
176
     1
  1
strokes_ogs.tif
176
     1
290
     0
176
     1
 40
1.0
176
     1
 40
1.0
176
     1
  0
VISUALSTYLE
  5
30
102
{ACAD_REACTORS
330
29
102
}
330
29
100
AcDbVisualStyle
  2
Wireframe
 70
     5
177
     3
291
     0
 70
    58
 90
        0
176
     1
 90
        2
176
     1
 90
        0
176
     1
 90
        0
176
     1
 40
0.6
176
     1
 40
30.0
176
     1
 62
     7
420
 16777215
176
     1
 90
        1
176
     1
 90
        4
176
     1
 62
     7
176
     1
 62
   257
176
     1
 90
        1
176
     1
 90
        1
176
     1
 40
1.0
176
     1
 90
        0
176
     1
 62
   257
176
     1
 40
1.0
176
     1
 90
        1
176
     1
 90
        6
176
     1
 90
        2
176
     1
 62
     7
176
     1
 90
        3
176
     1
 90
        0
176
     1
 90
        0
176
     1
290
     0
176
     1
 90
        1
176
     1
 40
0.0
176
     1
 90
        0
176
     1
290
     0
176
     1
290
     1
176
     1
290
     1
176
     1
290
     0
176
     1
290
     0
176
     1
290
     0
176
     1
290
     0
176
     1
290
     0
176
     1
290
     0
176
     1
 90
       50
176
     1
 40
0.0
176
     1
 40
1.0
176
     1
 90
        0
176
     1
 62
    18
420
        0
176
     1
 90
       50
176
     1
 90
        3
176
     1
 62
     5
420
      255
176
     1
290
     0
176
     1
 90
       50
176
     1
 90
       50
176
     1
 90
       50
176
     1
290
     0
176
     1
 90
       50
176
     1
 62
   256
176
     0
 40
1.0
176
     0
 90
        2
176
     1
  1
strokes_ogs.tif
176
     1
290
     0
176
     1
 40
1.0
176
     1
 40
1.0
176
     1
  0
VISUALSTYLE
  5
3C
102
{ACAD_REACTORS
330
29
102
}
330
29
100
AcDbVisualStyle
  2
X-Ray
 70
    25
177
     3
291
     0
 70
    58
 90
        2
176
     1
 90
        2
176
     1
 90
        1
176
     1
 90
        1
176
     1
 40
0.5
176
     1
 40
30.0
176
     1
 62
     7
420
 16777215
176
     1
 90
        1
176
     1
 90
        0
176
     1
 62
     7
176
     1
 62
   257
176
     1
 90
        1
176
     1
 90
        1
176
     1
 40
1.0
176
     1
 90
        8
176
     1
 62
     7
176
     1
 40
1.0
176
     1
 90
        1
176
     1
 90
        6
176
     1
 90
        2
176
     1
 62
     7
176
     1
 90
        3
176
     1
 90
        0
176
     1
 90
        0
176
     1
290
     0
176
     1
 90
       13
176
     1
 40
0.0
176
     1
 90
        0
176
     1
290
     0
176
     1
290
     1
176
     1
290
     1
176
     1
290
     0
176
     1
290
     0
176
     1
290
     0
176
     1
290
     0
176
     1
290
     0
176
     1
290
     0
176
     1
 90
       50
176
     1
 40
0.0
176
     1
 40
1.0
176
     1
 90
        0
176
     1
 62
    18
420
        0
176
     1
 90
       50
176
     1
 90
        3
176
     1
 62
     5
420
      255
176
     1
290
     0
176
     1
 90
       50
176
     1
 90
       50
176
     1
 90
       50
176
     1
290
     0
176
     1
 90
       50
176
     1
 62
   256
176
     0
 40
1.0
176
     0
 90
        2
176
     1
  1
strokes_ogs.tif
176
     1
290
     0
176
     1
 40
1.0
176
     1
 40
1.0
176
     1
  0
DICTIONARYVAR
  5
1B8
102
{ACAD_REACTORS
330
1B3
102
}
330
1B3
100
DictionaryVariables
280
     0
  1
1:1
  0
DICTIONARYVAR
  5
1B5
102
{ACAD_REACTORS
330
1B3
102
}
330
1B3
100
DictionaryVariables
280
     0
  1
STANDARD
  0
DICTIONARYVAR
  5
1B4
102
{ACAD_REACTORS
330
1B3
102
}
330
1B3
100
DictionaryVariables
280
     0
  1
STANDARD
  0
DICTIONARYVAR
  5
1B6
102
{ACAD_REACTORS
330
1B3
102
}
330
1B3
100
DictionaryVariables
280
     0
  1
Imperial24
  0
DICTIONARYVAR
  5
1B7
102
{ACAD_REACTORS
330
1B3
102
}
330
1B3
100
DictionaryVariables
280
     0
  1
Imperial24
  0
DICTIONARY
  5
1A
330
19
100
AcDbDictionary
280
     1
281
     1
  3
BUMPTILE
360
1C
  3
DIFFUSETILE
360
1B
  3
OPACITYTILE
360
1F
  3
REFLECTIONTILE
360
1E
  3
REFRACTIONTILE
360
20
  3
SPECULARTILE
360
1D
  0
DICTIONARY
  5
12
330
11
100
AcDbDictionary
280
     1
281
     1
  3
BUMPTILE
360
14
  3
DIFFUSETILE
360
13
  3
OPACITYTILE
360
17
  3
REFLECTIONTILE
360
16
  3
REFRACTIONTILE
360
18
  3
SPECULARTILE
360
15
  0
DICTIONARY
  5
22
330
21
100
AcDbDictionary
280
     1
281
     1
  3
BUMPTILE
360
24
  3
DIFFUSETILE
360
23
  3
OPACITYTILE
360
27
  3
REFLECTIONTILE
360
26
  3
REFRACTIONTILE
360
28
  3
SPECULARTILE
360
25
  0
DICTIONARY
  5
1B9
330
65
100
AcDbDictionary
280
     1
281
     1
  3
ACAD_ROUNDTRIP_2008_TABLESTYLE_CELLSTYLEMAP
360
1BA
  0
XRECORD
  5
1C
102
{ACAD_REACTORS
330
1A
102
}
330
1A
100
AcDbXrecord
280
     1
270
     1
271
     1
  0
XRECORD
  5
1B
102
{ACAD_REACTORS
330
1A
102
}
330
1A
100
AcDbXrecord
280
     1
270
     1
271
     1
  0
XRECORD
  5
1F
102
{ACAD_REACTORS
330
1A
102
}
330
1A
100
AcDbXrecord
280
     1
270
     1
271
     1
  0
XRECORD
  5
1E
102
{ACAD_REACTORS
330
1A
102
}
330
1A
100
AcDbXrecord
280
     1
270
     1
271
     1
  0
XRECORD
  5
20
102
{ACAD_REACTORS
330
1A
102
}
330
1A
100
AcDbXrecord
280
     1
270
     1
271
     1
  0
XRECORD
  5
1D
102
{ACAD_REACTORS
330
1A
102
}
330
1A
100
AcDbXrecord
280
     1
270
     1
271
     1
  0
XRECORD
  5
14
102
{ACAD_REACTORS
330
12
102
}
330
12
100
AcDbXrecord
280
     1
270
     1
271
     1
  0
XRECORD
  5
13
102
{ACAD_REACTORS
330
12
102
}
330
12
100
AcDbXrecord
280
     1
270
     1
271
     1
  0
XRECORD
  5
17
102
{ACAD_REACTORS
330
12
102
}
330
12
100
AcDbXrecord
280
     1
270
     1
271
     1
  0
XRECORD
  5
16
102
{ACAD_REACTORS
330
12
102
}
330
12
100
AcDbXrecord
280
     1
270
     1
271
     1
  0
XRECORD
  5
18
102
{ACAD_REACTORS
330
12
102
}
330
12
100
AcDbXrecord
280
     1
270
     1
271
     1
  0
XRECORD
  5
15
102
{ACAD_REACTORS
330
12
102
}
330
12
100
AcDbXrecord
280
     1
270
     1
271
     1
  0
XRECORD
  5
24
102
{ACAD_REACTORS
330
22
102
}
330
22
100
AcDbXrecord
280
     1
270
     1
271
     1
  0
XRECORD
  5
23
102
{ACAD_REACTORS
330
22
102
}
330
22
100
AcDbXrecord
280
     1
270
     1
271
     1
  0
XRECORD
  5
27
102
{ACAD_REACTORS
330
22
102
}
330
22
100
AcDbXrecord
280
     1
270
     1
271
     1
  0
XRECORD
  5
26
102
{ACAD_REACTORS
330
22
102
}
330
22
100
AcDbXrecord
280
     1
270
     1
271
     1
  0
XRECORD
  5
28
102
{ACAD_REACTORS
330
22
102
}
330
22
100
AcDbXrecord
280
     1
270
     1
271
     1
  0
XRECORD
  5
25
102
{ACAD_REACTORS
330
22
102
}
330
22
100
AcDbXrecord
280
     1
270
     1
271
     1
  0
CELLSTYLEMAP
  5
1BA
102
{ACAD_REACTORS
330
1B9
102
}
330
1B9
100
AcDbCellStyleMap
 90
        3
300
CELLSTYLE
  1
TABLEFORMAT_BEGIN
 90
        5
170
     1
 91
        0
 92
    32768
 62
   257
 93
        1
300
CONTENTFORMAT
  1
CONTENTFORMAT_BEGIN
 90
        0
 91
        0
 92
      512
 93
        0
300

 40
0.0
140
1.0
 94
        5
 62
     0
340
55
144
0.25
309
CONTENTFORMAT_END
171
     0
 94
        0
309
TABLEFORMAT_END
  1
CELLSTYLE_BEGIN
 90
        1
 91
        1
300
_TITLE
309
CELLSTYLE_END
300
CELLSTYLE
  1
TABLEFORMAT_BEGIN
 90
        5
170
     1
 91
        0
 92
        0
 62
   257
 93
        1
300
CONTENTFORMAT
  1
CONTENTFORMAT_BEGIN
 90
        0
 91
        0
 92
      512
 93
        0
300

 40
0.0
140
1.0
 94
        5
 62
     0
340
55
144
0.18
309
CONTENTFORMAT_END
171
     0
 94
        0
309
TABLEFORMAT_END
  1
CELLSTYLE_BEGIN
 90
        2
 91
        1
300
_HEADER
309
CELLSTYLE_END
300
CELLSTYLE
  1
TABLEFORMAT_BEGIN
 90
        5
170
     1
 91
        0
 92
        0
 62
   257
 93
        1
300
CONTENTFORMAT
  1
CONTENTFORMAT_BEGIN
 90
        0
 91
        0
 92
      512
 93
        0
300

 40
0.0
140
1.0
 94
        2
 62
     0
340
55
144
0.18
309
CONTENTFORMAT_END
171
     0
 94
        0
309
TABLEFORMAT_END
  1
CELLSTYLE_BEGIN
 90
        3
 91
        2
300
_DATA
309
CELLSTYLE_END
  0
ENDSEC
  0
EOF
