  0
SECTION
  2
HEADER
  9
$ACADVER
  1
AC1032
  9
$ACADMAINTVER
 90
      327
  9
$DWGCODEPAGE
  3
ANSI_1252
  9
$REQUIREDVERSIONS
160
                 0
  9
$INSBASE
 10
0.0
 20
0.0
 30
0.0
  9
$EXTMIN
 10
1.000000000000000E+20
 20
1.000000000000000E+20
 30
1.000000000000000E+20
  9
$EXTMAX
 10
-1.000000000000000E+20
 20
-1.000000000000000E+20
 30
-1.000000000000000E+20
  9
$LIMMIN
 10
0.0
 20
0.0
  9
$LIMMAX
 10
12.0
 20
9.0
  9
$ORTHOMODE
 70
     0
  9
$REGENMODE
 70
     1
  9
$FILLMODE
 70
     1
  9
$QTEXTMODE
 70
     0
  9
$MIRRTEXT
 70
     0
  9
$LTSCALE
 40
1.0
  9
$ATTMODE
 70
     1
  9
$TEXTSIZE
 40
0.2
  9
$TRACEWID
 40
0.05
  9
$TEXTSTYLE
  7
Standard
  9
$CLAYER
  8
0
  9
$CELTYPE
  6
ByLayer
  9
$CECOLOR
 62
   256
  9
$CELTSCALE
 40
1.0
  9
$DISPSILH
 70
     0
  9
$DIMSCALE
 40
1.0
  9
$DIMASZ
 40
0.18
  9
$DIMEXO
 40
0.0625
  9
$DIMDLI
 40
0.38
  9
$DIMRND
 40
0.0
  9
$DIMDLE
 40
0.0
  9
$DIMEXE
 40
0.18
  9
$DIMTP
 40
0.0
  9
$DIMTM
 40
0.0
  9
$DIMTXT
 40
0.18
  9
$DIMCEN
 40
0.09
  9
$DIMTSZ
 40
0.0
  9
$DIMTOL
 70
     0
  9
$DIMLIM
 70
     0
  9
$DIMTIH
 70
     1
  9
$DIMTOH
 70
     1
  9
$DIMSE1
 70
     0
  9
$DIMSE2
 70
     0
  9
$DIMTAD
 70
     0
  9
$DIMZIN
 70
     0
  9
$DIMBLK
  1

  9
$DIMASO
 70
     1
  9
$DIMSHO
 70
     1
  9
$DIMPOST
  1

  9
$DIMAPOST
  1

  9
$DIMALT
 70
     0
  9
$DIMALTD
 70
     2
  9
$DIMALTF
 40
25.4
  9
$DIMLFAC
 40
1.0
  9
$DIMTOFL
 70
     0
  9
$DIMTVP
 40
0.0
  9
$DIMTIX
 70
     0
  9
$DIMSOXD
 70
     0
  9
$DIMSAH
 70
     0
  9
$DIMBLK1
  1

  9
$DIMBLK2
  1

  9
$DIMSTYLE
  2
Standard
  9
$DIMCLRD
 70
     0
  9
$DIMCLRE
 70
     0
  9
$DIMCLRT
 70
     0
  9
$DIMTFAC
 40
1.0
  9
$DIMGAP
 40
0.09
  9
$DIMJUST
 70
     0
  9
$DIMSD1
 70
     0
  9
$DIMSD2
 70
     0
  9
$DIMTOLJ
 70
     1
  9
$DIMTZIN
 70
     0
  9
$DIMALTZ
 70
     0
  9
$DIMALTTZ
 70
     0
  9
$DIMUPT
 70
     0
  9
$DIMDEC
 70
     4
  9
$DIMTDEC
 70
     4
  9
$DIMALTU
 70
     2
  9
$DIMALTTD
 70
     2
  9
$DIMTXSTY
  7
Standard
  9
$DIMAUNIT
 70
     0
  9
$DIMADEC
 70
     0
  9
$DIMALTRND
 40
0.0
  9
$DIMAZIN
 70
     0
  9
$DIMDSEP
 70
    46
  9
$DIMATFIT
 70
     3
  9
$DIMFRAC
 70
     0
  9
$DIMLDRBLK
  1

  9
$DIMLUNIT
 70
     2
  9
$DIMLWD
 70
    -2
  9
$DIMLWE
 70
    -2
  9
$DIMTMOVE
 70
     0
  9
$DIMFXL
 40
1.0
  9
$DIMFXLON
 70
     0
  9
$DIMJOGANG
 40
0.7853981633974483
  9
$DIMTFILL
 70
     0
  9
$DIMTFILLCLR
 70
     0
  9
$DIMARCSYM
 70
     0
  9
$DIMLTYPE
  6

  9
$DIMLTEX1
  6

  9
$DIMLTEX2
  6

  9
$DIMTXTDIRECTION
 70
     0
  9
$LUNITS
 70
     2
  9
$LUPREC
 70
     4
  9
$SKETCHINC
 40
0.1
  9
$FILLETRAD
 40
0.0
  9
$AUNITS
 70
     0
  9
$AUPREC
 70
     0
  9
$MENU
  1
.
  9
$ELEVATION
 40
0.0
  9
$PELEVATION
 40
0.0
  9
$THICKNESS
 40
0.0
  9
$LIMCHECK
 70
     0
  9
$CHAMFERA
 40
0.0
  9
$CHAMFERB
 40
0.0
  9
$CHAMFERC
 40
0.0
  9
$CHAMFERD
 40
0.0
  9
$SKPOLY
 70
     0
  9
$TDCREATE
 40
2460704.479606481
  9
$TDUCREATE
 40
2460704.479606481
  9
$TDUPDATE
 40
2460704.479606481
  9
$TDUUPDATE
 40
2460704.479606481
  9
$TDINDWG
 40
0.0000000000
  9
$TDUSRTIMER
 40
0.0000000000
  9
$USRTIMER
 70
     1
  9
$ANGBASE
 50
0.0
  9
$ANGDIR
 70
     0
  9
$PDMODE
 70
     0
  9
$PDSIZE
 40
0.0
  9
$PLINEWID
 40
0.0
  9
$SPLFRAME
 70
     0
  9
$SPLINETYPE
 70
     6
  9
$SPLINESEGS
 70
     8
  9
$HANDSEED
  5
146
  9
$SURFTAB1
 70
     6
  9
$SURFTAB2
 70
     6
  9
$SURFTYPE
 70
     6
  9
$SURFU
 70
     6
  9
$SURFV
 70
     6
  9
$UCSBASE
  2

  9
$UCSNAME
  2

  9
$UCSORG
 10
0.0
 20
0.0
 30
0.0
  9
$UCSXDIR
 10
1.0
 20
0.0
 30
0.0
  9
$UCSYDIR
 10
0.0
 20
1.0
 30
0.0
  9
$UCSORTHOREF
  2

  9
$UCSORTHOVIEW
 70
     0
  9
$UCSORGTOP
 10
0.0
 20
0.0
 30
0.0
  9
$UCSORGBOTTOM
 10
0.0
 20
0.0
 30
0.0
  9
$UCSORGLEFT
 10
0.0
 20
0.0
 30
0.0
  9
$UCSORGRIGHT
 10
0.0
 20
0.0
 30
0.0
  9
$UCSORGFRONT
 10
0.0
 20
0.0
 30
0.0
  9
$UCSORGBACK
 10
0.0
 20
0.0
 30
0.0
  9
$PUCSBASE
  2

  9
$PUCSNAME
  2

  9
$PUCSORG
 10
0.0
 20
0.0
 30
0.0
  9
$PUCSXDIR
 10
1.0
 20
0.0
 30
0.0
  9
$PUCSYDIR
 10
0.0
 20
1.0
 30
0.0
  9
$PUCSORTHOREF
  2

  9
$PUCSORTHOVIEW
 70
     0
  9
$PUCSORGTOP
 10
0.0
 20
0.0
 30
0.0
  9
$PUCSORGBOTTOM
 10
0.0
 20
0.0
 30
0.0
  9
$PUCSORGLEFT
 10
0.0
 20
0.0
 30
0.0
  9
$PUCSORGRIGHT
 10
0.0
 20
0.0
 30
0.0
  9
$PUCSORGFRONT
 10
0.0
 20
0.0
 30
0.0
  9
$PUCSORGBACK
 10
0.0
 20
0.0
 30
0.0
  9
$USERI1
 70
     0
  9
$USERI2
 70
     0
  9
$USERI3
 70
     0
  9
$USERI4
 70
     0
  9
$USERI5
 70
     0
  9
$USERR1
 40
0.0
  9
$USERR2
 40
0.0
  9
$USERR3
 40
0.0
  9
$USERR4
 40
0.0
  9
$USERR5
 40
0.0
  9
$WORLDVIEW
 70
     1
  9
$SHADEDGE
 70
     3
  9
$SHADEDIF
 70
    70
  9
$TILEMODE
 70
     1
  9
$MAXACTVP
 70
    64
  9
$PINSBASE
 10
0.0
 20
0.0
 30
0.0
  9
$PLIMCHECK
 70
     0
  9
$PEXTMIN
 10
1.000000000000000E+20
 20
1.000000000000000E+20
 30
1.000000000000000E+20
  9
$PEXTMAX
 10
-1.000000000000000E+20
 20
-1.000000000000000E+20
 30
-1.000000000000000E+20
  9
$PLIMMIN
 10
0.0
 20
0.0
  9
$PLIMMAX
 10
12.0
 20
9.0
  9
$UNITMODE
 70
     0
  9
$VISRETAIN
 70
     1
  9
$PLINEGEN
 70
     0
  9
$PSLTSCALE
 70
     1
  9
$TREEDEPTH
 70
  3020
  9
$CMLSTYLE
  2
Standard
  9
$CMLJUST
 70
     0
  9
$CMLSCALE
 40
1.0
  9
$PROXYGRAPHICS
 70
     1
  9
$MEASUREMENT
 70
     0
  9
$CELWEIGHT
370
    -1
  9
$ENDCAPS
280
     0
  9
$JOINSTYLE
280
     0
  9
$LWDISPLAY
290
     1
  9
$INSUNITS
 70
     5
  9
$HYPERLINKBASE
  1

  9
$STYLESHEET
  1

  9
$XEDIT
290
     1
  9
$CEPSNTYPE
380
     0
  9
$PSTYLEMODE
290
     1
  9
$FINGERPRINTGUID
  2
{DFD56C36-8829-EF40-AAD4-7322B411EF2F}
  9
$VERSIONGUID
  2
{0E76A3B7-9871-AA4A-A622-B9C964C2FE0C}
  9
$EXTNAMES
290
     1
  9
$PSVPSCALE
 40
0.0
  9
$OLESTARTUP
290
     0
  9
$SORTENTS
280
   127
  9
$INDEXCTL
280
     0
  9
$HIDETEXT
280
     1
  9
$XCLIPFRAME
280
     2
  9
$HALOGAP
280
     0
  9
$OBSCOLOR
 70
   257
  9
$OBSLTYPE
280
     0
  9
$INTERSECTIONDISPLAY
280
     0
  9
$INTERSECTIONCOLOR
 70
   257
  9
$DIMASSOC
280
     2
  9
$PROJECTNAME
  1

  9
$CAMERADISPLAY
290
     0
  9
$LENSLENGTH
 40
50.0
  9
$CAMERAHEIGHT
 40
0.0
  9
$STEPSPERSEC
 40
2.0
  9
$STEPSIZE
 40
6.0
  9
$3DDWFPREC
 40
2.0
  9
$PSOLWIDTH
 40
0.25
  9
$PSOLHEIGHT
 40
4.0
  9
$LOFTANG1
 40
1.570796326794896
  9
$LOFTANG2
 40
1.570796326794896
  9
$LOFTMAG1
 40
0.0
  9
$LOFTMAG2
 40
0.0
  9
$LOFTPARAM
 70
     7
  9
$LOFTNORMALS
280
     1
  9
$LATITUDE
 40
37.795
  9
$LONGITUDE
 40
-122.394
  9
$NORTHDIRECTION
 40
0.0
  9
$TIMEZONE
 70
 -8000
  9
$LIGHTGLYPHDISPLAY
280
     1
  9
$TILEMODELIGHTSYNCH
280
     1
  9
$CMATERIAL
347
11
  9
$SOLIDHIST
280
     0
  9
$SHOWHIST
280
     1
  9
$DWFFRAME
280
     2
  9
$DGNFRAME
280
     0
  9
$REALWORLDSCALE
290
     1
  9
$INTERFERECOLOR
 62
     1
  9
$INTERFEREOBJVS
345
33
  9
$INTERFEREVPVS
346
30
  9
$CSHADOW
280
     0
  9
$SHADOWPLANELOCATION
 40
0.0
  0
ENDSEC
  0
SECTION
  2
CLASSES
  0
CLASS
  1
ACDBDICTIONARYWDFLT
  2
AcDbDictionaryWithDefault
  3
ObjectDBX Classes
 90
        0
 91
        1
280
     0
281
     0
  0
CLASS
  1
MATERIAL
  2
AcDbMaterial
  3
ObjectDBX Classes
 90
     1153
 91
        3
280
     0
281
     0
  0
CLASS
  1
VISUALSTYLE
  2
AcDbVisualStyle
  3
ObjectDBX Classes
 90
     4095
 91
       24
280
     0
281
     0
  0
CLASS
  1
SCALE
  2
AcDbScale
  3
ObjectDBX Classes
 90
     1153
 91
       17
280
     0
281
     0
  0
CLASS
  1
TABLESTYLE
  2
AcDbTableStyle
  3
ObjectDBX Classes
 90
     4095
 91
        1
280
     0
281
     0
  0
CLASS
  1
MLEADERSTYLE
  2
AcDbMLeaderStyle
  3
ACDB_MLEADERSTYLE_CLASS
 90
     4095
 91
        1
280
     0
281
     0
  0
CLASS
  1
ACDBSECTIONVIEWSTYLE
  2
AcDbSectionViewStyle
  3
ObjectDBX Classes
 90
     1025
 91
        1
280
     0
281
     0
  0
CLASS
  1
ACDBDETAILVIEWSTYLE
  2
AcDbDetailViewStyle
  3
ObjectDBX Classes
 90
     1025
 91
        1
280
     0
281
     0
  0
CLASS
  1
DICTIONARYVAR
  2
AcDbDictionaryVar
  3
ObjectDBX Classes
 90
        0
 91
        5
280
     0
281
     0
  0
CLASS
  1
CELLSTYLEMAP
  2
AcDbCellStyleMap
  3
ObjectDBX Classes
 90
     1152
 91
        1
280
     0
281
     0
  0
ENDSEC
  0
SECTION
  2
TABLES
  0
TABLE
  2
VPORT
  5
8
330
0
100
AcDbSymbolTable
 70
     1
  0
VPORT
  5
57
330
8
100
AcDbSymbolTableRecord
100
AcDbViewportTableRecord
  2
*Active
 70
     0
 10
0.0
 20
0.0
 11
1.0
 21
1.0
 12
0.0
 22
0.0
 13
0.0
 23
0.0
 14
1.0
 24
1.0
 15
0.0
 25
0.0
 16
0.0
 26
0.0
 36
1.0
 17
5.000007573043346
 27
5.000007573043346
 37
0.0
 40
10.20001544900842
 41
1.0
 42
50.0
 43
0.0
 44
0.0
 50
0.0
 51
0.0
 71
     0
 72
   100
 73
     1
 74
     1
 75
     0
 76
     0
 77
     0
 78
     0
281
     0
 65
     1
110
0.0
120
0.0
130
0.0
111
1.0
121
0.0
131
0.0
112
0.0
122
1.0
132
0.0
 79
     0
146
0.0
 60
     3
 61
     5
292
     1
282
     1
141
0.0
142
0.0
 63
   250
421
  3355443
  0
ENDTAB
  0
TABLE
  2
LTYPE
  5
5
330
0
100
AcDbSymbolTable
 70
     1
  0
LTYPE
  5
5B
330
5
100
AcDbSymbolTableRecord
100
AcDbLinetypeTableRecord
  2
ByBlock
 70
     0
  3

 72
    65
 73
     0
 40
0.0
  0
LTYPE
  5
5C
330
5
100
AcDbSymbolTableRecord
100
AcDbLinetypeTableRecord
  2
ByLayer
 70
     0
  3

 72
    65
 73
     0
 40
0.0
  0
LTYPE
  5
5D
330
5
100
AcDbSymbolTableRecord
100
AcDbLinetypeTableRecord
  2
Continuous
 70
     0
  3
Solid line
 72
    65
 73
     0
 40
0.0
  0
ENDTAB
  0
TABLE
  2
LAYER
  5
2
330
0
100
AcDbSymbolTable
 70
     2
  0
LAYER
  5
54
330
2
100
AcDbSymbolTableRecord
100
AcDbLayerTableRecord
  2
0
 70
     0
 62
     7
  6
Continuous
370
    -3
390
F
347
21
348
0
  0
LAYER
  5
78
330
2
100
AcDbSymbolTableRecord
100
AcDbLayerTableRecord
  2
Camada 1
 70
     0
 62
     7
  6
Continuous
370
     0
390
F
347
21
348
0
  0
ENDTAB
  0
TABLE
  2
STYLE
  5
3
330
0
100
AcDbSymbolTable
 70
     2
  0
STYLE
  5
55
330
3
100
AcDbSymbolTableRecord
100
AcDbTextStyleTableRecord
  2
Standard
 70
     0
 40
0.0
 41
1.0
 50
0.0
 71
     0
 42
0.2
  3
txt
  4

  0
STYLE
  5
5A
330
3
100
AcDbSymbolTableRecord
100
AcDbTextStyleTableRecord
  2
Annotative
 70
     0
 40
0.0
 41
1.0
 50
0.0
 71
     0
 42
0.2
  3
txt
  4

1001
AcadAnnotative
1000
AnnotativeData
1002
{
1070
     1
1070
     1
1002
}
  0
ENDTAB
  0
TABLE
  2
VIEW
  5
6
330
0
100
AcDbSymbolTable
 70
     0
  0
ENDTAB
  0
TABLE
  2
UCS
  5
7
330
0
100
AcDbSymbolTable
 70
     0
  0
ENDTAB
  0
TABLE
  2
APPID
  5
9
330
0
100
AcDbSymbolTable
 70
     2
  0
APPID
  5
56
330
9
100
AcDbSymbolTableRecord
100
AcDbRegAppTableRecord
  2
ACAD
 70
     0
  0
APPID
  5
5E
330
9
100
AcDbSymbolTableRecord
100
AcDbRegAppTableRecord
  2
AcadAnnotative
 70
     0
  0
ENDTAB
  0
TABLE
  2
DIMSTYLE
  5
A
330
0
100
AcDbSymbolTable
 70
     2
100
AcDbDimStyleTable
 71
     0
  0
DIMSTYLE
105
58
330
A
100
AcDbSymbolTableRecord
100
AcDbDimStyleTableRecord
  2
Standard
 70
     0
340
55
  0
DIMSTYLE
105
59
330
A
100
AcDbSymbolTableRecord
100
AcDbDimStyleTableRecord
  2
Annotative
 70
     0
340
55
1001
AcadAnnotative
1000
AnnotativeData
1002
{
1070
     1
1070
     1
1002
}
  0
ENDTAB
  0
TABLE
  2
BLOCK_RECORD
  5
1
330
0
100
AcDbSymbolTable
 70
     1
  0
BLOCK_RECORD
  5
70
330
1
100
AcDbSymbolTableRecord
100
AcDbBlockTableRecord
  2
*Model_Space
340
73
 70
     0
280
     1
281
     0
  0
BLOCK_RECORD
  5
6C
330
1
100
AcDbSymbolTableRecord
100
AcDbBlockTableRecord
  2
*Paper_Space
340
6F
 70
     0
280
     1
281
     0
  0
BLOCK_RECORD
  5
74
330
1
100
AcDbSymbolTableRecord
100
AcDbBlockTableRecord
  2
*Paper_Space0
340
77
 70
     0
280
     1
281
     0
  0
ENDTAB
  0
ENDSEC
  0
SECTION
  2
BLOCKS
  0
BLOCK
  5
71
330
70
100
AcDbEntity
  8
0
100
AcDbBlockBegin
  2
*Model_Space
 70
     0
 10
0.0
 20
0.0
 30
0.0
  3
*Model_Space
  1

  0
ENDBLK
  5
72
330
70
100
AcDbEntity
  8
0
100
AcDbBlockEnd
  0
BLOCK
  5
6D
330
6C
100
AcDbEntity
 67
     1
  8
0
100
AcDbBlockBegin
  2
*Paper_Space
 70
     0
 10
0.0
 20
0.0
 30
0.0
  3
*Paper_Space
  1

  0
ENDBLK
  5
6E
330
6C
100
AcDbEntity
 67
     1
  8
0
100
AcDbBlockEnd
  0
BLOCK
  5
75
330
74
100
AcDbEntity
 67
     1
  8
0
100
AcDbBlockBegin
  2
*Paper_Space0
 70
     0
 10
0.0
 20
0.0
 30
0.0
  3
*Paper_Space0
  1

  0
ENDBLK
  5
76
330
74
100
AcDbEntity
 67
     1
  8
0
100
AcDbBlockEnd
  0
ENDSEC
  0
SECTION
  2
ENTITIES
  0
LINE
  5
79
330
70
100
AcDbEntity
  8
Camada 1
 62
   250
420
  1907995
370
    15
100
AcDbLine
 10
4.588248684053946
 20
1.932573144217648
 30
0.0
 11
4.976268711965296
 21
1.932573144217648
 31
0.0
  0
LINE
  5
7A
330
70
100
AcDbEntity
  8
Camada 1
 62
   250
420
  1907995
370
    15
100
AcDbLine
 10
4.976283245961875
 20
1.932573144217648
 30
0.0
 11
5.364620868613271
 21
1.932573144217648
 31
0.0
  0
SPLINE
  5
7B
330
70
100
AcDbEntity
  8
Camada 1
 62
   250
420
  1907995
370
    15
100
AcDbSpline
210
0.0
220
0.0
230
1.0
 70
     8
 71
     3
 72
    38
 73
    34
 74
     0
 42
0.0000000001
 43
0.0000000001
 40
0.0
 40
0.0
 40
0.0
 40
0.0
 40
1.0
 40
1.0
 40
1.0
 40
2.0
 40
2.0
 40
2.0
 40
3.0
 40
3.0
 40
3.0
 40
4.0
 40
4.0
 40
4.0
 40
5.0
 40
5.0
 40
5.0
 40
6.0
 40
6.0
 40
6.0
 40
7.0
 40
7.0
 40
7.0
 40
8.0
 40
8.0
 40
8.0
 40
9.0
 40
9.0
 40
9.0
 40
10.0
 40
10.0
 40
10.0
 40
11.0
 40
11.0
 40
11.0
 40
11.0
 10
4.946526772004198
 20
5.158249421419584
 30
0.0
 10
4.866234515351095
 20
5.141245183719028
 30
0.0
 10
4.799488481805227
 20
5.104415498093199
 30
0.0
 10
4.756555594208809
 20
5.031108172536439
 30
0.0
 10
4.750769986978268
 20
5.021230437824824
 30
0.0
 10
4.747912710910189
 20
5.012340476584371
 30
0.0
 10
4.747947700161211
 20
5.001262879710783
 30
0.0
 10
4.74812426130483
 20
4.805753710922855
 30
0.0
 10
4.748018216959425
 20
4.610279531385949
 30
0.0
 10
4.748230305650236
 20
4.414770093449936
 30
0.0
 10
4.748230305650236
 20
4.40669161368511
 30
0.0
 10
4.747559588622951
 20
4.399318571050506
 30
0.0
 10
4.753451240198898
 20
4.390710677002908
 30
0.0
 10
4.787705716949503
 20
4.34058103876742
 30
0.0
 10
4.829545325025523
 20
4.300999313974663
 30
0.0
 10
4.887153781092935
 20
4.278174479792543
 30
0.0
 10
4.963142359870325
 20
4.248082647321225
 30
0.0
 10
5.082627960629841
 20
4.263745989263381
 30
0.0
 10
5.139037092831451
 20
4.322977408282048
 30
0.0
 10
5.1609096810896
 20
4.345943276060594
 30
0.0
 10
5.184439683253857
 20
4.36686281095052
 30
0.0
 10
5.19946837401209
 20
4.396425767435236
 30
0.0
 10
5.205959149224768
 20
4.409161047363014
 30
0.0
 10
5.207017439494143
 20
4.420238105940431
 30
0.0
 10
5.207017439494143
 20
4.432550285078928
 30
0.0
 10
5.207264517435976
 20
4.608303984443626
 30
0.0
 10
5.20504189255182
 20
4.784093211355517
 30
0.0
 10
5.208569885647184
 20
4.959776393922002
 30
0.0
 10
5.209557659118345
 20
5.008036260412486
 30
0.0
 10
5.191636703041011
 20
5.042961454190376
 30
0.0
 10
5.162461588946471
 20
5.075028833604018
 30
0.0
 10
5.105593828408388
 20
5.137541167776215
 30
0.0
 10
5.032851175533507
 20
5.162129460209847
 30
0.0
 10
4.949490092417683
 20
5.158249421419584
 30
0.0
  0
SPLINE
  5
7C
330
70
100
AcDbEntity
  8
Camada 1
 62
   250
420
  1907995
370
    15
100
AcDbSpline
210
0.0
220
0.0
230
1.0
 70
     9
 71
     3
 72
    17
 73
    13
 74
     0
 42
0.0000000001
 43
0.0000000001
 40
0.0
 40
0.0
 40
0.0
 40
0.0
 40
1.0
 40
1.0
 40
1.0
 40
2.0
 40
2.0
 40
2.0
 40
3.0
 40
3.0
 40
3.0
 40
4.0
 40
4.0
 40
4.0
 40
4.0
 10
4.969961495746441
 20
6.25332846591171
 30
0.0
 10
4.969961495746441
 20
6.24987098961456
 30
0.0
 10
4.972254099132641
 20
6.247013713546481
 30
0.0
 10
4.975711575429791
 20
6.247013713546481
 30
0.0
 10
4.979133524179749
 20
6.247013713546481
 30
0.0
 10
4.98202632779502
 20
6.24987098961456
 30
0.0
 10
4.98202632779502
 20
6.25332846591171
 30
0.0
 10
4.98202632779502
 20
6.256785403912691
 30
0.0
 10
4.979133524179749
 20
6.25907854559506
 30
0.0
 10
4.975711575429791
 20
6.25907854559506
 30
0.0
 10
4.972254099132641
 20
6.25907854559506
 30
0.0
 10
4.969961495746441
 20
6.256785403912691
 30
0.0
 10
4.969961495746441
 20
6.25332846591171
 30
0.0
  0
SPLINE
  5
7D
330
70
100
AcDbEntity
  8
Camada 1
 62
   250
420
  1907995
370
    35
100
AcDbSpline
210
0.0
220
0.0
230
1.0
 70
     9
 71
     3
 72
    17
 73
    13
 74
     0
 42
0.0000000001
 43
0.0000000001
 40
0.0
 40
0.0
 40
0.0
 40
0.0
 40
1.0
 40
1.0
 40
1.0
 40
2.0
 40
2.0
 40
2.0
 40
3.0
 40
3.0
 40
3.0
 40
4.0
 40
4.0
 40
4.0
 40
4.0
 10
4.690660068610863
 20
6.761889155074935
 30
0.0
 10
4.690660068610863
 20
6.758431678777784
 30
0.0
 10
4.692988199544254
 20
6.755574402709705
 30
0.0
 10
4.696445137545235
 20
6.755574402709705
 30
0.0
 10
4.699867086295193
 20
6.755574402709705
 30
0.0
 10
4.702759889910463
 20
6.758431678777784
 30
0.0
 10
4.702759889910463
 20
6.761889155074935
 30
0.0
 10
4.702759889910463
 20
6.765346093075915
 30
0.0
 10
4.699867086295193
 20
6.767639234758284
 30
0.0
 10
4.696445137545235
 20
6.767639234758284
 30
0.0
 10
4.692988199544254
 20
6.767639234758284
 30
0.0
 10
4.690660068610863
 20
6.765346093075915
 30
0.0
 10
4.690660068610863
 20
6.761889155074935
 30
0.0
  0
SPLINE
  5
7E
330
70
100
AcDbEntity
  8
Camada 1
 62
   250
420
  1907995
370
    35
100
AcDbSpline
210
0.0
220
0.0
230
1.0
 70
     9
 71
     3
 72
    17
 73
    13
 74
     0
 42
0.0000000001
 43
0.0000000001
 40
0.0
 40
0.0
 40
0.0
 40
0.0
 40
1.0
 40
1.0
 40
1.0
 40
2.0
 40
2.0
 40
2.0
 40
3.0
 40
3.0
 40
3.0
 40
4.0
 40
4.0
 40
4.0
 40
4.0
 10
4.772271689175584
 20
6.564199348504077
 30
0.0
 10
4.772271689175584
 20
6.560741872206928
 30
0.0
 10
4.774564292561783
 20
6.557884596138848
 30
0.0
 10
4.778021768858933
 20
6.557884596138848
 30
0.0
 10
4.781443717608892
 20
6.557884596138848
 30
0.0
 10
4.784336521224163
 20
6.560741872206928
 30
0.0
 10
4.784336521224163
 20
6.564199348504077
 30
0.0
 10
4.784336521224163
 20
6.567656286505058
 30
0.0
 10
4.781443717608892
 20
6.569949428187427
 30
0.0
 10
4.778021768858933
 20
6.569949428187427
 30
0.0
 10
4.774564292561783
 20
6.569949428187427
 30
0.0
 10
4.772271689175584
 20
6.567656286505058
 30
0.0
 10
4.772271689175584
 20
6.564199348504077
 30
0.0
  0
SPLINE
  5
7F
330
70
100
AcDbEntity
  8
Camada 1
 62
   250
420
  1907995
370
    15
100
AcDbSpline
210
0.0
220
0.0
230
1.0
 70
     9
 71
     3
 72
    17
 73
    13
 74
     0
 42
0.0000000001
 43
0.0000000001
 40
0.0
 40
0.0
 40
0.0
 40
0.0
 40
1.0
 40
1.0
 40
1.0
 40
2.0
 40
2.0
 40
2.0
 40
3.0
 40
3.0
 40
3.0
 40
4.0
 40
4.0
 40
4.0
 40
4.0
 10
4.969961495746441
 20
6.049898807284725
 30
0.0
 10
4.969961495746441
 20
6.046441330987575
 30
0.0
 10
4.972254099132641
 20
6.043584054919496
 30
0.0
 10
4.975711575429791
 20
6.043584054919496
 30
0.0
 10
4.979133524179749
 20
6.043584054919496
 30
0.0
 10
4.98202632779502
 20
6.046441330987575
 30
0.0
 10
4.98202632779502
 20
6.049898807284725
 30
0.0
 10
4.98202632779502
 20
6.053355745285705
 30
0.0
 10
4.979133524179749
 20
6.055648886968075
 30
0.0
 10
4.975711575429791
 20
6.055648886968075
 30
0.0
 10
4.972254099132641
 20
6.055648886968075
 30
0.0
 10
4.969961495746441
 20
6.053355745285705
 30
0.0
 10
4.969961495746441
 20
6.049898807284725
 30
0.0
  0
SPLINE
  5
80
330
70
100
AcDbEntity
  8
Camada 1
 62
   250
420
  1907995
370
    15
100
AcDbSpline
210
0.0
220
0.0
230
1.0
 70
     9
 71
     3
 72
    17
 73
    13
 74
     0
 42
0.0000000001
 43
0.0000000001
 40
0.0
 40
0.0
 40
0.0
 40
0.0
 40
1.0
 40
1.0
 40
1.0
 40
2.0
 40
2.0
 40
2.0
 40
3.0
 40
3.0
 40
3.0
 40
4.0
 40
4.0
 40
4.0
 40
4.0
 10
4.969961495746441
 20
5.82118968394238
 30
0.0
 10
4.969961495746441
 20
5.81773220764523
 30
0.0
 10
4.972254099132641
 20
5.814874931577151
 30
0.0
 10
4.975711575429791
 20
5.814874931577151
 30
0.0
 10
4.979133524179749
 20
5.814874931577151
 30
0.0
 10
4.98202632779502
 20
5.81773220764523
 30
0.0
 10
4.98202632779502
 20
5.82118968394238
 30
0.0
 10
4.98202632779502
 20
5.82464662194336
 30
0.0
 10
4.979133524179749
 20
5.82693976362573
 30
0.0
 10
4.975711575429791
 20
5.82693976362573
 30
0.0
 10
4.972254099132641
 20
5.82693976362573
 30
0.0
 10
4.969961495746441
 20
5.82464662194336
 30
0.0
 10
4.969961495746441
 20
5.82118968394238
 30
0.0
  0
SPLINE
  5
81
330
70
100
AcDbEntity
  8
Camada 1
 62
   250
420
  1907995
370
    15
100
AcDbSpline
210
0.0
220
0.0
230
1.0
 70
     9
 71
     3
 72
    17
 73
    13
 74
     0
 42
0.0000000001
 43
0.0000000001
 40
0.0
 40
0.0
 40
0.0
 40
0.0
 40
1.0
 40
1.0
 40
1.0
 40
2.0
 40
2.0
 40
2.0
 40
3.0
 40
3.0
 40
3.0
 40
4.0
 40
4.0
 40
4.0
 40
4.0
 10
4.461950945268518
 20
6.761889155074935
 30
0.0
 10
4.461950945268518
 20
6.758431678777784
 30
0.0
 10
4.464279076201909
 20
6.755574402709705
 30
0.0
 10
4.467736283350975
 20
6.755574402709705
 30
0.0
 10
4.471158232100933
 20
6.755574402709705
 30
0.0
 10
4.474051035716203
 20
6.758431678777784
 30
0.0
 10
4.474051035716203
 20
6.761889155074935
 30
0.0
 10
4.474051035716203
 20
6.765346093075915
 30
0.0
 10
4.471158232100933
 20
6.767639234758284
 30
0.0
 10
4.467736283350975
 20
6.767639234758284
 30
0.0
 10
4.464279076201909
 20
6.767639234758284
 30
0.0
 10
4.461950945268518
 20
6.765346093075915
 30
0.0
 10
4.461950945268518
 20
6.761889155074935
 30
0.0
  0
SPLINE
  5
82
330
70
100
AcDbEntity
  8
Camada 1
 62
   250
420
  1907995
370
    15
100
AcDbSpline
210
0.0
220
0.0
230
1.0
 70
     9
 71
     3
 72
    17
 73
    13
 74
     0
 42
0.0000000001
 43
0.0000000001
 40
0.0
 40
0.0
 40
0.0
 40
0.0
 40
1.0
 40
1.0
 40
1.0
 40
2.0
 40
2.0
 40
2.0
 40
3.0
 40
3.0
 40
3.0
 40
4.0
 40
4.0
 40
4.0
 40
4.0
 10
4.258553315263622
 20
6.761889155074935
 30
0.0
 10
4.258553315263622
 20
6.758431678777784
 30
0.0
 10
4.260846187797906
 20
6.755574402709705
 30
0.0
 10
4.264303394946971
 20
6.755574402709705
 30
0.0
 10
4.26772534369693
 20
6.755574402709705
 30
0.0
 10
4.2706181473122
 20
6.758431678777784
 30
0.0
 10
4.2706181473122
 20
6.761889155074935
 30
0.0
 10
4.2706181473122
 20
6.765346093075915
 30
0.0
 10
4.26772534369693
 20
6.767639234758284
 30
0.0
 10
4.264303394946971
 20
6.767639234758284
 30
0.0
 10
4.260846187797906
 20
6.767639234758284
 30
0.0
 10
4.258553315263622
 20
6.765346093075915
 30
0.0
 10
4.258553315263622
 20
6.761889155074935
 30
0.0
  0
SPLINE
  5
83
330
70
100
AcDbEntity
  8
Camada 1
 62
   250
420
  1907995
370
    15
100
AcDbSpline
210
0.0
220
0.0
230
1.0
 70
     9
 71
     3
 72
    17
 73
    13
 74
     0
 42
0.0000000001
 43
0.0000000001
 40
0.0
 40
0.0
 40
0.0
 40
0.0
 40
1.0
 40
1.0
 40
1.0
 40
2.0
 40
2.0
 40
2.0
 40
3.0
 40
3.0
 40
3.0
 40
4.0
 40
4.0
 40
4.0
 40
4.0
 10
4.029843922773191
 20
6.761889155074935
 30
0.0
 10
4.029843922773191
 20
6.758431678777784
 30
0.0
 10
4.032136795307476
 20
6.755574402709705
 30
0.0
 10
4.035594002456541
 20
6.755574402709705
 30
0.0
 10
4.0390159512065
 20
6.755574402709705
 30
0.0
 10
4.04190875482177
 20
6.758431678777784
 30
0.0
 10
4.04190875482177
 20
6.761889155074935
 30
0.0
 10
4.04190875482177
 20
6.765346093075915
 30
0.0
 10
4.0390159512065
 20
6.767639234758284
 30
0.0
 10
4.035594002456541
 20
6.767639234758284
 30
0.0
 10
4.032136795307476
 20
6.767639234758284
 30
0.0
 10
4.029843922773191
 20
6.765346093075915
 30
0.0
 10
4.029843922773191
 20
6.761889155074935
 30
0.0
  0
SPLINE
  5
84
330
70
100
AcDbEntity
  8
Camada 1
 62
   250
420
  1907995
370
    15
100
AcDbSpline
210
0.0
220
0.0
230
1.0
 70
     8
 71
     3
 72
    11
 73
     7
 74
     0
 42
0.0000000001
 43
0.0000000001
 40
0.0
 40
0.0
 40
0.0
 40
0.0
 40
1.0
 40
1.0
 40
1.0
 40
2.0
 40
2.0
 40
2.0
 40
2.0
 10
4.480221255559903
 20
5.570385656023852
 30
0.0
 10
4.623342902829081
 20
5.451111067362807
 30
0.0
 10
4.793558072905071
 20
5.381931396834312
 30
0.0
 10
4.976191197316878
 20
5.381931396834312
 30
0.0
 10
5.161046946612841
 20
5.381931396834312
 30
0.0
 10
5.333273191178346
 20
5.452804547112275
 30
0.0
 10
5.477523645515113
 20
5.574795378244973
 30
0.0
  0
SPLINE
  5
85
330
70
100
AcDbEntity
  8
Camada 1
 62
   250
420
  1907995
370
    15
100
AcDbSpline
210
0.0
220
0.0
230
1.0
 70
     9
 71
     3
 72
    17
 73
    13
 74
     0
 42
0.0000000001
 43
0.0000000001
 40
0.0
 40
0.0
 40
0.0
 40
0.0
 40
1.0
 40
1.0
 40
1.0
 40
2.0
 40
2.0
 40
2.0
 40
3.0
 40
3.0
 40
3.0
 40
4.0
 40
4.0
 40
4.0
 40
4.0
 10
3.998242169546228
 20
6.761889155074935
 30
0.0
 10
3.998242169546228
 20
6.741180901431566
 30
0.0
 10
4.014893015811462
 20
6.723930124085347
 30
0.0
 10
4.035566011055723
 20
6.723930124085347
 30
0.0
 10
4.056238737151901
 20
6.723930124085347
 30
0.0
 10
4.07348951449812
 20
6.741180901431566
 30
0.0
 10
4.07348951449812
 20
6.761889155074935
 30
0.0
 10
4.07348951449812
 20
6.782561881171112
 30
0.0
 10
4.056238737151901
 20
6.799212996584429
 30
0.0
 10
4.035566011055723
 20
6.799212996584429
 30
0.0
 10
4.014893015811462
 20
6.799212996584429
 30
0.0
 10
3.998242169546228
 20
6.782561881171112
 30
0.0
 10
3.998242169546228
 20
6.761889155074935
 30
0.0
  0
SPLINE
  5
86
330
70
100
AcDbEntity
  8
Camada 1
 62
   250
420
  1907995
370
    15
100
AcDbSpline
210
0.0
220
0.0
230
1.0
 70
     9
 71
     3
 72
    17
 73
    13
 74
     0
 42
0.0000000001
 43
0.0000000001
 40
0.0
 40
0.0
 40
0.0
 40
0.0
 40
1.0
 40
1.0
 40
1.0
 40
2.0
 40
2.0
 40
2.0
 40
3.0
 40
3.0
 40
3.0
 40
4.0
 40
4.0
 40
4.0
 40
4.0
 10
4.025811815315025
 20
6.761889155074935
 30
0.0
 10
4.025811815315025
 20
6.756103547844393
 30
0.0
 10
4.029833425997884
 20
6.751552253730676
 30
0.0
 10
4.035583505681235
 20
6.751552253730676
 30
0.0
 10
4.041333854512669
 20
6.751552253730676
 30
0.0
 10
4.045920137877408
 20
6.756103547844393
 30
0.0
 10
4.045920137877408
 20
6.761889155074935
 30
0.0
 10
4.045920137877408
 20
6.767639234758284
 30
0.0
 10
4.041333854512669
 20
6.771660845441144
 30
0.0
 10
4.035583505681235
 20
6.771660845441144
 30
0.0
 10
4.029833425997884
 20
6.771660845441144
 30
0.0
 10
4.025811815315025
 20
6.767639234758284
 30
0.0
 10
4.025811815315025
 20
6.761889155074935
 30
0.0
  0
SPLINE
  5
87
330
70
100
AcDbEntity
  8
Camada 1
 62
   250
420
  1907995
370
    15
100
AcDbSpline
210
0.0
220
0.0
230
1.0
 70
     9
 71
     3
 72
    17
 73
    13
 74
     0
 42
0.0000000001
 43
0.0000000001
 40
0.0
 40
0.0
 40
0.0
 40
0.0
 40
1.0
 40
1.0
 40
1.0
 40
2.0
 40
2.0
 40
2.0
 40
3.0
 40
3.0
 40
3.0
 40
4.0
 40
4.0
 40
4.0
 40
4.0
 10
4.231530578403108
 20
6.761889155074935
 30
0.0
 10
4.231530578403108
 20
6.743474043113935
 30
0.0
 10
4.245923810533163
 20
6.728551396701107
 30
0.0
 10
4.264303394946971
 20
6.728551396701107
 30
0.0
 10
4.282683248508864
 20
6.728551396701107
 30
0.0
 10
4.297605625773607
 20
6.743474043113935
 30
0.0
 10
4.297605625773607
 20
6.761889155074935
 30
0.0
 10
4.297605625773607
 20
6.780268739488742
 30
0.0
 10
4.282683248508864
 20
6.794626713219691
 30
0.0
 10
4.264303394946971
 20
6.794626713219691
 30
0.0
 10
4.245923810533163
 20
6.794626713219691
 30
0.0
 10
4.231530578403108
 20
6.780268739488742
 30
0.0
 10
4.231530578403108
 20
6.761889155074935
 30
0.0
  0
SPLINE
  5
88
330
70
100
AcDbEntity
  8
Camada 1
 62
   250
420
  1907995
370
    15
100
AcDbSpline
210
0.0
220
0.0
230
1.0
 70
     9
 71
     3
 72
    17
 73
    13
 74
     0
 42
0.0000000001
 43
0.0000000001
 40
0.0
 40
0.0
 40
0.0
 40
0.0
 40
1.0
 40
1.0
 40
1.0
 40
2.0
 40
2.0
 40
2.0
 40
3.0
 40
3.0
 40
3.0
 40
4.0
 40
4.0
 40
4.0
 40
4.0
 10
4.226919802562654
 20
6.761889155074935
 30
0.0
 10
4.226919802562654
 20
6.741180901431566
 30
0.0
 10
4.243606176375078
 20
6.723930124085347
 30
0.0
 10
4.264278902471255
 20
6.723930124085347
 30
0.0
 10
4.284951628567434
 20
6.723930124085347
 30
0.0
 10
4.302202405913652
 20
6.741180901431566
 30
0.0
 10
4.302202405913652
 20
6.761889155074935
 30
0.0
 10
4.302202405913652
 20
6.782561881171112
 30
0.0
 10
4.284951628567434
 20
6.799212996584429
 30
0.0
 10
4.264278902471255
 20
6.799212996584429
 30
0.0
 10
4.243606176375078
 20
6.799212996584429
 30
0.0
 10
4.226919802562654
 20
6.782561881171112
 30
0.0
 10
4.226919802562654
 20
6.761889155074935
 30
0.0
  0
SPLINE
  5
89
330
70
100
AcDbEntity
  8
Camada 1
 62
   250
420
  1907995
370
    15
100
AcDbSpline
210
0.0
220
0.0
230
1.0
 70
     9
 71
     3
 72
    17
 73
    13
 74
     0
 42
0.0000000001
 43
0.0000000001
 40
0.0
 40
0.0
 40
0.0
 40
0.0
 40
1.0
 40
1.0
 40
1.0
 40
2.0
 40
2.0
 40
2.0
 40
3.0
 40
3.0
 40
3.0
 40
4.0
 40
4.0
 40
4.0
 40
4.0
 10
4.254521207805455
 20
6.761889155074935
 30
0.0
 10
4.254521207805455
 20
6.756103547844393
 30
0.0
 10
4.258542818488315
 20
6.751552253730676
 30
0.0
 10
4.264292898171665
 20
6.751552253730676
 30
0.0
 10
4.2700432470031
 20
6.751552253730676
 30
0.0
 10
4.274629530367838
 20
6.756103547844393
 30
0.0
 10
4.274629530367838
 20
6.761889155074935
 30
0.0
 10
4.274629530367838
 20
6.767639234758284
 30
0.0
 10
4.2700432470031
 20
6.771660845441144
 30
0.0
 10
4.264292898171665
 20
6.771660845441144
 30
0.0
 10
4.258542818488315
 20
6.771660845441144
 30
0.0
 10
4.254521207805455
 20
6.767639234758284
 30
0.0
 10
4.254521207805455
 20
6.761889155074935
 30
0.0
  0
SPLINE
  5
8A
330
70
100
AcDbEntity
  8
Camada 1
 62
   250
420
  1907995
370
    15
100
AcDbSpline
210
0.0
220
0.0
230
1.0
 70
     9
 71
     3
 72
    17
 73
    13
 74
     0
 42
0.0000000001
 43
0.0000000001
 40
0.0
 40
0.0
 40
0.0
 40
0.0
 40
1.0
 40
1.0
 40
1.0
 40
2.0
 40
2.0
 40
2.0
 40
3.0
 40
3.0
 40
3.0
 40
4.0
 40
4.0
 40
4.0
 40
4.0
 10
4.434963466807111
 20
6.761889155074935
 30
0.0
 10
4.434963466807111
 20
6.743474043113935
 30
0.0
 10
4.449321440538059
 20
6.728551396701107
 30
0.0
 10
4.467736283350975
 20
6.728551396701107
 30
0.0
 10
4.486116136912867
 20
6.728551396701107
 30
0.0
 10
4.50103851417761
 20
6.743474043113935
 30
0.0
 10
4.50103851417761
 20
6.761889155074935
 30
0.0
 10
4.50103851417761
 20
6.780268739488742
 30
0.0
 10
4.486116136912867
 20
6.794626713219691
 30
0.0
 10
4.467736283350975
 20
6.794626713219691
 30
0.0
 10
4.449321440538059
 20
6.794626713219691
 30
0.0
 10
4.434963466807111
 20
6.780268739488742
 30
0.0
 10
4.434963466807111
 20
6.761889155074935
 30
0.0
  0
SPLINE
  5
8B
330
70
100
AcDbEntity
  8
Camada 1
 62
   250
420
  1907995
370
    15
100
AcDbSpline
210
0.0
220
0.0
230
1.0
 70
     9
 71
     3
 72
    17
 73
    13
 74
     0
 42
0.0000000001
 43
0.0000000001
 40
0.0
 40
0.0
 40
0.0
 40
0.0
 40
1.0
 40
1.0
 40
1.0
 40
2.0
 40
2.0
 40
2.0
 40
3.0
 40
3.0
 40
3.0
 40
4.0
 40
4.0
 40
4.0
 40
4.0
 10
4.430352690966657
 20
6.761889155074935
 30
0.0
 10
4.430352690966657
 20
6.741180901431566
 30
0.0
 10
4.447039064779081
 20
6.723930124085347
 30
0.0
 10
4.467711790875259
 20
6.723930124085347
 30
0.0
 10
4.488384516971436
 20
6.723930124085347
 30
0.0
 10
4.505635294317655
 20
6.741180901431566
 30
0.0
 10
4.505635294317655
 20
6.761889155074935
 30
0.0
 10
4.505635294317655
 20
6.782561881171112
 30
0.0
 10
4.488384516971436
 20
6.799212996584429
 30
0.0
 10
4.467711790875259
 20
6.799212996584429
 30
0.0
 10
4.447039064779081
 20
6.799212996584429
 30
0.0
 10
4.430352690966657
 20
6.782561881171112
 30
0.0
 10
4.430352690966657
 20
6.761889155074935
 30
0.0
  0
SPLINE
  5
8C
330
70
100
AcDbEntity
  8
Camada 1
 62
   250
420
  1907995
370
    15
100
AcDbSpline
210
0.0
220
0.0
230
1.0
 70
     9
 71
     3
 72
    17
 73
    13
 74
     0
 42
0.0000000001
 43
0.0000000001
 40
0.0
 40
0.0
 40
0.0
 40
0.0
 40
1.0
 40
1.0
 40
1.0
 40
2.0
 40
2.0
 40
2.0
 40
3.0
 40
3.0
 40
3.0
 40
4.0
 40
4.0
 40
4.0
 40
4.0
 10
4.457954096209459
 20
6.761889155074935
 30
0.0
 10
4.457954096209459
 20
6.756103547844393
 30
0.0
 10
4.461940448493211
 20
6.751552253730676
 30
0.0
 10
4.467725786575668
 20
6.751552253730676
 30
0.0
 10
4.473476135407102
 20
6.751552253730676
 30
0.0
 10
4.478026891224649
 20
6.756103547844393
 30
0.0
 10
4.478026891224649
 20
6.761889155074935
 30
0.0
 10
4.478026891224649
 20
6.767639234758284
 30
0.0
 10
4.473476135407102
 20
6.771660845441144
 30
0.0
 10
4.467725786575668
 20
6.771660845441144
 30
0.0
 10
4.461940448493211
 20
6.771660845441144
 30
0.0
 10
4.457954096209459
 20
6.767639234758284
 30
0.0
 10
4.457954096209459
 20
6.761889155074935
 30
0.0
  0
SPLINE
  5
8D
330
70
100
AcDbEntity
  8
Camada 1
 62
   250
420
  1907995
370
    35
100
AcDbSpline
210
0.0
220
0.0
230
1.0
 70
     9
 71
     3
 72
    17
 73
    13
 74
     0
 42
0.0000000001
 43
0.0000000001
 40
0.0
 40
0.0
 40
0.0
 40
0.0
 40
1.0
 40
1.0
 40
1.0
 40
2.0
 40
2.0
 40
2.0
 40
3.0
 40
3.0
 40
3.0
 40
4.0
 40
4.0
 40
4.0
 40
4.0
 10
4.663672590149457
 20
6.761889155074935
 30
0.0
 10
4.663672590149457
 20
6.743474043113935
 30
0.0
 10
4.678030563880405
 20
6.728551396701107
 30
0.0
 10
4.696445137545235
 20
6.728551396701107
 30
0.0
 10
4.714825260255212
 20
6.728551396701107
 30
0.0
 10
4.72974736837187
 20
6.743474043113935
 30
0.0
 10
4.72974736837187
 20
6.761889155074935
 30
0.0
 10
4.72974736837187
 20
6.780268739488742
 30
0.0
 10
4.714825260255212
 20
6.794626713219691
 30
0.0
 10
4.696445137545235
 20
6.794626713219691
 30
0.0
 10
4.678030563880405
 20
6.794626713219691
 30
0.0
 10
4.663672590149457
 20
6.780268739488742
 30
0.0
 10
4.663672590149457
 20
6.761889155074935
 30
0.0
  0
SPLINE
  5
8E
330
70
100
AcDbEntity
  8
Camada 1
 62
   250
420
  1907995
370
    35
100
AcDbSpline
210
0.0
220
0.0
230
1.0
 70
     9
 71
     3
 72
    17
 73
    13
 74
     0
 42
0.0000000001
 43
0.0000000001
 40
0.0
 40
0.0
 40
0.0
 40
0.0
 40
1.0
 40
1.0
 40
1.0
 40
2.0
 40
2.0
 40
2.0
 40
3.0
 40
3.0
 40
3.0
 40
4.0
 40
4.0
 40
4.0
 40
4.0
 10
4.659062083457087
 20
6.761889155074935
 30
0.0
 10
4.659062083457087
 20
6.741180901431566
 30
0.0
 10
4.675748188121427
 20
6.723930124085347
 30
0.0
 10
4.696420914217604
 20
6.723930124085347
 30
0.0
 10
4.717093640313781
 20
6.723930124085347
 30
0.0
 10
4.73434441766
 20
6.741180901431566
 30
0.0
 10
4.73434441766
 20
6.761889155074935
 30
0.0
 10
4.73434441766
 20
6.782561881171112
 30
0.0
 10
4.717093640313781
 20
6.799212996584429
 30
0.0
 10
4.696420914217604
 20
6.799212996584429
 30
0.0
 10
4.675748188121427
 20
6.799212996584429
 30
0.0
 10
4.659062083457087
 20
6.782561881171112
 30
0.0
 10
4.659062083457087
 20
6.761889155074935
 30
0.0
  0
SPLINE
  5
8F
330
70
100
AcDbEntity
  8
Camada 1
 62
   250
420
  1907995
370
    35
100
AcDbSpline
210
0.0
220
0.0
230
1.0
 70
     9
 71
     3
 72
    17
 73
    13
 74
     0
 42
0.0000000001
 43
0.0000000001
 40
0.0
 40
0.0
 40
0.0
 40
0.0
 40
1.0
 40
1.0
 40
1.0
 40
2.0
 40
2.0
 40
2.0
 40
3.0
 40
3.0
 40
3.0
 40
4.0
 40
4.0
 40
4.0
 40
4.0
 10
4.686663219551803
 20
6.761889155074935
 30
0.0
 10
4.686663219551803
 20
6.756103547844393
 30
0.0
 10
4.690649302687472
 20
6.751552253730676
 30
0.0
 10
4.696434909918012
 20
6.751552253730676
 30
0.0
 10
4.702184989601363
 20
6.751552253730676
 30
0.0
 10
4.70673574541891
 20
6.756103547844393
 30
0.0
 10
4.70673574541891
 20
6.761889155074935
 30
0.0
 10
4.70673574541891
 20
6.767639234758284
 30
0.0
 10
4.702184989601363
 20
6.771660845441144
 30
0.0
 10
4.696434909918012
 20
6.771660845441144
 30
0.0
 10
4.690649302687472
 20
6.771660845441144
 30
0.0
 10
4.686663219551803
 20
6.767639234758284
 30
0.0
 10
4.686663219551803
 20
6.761889155074935
 30
0.0
  0
SPLINE
  5
90
330
70
100
AcDbEntity
  8
Camada 1
 62
   250
420
  1907995
370
    35
100
AcDbSpline
210
0.0
220
0.0
230
1.0
 70
     9
 71
     3
 72
    17
 73
    13
 74
     0
 42
0.0000000001
 43
0.0000000001
 40
0.0
 40
0.0
 40
0.0
 40
0.0
 40
1.0
 40
1.0
 40
1.0
 40
2.0
 40
2.0
 40
2.0
 40
3.0
 40
3.0
 40
3.0
 40
4.0
 40
4.0
 40
4.0
 40
4.0
 10
4.740673704021808
 20
6.564199348504077
 30
0.0
 10
4.740673704021808
 20
6.543491094860709
 30
0.0
 10
4.757359808686148
 20
6.526275306765511
 30
0.0
 10
4.777997545531302
 20
6.526275306765511
 30
0.0
 10
4.798705260878502
 20
6.526275306765511
 30
0.0
 10
4.815921048973699
 20
6.543491094860709
 30
0.0
 10
4.815921048973699
 20
6.564199348504077
 30
0.0
 10
4.815921048973699
 20
6.584907063851277
 30
0.0
 10
4.798705260878502
 20
6.601523190013573
 30
0.0
 10
4.777997545531302
 20
6.601523190013573
 30
0.0
 10
4.757359808686148
 20
6.601523190013573
 30
0.0
 10
4.740673704021808
 20
6.584907063851277
 30
0.0
 10
4.740673704021808
 20
6.564199348504077
 30
0.0
  0
SPLINE
  5
91
330
70
100
AcDbEntity
  8
Camada 1
 62
   250
420
  1907995
370
    35
100
AcDbSpline
210
0.0
220
0.0
230
1.0
 70
     9
 71
     3
 72
    17
 73
    13
 74
     0
 42
0.0000000001
 43
0.0000000001
 40
0.0
 40
0.0
 40
0.0
 40
0.0
 40
1.0
 40
1.0
 40
1.0
 40
2.0
 40
2.0
 40
2.0
 40
3.0
 40
3.0
 40
3.0
 40
4.0
 40
4.0
 40
4.0
 40
4.0
 10
4.740673704021808
 20
6.959547202171788
 30
0.0
 10
4.740673704021808
 20
6.93887393777944
 30
0.0
 10
4.757359808686148
 20
6.921623160433222
 30
0.0
 10
4.777997545531302
 20
6.921623160433222
 30
0.0
 10
4.798705260878502
 20
6.921623160433222
 30
0.0
 10
4.815921048973699
 20
6.93887393777944
 30
0.0
 10
4.815921048973699
 20
6.959547202171788
 30
0.0
 10
4.815921048973699
 20
6.980254917518987
 30
0.0
 10
4.798705260878502
 20
6.996906032932304
 30
0.0
 10
4.777997545531302
 20
6.996906032932304
 30
0.0
 10
4.757359808686148
 20
6.996906032932304
 30
0.0
 10
4.740673704021808
 20
6.980254917518987
 30
0.0
 10
4.740673704021808
 20
6.959547202171788
 30
0.0
  0
SPLINE
  5
92
330
70
100
AcDbEntity
  8
Camada 1
 62
   250
420
  1907995
370
    35
100
AcDbSpline
210
0.0
220
0.0
230
1.0
 70
     9
 71
     3
 72
    17
 73
    13
 74
     0
 42
0.0000000001
 43
0.0000000001
 40
0.0
 40
0.0
 40
0.0
 40
0.0
 40
1.0
 40
1.0
 40
1.0
 40
2.0
 40
2.0
 40
2.0
 40
3.0
 40
3.0
 40
3.0
 40
4.0
 40
4.0
 40
4.0
 40
4.0
 10
4.768239850865502
 20
6.564199348504077
 30
0.0
 10
4.768239850865502
 20
6.558448730524558
 30
0.0
 10
4.772261461548362
 20
6.553862447159819
 30
0.0
 10
4.778011541231712
 20
6.553862447159819
 30
0.0
 10
4.783761620915061
 20
6.553862447159819
 30
0.0
 10
4.7883479042798
 20
6.558448730524558
 30
0.0
 10
4.7883479042798
 20
6.564199348504077
 30
0.0
 10
4.7883479042798
 20
6.569949428187427
 30
0.0
 10
4.783761620915061
 20
6.573971038870286
 30
0.0
 10
4.778011541231712
 20
6.573971038870286
 30
0.0
 10
4.772261461548362
 20
6.573971038870286
 30
0.0
 10
4.768239850865502
 20
6.569949428187427
 30
0.0
 10
4.768239850865502
 20
6.564199348504077
 30
0.0
  0
SPLINE
  5
93
330
70
100
AcDbEntity
  8
Camada 1
 62
   250
420
  1907995
370
    35
100
AcDbSpline
210
0.0
220
0.0
230
1.0
 70
     9
 71
     3
 72
    17
 73
    13
 74
     0
 42
0.0000000001
 43
0.0000000001
 40
0.0
 40
0.0
 40
0.0
 40
0.0
 40
1.0
 40
1.0
 40
1.0
 40
2.0
 40
2.0
 40
2.0
 40
3.0
 40
3.0
 40
3.0
 40
4.0
 40
4.0
 40
4.0
 40
4.0
 10
4.768239850865502
 20
6.959547202171788
 30
0.0
 10
4.768239850865502
 20
6.953796584192268
 30
0.0
 10
4.772261461548362
 20
6.949210300827529
 30
0.0
 10
4.778011541231712
 20
6.949210300827529
 30
0.0
 10
4.783761620915061
 20
6.949210300827529
 30
0.0
 10
4.7883479042798
 20
6.953796584192268
 30
0.0
 10
4.7883479042798
 20
6.959547202171788
 30
0.0
 10
4.7883479042798
 20
6.965297281855137
 30
0.0
 10
4.783761620915061
 20
6.969318892537997
 30
0.0
 10
4.778011541231712
 20
6.969318892537997
 30
0.0
 10
4.772261461548362
 20
6.969318892537997
 30
0.0
 10
4.768239850865502
 20
6.965297281855137
 30
0.0
 10
4.768239850865502
 20
6.959547202171788
 30
0.0
  0
SPLINE
  5
94
330
70
100
AcDbEntity
  8
Camada 1
 62
   250
420
  1907995
370
    15
100
AcDbSpline
210
0.0
220
0.0
230
1.0
 70
     9
 71
     3
 72
    17
 73
    13
 74
     0
 42
0.0000000001
 43
0.0000000001
 40
0.0
 40
0.0
 40
0.0
 40
0.0
 40
1.0
 40
1.0
 40
1.0
 40
2.0
 40
2.0
 40
2.0
 40
3.0
 40
3.0
 40
3.0
 40
4.0
 40
4.0
 40
4.0
 40
4.0
 10
4.938331751118661
 20
5.82118968394238
 30
0.0
 10
4.938331751118661
 20
5.800481430299011
 30
0.0
 10
4.955017855783
 20
5.783265642203814
 30
0.0
 10
4.975690581879177
 20
5.783265642203814
 30
0.0
 10
4.996363307975355
 20
5.783265642203814
 30
0.0
 10
5.013614085321574
 20
5.800481430299011
 30
0.0
 10
5.013614085321574
 20
5.82118968394238
 30
0.0
 10
5.013614085321574
 20
5.841862410038557
 30
0.0
 10
4.996363307975355
 20
5.858513525451875
 30
0.0
 10
4.975690581879177
 20
5.858513525451875
 30
0.0
 10
4.955017855783
 20
5.858513525451875
 30
0.0
 10
4.938331751118661
 20
5.841862410038557
 30
0.0
 10
4.938331751118661
 20
5.82118968394238
 30
0.0
  0
SPLINE
  5
95
330
70
100
AcDbEntity
  8
Camada 1
 62
   250
420
  1907995
370
    15
100
AcDbSpline
210
0.0
220
0.0
230
1.0
 70
     9
 71
     3
 72
    17
 73
    13
 74
     0
 42
0.0000000001
 43
0.0000000001
 40
0.0
 40
0.0
 40
0.0
 40
0.0
 40
1.0
 40
1.0
 40
1.0
 40
2.0
 40
2.0
 40
2.0
 40
3.0
 40
3.0
 40
3.0
 40
4.0
 40
4.0
 40
4.0
 40
4.0
 10
4.938331751118661
 20
6.049898807284725
 30
0.0
 10
4.938331751118661
 20
6.029190553641356
 30
0.0
 10
4.955017855783
 20
6.011974765546159
 30
0.0
 10
4.975690581879177
 20
6.011974765546159
 30
0.0
 10
4.996363307975355
 20
6.011974765546159
 30
0.0
 10
5.013614085321574
 20
6.029190553641356
 30
0.0
 10
5.013614085321574
 20
6.049898807284725
 30
0.0
 10
5.013614085321574
 20
6.070571533380902
 30
0.0
 10
4.996363307975355
 20
6.08722264879422
 30
0.0
 10
4.975690581879177
 20
6.08722264879422
 30
0.0
 10
4.955017855783
 20
6.08722264879422
 30
0.0
 10
4.938331751118661
 20
6.070571533380902
 30
0.0
 10
4.938331751118661
 20
6.049898807284725
 30
0.0
  0
SPLINE
  5
96
330
70
100
AcDbEntity
  8
Camada 1
 62
   250
420
  1907995
370
    15
100
AcDbSpline
210
0.0
220
0.0
230
1.0
 70
     9
 71
     3
 72
    17
 73
    13
 74
     0
 42
0.0000000001
 43
0.0000000001
 40
0.0
 40
0.0
 40
0.0
 40
0.0
 40
1.0
 40
1.0
 40
1.0
 40
2.0
 40
2.0
 40
2.0
 40
3.0
 40
3.0
 40
3.0
 40
4.0
 40
4.0
 40
4.0
 40
4.0
 10
4.94294225781103
 20
6.25332846591171
 30
0.0
 10
4.94294225781103
 20
6.234913353950711
 30
0.0
 10
4.957335220793001
 20
6.219990707537883
 30
0.0
 10
4.975714805206808
 20
6.219990707537883
 30
0.0
 10
4.994094927916786
 20
6.219990707537883
 30
0.0
 10
5.009017036033443
 20
6.234913353950711
 30
0.0
 10
5.009017036033443
 20
6.25332846591171
 30
0.0
 10
5.009017036033443
 20
6.271708050325519
 30
0.0
 10
4.994094927916786
 20
6.286066024056466
 30
0.0
 10
4.975714805206808
 20
6.286066024056466
 30
0.0
 10
4.957335220793001
 20
6.286066024056466
 30
0.0
 10
4.94294225781103
 20
6.271708050325519
 30
0.0
 10
4.94294225781103
 20
6.25332846591171
 30
0.0
  0
SPLINE
  5
97
330
70
100
AcDbEntity
  8
Camada 1
 62
   250
420
  1907995
370
    15
100
AcDbSpline
210
0.0
220
0.0
230
1.0
 70
     9
 71
     3
 72
    17
 73
    13
 74
     0
 42
0.0000000001
 43
0.0000000001
 40
0.0
 40
0.0
 40
0.0
 40
0.0
 40
1.0
 40
1.0
 40
1.0
 40
2.0
 40
2.0
 40
2.0
 40
3.0
 40
3.0
 40
3.0
 40
4.0
 40
4.0
 40
4.0
 40
4.0
 10
4.938331751118661
 20
6.25332846591171
 30
0.0
 10
4.938331751118661
 20
6.232620212268342
 30
0.0
 10
4.955017855783
 20
6.215369434922123
 30
0.0
 10
4.975690581879177
 20
6.215369434922123
 30
0.0
 10
4.996363307975355
 20
6.215369434922123
 30
0.0
 10
5.013614085321574
 20
6.232620212268342
 30
0.0
 10
5.013614085321574
 20
6.25332846591171
 30
0.0
 10
5.013614085321574
 20
6.274001192007887
 30
0.0
 10
4.996363307975355
 20
6.290652307421205
 30
0.0
 10
4.975690581879177
 20
6.290652307421205
 30
0.0
 10
4.955017855783
 20
6.290652307421205
 30
0.0
 10
4.938331751118661
 20
6.274001192007887
 30
0.0
 10
4.938331751118661
 20
6.25332846591171
 30
0.0
  0
SPLINE
  5
98
330
70
100
AcDbEntity
  8
Camada 1
 62
   250
420
  1907995
370
    35
100
AcDbSpline
210
0.0
220
0.0
230
1.0
 70
     9
 71
     3
 72
    17
 73
    13
 74
     0
 42
0.0000000001
 43
0.0000000001
 40
0.0
 40
0.0
 40
0.0
 40
0.0
 40
1.0
 40
1.0
 40
1.0
 40
2.0
 40
2.0
 40
2.0
 40
3.0
 40
3.0
 40
3.0
 40
4.0
 40
4.0
 40
4.0
 40
4.0
 10
4.94294225781103
 20
6.482005829780051
 30
0.0
 10
4.94294225781103
 20
6.463625707070074
 30
0.0
 10
4.957335220793001
 20
6.448703598953415
 30
0.0
 10
4.975714805206808
 20
6.448703598953415
 30
0.0
 10
4.994094927916786
 20
6.448703598953415
 30
0.0
 10
5.009017036033443
 20
6.463625707070074
 30
0.0
 10
5.009017036033443
 20
6.482005829780051
 30
0.0
 10
5.009017036033443
 20
6.500420403444881
 30
0.0
 10
4.994094927916786
 20
6.514778377175829
 30
0.0
 10
4.975714805206808
 20
6.514778377175829
 30
0.0
 10
4.957335220793001
 20
6.514778377175829
 30
0.0
 10
4.94294225781103
 20
6.500420403444881
 30
0.0
 10
4.94294225781103
 20
6.482005829780051
 30
0.0
  0
SPLINE
  5
99
330
70
100
AcDbEntity
  8
Camada 1
 62
   250
420
  1907995
370
    35
100
AcDbSpline
210
0.0
220
0.0
230
1.0
 70
     9
 71
     3
 72
    17
 73
    13
 74
     0
 42
0.0000000001
 43
0.0000000001
 40
0.0
 40
0.0
 40
0.0
 40
0.0
 40
1.0
 40
1.0
 40
1.0
 40
2.0
 40
2.0
 40
2.0
 40
3.0
 40
3.0
 40
3.0
 40
4.0
 40
4.0
 40
4.0
 40
4.0
 10
4.938331751118661
 20
6.482005829780051
 30
0.0
 10
4.938331751118661
 20
6.461332565387704
 30
0.0
 10
4.955017855783
 20
6.444081788041486
 30
0.0
 10
4.975690581879177
 20
6.444081788041486
 30
0.0
 10
4.996363307975355
 20
6.444081788041486
 30
0.0
 10
5.013614085321574
 20
6.461332565387704
 30
0.0
 10
5.013614085321574
 20
6.482005829780051
 30
0.0
 10
5.013614085321574
 20
6.50271354512725
 30
0.0
 10
4.996363307975355
 20
6.519364660540568
 30
0.0
 10
4.975690581879177
 20
6.519364660540568
 30
0.0
 10
4.955017855783
 20
6.519364660540568
 30
0.0
 10
4.938331751118661
 20
6.50271354512725
 30
0.0
 10
4.938331751118661
 20
6.482005829780051
 30
0.0
  0
SPLINE
  5
9A
330
70
100
AcDbEntity
  8
Camada 1
 62
   250
420
  1907995
370
    35
100
AcDbSpline
210
0.0
220
0.0
230
1.0
 70
     9
 71
     3
 72
    17
 73
    13
 74
     0
 42
0.0000000001
 43
0.0000000001
 40
0.0
 40
0.0
 40
0.0
 40
0.0
 40
1.0
 40
1.0
 40
1.0
 40
2.0
 40
2.0
 40
2.0
 40
3.0
 40
3.0
 40
3.0
 40
4.0
 40
4.0
 40
4.0
 40
4.0
 10
4.94294225781103
 20
7.041158822736508
 30
0.0
 10
4.94294225781103
 20
7.022743710775509
 30
0.0
 10
4.957335220793001
 20
7.007821064362682
 30
0.0
 10
4.975714805206808
 20
7.007821064362682
 30
0.0
 10
4.994094927916786
 20
7.007821064362682
 30
0.0
 10
5.009017036033443
 20
7.022743710775509
 30
0.0
 10
5.009017036033443
 20
7.041158822736508
 30
0.0
 10
5.009017036033443
 20
7.059538407150316
 30
0.0
 10
4.994094927916786
 20
7.073931370132287
 30
0.0
 10
4.975714805206808
 20
7.073931370132287
 30
0.0
 10
4.957335220793001
 20
7.073931370132287
 30
0.0
 10
4.94294225781103
 20
7.059538407150316
 30
0.0
 10
4.94294225781103
 20
7.041158822736508
 30
0.0
  0
SPLINE
  5
9B
330
70
100
AcDbEntity
  8
Camada 1
 62
   250
420
  1907995
370
    35
100
AcDbSpline
210
0.0
220
0.0
230
1.0
 70
     9
 71
     3
 72
    17
 73
    13
 74
     0
 42
0.0000000001
 43
0.0000000001
 40
0.0
 40
0.0
 40
0.0
 40
0.0
 40
1.0
 40
1.0
 40
1.0
 40
2.0
 40
2.0
 40
2.0
 40
3.0
 40
3.0
 40
3.0
 40
4.0
 40
4.0
 40
4.0
 40
4.0
 10
4.938331751118661
 20
7.041158822736508
 30
0.0
 10
4.938331751118661
 20
7.02045056909314
 30
0.0
 10
4.955017855783
 20
7.003234780997942
 30
0.0
 10
4.975690581879177
 20
7.003234780997942
 30
0.0
 10
4.996363307975355
 20
7.003234780997942
 30
0.0
 10
5.013614085321574
 20
7.02045056909314
 30
0.0
 10
5.013614085321574
 20
7.041158822736508
 30
0.0
 10
5.013614085321574
 20
7.061831548832685
 30
0.0
 10
4.996363307975355
 20
7.078482664246004
 30
0.0
 10
4.975690581879177
 20
7.078482664246004
 30
0.0
 10
4.955017855783
 20
7.078482664246004
 30
0.0
 10
4.938331751118661
 20
7.061831548832685
 30
0.0
 10
4.938331751118661
 20
7.041158822736508
 30
0.0
  0
SPLINE
  5
9C
330
70
100
AcDbEntity
  8
Camada 1
 62
   250
420
  1907995
370
    15
100
AcDbSpline
210
0.0
220
0.0
230
1.0
 70
     9
 71
     3
 72
    17
 73
    13
 74
     0
 42
0.0000000001
 43
0.0000000001
 40
0.0
 40
0.0
 40
0.0
 40
0.0
 40
1.0
 40
1.0
 40
1.0
 40
2.0
 40
2.0
 40
2.0
 40
3.0
 40
3.0
 40
3.0
 40
4.0
 40
4.0
 40
4.0
 40
4.0
 10
4.94294225781103
 20
7.269867946078854
 30
0.0
 10
4.94294225781103
 20
7.251452834117854
 30
0.0
 10
4.957335220793001
 20
7.236530187705026
 30
0.0
 10
4.975714805206808
 20
7.236530187705026
 30
0.0
 10
4.994094927916786
 20
7.236530187705026
 30
0.0
 10
5.009017036033443
 20
7.251452834117854
 30
0.0
 10
5.009017036033443
 20
7.269867946078854
 30
0.0
 10
5.009017036033443
 20
7.288247530492662
 30
0.0
 10
4.994094927916786
 20
7.302640493474632
 30
0.0
 10
4.975714805206808
 20
7.302640493474632
 30
0.0
 10
4.957335220793001
 20
7.302640493474632
 30
0.0
 10
4.94294225781103
 20
7.288247530492662
 30
0.0
 10
4.94294225781103
 20
7.269867946078854
 30
0.0
  0
SPLINE
  5
9D
330
70
100
AcDbEntity
  8
Camada 1
 62
   250
420
  1907995
370
    15
100
AcDbSpline
210
0.0
220
0.0
230
1.0
 70
     9
 71
     3
 72
    17
 73
    13
 74
     0
 42
0.0000000001
 43
0.0000000001
 40
0.0
 40
0.0
 40
0.0
 40
0.0
 40
1.0
 40
1.0
 40
1.0
 40
2.0
 40
2.0
 40
2.0
 40
3.0
 40
3.0
 40
3.0
 40
4.0
 40
4.0
 40
4.0
 40
4.0
 10
4.938331751118661
 20
7.269867946078854
 30
0.0
 10
4.938331751118661
 20
7.249159692435485
 30
0.0
 10
4.955017855783
 20
7.231943904340288
 30
0.0
 10
4.975690581879177
 20
7.231943904340288
 30
0.0
 10
4.996363307975355
 20
7.231943904340288
 30
0.0
 10
5.013614085321574
 20
7.249159692435485
 30
0.0
 10
5.013614085321574
 20
7.269867946078854
 30
0.0
 10
5.013614085321574
 20
7.290540672175031
 30
0.0
 10
4.996363307975355
 20
7.307191787588348
 30
0.0
 10
4.975690581879177
 20
7.307191787588348
 30
0.0
 10
4.955017855783
 20
7.307191787588348
 30
0.0
 10
4.938331751118661
 20
7.290540672175031
 30
0.0
 10
4.938331751118661
 20
7.269867946078854
 30
0.0
  0
SPLINE
  5
9E
330
70
100
AcDbEntity
  8
Camada 1
 62
   250
420
  1907995
370
    15
100
AcDbSpline
210
0.0
220
0.0
230
1.0
 70
     9
 71
     3
 72
    17
 73
    13
 74
     0
 42
0.0000000001
 43
0.0000000001
 40
0.0
 40
0.0
 40
0.0
 40
0.0
 40
1.0
 40
1.0
 40
1.0
 40
2.0
 40
2.0
 40
2.0
 40
3.0
 40
3.0
 40
3.0
 40
4.0
 40
4.0
 40
4.0
 40
4.0
 10
4.938331751118661
 20
7.473300834482857
 30
0.0
 10
4.938331751118661
 20
7.452592580839487
 30
0.0
 10
4.955017855783
 20
7.435341803493269
 30
0.0
 10
4.975690581879177
 20
7.435341803493269
 30
0.0
 10
4.996363307975355
 20
7.435341803493269
 30
0.0
 10
5.013614085321574
 20
7.452592580839487
 30
0.0
 10
5.013614085321574
 20
7.473300834482857
 30
0.0
 10
5.013614085321574
 20
7.493973560579034
 30
0.0
 10
4.996363307975355
 20
7.510624675992351
 30
0.0
 10
4.975690581879177
 20
7.510624675992351
 30
0.0
 10
4.955017855783
 20
7.510624675992351
 30
0.0
 10
4.938331751118661
 20
7.493973560579034
 30
0.0
 10
4.938331751118661
 20
7.473300834482857
 30
0.0
  0
SPLINE
  5
9F
330
70
100
AcDbEntity
  8
Camada 1
 62
   250
420
  1907995
370
    15
100
AcDbSpline
210
0.0
220
0.0
230
1.0
 70
     9
 71
     3
 72
    17
 73
    13
 74
     0
 42
0.0000000001
 43
0.0000000001
 40
0.0
 40
0.0
 40
0.0
 40
0.0
 40
1.0
 40
1.0
 40
1.0
 40
2.0
 40
2.0
 40
2.0
 40
3.0
 40
3.0
 40
3.0
 40
4.0
 40
4.0
 40
4.0
 40
4.0
 10
4.938331751118661
 20
7.701974968574179
 30
0.0
 10
4.938331751118661
 20
7.681301704181833
 30
0.0
 10
4.955017855783
 20
7.664050926835614
 30
0.0
 10
4.975690581879177
 20
7.664050926835614
 30
0.0
 10
4.996363307975355
 20
7.664050926835614
 30
0.0
 10
5.013614085321574
 20
7.681301704181833
 30
0.0
 10
5.013614085321574
 20
7.701974968574179
 30
0.0
 10
5.013614085321574
 20
7.722682683921379
 30
0.0
 10
4.996363307975355
 20
7.739333799334697
 30
0.0
 10
4.975690581879177
 20
7.739333799334697
 30
0.0
 10
4.955017855783
 20
7.739333799334697
 30
0.0
 10
4.938331751118661
 20
7.722682683921379
 30
0.0
 10
4.938331751118661
 20
7.701974968574179
 30
0.0
  0
SPLINE
  5
A0
330
70
100
AcDbEntity
  8
Camada 1
 62
   250
420
  1907995
370
    15
100
AcDbSpline
210
0.0
220
0.0
230
1.0
 70
     9
 71
     3
 72
    17
 73
    13
 74
     0
 42
0.0000000001
 43
0.0000000001
 40
0.0
 40
0.0
 40
0.0
 40
0.0
 40
1.0
 40
1.0
 40
1.0
 40
2.0
 40
2.0
 40
2.0
 40
3.0
 40
3.0
 40
3.0
 40
4.0
 40
4.0
 40
4.0
 40
4.0
 10
4.965932887213377
 20
5.82118968394238
 30
0.0
 10
4.965932887213377
 20
5.81543906596286
 30
0.0
 10
4.969954497896237
 20
5.810852782598121
 30
0.0
 10
4.975704577579587
 20
5.810852782598121
 30
0.0
 10
4.981454657262936
 20
5.810852782598121
 30
0.0
 10
4.986040940627675
 20
5.81543906596286
 30
0.0
 10
4.986040940627675
 20
5.82118968394238
 30
0.0
 10
4.986040940627675
 20
5.82693976362573
 30
0.0
 10
4.981454657262936
 20
5.830961374308589
 30
0.0
 10
4.975704577579587
 20
5.830961374308589
 30
0.0
 10
4.969954497896237
 20
5.830961374308589
 30
0.0
 10
4.965932887213377
 20
5.82693976362573
 30
0.0
 10
4.965932887213377
 20
5.82118968394238
 30
0.0
  0
SPLINE
  5
A1
330
70
100
AcDbEntity
  8
Camada 1
 62
   250
420
  1907995
370
    15
100
AcDbSpline
210
0.0
220
0.0
230
1.0
 70
     9
 71
     3
 72
    17
 73
    13
 74
     0
 42
0.0000000001
 43
0.0000000001
 40
0.0
 40
0.0
 40
0.0
 40
0.0
 40
1.0
 40
1.0
 40
1.0
 40
2.0
 40
2.0
 40
2.0
 40
3.0
 40
3.0
 40
3.0
 40
4.0
 40
4.0
 40
4.0
 40
4.0
 10
4.965932887213377
 20
6.049898807284725
 30
0.0
 10
4.965932887213377
 20
6.044148189305206
 30
0.0
 10
4.969954497896237
 20
6.039561905940467
 30
0.0
 10
4.975704577579587
 20
6.039561905940467
 30
0.0
 10
4.981454657262936
 20
6.039561905940467
 30
0.0
 10
4.986040940627675
 20
6.044148189305206
 30
0.0
 10
4.986040940627675
 20
6.049898807284725
 30
0.0
 10
4.986040940627675
 20
6.055648886968075
 30
0.0
 10
4.981454657262936
 20
6.059670497650935
 30
0.0
 10
4.975704577579587
 20
6.059670497650935
 30
0.0
 10
4.969954497896237
 20
6.059670497650935
 30
0.0
 10
4.965932887213377
 20
6.055648886968075
 30
0.0
 10
4.965932887213377
 20
6.049898807284725
 30
0.0
  0
SPLINE
  5
A2
330
70
100
AcDbEntity
  8
Camada 1
 62
   250
420
  1907995
370
    15
100
AcDbSpline
210
0.0
220
0.0
230
1.0
 70
     9
 71
     3
 72
    17
 73
    13
 74
     0
 42
0.0000000001
 43
0.0000000001
 40
0.0
 40
0.0
 40
0.0
 40
0.0
 40
1.0
 40
1.0
 40
1.0
 40
2.0
 40
2.0
 40
2.0
 40
3.0
 40
3.0
 40
3.0
 40
4.0
 40
4.0
 40
4.0
 40
4.0
 10
4.965932887213377
 20
6.25332846591171
 30
0.0
 10
4.965932887213377
 20
6.247542858681168
 30
0.0
 10
4.969954497896237
 20
6.242991564567452
 30
0.0
 10
4.975704577579587
 20
6.242991564567452
 30
0.0
 10
4.981454657262936
 20
6.242991564567452
 30
0.0
 10
4.986040940627675
 20
6.247542858681168
 30
0.0
 10
4.986040940627675
 20
6.25332846591171
 30
0.0
 10
4.986040940627675
 20
6.25907854559506
 30
0.0
 10
4.981454657262936
 20
6.263064628730728
 30
0.0
 10
4.975704577579587
 20
6.263064628730728
 30
0.0
 10
4.969954497896237
 20
6.263064628730728
 30
0.0
 10
4.965932887213377
 20
6.25907854559506
 30
0.0
 10
4.965932887213377
 20
6.25332846591171
 30
0.0
  0
SPLINE
  5
A3
330
70
100
AcDbEntity
  8
Camada 1
 62
   250
420
  1907995
370
    35
100
AcDbSpline
210
0.0
220
0.0
230
1.0
 70
     9
 71
     3
 72
    17
 73
    13
 74
     0
 42
0.0000000001
 43
0.0000000001
 40
0.0
 40
0.0
 40
0.0
 40
0.0
 40
1.0
 40
1.0
 40
1.0
 40
2.0
 40
2.0
 40
2.0
 40
3.0
 40
3.0
 40
3.0
 40
4.0
 40
4.0
 40
4.0
 40
4.0
 10
4.965932887213377
 20
6.482005829780051
 30
0.0
 10
4.965932887213377
 20
6.476255211800531
 30
0.0
 10
4.969954497896237
 20
6.471704455982984
 30
0.0
 10
4.975704577579587
 20
6.471704455982984
 30
0.0
 10
4.981454657262936
 20
6.471704455982984
 30
0.0
 10
4.986040940627675
 20
6.476255211800531
 30
0.0
 10
4.986040940627675
 20
6.482005829780051
 30
0.0
 10
4.986040940627675
 20
6.487790898714423
 30
0.0
 10
4.981454657262936
 20
6.491777520146261
 30
0.0
 10
4.975704577579587
 20
6.491777520146261
 30
0.0
 10
4.969954497896237
 20
6.491777520146261
 30
0.0
 10
4.965932887213377
 20
6.487790898714423
 30
0.0
 10
4.965932887213377
 20
6.482005829780051
 30
0.0
  0
SPLINE
  5
A4
330
70
100
AcDbEntity
  8
Camada 1
 62
   250
420
  1907995
370
    35
100
AcDbSpline
210
0.0
220
0.0
230
1.0
 70
     9
 71
     3
 72
    17
 73
    13
 74
     0
 42
0.0000000001
 43
0.0000000001
 40
0.0
 40
0.0
 40
0.0
 40
0.0
 40
1.0
 40
1.0
 40
1.0
 40
2.0
 40
2.0
 40
2.0
 40
3.0
 40
3.0
 40
3.0
 40
4.0
 40
4.0
 40
4.0
 40
4.0
 10
4.965932887213377
 20
7.041158822736508
 30
0.0
 10
4.965932887213377
 20
7.035408204756989
 30
0.0
 10
4.969954497896237
 20
7.03082192139225
 30
0.0
 10
4.975704577579587
 20
7.03082192139225
 30
0.0
 10
4.981454657262936
 20
7.03082192139225
 30
0.0
 10
4.986040940627675
 20
7.035408204756989
 30
0.0
 10
4.986040940627675
 20
7.041158822736508
 30
0.0
 10
4.986040940627675
 20
7.046908902419859
 30
0.0
 10
4.981454657262936
 20
7.050930513102718
 30
0.0
 10
4.975704577579587
 20
7.050930513102718
 30
0.0
 10
4.969954497896237
 20
7.050930513102718
 30
0.0
 10
4.965932887213377
 20
7.046908902419859
 30
0.0
 10
4.965932887213377
 20
7.041158822736508
 30
0.0
  0
SPLINE
  5
A5
330
70
100
AcDbEntity
  8
Camada 1
 62
   250
420
  1907995
370
    15
100
AcDbSpline
210
0.0
220
0.0
230
1.0
 70
     9
 71
     3
 72
    17
 73
    13
 74
     0
 42
0.0000000001
 43
0.0000000001
 40
0.0
 40
0.0
 40
0.0
 40
0.0
 40
1.0
 40
1.0
 40
1.0
 40
2.0
 40
2.0
 40
2.0
 40
3.0
 40
3.0
 40
3.0
 40
4.0
 40
4.0
 40
4.0
 40
4.0
 10
4.965932887213377
 20
7.269867946078854
 30
0.0
 10
4.965932887213377
 20
7.264117328099334
 30
0.0
 10
4.969954497896237
 20
7.259531044734595
 30
0.0
 10
4.975704577579587
 20
7.259531044734595
 30
0.0
 10
4.981454657262936
 20
7.259531044734595
 30
0.0
 10
4.986040940627675
 20
7.264117328099334
 30
0.0
 10
4.986040940627675
 20
7.269867946078854
 30
0.0
 10
4.986040940627675
 20
7.275618025762203
 30
0.0
 10
4.981454657262936
 20
7.279639636445063
 30
0.0
 10
4.975704577579587
 20
7.279639636445063
 30
0.0
 10
4.969954497896237
 20
7.279639636445063
 30
0.0
 10
4.965932887213377
 20
7.275618025762203
 30
0.0
 10
4.965932887213377
 20
7.269867946078854
 30
0.0
  0
SPLINE
  5
A6
330
70
100
AcDbEntity
  8
Camada 1
 62
   250
420
  1907995
370
    15
100
AcDbSpline
210
0.0
220
0.0
230
1.0
 70
     9
 71
     3
 72
    17
 73
    13
 74
     0
 42
0.0000000001
 43
0.0000000001
 40
0.0
 40
0.0
 40
0.0
 40
0.0
 40
1.0
 40
1.0
 40
1.0
 40
2.0
 40
2.0
 40
2.0
 40
3.0
 40
3.0
 40
3.0
 40
4.0
 40
4.0
 40
4.0
 40
4.0
 10
4.965932887213377
 20
7.473300834482857
 30
0.0
 10
4.965932887213377
 20
7.467515227252315
 30
0.0
 10
4.969954497896237
 20
7.462963933138598
 30
0.0
 10
4.975704577579587
 20
7.462963933138598
 30
0.0
 10
4.981454657262936
 20
7.462963933138598
 30
0.0
 10
4.986040940627675
 20
7.467515227252315
 30
0.0
 10
4.986040940627675
 20
7.473300834482857
 30
0.0
 10
4.986040940627675
 20
7.479050914166206
 30
0.0
 10
4.981454657262936
 20
7.483036997301875
 30
0.0
 10
4.975704577579587
 20
7.483036997301875
 30
0.0
 10
4.969954497896237
 20
7.483036997301875
 30
0.0
 10
4.965932887213377
 20
7.479050914166206
 30
0.0
 10
4.965932887213377
 20
7.473300834482857
 30
0.0
  0
SPLINE
  5
A7
330
70
100
AcDbEntity
  8
Camada 1
 62
   250
420
  1907995
370
    15
100
AcDbSpline
210
0.0
220
0.0
230
1.0
 70
     9
 71
     3
 72
    17
 73
    13
 74
     0
 42
0.0000000001
 43
0.0000000001
 40
0.0
 40
0.0
 40
0.0
 40
0.0
 40
1.0
 40
1.0
 40
1.0
 40
2.0
 40
2.0
 40
2.0
 40
3.0
 40
3.0
 40
3.0
 40
4.0
 40
4.0
 40
4.0
 40
4.0
 10
4.965932887213377
 20
7.701974968574179
 30
0.0
 10
4.965932887213377
 20
7.69622435059466
 30
0.0
 10
4.969954497896237
 20
7.691673594777113
 30
0.0
 10
4.975704577579587
 20
7.691673594777113
 30
0.0
 10
4.981454657262936
 20
7.691673594777113
 30
0.0
 10
4.986040940627675
 20
7.69622435059466
 30
0.0
 10
4.986040940627675
 20
7.701974968574179
 30
0.0
 10
4.986040940627675
 20
7.707760037508552
 30
0.0
 10
4.981454657262936
 20
7.71174665894039
 30
0.0
 10
4.975704577579587
 20
7.71174665894039
 30
0.0
 10
4.969954497896237
 20
7.71174665894039
 30
0.0
 10
4.965932887213377
 20
7.707760037508552
 30
0.0
 10
4.965932887213377
 20
7.701974968574179
 30
0.0
  0
SPLINE
  5
A8
330
70
100
AcDbEntity
  8
Camada 1
 62
   250
420
  1907995
370
    35
100
AcDbSpline
210
0.0
220
0.0
230
1.0
 70
     9
 71
     3
 72
    17
 73
    13
 74
     0
 42
0.0000000001
 43
0.0000000001
 40
0.0
 40
0.0
 40
0.0
 40
0.0
 40
1.0
 40
1.0
 40
1.0
 40
2.0
 40
2.0
 40
2.0
 40
3.0
 40
3.0
 40
3.0
 40
4.0
 40
4.0
 40
4.0
 40
4.0
 10
5.140632064381888
 20
6.564199348504077
 30
0.0
 10
5.140632064381888
 20
6.5458192257941
 30
0.0
 10
5.154990038112836
 20
6.530861590130251
 30
0.0
 10
5.173369622526644
 20
6.530861590130251
 30
0.0
 10
5.191784734487643
 20
6.530861590130251
 30
0.0
 10
5.206706842604301
 20
6.5458192257941
 30
0.0
 10
5.206706842604301
 20
6.564199348504077
 30
0.0
 10
5.206706842604301
 20
6.582578932917885
 30
0.0
 10
5.191784734487643
 20
6.596971895899855
 30
0.0
 10
5.173369622526644
 20
6.596971895899855
 30
0.0
 10
5.154990038112836
 20
6.596971895899855
 30
0.0
 10
5.140632064381888
 20
6.582578932917885
 30
0.0
 10
5.140632064381888
 20
6.564199348504077
 30
0.0
  0
SPLINE
  5
A9
330
70
100
AcDbEntity
  8
Camada 1
 62
   250
420
  1907995
370
    35
100
AcDbSpline
210
0.0
220
0.0
230
1.0
 70
     9
 71
     3
 72
    17
 73
    13
 74
     0
 42
0.0000000001
 43
0.0000000001
 40
0.0
 40
0.0
 40
0.0
 40
0.0
 40
1.0
 40
1.0
 40
1.0
 40
2.0
 40
2.0
 40
2.0
 40
3.0
 40
3.0
 40
3.0
 40
4.0
 40
4.0
 40
4.0
 40
4.0
 10
5.136021019393348
 20
6.564199348504077
 30
0.0
 10
5.136021019393348
 20
6.543491094860709
 30
0.0
 10
5.152707124057688
 20
6.526275306765511
 30
0.0
 10
5.173344860902844
 20
6.526275306765511
 30
0.0
 10
5.194052576250043
 20
6.526275306765511
 30
0.0
 10
5.211303353596262
 20
6.543491094860709
 30
0.0
 10
5.211303353596262
 20
6.564199348504077
 30
0.0
 10
5.211303353596262
 20
6.584907063851277
 30
0.0
 10
5.194052576250043
 20
6.601523190013573
 30
0.0
 10
5.173344860902844
 20
6.601523190013573
 30
0.0
 10
5.152707124057688
 20
6.601523190013573
 30
0.0
 10
5.136021019393348
 20
6.584907063851277
 30
0.0
 10
5.136021019393348
 20
6.564199348504077
 30
0.0
  0
SPLINE
  5
AA
330
70
100
AcDbEntity
  8
Camada 1
 62
   250
420
  1907995
370
    35
100
AcDbSpline
210
0.0
220
0.0
230
1.0
 70
     9
 71
     3
 72
    17
 73
    13
 74
     0
 42
0.0000000001
 43
0.0000000001
 40
0.0
 40
0.0
 40
0.0
 40
0.0
 40
1.0
 40
1.0
 40
1.0
 40
2.0
 40
2.0
 40
2.0
 40
3.0
 40
3.0
 40
3.0
 40
4.0
 40
4.0
 40
4.0
 40
4.0
 10
5.140632064381888
 20
6.959547202171788
 30
0.0
 10
5.140632064381888
 20
6.94116707946181
 30
0.0
 10
5.154990038112836
 20
6.926244971345152
 30
0.0
 10
5.173369622526644
 20
6.926244971345152
 30
0.0
 10
5.191784734487643
 20
6.926244971345152
 30
0.0
 10
5.206706842604301
 20
6.94116707946181
 30
0.0
 10
5.206706842604301
 20
6.959547202171788
 30
0.0
 10
5.206706842604301
 20
6.977926786585595
 30
0.0
 10
5.191784734487643
 20
6.992319749567566
 30
0.0
 10
5.173369622526644
 20
6.992319749567566
 30
0.0
 10
5.154990038112836
 20
6.992319749567566
 30
0.0
 10
5.140632064381888
 20
6.977926786585595
 30
0.0
 10
5.140632064381888
 20
6.959547202171788
 30
0.0
  0
SPLINE
  5
AB
330
70
100
AcDbEntity
  8
Camada 1
 62
   250
420
  1907995
370
    35
100
AcDbSpline
210
0.0
220
0.0
230
1.0
 70
     9
 71
     3
 72
    17
 73
    13
 74
     0
 42
0.0000000001
 43
0.0000000001
 40
0.0
 40
0.0
 40
0.0
 40
0.0
 40
1.0
 40
1.0
 40
1.0
 40
2.0
 40
2.0
 40
2.0
 40
3.0
 40
3.0
 40
3.0
 40
4.0
 40
4.0
 40
4.0
 40
4.0
 10
5.136021019393348
 20
6.959547202171788
 30
0.0
 10
5.136021019393348
 20
6.93887393777944
 30
0.0
 10
5.152707124057688
 20
6.921623160433222
 30
0.0
 10
5.173344860902844
 20
6.921623160433222
 30
0.0
 10
5.194052576250043
 20
6.921623160433222
 30
0.0
 10
5.211303353596262
 20
6.93887393777944
 30
0.0
 10
5.211303353596262
 20
6.959547202171788
 30
0.0
 10
5.211303353596262
 20
6.980254917518987
 30
0.0
 10
5.194052576250043
 20
6.996906032932304
 30
0.0
 10
5.173344860902844
 20
6.996906032932304
 30
0.0
 10
5.152707124057688
 20
6.996906032932304
 30
0.0
 10
5.136021019393348
 20
6.980254917518987
 30
0.0
 10
5.136021019393348
 20
6.959547202171788
 30
0.0
  0
SPLINE
  5
AC
330
70
100
AcDbEntity
  8
Camada 1
 62
   250
420
  1907995
370
    35
100
AcDbSpline
210
0.0
220
0.0
230
1.0
 70
     9
 71
     3
 72
    17
 73
    13
 74
     0
 42
0.0000000001
 43
0.0000000001
 40
0.0
 40
0.0
 40
0.0
 40
0.0
 40
1.0
 40
1.0
 40
1.0
 40
2.0
 40
2.0
 40
2.0
 40
3.0
 40
3.0
 40
3.0
 40
4.0
 40
4.0
 40
4.0
 40
4.0
 10
5.16359093431023
 20
6.564199348504077
 30
0.0
 10
5.16359093431023
 20
6.558448730524558
 30
0.0
 10
5.167612544993089
 20
6.553862447159819
 30
0.0
 10
5.173362624676439
 20
6.553862447159819
 30
0.0
 10
5.179148231906981
 20
6.553862447159819
 30
0.0
 10
5.183698987724528
 20
6.558448730524558
 30
0.0
 10
5.183698987724528
 20
6.564199348504077
 30
0.0
 10
5.183698987724528
 20
6.569949428187427
 30
0.0
 10
5.179148231906981
 20
6.573971038870286
 30
0.0
 10
5.173362624676439
 20
6.573971038870286
 30
0.0
 10
5.167612544993089
 20
6.573971038870286
 30
0.0
 10
5.16359093431023
 20
6.569949428187427
 30
0.0
 10
5.16359093431023
 20
6.564199348504077
 30
0.0
  0
SPLINE
  5
AD
330
70
100
AcDbEntity
  8
Camada 1
 62
   250
420
  1907995
370
    35
100
AcDbSpline
210
0.0
220
0.0
230
1.0
 70
     9
 71
     3
 72
    17
 73
    13
 74
     0
 42
0.0000000001
 43
0.0000000001
 40
0.0
 40
0.0
 40
0.0
 40
0.0
 40
1.0
 40
1.0
 40
1.0
 40
2.0
 40
2.0
 40
2.0
 40
3.0
 40
3.0
 40
3.0
 40
4.0
 40
4.0
 40
4.0
 40
4.0
 10
5.16359093431023
 20
6.959547202171788
 30
0.0
 10
5.16359093431023
 20
6.953796584192268
 30
0.0
 10
5.167612544993089
 20
6.949210300827529
 30
0.0
 10
5.173362624676439
 20
6.949210300827529
 30
0.0
 10
5.179148231906981
 20
6.949210300827529
 30
0.0
 10
5.183698987724528
 20
6.953796584192268
 30
0.0
 10
5.183698987724528
 20
6.959547202171788
 30
0.0
 10
5.183698987724528
 20
6.965297281855137
 30
0.0
 10
5.179148231906981
 20
6.969318892537997
 30
0.0
 10
5.173362624676439
 20
6.969318892537997
 30
0.0
 10
5.167612544993089
 20
6.969318892537997
 30
0.0
 10
5.16359093431023
 20
6.965297281855137
 30
0.0
 10
5.16359093431023
 20
6.959547202171788
 30
0.0
  0
SPLINE
  5
AE
330
70
100
AcDbEntity
  8
Camada 1
 62
   250
420
  1907995
370
    35
100
AcDbSpline
210
0.0
220
0.0
230
1.0
 70
     9
 71
     3
 72
    17
 73
    13
 74
     0
 42
0.0000000001
 43
0.0000000001
 40
0.0
 40
0.0
 40
0.0
 40
0.0
 40
1.0
 40
1.0
 40
1.0
 40
2.0
 40
2.0
 40
2.0
 40
3.0
 40
3.0
 40
3.0
 40
4.0
 40
4.0
 40
4.0
 40
4.0
 10
5.222790593854892
 20
6.761889155074935
 30
0.0
 10
5.222790593854892
 20
6.743474043113935
 30
0.0
 10
5.237183556836862
 20
6.728551396701107
 30
0.0
 10
5.25556314125067
 20
6.728551396701107
 30
0.0
 10
5.273943263960648
 20
6.728551396701107
 30
0.0
 10
5.288900899624497
 20
6.743474043113935
 30
0.0
 10
5.288900899624497
 20
6.761889155074935
 30
0.0
 10
5.288900899624497
 20
6.780268739488742
 30
0.0
 10
5.273943263960648
 20
6.794626713219691
 30
0.0
 10
5.25556314125067
 20
6.794626713219691
 30
0.0
 10
5.237183556836862
 20
6.794626713219691
 30
0.0
 10
5.222790593854892
 20
6.780268739488742
 30
0.0
 10
5.222790593854892
 20
6.761889155074935
 30
0.0
  0
SPLINE
  5
AF
330
70
100
AcDbEntity
  8
Camada 1
 62
   250
420
  1907995
370
    35
100
AcDbSpline
210
0.0
220
0.0
230
1.0
 70
     9
 71
     3
 72
    17
 73
    13
 74
     0
 42
0.0000000001
 43
0.0000000001
 40
0.0
 40
0.0
 40
0.0
 40
0.0
 40
1.0
 40
1.0
 40
1.0
 40
2.0
 40
2.0
 40
2.0
 40
3.0
 40
3.0
 40
3.0
 40
4.0
 40
4.0
 40
4.0
 40
4.0
 10
5.218211308340357
 20
6.761889155074935
 30
0.0
 10
5.218211308340357
 20
6.741180901431566
 30
0.0
 10
5.234861885457505
 20
6.723930124085347
 30
0.0
 10
5.255535149849852
 20
6.723930124085347
 30
0.0
 10
5.276207875946029
 20
6.723930124085347
 30
0.0
 10
5.293458653292248
 20
6.741180901431566
 30
0.0
 10
5.293458653292248
 20
6.761889155074935
 30
0.0
 10
5.293458653292248
 20
6.782561881171112
 30
0.0
 10
5.276207875946029
 20
6.799212996584429
 30
0.0
 10
5.255535149849852
 20
6.799212996584429
 30
0.0
 10
5.234861885457505
 20
6.799212996584429
 30
0.0
 10
5.218211308340357
 20
6.782561881171112
 30
0.0
 10
5.218211308340357
 20
6.761889155074935
 30
0.0
  0
SPLINE
  5
B0
330
70
100
AcDbEntity
  8
Camada 1
 62
   250
420
  1907995
370
    35
100
AcDbSpline
210
0.0
220
0.0
230
1.0
 70
     9
 71
     3
 72
    17
 73
    13
 74
     0
 42
0.0000000001
 43
0.0000000001
 40
0.0
 40
0.0
 40
0.0
 40
0.0
 40
1.0
 40
1.0
 40
1.0
 40
2.0
 40
2.0
 40
2.0
 40
3.0
 40
3.0
 40
3.0
 40
4.0
 40
4.0
 40
4.0
 40
4.0
 10
5.245780684961069
 20
6.761889155074935
 30
0.0
 10
5.245780684961069
 20
6.756103547844393
 30
0.0
 10
5.249802295643929
 20
6.751552253730676
 30
0.0
 10
5.255552375327279
 20
6.751552253730676
 30
0.0
 10
5.261302455010628
 20
6.751552253730676
 30
0.0
 10
5.265888738375367
 20
6.756103547844393
 30
0.0
 10
5.265888738375367
 20
6.761889155074935
 30
0.0
 10
5.265888738375367
 20
6.767639234758284
 30
0.0
 10
5.261302455010628
 20
6.771625317893953
 30
0.0
 10
5.255552375327279
 20
6.771625317893953
 30
0.0
 10
5.249802295643929
 20
6.771625317893953
 30
0.0
 10
5.245780684961069
 20
6.767639234758284
 30
0.0
 10
5.245780684961069
 20
6.761889155074935
 30
0.0
  0
SPLINE
  5
B1
330
70
100
AcDbEntity
  8
Camada 1
 62
   250
420
  1907995
370
    15
100
AcDbSpline
210
0.0
220
0.0
230
1.0
 70
     8
 71
     3
 72
    14
 73
    10
 74
     0
 42
0.0000000001
 43
0.0000000001
 40
0.0
 40
0.0
 40
0.0
 40
0.0
 40
1.0
 40
1.0
 40
1.0
 40
2.0
 40
2.0
 40
2.0
 40
3.0
 40
3.0
 40
3.0
 40
3.0
 10
5.562970626288022
 20
5.633850774416189
 30
0.0
 10
5.562970626288022
 20
5.633850774416189
 30
0.0
 10
5.558984004856184
 20
5.631557632733819
 30
0.0
 10
5.558984004856184
 20
5.631557632733819
 30
0.0
 10
5.437593373952558
 20
5.568092514341483
 30
0.0
 10
5.358253363223424
 20
5.437564844255571
 30
0.0
 10
5.357830262434142
 20
5.300581388208002
 30
0.0
 10
5.357830262434142
 20
5.300581388208002
 30
0.0
 10
5.357830262434142
 20
5.295960115592242
 30
0.0
 10
5.357830262434142
 20
5.295960115592242
 30
0.0
  0
SPLINE
  5
B2
330
70
100
AcDbEntity
  8
Camada 1
 62
   250
420
  1907995
370
    15
100
AcDbSpline
210
0.0
220
0.0
230
1.0
 70
     9
 71
     3
 72
    17
 73
    13
 74
     0
 42
0.0000000001
 43
0.0000000001
 40
0.0
 40
0.0
 40
0.0
 40
0.0
 40
1.0
 40
1.0
 40
1.0
 40
2.0
 40
2.0
 40
2.0
 40
3.0
 40
3.0
 40
3.0
 40
4.0
 40
4.0
 40
4.0
 40
4.0
 10
5.451499717197237
 20
6.761889155074935
 30
0.0
 10
5.451499717197237
 20
6.743474043113935
 30
0.0
 10
5.465892680179208
 20
6.728551396701107
 30
0.0
 10
5.484272264593015
 20
6.728551396701107
 30
0.0
 10
5.502652387302993
 20
6.728551396701107
 30
0.0
 10
5.517610022966842
 20
6.743474043113935
 30
0.0
 10
5.517610022966842
 20
6.761889155074935
 30
0.0
 10
5.517610022966842
 20
6.780268739488742
 30
0.0
 10
5.502652387302993
 20
6.794626713219691
 30
0.0
 10
5.484272264593015
 20
6.794626713219691
 30
0.0
 10
5.465892680179208
 20
6.794626713219691
 30
0.0
 10
5.451499717197237
 20
6.780268739488742
 30
0.0
 10
5.451499717197237
 20
6.761889155074935
 30
0.0
  0
SPLINE
  5
B3
330
70
100
AcDbEntity
  8
Camada 1
 62
   250
420
  1907995
370
    15
100
AcDbSpline
210
0.0
220
0.0
230
1.0
 70
     9
 71
     3
 72
    17
 73
    13
 74
     0
 42
0.0000000001
 43
0.0000000001
 40
0.0
 40
0.0
 40
0.0
 40
0.0
 40
1.0
 40
1.0
 40
1.0
 40
2.0
 40
2.0
 40
2.0
 40
3.0
 40
3.0
 40
3.0
 40
4.0
 40
4.0
 40
4.0
 40
4.0
 10
5.446888672208698
 20
6.761889155074935
 30
0.0
 10
5.446888672208698
 20
6.741180901431566
 30
0.0
 10
5.463574776873038
 20
6.723930124085347
 30
0.0
 10
5.484247502969215
 20
6.723930124085347
 30
0.0
 10
5.504920229065392
 20
6.723930124085347
 30
0.0
 10
5.522171006411611
 20
6.741180901431566
 30
0.0
 10
5.522171006411611
 20
6.761889155074935
 30
0.0
 10
5.522171006411611
 20
6.782561881171112
 30
0.0
 10
5.504920229065392
 20
6.799212996584429
 30
0.0
 10
5.484247502969215
 20
6.799212996584429
 30
0.0
 10
5.463574776873038
 20
6.799212996584429
 30
0.0
 10
5.446888672208698
 20
6.782561881171112
 30
0.0
 10
5.446888672208698
 20
6.761889155074935
 30
0.0
  0
SPLINE
  5
B4
330
70
100
AcDbEntity
  8
Camada 1
 62
   250
420
  1907995
370
    15
100
AcDbSpline
210
0.0
220
0.0
230
1.0
 70
     9
 71
     3
 72
    17
 73
    13
 74
     0
 42
0.0000000001
 43
0.0000000001
 40
0.0
 40
0.0
 40
0.0
 40
0.0
 40
1.0
 40
1.0
 40
1.0
 40
2.0
 40
2.0
 40
2.0
 40
3.0
 40
3.0
 40
3.0
 40
4.0
 40
4.0
 40
4.0
 40
4.0
 10
5.474490346599584
 20
6.761889155074935
 30
0.0
 10
5.474490346599584
 20
6.756103547844393
 30
0.0
 10
5.478511957282443
 20
6.751552253730676
 30
0.0
 10
5.484262036965794
 20
6.751552253730676
 30
0.0
 10
5.490012116649143
 20
6.751552253730676
 30
0.0
 10
5.494598400013882
 20
6.756103547844393
 30
0.0
 10
5.494598400013882
 20
6.761889155074935
 30
0.0
 10
5.494598400013882
 20
6.767639234758284
 30
0.0
 10
5.490012116649143
 20
6.771625317893953
 30
0.0
 10
5.484262036965794
 20
6.771625317893953
 30
0.0
 10
5.478511957282443
 20
6.771625317893953
 30
0.0
 10
5.474490346599584
 20
6.767639234758284
 30
0.0
 10
5.474490346599584
 20
6.761889155074935
 30
0.0
  0
SPLINE
  5
B5
330
70
100
AcDbEntity
  8
Camada 1
 62
   250
420
  1907995
370
    15
100
AcDbSpline
210
0.0
220
0.0
230
1.0
 70
     9
 71
     3
 72
    17
 73
    13
 74
     0
 42
0.0000000001
 43
0.0000000001
 40
0.0
 40
0.0
 40
0.0
 40
0.0
 40
1.0
 40
1.0
 40
1.0
 40
2.0
 40
2.0
 40
2.0
 40
3.0
 40
3.0
 40
3.0
 40
4.0
 40
4.0
 40
4.0
 40
4.0
 10
5.654350707441935
 20
6.761889155074935
 30
0.0
 10
5.654350707441935
 20
6.743474043113935
 30
0.0
 10
5.668743670423904
 20
6.728551396701107
 30
0.0
 10
5.687123254837713
 20
6.728551396701107
 30
0.0
 10
5.70550337754769
 20
6.728551396701107
 30
0.0
 10
5.720425485664348
 20
6.743474043113935
 30
0.0
 10
5.720425485664348
 20
6.761889155074935
 30
0.0
 10
5.720425485664348
 20
6.780268739488742
 30
0.0
 10
5.70550337754769
 20
6.794626713219691
 30
0.0
 10
5.687123254837713
 20
6.794626713219691
 30
0.0
 10
5.668743670423904
 20
6.794626713219691
 30
0.0
 10
5.654350707441935
 20
6.780268739488742
 30
0.0
 10
5.654350707441935
 20
6.761889155074935
 30
0.0
  0
SPLINE
  5
B6
330
70
100
AcDbEntity
  8
Camada 1
 62
   250
420
  1907995
370
    15
100
AcDbSpline
210
0.0
220
0.0
230
1.0
 70
     9
 71
     3
 72
    17
 73
    13
 74
     0
 42
0.0000000001
 43
0.0000000001
 40
0.0
 40
0.0
 40
0.0
 40
0.0
 40
1.0
 40
1.0
 40
1.0
 40
2.0
 40
2.0
 40
2.0
 40
3.0
 40
3.0
 40
3.0
 40
4.0
 40
4.0
 40
4.0
 40
4.0
 10
5.649739662453395
 20
6.761889155074935
 30
0.0
 10
5.649739662453395
 20
6.741180901431566
 30
0.0
 10
5.666425767117735
 20
6.723930124085347
 30
0.0
 10
5.687098493213913
 20
6.723930124085347
 30
0.0
 10
5.70777121931009
 20
6.723930124085347
 30
0.0
 10
5.725021996656309
 20
6.741180901431566
 30
0.0
 10
5.725021996656309
 20
6.761889155074935
 30
0.0
 10
5.725021996656309
 20
6.782561881171112
 30
0.0
 10
5.70777121931009
 20
6.799212996584429
 30
0.0
 10
5.687098493213913
 20
6.799212996584429
 30
0.0
 10
5.666425767117735
 20
6.799212996584429
 30
0.0
 10
5.649739662453395
 20
6.782561881171112
 30
0.0
 10
5.649739662453395
 20
6.761889155074935
 30
0.0
  0
SPLINE
  5
B7
330
70
100
AcDbEntity
  8
Camada 1
 62
   250
420
  1907995
370
    15
100
AcDbSpline
210
0.0
220
0.0
230
1.0
 70
     9
 71
     3
 72
    17
 73
    13
 74
     0
 42
0.0000000001
 43
0.0000000001
 40
0.0
 40
0.0
 40
0.0
 40
0.0
 40
1.0
 40
1.0
 40
1.0
 40
2.0
 40
2.0
 40
2.0
 40
3.0
 40
3.0
 40
3.0
 40
4.0
 40
4.0
 40
4.0
 40
4.0
 10
5.677340798548112
 20
6.761889155074935
 30
0.0
 10
5.677340798548112
 20
6.756103547844393
 30
0.0
 10
5.681362409230971
 20
6.751552253730676
 30
0.0
 10
5.687112488914321
 20
6.751552253730676
 30
0.0
 10
5.692862568597671
 20
6.751552253730676
 30
0.0
 10
5.69744885196241
 20
6.756103547844393
 30
0.0
 10
5.69744885196241
 20
6.761889155074935
 30
0.0
 10
5.69744885196241
 20
6.767639234758284
 30
0.0
 10
5.692862568597671
 20
6.771625317893953
 30
0.0
 10
5.687112488914321
 20
6.771625317893953
 30
0.0
 10
5.681362409230971
 20
6.771625317893953
 30
0.0
 10
5.677340798548112
 20
6.767639234758284
 30
0.0
 10
5.677340798548112
 20
6.761889155074935
 30
0.0
  0
SPLINE
  5
B8
330
70
100
AcDbEntity
  8
Camada 1
 62
   250
420
  1907995
370
    15
100
AcDbSpline
210
0.0
220
0.0
230
1.0
 70
     9
 71
     3
 72
    17
 73
    13
 74
     0
 42
0.0000000001
 43
0.0000000001
 40
0.0
 40
0.0
 40
0.0
 40
0.0
 40
1.0
 40
1.0
 40
1.0
 40
2.0
 40
2.0
 40
2.0
 40
3.0
 40
3.0
 40
3.0
 40
4.0
 40
4.0
 40
4.0
 40
4.0
 10
5.883059830784279
 20
6.761889155074935
 30
0.0
 10
5.883059830784279
 20
6.743474043113935
 30
0.0
 10
5.897417804515228
 20
6.728551396701107
 30
0.0
 10
5.915832378180058
 20
6.728551396701107
 30
0.0
 10
5.934212500890035
 20
6.728551396701107
 30
0.0
 10
5.949134609006693
 20
6.743474043113935
 30
0.0
 10
5.949134609006693
 20
6.761889155074935
 30
0.0
 10
5.949134609006693
 20
6.780268739488742
 30
0.0
 10
5.934212500890035
 20
6.794626713219691
 30
0.0
 10
5.915832378180058
 20
6.794626713219691
 30
0.0
 10
5.897417804515228
 20
6.794626713219691
 30
0.0
 10
5.883059830784279
 20
6.780268739488742
 30
0.0
 10
5.883059830784279
 20
6.761889155074935
 30
0.0
  0
SPLINE
  5
B9
330
70
100
AcDbEntity
  8
Camada 1
 62
   250
420
  1907995
370
    15
100
AcDbSpline
210
0.0
220
0.0
230
1.0
 70
     9
 71
     3
 72
    17
 73
    13
 74
     0
 42
0.0000000001
 43
0.0000000001
 40
0.0
 40
0.0
 40
0.0
 40
0.0
 40
1.0
 40
1.0
 40
1.0
 40
2.0
 40
2.0
 40
2.0
 40
3.0
 40
3.0
 40
3.0
 40
4.0
 40
4.0
 40
4.0
 40
4.0
 10
5.878448785795741
 20
6.761889155074935
 30
0.0
 10
5.878448785795741
 20
6.741180901431566
 30
0.0
 10
5.89513489046008
 20
6.723930124085347
 30
0.0
 10
5.915807616556258
 20
6.723930124085347
 30
0.0
 10
5.936480342652435
 20
6.723930124085347
 30
0.0
 10
5.953731119998654
 20
6.741180901431566
 30
0.0
 10
5.953731119998654
 20
6.761889155074935
 30
0.0
 10
5.953731119998654
 20
6.782561881171112
 30
0.0
 10
5.936480342652435
 20
6.799212996584429
 30
0.0
 10
5.915807616556258
 20
6.799212996584429
 30
0.0
 10
5.89513489046008
 20
6.799212996584429
 30
0.0
 10
5.878448785795741
 20
6.782561881171112
 30
0.0
 10
5.878448785795741
 20
6.761889155074935
 30
0.0
  0
SPLINE
  5
BA
330
70
100
AcDbEntity
  8
Camada 1
 62
   250
420
  1907995
370
    15
100
AcDbSpline
210
0.0
220
0.0
230
1.0
 70
     9
 71
     3
 72
    17
 73
    13
 74
     0
 42
0.0000000001
 43
0.0000000001
 40
0.0
 40
0.0
 40
0.0
 40
0.0
 40
1.0
 40
1.0
 40
1.0
 40
2.0
 40
2.0
 40
2.0
 40
3.0
 40
3.0
 40
3.0
 40
4.0
 40
4.0
 40
4.0
 40
4.0
 10
5.906050460186627
 20
6.761889155074935
 30
0.0
 10
5.906050460186627
 20
6.756103547844393
 30
0.0
 10
5.910072070869486
 20
6.751552253730676
 30
0.0
 10
5.915822150552836
 20
6.751552253730676
 30
0.0
 10
5.921572230236185
 20
6.751552253730676
 30
0.0
 10
5.926158513600925
 20
6.756103547844393
 30
0.0
 10
5.926158513600925
 20
6.761889155074935
 30
0.0
 10
5.926158513600925
 20
6.767639234758284
 30
0.0
 10
5.921572230236185
 20
6.771625317893953
 30
0.0
 10
5.915822150552836
 20
6.771625317893953
 30
0.0
 10
5.910072070869486
 20
6.771625317893953
 30
0.0
 10
5.906050460186627
 20
6.767639234758284
 30
0.0
 10
5.906050460186627
 20
6.761889155074935
 30
0.0
  0
SPLINE
  5
BB
330
70
100
AcDbEntity
  8
Camada 1
 62
   250
420
  1907995
370
    15
100
AcDbSpline
210
0.0
220
0.0
230
1.0
 70
     9
 71
     3
 72
    17
 73
    13
 74
     0
 42
0.0000000001
 43
0.0000000001
 40
0.0
 40
0.0
 40
0.0
 40
0.0
 40
1.0
 40
1.0
 40
1.0
 40
2.0
 40
2.0
 40
2.0
 40
3.0
 40
3.0
 40
3.0
 40
4.0
 40
4.0
 40
4.0
 40
4.0
 10
4.94294225781103
 20
5.82118968394238
 30
0.0
 10
4.94294225781103
 20
5.80277457198138
 30
0.0
 10
4.957335220793001
 20
5.787851925568553
 30
0.0
 10
4.975714805206808
 20
5.787851925568553
 30
0.0
 10
4.994094927916786
 20
5.787851925568553
 30
0.0
 10
5.009017036033443
 20
5.80277457198138
 30
0.0
 10
5.009017036033443
 20
5.82118968394238
 30
0.0
 10
5.009017036033443
 20
5.839569268356187
 30
0.0
 10
4.994094927916786
 20
5.853962231338158
 30
0.0
 10
4.975714805206808
 20
5.853962231338158
 30
0.0
 10
4.957335220793001
 20
5.853962231338158
 30
0.0
 10
4.94294225781103
 20
5.839569268356187
 30
0.0
 10
4.94294225781103
 20
5.82118968394238
 30
0.0
  0
SPLINE
  5
BC
330
70
100
AcDbEntity
  8
Camada 1
 62
   250
420
  1907995
370
    15
100
AcDbSpline
210
0.0
220
0.0
230
1.0
 70
     9
 71
     3
 72
    17
 73
    13
 74
     0
 42
0.0000000001
 43
0.0000000001
 40
0.0
 40
0.0
 40
0.0
 40
0.0
 40
1.0
 40
1.0
 40
1.0
 40
2.0
 40
2.0
 40
2.0
 40
3.0
 40
3.0
 40
3.0
 40
4.0
 40
4.0
 40
4.0
 40
4.0
 10
4.94294225781103
 20
6.049898807284725
 30
0.0
 10
4.94294225781103
 20
6.031483695323726
 30
0.0
 10
4.957335220793001
 20
6.016561048910898
 30
0.0
 10
4.975714805206808
 20
6.016561048910898
 30
0.0
 10
4.994094927916786
 20
6.016561048910898
 30
0.0
 10
5.009017036033443
 20
6.031483695323726
 30
0.0
 10
5.009017036033443
 20
6.049898807284725
 30
0.0
 10
5.009017036033443
 20
6.068278391698533
 30
0.0
 10
4.994094927916786
 20
6.082671354680504
 30
0.0
 10
4.975714805206808
 20
6.082671354680504
 30
0.0
 10
4.957335220793001
 20
6.082671354680504
 30
0.0
 10
4.94294225781103
 20
6.068278391698533
 30
0.0
 10
4.94294225781103
 20
6.049898807284725
 30
0.0
  0
SPLINE
  5
BD
330
70
100
AcDbEntity
  8
Camada 1
 62
   250
420
  1907995
370
    15
100
AcDbSpline
210
0.0
220
0.0
230
1.0
 70
     9
 71
     3
 72
    17
 73
    13
 74
     0
 42
0.0000000001
 43
0.0000000001
 40
0.0
 40
0.0
 40
0.0
 40
0.0
 40
1.0
 40
1.0
 40
1.0
 40
2.0
 40
2.0
 40
2.0
 40
3.0
 40
3.0
 40
3.0
 40
4.0
 40
4.0
 40
4.0
 40
4.0
 10
4.94294225781103
 20
7.701974968574179
 30
0.0
 10
4.94294225781103
 20
7.683594845864202
 30
0.0
 10
4.957335220793001
 20
7.668672737747544
 30
0.0
 10
4.975714805206808
 20
7.668672737747544
 30
0.0
 10
4.994094927916786
 20
7.668672737747544
 30
0.0
 10
5.009017036033443
 20
7.683594845864202
 30
0.0
 10
5.009017036033443
 20
7.701974968574179
 30
0.0
 10
5.009017036033443
 20
7.72038954223901
 30
0.0
 10
4.994094927916786
 20
7.734747515969958
 30
0.0
 10
4.975714805206808
 20
7.734747515969958
 30
0.0
 10
4.957335220793001
 20
7.734747515969958
 30
0.0
 10
4.94294225781103
 20
7.72038954223901
 30
0.0
 10
4.94294225781103
 20
7.701974968574179
 30
0.0
  0
SPLINE
  5
BE
330
70
100
AcDbEntity
  8
Camada 1
 62
   250
420
  1907995
370
    15
100
AcDbSpline
210
0.0
220
0.0
230
1.0
 70
     9
 71
     3
 72
    17
 73
    13
 74
     0
 42
0.0000000001
 43
0.0000000001
 40
0.0
 40
0.0
 40
0.0
 40
0.0
 40
1.0
 40
1.0
 40
1.0
 40
2.0
 40
2.0
 40
2.0
 40
3.0
 40
3.0
 40
3.0
 40
4.0
 40
4.0
 40
4.0
 40
4.0
 10
4.002821185912678
 20
6.761889155074935
 30
0.0
 10
4.002821185912678
 20
6.743474043113935
 30
0.0
 10
4.017214418042733
 20
6.728551396701107
 30
0.0
 10
4.035594002456541
 20
6.728551396701107
 30
0.0
 10
4.053973856018434
 20
6.728551396701107
 30
0.0
 10
4.068931491682284
 20
6.743474043113935
 30
0.0
 10
4.068931491682284
 20
6.761889155074935
 30
0.0
 10
4.068931491682284
 20
6.780268739488742
 30
0.0
 10
4.053973856018434
 20
6.794626713219691
 30
0.0
 10
4.035594002456541
 20
6.794626713219691
 30
0.0
 10
4.017214418042733
 20
6.794626713219691
 30
0.0
 10
4.002821185912678
 20
6.780268739488742
 30
0.0
 10
4.002821185912678
 20
6.761889155074935
 30
0.0
  0
SPLINE
  5
BF
330
70
100
AcDbEntity
  8
Camada 1
 62
   250
420
  1907995
370
    35
100
AcDbSpline
210
0.0
220
0.0
230
1.0
 70
     9
 71
     3
 72
    17
 73
    13
 74
     0
 42
0.0000000001
 43
0.0000000001
 40
0.0
 40
0.0
 40
0.0
 40
0.0
 40
1.0
 40
1.0
 40
1.0
 40
2.0
 40
2.0
 40
2.0
 40
3.0
 40
3.0
 40
3.0
 40
4.0
 40
4.0
 40
4.0
 40
4.0
 10
4.745249221463155
 20
6.564199348504077
 30
0.0
 10
4.745249221463155
 20
6.5458192257941
 30
0.0
 10
4.759642184445126
 20
6.530861590130251
 30
0.0
 10
4.778021768858933
 20
6.530861590130251
 30
0.0
 10
4.796436880819933
 20
6.530861590130251
 30
0.0
 10
4.81135952723276
 20
6.5458192257941
 30
0.0
 10
4.81135952723276
 20
6.564199348504077
 30
0.0
 10
4.81135952723276
 20
6.582578932917885
 30
0.0
 10
4.796436880819933
 20
6.596971895899855
 30
0.0
 10
4.778021768858933
 20
6.596971895899855
 30
0.0
 10
4.759642184445126
 20
6.596971895899855
 30
0.0
 10
4.745249221463155
 20
6.582578932917885
 30
0.0
 10
4.745249221463155
 20
6.564199348504077
 30
0.0
  0
SPLINE
  5
C0
330
70
100
AcDbEntity
  8
Camada 1
 62
   250
420
  1907995
370
    15
100
AcDbSpline
210
0.0
220
0.0
230
1.0
 70
     9
 71
     3
 72
    17
 73
    13
 74
     0
 42
0.0000000001
 43
0.0000000001
 40
0.0
 40
0.0
 40
0.0
 40
0.0
 40
1.0
 40
1.0
 40
1.0
 40
2.0
 40
2.0
 40
2.0
 40
3.0
 40
3.0
 40
3.0
 40
4.0
 40
4.0
 40
4.0
 40
4.0
 10
4.94294225781103
 20
7.473300834482857
 30
0.0
 10
4.94294225781103
 20
7.454885722521857
 30
0.0
 10
4.957335220793001
 20
7.439963076109029
 30
0.0
 10
4.975714805206808
 20
7.439963076109029
 30
0.0
 10
4.994094927916786
 20
7.439963076109029
 30
0.0
 10
5.009017036033443
 20
7.454885722521857
 30
0.0
 10
5.009017036033443
 20
7.473300834482857
 30
0.0
 10
5.009017036033443
 20
7.491680418896664
 30
0.0
 10
4.994094927916786
 20
7.506038392627613
 30
0.0
 10
4.975714805206808
 20
7.506038392627613
 30
0.0
 10
4.957335220793001
 20
7.506038392627613
 30
0.0
 10
4.94294225781103
 20
7.491680418896664
 30
0.0
 10
4.94294225781103
 20
7.473300834482857
 30
0.0
  0
SPLINE
  5
C1
330
70
100
AcDbEntity
  8
Camada 1
 62
   250
420
  1907995
370
    35
100
AcDbSpline
210
0.0
220
0.0
230
1.0
 70
     9
 71
     3
 72
    17
 73
    13
 74
     0
 42
0.0000000001
 43
0.0000000001
 40
0.0
 40
0.0
 40
0.0
 40
0.0
 40
1.0
 40
1.0
 40
1.0
 40
2.0
 40
2.0
 40
2.0
 40
3.0
 40
3.0
 40
3.0
 40
4.0
 40
4.0
 40
4.0
 40
4.0
 10
4.745249221463155
 20
6.959547202171788
 30
0.0
 10
4.745249221463155
 20
6.94116707946181
 30
0.0
 10
4.759642184445126
 20
6.926244971345152
 30
0.0
 10
4.778021768858933
 20
6.926244971345152
 30
0.0
 10
4.796436880819933
 20
6.926244971345152
 30
0.0
 10
4.81135952723276
 20
6.94116707946181
 30
0.0
 10
4.81135952723276
 20
6.959547202171788
 30
0.0
 10
4.81135952723276
 20
6.977926786585595
 30
0.0
 10
4.796436880819933
 20
6.992319749567566
 30
0.0
 10
4.778021768858933
 20
6.992319749567566
 30
0.0
 10
4.759642184445126
 20
6.992319749567566
 30
0.0
 10
4.745249221463155
 20
6.977926786585595
 30
0.0
 10
4.745249221463155
 20
6.959547202171788
 30
0.0
  0
SPLINE
  5
C2
330
70
100
AcDbEntity
  8
Camada 1
 62
   250
420
  1907995
370
    15
100
AcDbSpline
210
0.0
220
0.0
230
1.0
 70
     8
 71
     3
 72
    50
 73
    46
 74
     0
 42
0.0000000001
 43
0.0000000001
 40
0.0
 40
0.0
 40
0.0
 40
0.0
 40
1.0
 40
1.0
 40
1.0
 40
2.0
 40
2.0
 40
2.0
 40
3.0
 40
3.0
 40
3.0
 40
4.0
 40
4.0
 40
4.0
 40
5.0
 40
5.0
 40
5.0
 40
6.0
 40
6.0
 40
6.0
 40
7.0
 40
7.0
 40
7.0
 40
8.0
 40
8.0
 40
8.0
 40
9.0
 40
9.0
 40
9.0
 40
10.0
 40
10.0
 40
10.0
 40
11.0
 40
11.0
 40
11.0
 40
12.0
 40
12.0
 40
12.0
 40
13.0
 40
13.0
 40
13.0
 40
14.0
 40
14.0
 40
14.0
 40
15.0
 40
15.0
 40
15.0
 40
15.0
 10
5.562970626288022
 20
5.633850774416189
 30
0.0
 10
5.562970626288022
 20
5.633850774416189
 30
0.0
 10
5.566992236970881
 20
5.636143377802389
 30
0.0
 10
5.566992236970881
 20
5.636143377802389
 30
0.0
 10
5.566992236970881
 20
5.636143377802389
 30
0.0
 10
5.571048836904763
 20
5.637872385099049
 30
0.0
 10
5.571048836904763
 20
5.637872385099049
 30
0.0
 10
5.571048836904763
 20
5.637872385099049
 30
0.0
 10
5.575070447587623
 20
5.640164988485248
 30
0.0
 10
5.575070447587623
 20
5.640164988485248
 30
0.0
 10
6.08663375278471
 20
5.914908661953075
 30
0.0
 10
6.346419252292517
 20
6.494592809113113
 30
0.0
 10
6.21176392717834
 20
7.059531409300112
 30
0.0
 10
6.21176392717834
 20
7.059531409300112
 30
0.0
 10
6.21059959256356
 20
7.064152681915873
 30
0.0
 10
6.21059959256356
 20
7.064152681915873
 30
0.0
 10
6.21059959256356
 20
7.064152681915873
 30
0.0
 10
6.209470785495971
 20
7.068738965280611
 30
0.0
 10
6.209470785495971
 20
7.068738965280611
 30
0.0
 10
6.067654506438
 20
7.631419413036263
 30
0.0
 10
5.568050527240257
 20
8.025613159716415
 30
0.0
 10
4.987766179851148
 20
8.031822406032407
 30
0.0
 10
4.987766179851148
 20
8.031822406032407
 30
0.0
 10
4.96938659543734
 20
8.031822406032407
 30
0.0
 10
4.96938659543734
 20
8.031822406032407
 30
0.0
 10
4.391042805739532
 20
8.028577018426069
 30
0.0
 10
3.885970814051293
 20
7.633959632660465
 30
0.0
 10
3.744789186177246
 20
7.072760575963471
 30
0.0
 10
3.744789186177246
 20
7.072760575963471
 30
0.0
 10
3.743660379109657
 20
7.068738965280611
 30
0.0
 10
3.743660379109657
 20
7.068738965280611
 30
0.0
 10
3.743660379109657
 20
7.068738965280611
 30
0.0
 10
3.742496044494877
 20
7.064152681915873
 30
0.0
 10
3.742496044494877
 20
7.064152681915873
 30
0.0
 10
3.603889625496054
 20
6.499496687217899
 30
0.0
 10
3.865227571156902
 20
5.91519072914593
 30
0.0
 10
4.377496044336126
 20
5.640164988485248
 30
0.0
 10
4.377496044336126
 20
5.640164988485248
 30
0.0
 10
4.381517655018986
 20
5.637872385099049
 30
0.0
 10
4.381517655018986
 20
5.637872385099049
 30
0.0
 10
4.381517655018986
 20
5.637872385099049
 30
0.0
 10
4.386103938383725
 20
5.636143377802389
 30
0.0
 10
4.386103938383725
 20
5.636143377802389
 30
0.0
 10
4.386103938383725
 20
5.636143377802389
 30
0.0
 10
4.390160807465691
 20
5.633850774416189
 30
0.0
 10
4.390160807465691
 20
5.633850774416189
 30
0.0
  0
SPLINE
  5
C3
330
70
100
AcDbEntity
  8
Camada 1
 62
   250
420
  1907995
370
    15
100
AcDbSpline
210
0.0
220
0.0
230
1.0
 70
     8
 71
     3
 72
    14
 73
    10
 74
     0
 42
0.0000000001
 43
0.0000000001
 40
0.0
 40
0.0
 40
0.0
 40
0.0
 40
1.0
 40
1.0
 40
1.0
 40
2.0
 40
2.0
 40
2.0
 40
3.0
 40
3.0
 40
3.0
 40
3.0
 10
4.59528313839789
 20
5.295960115592242
 30
0.0
 10
4.59528313839789
 20
5.295960115592242
 30
0.0
 10
4.59528313839789
 20
5.300581388208002
 30
0.0
 10
4.59528313839789
 20
5.300581388208002
 30
0.0
 10
4.592954469168329
 20
5.439399357601467
 30
0.0
 10
4.516930901139918
 20
5.565975933802732
 30
0.0
 10
4.394129126827763
 20
5.63155709443765
 30
0.0
 10
4.394129126827763
 20
5.63155709443765
 30
0.0
 10
4.390142774544011
 20
5.63385023612002
 30
0.0
 10
4.390142774544011
 20
5.63385023612002
 30
0.0
  0
LINE
  5
C4
330
70
100
AcDbEntity
  8
Camada 1
 62
   250
420
  1907995
370
    15
100
AcDbLine
 10
5.357830262434142
 20
5.295960115592242
 30
0.0
 11
5.357830262434142
 21
1.932576912290835
 31
0.0
  0
LINE
  5
C5
330
70
100
AcDbEntity
  8
Camada 1
 62
   250
420
  1907995
370
    15
100
AcDbLine
 10
4.59528313839789
 20
5.295960115592242
 30
0.0
 11
4.59528313839789
 21
1.932576912290835
 31
0.0
  0
SPLINE
  5
C6
330
70
100
AcDbEntity
  8
Camada 1
 62
   250
420
  1907995
370
    15
100
AcDbSpline
210
0.0
220
0.0
230
1.0
 70
     9
 71
     3
 72
    17
 73
    13
 74
     0
 42
0.0000000001
 43
0.0000000001
 40
0.0
 40
0.0
 40
0.0
 40
0.0
 40
1.0
 40
1.0
 40
1.0
 40
2.0
 40
2.0
 40
2.0
 40
3.0
 40
3.0
 40
3.0
 40
4.0
 40
4.0
 40
4.0
 40
4.0
 10
5.910058075169078
 20
6.761871391301339
 30
0.0
 10
5.910058075169078
 20
6.758413915004189
 30
0.0
 10
5.912350678555277
 20
6.75555663893611
 30
0.0
 10
5.915808154852427
 20
6.75555663893611
 30
0.0
 10
5.919230103602385
 20
6.75555663893611
 30
0.0
 10
5.922122907217656
 20
6.758413915004189
 30
0.0
 10
5.922122907217656
 20
6.761871391301339
 30
0.0
 10
5.922122907217656
 20
6.765328329302319
 30
0.0
 10
5.919230103602385
 20
6.767621470984689
 30
0.0
 10
5.915808154852427
 20
6.767621470984689
 30
0.0
 10
5.912350678555277
 20
6.767621470984689
 30
0.0
 10
5.910058075169078
 20
6.765328329302319
 30
0.0
 10
5.910058075169078
 20
6.761871391301339
 30
0.0
  0
SPLINE
  5
C7
330
70
100
AcDbEntity
  8
Camada 1
 62
   250
420
  1907995
370
    15
100
AcDbSpline
210
0.0
220
0.0
230
1.0
 70
     9
 71
     3
 72
    17
 73
    13
 74
     0
 42
0.0000000001
 43
0.0000000001
 40
0.0
 40
0.0
 40
0.0
 40
0.0
 40
1.0
 40
1.0
 40
1.0
 40
2.0
 40
2.0
 40
2.0
 40
3.0
 40
3.0
 40
3.0
 40
4.0
 40
4.0
 40
4.0
 40
4.0
 10
5.681348413530563
 20
6.761871391301339
 30
0.0
 10
5.681348413530563
 20
6.758413915004189
 30
0.0
 10
5.683676544463954
 20
6.75555663893611
 30
0.0
 10
5.687098493213913
 20
6.75555663893611
 30
0.0
 10
5.690520441963871
 20
6.75555663893611
 30
0.0
 10
5.693448234830164
 20
6.758413915004189
 30
0.0
 10
5.693448234830164
 20
6.761871391301339
 30
0.0
 10
5.693448234830164
 20
6.765328329302319
 30
0.0
 10
5.690520441963871
 20
6.767621470984689
 30
0.0
 10
5.687098493213913
 20
6.767621470984689
 30
0.0
 10
5.683676544463954
 20
6.767621470984689
 30
0.0
 10
5.681348413530563
 20
6.765328329302319
 30
0.0
 10
5.681348413530563
 20
6.761871391301339
 30
0.0
  0
SPLINE
  5
C8
330
70
100
AcDbEntity
  8
Camada 1
 62
   250
420
  1907995
370
    15
100
AcDbSpline
210
0.0
220
0.0
230
1.0
 70
     9
 71
     3
 72
    17
 73
    13
 74
     0
 42
0.0000000001
 43
0.0000000001
 40
0.0
 40
0.0
 40
0.0
 40
0.0
 40
1.0
 40
1.0
 40
1.0
 40
2.0
 40
2.0
 40
2.0
 40
3.0
 40
3.0
 40
3.0
 40
4.0
 40
4.0
 40
4.0
 40
4.0
 10
5.478501191359052
 20
6.761871391301339
 30
0.0
 10
5.478501191359052
 20
6.758413915004189
 30
0.0
 10
5.480829322292444
 20
6.75555663893611
 30
0.0
 10
5.484251271042402
 20
6.75555663893611
 30
0.0
 10
5.487673219792361
 20
6.75555663893611
 30
0.0
 10
5.490601012658653
 20
6.758413915004189
 30
0.0
 10
5.490601012658653
 20
6.761871391301339
 30
0.0
 10
5.490601012658653
 20
6.765328329302319
 30
0.0
 10
5.487673219792361
 20
6.767621470984689
 30
0.0
 10
5.484251271042402
 20
6.767621470984689
 30
0.0
 10
5.480829322292444
 20
6.767621470984689
 30
0.0
 10
5.478501191359052
 20
6.765328329302319
 30
0.0
 10
5.478501191359052
 20
6.761871391301339
 30
0.0
  0
SPLINE
  5
C9
330
70
100
AcDbEntity
  8
Camada 1
 62
   250
420
  1907995
370
    15
100
AcDbSpline
210
0.0
220
0.0
230
1.0
 70
     9
 71
     3
 72
    17
 73
    13
 74
     0
 42
0.0000000001
 43
0.0000000001
 40
0.0
 40
0.0
 40
0.0
 40
0.0
 40
1.0
 40
1.0
 40
1.0
 40
2.0
 40
2.0
 40
2.0
 40
3.0
 40
3.0
 40
3.0
 40
4.0
 40
4.0
 40
4.0
 40
4.0
 10
4.969940502195828
 20
7.701988964274589
 30
0.0
 10
4.969940502195828
 20
7.698531487977438
 30
0.0
 10
4.972268633129219
 20
7.695674211909359
 30
0.0
 10
4.975690581879177
 20
7.695674211909359
 30
0.0
 10
4.979112530629136
 20
7.695674211909359
 30
0.0
 10
4.982040323495429
 20
7.698531487977438
 30
0.0
 10
4.982040323495429
 20
7.701988964274589
 30
0.0
 10
4.982040323495429
 20
7.705445902275569
 30
0.0
 10
4.979112530629136
 20
7.707739043957938
 30
0.0
 10
4.975690581879177
 20
7.707739043957938
 30
0.0
 10
4.972268633129219
 20
7.707739043957938
 30
0.0
 10
4.969940502195828
 20
7.705445902275569
 30
0.0
 10
4.969940502195828
 20
7.701988964274589
 30
0.0
  0
SPLINE
  5
CA
330
70
100
AcDbEntity
  8
Camada 1
 62
   250
420
  1907995
370
    15
100
AcDbSpline
210
0.0
220
0.0
230
1.0
 70
     9
 71
     3
 72
    17
 73
    13
 74
     0
 42
0.0000000001
 43
0.0000000001
 40
0.0
 40
0.0
 40
0.0
 40
0.0
 40
1.0
 40
1.0
 40
1.0
 40
2.0
 40
2.0
 40
2.0
 40
3.0
 40
3.0
 40
3.0
 40
4.0
 40
4.0
 40
4.0
 40
4.0
 10
4.969940502195828
 20
7.473279840932243
 30
0.0
 10
4.969940502195828
 20
7.469822364635093
 30
0.0
 10
4.972268633129219
 20
7.466965088567015
 30
0.0
 10
4.975690581879177
 20
7.466965088567015
 30
0.0
 10
4.979112530629136
 20
7.466965088567015
 30
0.0
 10
4.982040323495429
 20
7.469822364635093
 30
0.0
 10
4.982040323495429
 20
7.473279840932243
 30
0.0
 10
4.982040323495429
 20
7.476736778933224
 30
0.0
 10
4.979112530629136
 20
7.479029920615593
 30
0.0
 10
4.975690581879177
 20
7.479029920615593
 30
0.0
 10
4.972268633129219
 20
7.479029920615593
 30
0.0
 10
4.969940502195828
 20
7.476736778933224
 30
0.0
 10
4.969940502195828
 20
7.473279840932243
 30
0.0
  0
SPLINE
  5
CB
330
70
100
AcDbEntity
  8
Camada 1
 62
   250
420
  1907995
370
    35
100
AcDbSpline
210
0.0
220
0.0
230
1.0
 70
     9
 71
     3
 72
    17
 73
    13
 74
     0
 42
0.0000000001
 43
0.0000000001
 40
0.0
 40
0.0
 40
0.0
 40
0.0
 40
1.0
 40
1.0
 40
1.0
 40
2.0
 40
2.0
 40
2.0
 40
3.0
 40
3.0
 40
3.0
 40
4.0
 40
4.0
 40
4.0
 40
4.0
 10
5.167629770470516
 20
6.959561197872196
 30
0.0
 10
5.167629770470516
 20
6.956103721575046
 30
0.0
 10
5.169922373856715
 20
6.953246445506968
 30
0.0
 10
5.173379850153866
 20
6.953246445506968
 30
0.0
 10
5.176801798903824
 20
6.953246445506968
 30
0.0
 10
5.179694602519094
 20
6.956103721575046
 30
0.0
 10
5.179694602519094
 20
6.959561197872196
 30
0.0
 10
5.179694602519094
 20
6.963018135873177
 30
0.0
 10
5.176801798903824
 20
6.965311277555546
 30
0.0
 10
5.173379850153866
 20
6.965311277555546
 30
0.0
 10
5.169922373856715
 20
6.965311277555546
 30
0.0
 10
5.167629770470516
 20
6.963018135873177
 30
0.0
 10
5.167629770470516
 20
6.959561197872196
 30
0.0
  0
SPLINE
  5
CC
330
70
100
AcDbEntity
  8
Camada 1
 62
   250
420
  1907995
370
    35
100
AcDbSpline
210
0.0
220
0.0
230
1.0
 70
     9
 71
     3
 72
    17
 73
    13
 74
     0
 42
0.0000000001
 43
0.0000000001
 40
0.0
 40
0.0
 40
0.0
 40
0.0
 40
1.0
 40
1.0
 40
1.0
 40
2.0
 40
2.0
 40
2.0
 40
3.0
 40
3.0
 40
3.0
 40
4.0
 40
4.0
 40
4.0
 40
4.0
 10
5.24978829994352
 20
6.761871391301339
 30
0.0
 10
5.24978829994352
 20
6.758413915004189
 30
0.0
 10
5.252116430876911
 20
6.75555663893611
 30
0.0
 10
5.255573368877892
 20
6.75555663893611
 30
0.0
 10
5.258960328376828
 20
6.75555663893611
 30
0.0
 10
5.261888121243121
 20
6.758413915004189
 30
0.0
 10
5.261888121243121
 20
6.761871391301339
 30
0.0
 10
5.261888121243121
 20
6.765328329302319
 30
0.0
 10
5.258960328376828
 20
6.767621470984689
 30
0.0
 10
5.255573368877892
 20
6.767621470984689
 30
0.0
 10
5.252116430876911
 20
6.767621470984689
 30
0.0
 10
5.24978829994352
 20
6.765328329302319
 30
0.0
 10
5.24978829994352
 20
6.761871391301339
 30
0.0
  0
SPLINE
  5
CD
330
70
100
AcDbEntity
  8
Camada 1
 62
   250
420
  1907995
370
    15
100
AcDbSpline
210
0.0
220
0.0
230
1.0
 70
     9
 71
     3
 72
    17
 73
    13
 74
     0
 42
0.0000000001
 43
0.0000000001
 40
0.0
 40
0.0
 40
0.0
 40
0.0
 40
1.0
 40
1.0
 40
1.0
 40
2.0
 40
2.0
 40
2.0
 40
3.0
 40
3.0
 40
3.0
 40
4.0
 40
4.0
 40
4.0
 40
4.0
 10
4.969940502195828
 20
7.269850182305257
 30
0.0
 10
4.969940502195828
 20
7.266392706008108
 30
0.0
 10
4.972268633129219
 20
7.263535429940029
 30
0.0
 10
4.975690581879177
 20
7.263535429940029
 30
0.0
 10
4.979112530629136
 20
7.263535429940029
 30
0.0
 10
4.982040323495429
 20
7.266392706008108
 30
0.0
 10
4.982040323495429
 20
7.269850182305257
 30
0.0
 10
4.982040323495429
 20
7.273307120306238
 30
0.0
 10
4.979112530629136
 20
7.27563525123963
 30
0.0
 10
4.975690581879177
 20
7.27563525123963
 30
0.0
 10
4.972268633129219
 20
7.27563525123963
 30
0.0
 10
4.969940502195828
 20
7.273307120306238
 30
0.0
 10
4.969940502195828
 20
7.269850182305257
 30
0.0
  0
SPLINE
  5
CE
330
70
100
AcDbEntity
  8
Camada 1
 62
   250
420
  1907995
370
    35
100
AcDbSpline
210
0.0
220
0.0
230
1.0
 70
     9
 71
     3
 72
    17
 73
    13
 74
     0
 42
0.0000000001
 43
0.0000000001
 40
0.0
 40
0.0
 40
0.0
 40
0.0
 40
1.0
 40
1.0
 40
1.0
 40
2.0
 40
2.0
 40
2.0
 40
3.0
 40
3.0
 40
3.0
 40
4.0
 40
4.0
 40
4.0
 40
4.0
 10
4.969940502195828
 20
7.041141058962913
 30
0.0
 10
4.969940502195828
 20
7.037683582665763
 30
0.0
 10
4.972268633129219
 20
7.034826306597683
 30
0.0
 10
4.975690581879177
 20
7.034826306597683
 30
0.0
 10
4.979112530629136
 20
7.034826306597683
 30
0.0
 10
4.982040323495429
 20
7.037683582665763
 30
0.0
 10
4.982040323495429
 20
7.041141058962913
 30
0.0
 10
4.982040323495429
 20
7.044597996963893
 30
0.0
 10
4.979112530629136
 20
7.046926127897284
 30
0.0
 10
4.975690581879177
 20
7.046926127897284
 30
0.0
 10
4.972268633129219
 20
7.046926127897284
 30
0.0
 10
4.969940502195828
 20
7.044597996963893
 30
0.0
 10
4.969940502195828
 20
7.041141058962913
 30
0.0
  0
SPLINE
  5
CF
330
70
100
AcDbEntity
  8
Camada 1
 62
   250
420
  1907995
370
    35
100
AcDbSpline
210
0.0
220
0.0
230
1.0
 70
     9
 71
     3
 72
    17
 73
    13
 74
     0
 42
0.0000000001
 43
0.0000000001
 40
0.0
 40
0.0
 40
0.0
 40
0.0
 40
1.0
 40
1.0
 40
1.0
 40
2.0
 40
2.0
 40
2.0
 40
3.0
 40
3.0
 40
3.0
 40
4.0
 40
4.0
 40
4.0
 40
4.0
 10
5.167629770470516
 20
6.564210114427469
 30
0.0
 10
5.167629770470516
 20
6.560752638130319
 30
0.0
 10
5.169922373856715
 20
6.557895362062239
 30
0.0
 10
5.173379850153866
 20
6.557895362062239
 30
0.0
 10
5.176801798903824
 20
6.557895362062239
 30
0.0
 10
5.179694602519094
 20
6.560752638130319
 30
0.0
 10
5.179694602519094
 20
6.564210114427469
 30
0.0
 10
5.179694602519094
 20
6.567631524881258
 30
0.0
 10
5.176801798903824
 20
6.569960194110818
 30
0.0
 10
5.173379850153866
 20
6.569960194110818
 30
0.0
 10
5.169922373856715
 20
6.569960194110818
 30
0.0
 10
5.167629770470516
 20
6.567631524881258
 30
0.0
 10
5.167629770470516
 20
6.564210114427469
 30
0.0
  0
SPLINE
  5
D0
330
70
100
AcDbEntity
  8
Camada 1
 62
   250
420
  1907995
370
    35
100
AcDbSpline
210
0.0
220
0.0
230
1.0
 70
     9
 71
     3
 72
    17
 73
    13
 74
     0
 42
0.0000000001
 43
0.0000000001
 40
0.0
 40
0.0
 40
0.0
 40
0.0
 40
1.0
 40
1.0
 40
1.0
 40
2.0
 40
2.0
 40
2.0
 40
3.0
 40
3.0
 40
3.0
 40
4.0
 40
4.0
 40
4.0
 40
4.0
 10
4.772282455098975
 20
6.959561197872196
 30
0.0
 10
4.772282455098975
 20
6.956103721575046
 30
0.0
 10
4.774575058485175
 20
6.953246445506968
 30
0.0
 10
4.778032534782325
 20
6.953246445506968
 30
0.0
 10
4.781454483532283
 20
6.953246445506968
 30
0.0
 10
4.784347287147554
 20
6.956103721575046
 30
0.0
 10
4.784347287147554
 20
6.959561197872196
 30
0.0
 10
4.784347287147554
 20
6.963018135873177
 30
0.0
 10
4.781454483532283
 20
6.965311277555546
 30
0.0
 10
4.778032534782325
 20
6.965311277555546
 30
0.0
 10
4.774575058485175
 20
6.965311277555546
 30
0.0
 10
4.772282455098975
 20
6.963018135873177
 30
0.0
 10
4.772282455098975
 20
6.959561197872196
 30
0.0
  0
SPLINE
  5
D1
330
70
100
AcDbEntity
  8
Camada 1
 62
   250
420
  1907995
370
    35
100
AcDbSpline
210
0.0
220
0.0
230
1.0
 70
     9
 71
     3
 72
    17
 73
    13
 74
     0
 42
0.0000000001
 43
0.0000000001
 40
0.0
 40
0.0
 40
0.0
 40
0.0
 40
1.0
 40
1.0
 40
1.0
 40
2.0
 40
2.0
 40
2.0
 40
3.0
 40
3.0
 40
3.0
 40
4.0
 40
4.0
 40
4.0
 40
4.0
 10
4.969940502195828
 20
6.48201982548046
 30
0.0
 10
4.969940502195828
 20
6.478562349183309
 30
0.0
 10
4.972268633129219
 20
6.475705073115231
 30
0.0
 10
4.975690581879177
 20
6.475705073115231
 30
0.0
 10
4.979112530629136
 20
6.475705073115231
 30
0.0
 10
4.982040323495429
 20
6.478562349183309
 30
0.0
 10
4.982040323495429
 20
6.48201982548046
 30
0.0
 10
4.982040323495429
 20
6.48547676348144
 30
0.0
 10
4.979112530629136
 20
6.487769905163809
 30
0.0
 10
4.975690581879177
 20
6.487769905163809
 30
0.0
 10
4.972268633129219
 20
6.487769905163809
 30
0.0
 10
4.969940502195828
 20
6.48547676348144
 30
0.0
 10
4.969940502195828
 20
6.48201982548046
 30
0.0
  0
SPLINE
  5
D2
330
70
100
AcDbEntity
  8
Camada 1
 62
   250
420
  1907995
370
    15
100
AcDbSpline
210
0.0
220
0.0
230
1.0
 70
     9
 71
     3
 72
    17
 73
    13
 74
     0
 42
0.0000000001
 43
0.0000000001
 40
0.0
 40
0.0
 40
0.0
 40
0.0
 40
1.0
 40
1.0
 40
1.0
 40
2.0
 40
2.0
 40
2.0
 40
3.0
 40
3.0
 40
3.0
 40
4.0
 40
4.0
 40
4.0
 40
4.0
 10
5.25849470219015
 20
7.158929950195943
 30
0.0
 10
5.260364204787068
 20
7.161822215515044
 30
0.0
 10
5.259976093248807
 20
7.165491242206836
 30
0.0
 10
5.257083289633537
 20
7.167361283099923
 30
0.0
 10
5.254155496767244
 20
7.169195258149649
 30
0.0
 10
5.250204402882598
 20
7.168349056571084
 30
0.0
 10
5.248334361989511
 20
7.165420725408622
 30
0.0
 10
5.246464859392593
 20
7.162527921793351
 30
0.0
 10
5.247664183258396
 20
7.159070983792371
 30
0.0
 10
5.250556986873666
 20
7.157200942899284
 30
0.0
 10
5.253484779739959
 20
7.155331440302366
 30
0.0
 10
5.256624661297062
 20
7.156037146580673
 30
0.0
 10
5.25849470219015
 20
7.158929950195943
 30
0.0
  0
SPLINE
  5
D3
330
70
100
AcDbEntity
  8
Camada 1
 62
   250
420
  1907995
370
    15
100
AcDbSpline
210
0.0
220
0.0
230
1.0
 70
     9
 71
     3
 72
    17
 73
    13
 74
     0
 42
0.0000000001
 43
0.0000000001
 40
0.0
 40
0.0
 40
0.0
 40
0.0
 40
1.0
 40
1.0
 40
1.0
 40
2.0
 40
2.0
 40
2.0
 40
3.0
 40
3.0
 40
3.0
 40
4.0
 40
4.0
 40
4.0
 40
4.0
 10
5.368286665528045
 20
7.3301894148409
 30
0.0
 10
5.370156168124962
 20
7.333081680160002
 30
0.0
 10
5.369768056586702
 20
7.336750706851792
 30
0.0
 10
5.366875252971431
 20
7.338620747744879
 30
0.0
 10
5.363947460105139
 20
7.340454722794605
 30
0.0
 10
5.359996366220492
 20
7.339608521216041
 30
0.0
 10
5.358126325327406
 20
7.336680190053579
 30
0.0
 10
5.356256822730488
 20
7.333787386438308
 30
0.0
 10
5.35745614659629
 20
7.330330448437328
 30
0.0
 10
5.360348950211561
 20
7.32846040754424
 30
0.0
 10
5.363276743077854
 20
7.326590904947322
 30
0.0
 10
5.366416624634958
 20
7.327296611225629
 30
0.0
 10
5.368286665528045
 20
7.3301894148409
 30
0.0
  0
SPLINE
  5
D4
330
70
100
AcDbEntity
  8
Camada 1
 62
   250
420
  1907995
370
    15
100
AcDbSpline
210
0.0
220
0.0
230
1.0
 70
     9
 71
     3
 72
    17
 73
    13
 74
     0
 42
0.0000000001
 43
0.0000000001
 40
0.0
 40
0.0
 40
0.0
 40
0.0
 40
1.0
 40
1.0
 40
1.0
 40
2.0
 40
2.0
 40
2.0
 40
3.0
 40
3.0
 40
3.0
 40
4.0
 40
4.0
 40
4.0
 40
4.0
 10
5.49172013039519
 20
7.522732033438327
 30
0.0
 10
5.493589632992107
 20
7.525624298757428
 30
0.0
 10
5.493201521453848
 20
7.529293325449218
 30
0.0
 10
5.490308717838576
 20
7.531163366342306
 30
0.0
 10
5.487380924972284
 20
7.532997341392031
 30
0.0
 10
5.483429831087637
 20
7.532151139813468
 30
0.0
 10
5.481559790194551
 20
7.529222808651005
 30
0.0
 10
5.479690287597633
 20
7.526330005035734
 30
0.0
 10
5.480889611463435
 20
7.522873067034754
 30
0.0
 10
5.483782415078707
 20
7.521003026141666
 30
0.0
 10
5.486710207944999
 20
7.519133523544749
 30
0.0
 10
5.489850089502103
 20
7.519839229823055
 30
0.0
 10
5.49172013039519
 20
7.522732033438327
 30
0.0
  0
SPLINE
  5
D5
330
70
100
AcDbEntity
  8
Camada 1
 62
   250
420
  1907995
370
    15
100
AcDbSpline
210
0.0
220
0.0
230
1.0
 70
     9
 71
     3
 72
    17
 73
    13
 74
     0
 42
0.0000000001
 43
0.0000000001
 40
0.0
 40
0.0
 40
0.0
 40
0.0
 40
1.0
 40
1.0
 40
1.0
 40
2.0
 40
2.0
 40
2.0
 40
3.0
 40
3.0
 40
3.0
 40
4.0
 40
4.0
 40
4.0
 40
4.0
 10
5.518351256792341
 20
7.505661047012744
 30
0.0
 10
5.529533821418993
 20
7.523087847206412
 30
0.0
 10
5.524771515206805
 20
7.546582860119647
 30
0.0
 10
5.507344176716967
 20
7.557765963042469
 30
0.0
 10
5.489952365774321
 20
7.56891407671427
 30
0.0
 10
5.46613975812104
 20
7.56372813141663
 30
0.0
 10
5.454956655198217
 20
7.546300792926792
 30
0.0
 10
5.443809079822586
 20
7.528908981984145
 30
0.0
 10
5.449347609111295
 20
7.505555002667339
 30
0.0
 10
5.466739420053942
 20
7.494407427291707
 30
0.0
 10
5.484166758543779
 20
7.483224324368885
 30
0.0
 10
5.50720314312054
 20
7.488268697773928
 30
0.0
 10
5.518351256792341
 20
7.505661047012744
 30
0.0
  0
SPLINE
  5
D6
330
70
100
AcDbEntity
  8
Camada 1
 62
   250
420
  1907995
370
    15
100
AcDbSpline
210
0.0
220
0.0
230
1.0
 70
     9
 71
     3
 72
    17
 73
    13
 74
     0
 42
0.0000000001
 43
0.0000000001
 40
0.0
 40
0.0
 40
0.0
 40
0.0
 40
1.0
 40
1.0
 40
1.0
 40
2.0
 40
2.0
 40
2.0
 40
3.0
 40
3.0
 40
3.0
 40
4.0
 40
4.0
 40
4.0
 40
4.0
 10
5.394914023852009
 20
7.313118428415317
 30
0.0
 10
5.406096588478662
 20
7.330545228608986
 30
0.0
 10
5.401334282266473
 20
7.35404024152222
 30
0.0
 10
5.383906943776636
 20
7.365223344445043
 30
0.0
 10
5.366515132833989
 20
7.376371458116843
 30
0.0
 10
5.342702525180708
 20
7.371185512819203
 30
0.0
 10
5.331519422257885
 20
7.353758174329366
 30
0.0
 10
5.320371846882254
 20
7.336366363386719
 30
0.0
 10
5.325910376170963
 20
7.313012384069912
 30
0.0
 10
5.343302187113609
 20
7.301864808694281
 30
0.0
 10
5.360729525603447
 20
7.290681705771459
 30
0.0
 10
5.383765910180208
 20
7.295726079176501
 30
0.0
 10
5.394914023852009
 20
7.313118428415317
 30
0.0
  0
SPLINE
  5
D7
330
70
100
AcDbEntity
  8
Camada 1
 62
   250
420
  1907995
370
    15
100
AcDbSpline
210
0.0
220
0.0
230
1.0
 70
     9
 71
     3
 72
    17
 73
    13
 74
     0
 42
0.0000000001
 43
0.0000000001
 40
0.0
 40
0.0
 40
0.0
 40
0.0
 40
1.0
 40
1.0
 40
1.0
 40
2.0
 40
2.0
 40
2.0
 40
3.0
 40
3.0
 40
3.0
 40
4.0
 40
4.0
 40
4.0
 40
4.0
 10
5.281242021723851
 20
7.144346430369945
 30
0.0
 10
5.291190273233679
 20
7.159833211168482
 30
0.0
 10
5.287133135003628
 20
7.180188342524614
 30
0.0
 10
5.271646354205091
 20
7.19010160478342
 30
0.0
 10
5.256194562657576
 20
7.200014328746057
 30
0.0
 10
5.23555682581242
 20
7.195499100475701
 30
0.0
 10
5.225608574302592
 20
7.180011781380994
 30
0.0
 10
5.215695850339955
 20
7.164525000582457
 30
0.0
 10
5.220528673350357
 20
7.144381419620968
 30
0.0
 10
5.236015454148895
 20
7.134468157362161
 30
0.0
 10
5.251467245696409
 20
7.124555433399525
 30
0.0
 10
5.271328759465045
 20
7.128859111275239
 30
0.0
 10
5.281242021723851
 20
7.144346430369945
 30
0.0
  0
SPLINE
  5
D8
330
70
100
AcDbEntity
  8
Camada 1
 62
   250
420
  1907995
370
    15
100
AcDbSpline
210
0.0
220
0.0
230
1.0
 70
     9
 71
     3
 72
    17
 73
    13
 74
     0
 42
0.0000000001
 43
0.0000000001
 40
0.0
 40
0.0
 40
0.0
 40
0.0
 40
1.0
 40
1.0
 40
1.0
 40
2.0
 40
2.0
 40
2.0
 40
3.0
 40
3.0
 40
3.0
 40
4.0
 40
4.0
 40
4.0
 40
4.0
 10
5.28512636688347
 20
7.141858963770361
 30
0.0
 10
5.296308931510123
 20
7.15928576396403
 30
0.0
 10
5.291582152845126
 20
7.182816304424456
 30
0.0
 10
5.274154814355289
 20
7.193963879800087
 30
0.0
 10
5.256763003412642
 20
7.20514698272291
 30
0.0
 10
5.232914868212169
 20
7.199926048174247
 30
0.0
 10
5.221731765289347
 20
7.182498709684409
 30
0.0
 10
5.210584189913716
 20
7.165106898741763
 30
0.0
 10
5.216122719202425
 20
7.141752919424956
 30
0.0
 10
5.233514530145071
 20
7.130605344049325
 30
0.0
 10
5.250941868634909
 20
7.119422241126502
 30
0.0
 10
5.273978253211669
 20
7.124466614531545
 30
0.0
 10
5.28512636688347
 20
7.141858963770361
 30
0.0
  0
SPLINE
  5
D9
330
70
100
AcDbEntity
  8
Camada 1
 62
   250
420
  1907995
370
    15
100
AcDbSpline
210
0.0
220
0.0
230
1.0
 70
     9
 71
     3
 72
    17
 73
    13
 74
     0
 42
0.0000000001
 43
0.0000000001
 40
0.0
 40
0.0
 40
0.0
 40
0.0
 40
1.0
 40
1.0
 40
1.0
 40
2.0
 40
2.0
 40
2.0
 40
3.0
 40
3.0
 40
3.0
 40
4.0
 40
4.0
 40
4.0
 40
4.0
 10
5.495113549448161
 20
7.520555702024753
 30
0.0
 10
5.498217903458073
 20
7.525388525035156
 30
0.0
 10
5.497300646785125
 20
7.531456199458552
 30
0.0
 10
5.492467285478554
 20
7.534525564217442
 30
0.0
 10
5.487634462468151
 20
7.537629918227354
 30
0.0
 10
5.481284182555731
 20
7.536254033217932
 30
0.0
 10
5.478179828545819
 20
7.53142121020753
 30
0.0
 10
5.475075474535907
 20
7.526587848900958
 30
0.0
 10
5.476768954285375
 20
7.520696735621181
 30
0.0
 10
5.481601777295777
 20
7.517591843315099
 30
0.0
 10
5.486435138602349
 20
7.514523016852379
 30
0.0
 10
5.492008657142079
 20
7.515722340718182
 30
0.0
 10
5.495113549448161
 20
7.520555702024753
 30
0.0
  0
SPLINE
  5
DA
330
70
100
AcDbEntity
  8
Camada 1
 62
   250
420
  1907995
370
    15
100
AcDbSpline
210
0.0
220
0.0
230
1.0
 70
     9
 71
     3
 72
    17
 73
    13
 74
     0
 42
0.0000000001
 43
0.0000000001
 40
0.0
 40
0.0
 40
0.0
 40
0.0
 40
1.0
 40
1.0
 40
1.0
 40
2.0
 40
2.0
 40
2.0
 40
3.0
 40
3.0
 40
3.0
 40
4.0
 40
4.0
 40
4.0
 40
4.0
 10
5.371680084581016
 20
7.328013083427327
 30
0.0
 10
5.374784438590928
 20
7.33284590643773
 30
0.0
 10
5.373867181917979
 20
7.338913580861126
 30
0.0
 10
5.369033820611408
 20
7.341982945620015
 30
0.0
 10
5.364200997601006
 20
7.345087299629927
 30
0.0
 10
5.357850717688585
 20
7.343711414620505
 30
0.0
 10
5.354746363678674
 20
7.338878591610104
 30
0.0
 10
5.351642009668762
 20
7.334045230303532
 30
0.0
 10
5.35333548941823
 20
7.328154117023755
 30
0.0
 10
5.358168312428632
 20
7.325049224717673
 30
0.0
 10
5.363001673735204
 20
7.321980398254953
 30
0.0
 10
5.368575192274934
 20
7.323179722120756
 30
0.0
 10
5.371680084581016
 20
7.328013083427327
 30
0.0
  0
SPLINE
  5
DB
330
70
100
AcDbEntity
  8
Camada 1
 62
   250
420
  1907995
370
    15
100
AcDbSpline
210
0.0
220
0.0
230
1.0
 70
     9
 71
     3
 72
    17
 73
    13
 74
     0
 42
0.0000000001
 43
0.0000000001
 40
0.0
 40
0.0
 40
0.0
 40
0.0
 40
1.0
 40
1.0
 40
1.0
 40
2.0
 40
2.0
 40
2.0
 40
3.0
 40
3.0
 40
3.0
 40
4.0
 40
4.0
 40
4.0
 40
4.0
 10
5.26188865953929
 20
7.156756848559388
 30
0.0
 10
5.264993013549203
 20
7.161624660820812
 30
0.0
 10
5.264075756876255
 20
7.167657345993187
 30
0.0
 10
5.259242395569683
 20
7.170726710752076
 30
0.0
 10
5.254409572559281
 20
7.173831064761988
 30
0.0
 10
5.24805929264686
 20
7.172490707299759
 30
0.0
 10
5.244954938636948
 20
7.167622356742165
 30
0.0
 10
5.241850584627036
 20
7.162788995435593
 30
0.0
 10
5.243579053627526
 20
7.156932871406838
 30
0.0
 10
5.248412414934098
 20
7.153828517396926
 30
0.0
 10
5.253245237944501
 20
7.150724163387014
 30
0.0
 10
5.258783767233209
 20
7.151923487252816
 30
0.0
 10
5.26188865953929
 20
7.156756848559388
 30
0.0
  0
SPLINE
  5
DC
330
70
100
AcDbEntity
  8
Camada 1
 62
   250
420
  1907995
370
    15
100
AcDbSpline
210
0.0
220
0.0
230
1.0
 70
     9
 71
     3
 72
    17
 73
    13
 74
     0
 42
0.0000000001
 43
0.0000000001
 40
0.0
 40
0.0
 40
0.0
 40
0.0
 40
1.0
 40
1.0
 40
1.0
 40
2.0
 40
2.0
 40
2.0
 40
3.0
 40
3.0
 40
3.0
 40
4.0
 40
4.0
 40
4.0
 40
4.0
 10
5.514466911632721
 20
7.508148513612328
 30
0.0
 10
5.52441516314255
 20
7.523635294410865
 30
0.0
 10
5.520358024912499
 20
7.543990425766996
 30
0.0
 10
5.504871244113961
 20
7.553903688025803
 30
0.0
 10
5.489419452566447
 20
7.563816411988439
 30
0.0
 10
5.468781715721291
 20
7.559301183718083
 30
0.0
 10
5.458833464211463
 20
7.543813864623377
 30
0.0
 10
5.448920740248826
 20
7.52832708382484
 30
0.0
 10
5.453718574008206
 20
7.50818350286335
 30
0.0
 10
5.469205354806743
 20
7.498235251353522
 30
0.0
 10
5.48469213560528
 20
7.488321989094715
 30
0.0
 10
5.504553649373915
 20
7.492661194517621
 30
0.0
 10
5.514466911632721
 20
7.508148513612328
 30
0.0
  0
SPLINE
  5
DD
330
70
100
AcDbEntity
  8
Camada 1
 62
   250
420
  1907995
370
    15
100
AcDbSpline
210
0.0
220
0.0
230
1.0
 70
     9
 71
     3
 72
    17
 73
    13
 74
     0
 42
0.0000000001
 43
0.0000000001
 40
0.0
 40
0.0
 40
0.0
 40
0.0
 40
1.0
 40
1.0
 40
1.0
 40
2.0
 40
2.0
 40
2.0
 40
3.0
 40
3.0
 40
3.0
 40
4.0
 40
4.0
 40
4.0
 40
4.0
 10
5.391033446765576
 20
7.315605895014901
 30
0.0
 10
5.400981698275405
 20
7.331092675813439
 30
0.0
 10
5.396924560045354
 20
7.35144780716957
 30
0.0
 10
5.381437779246816
 20
7.361361069428376
 30
0.0
 10
5.365985987699302
 20
7.371273793391013
 30
0.0
 10
5.345348250854146
 20
7.366758565120657
 30
0.0
 10
5.335399999344318
 20
7.351271246025951
 30
0.0
 10
5.32548727538168
 20
7.335784465227414
 30
0.0
 10
5.330285109141061
 20
7.315640884265924
 30
0.0
 10
5.345771889939598
 20
7.305692632756096
 30
0.0
 10
5.361258670738135
 20
7.295779370497289
 30
0.0
 10
5.381120184506769
 20
7.300118575920195
 30
0.0
 10
5.391033446765576
 20
7.315605895014901
 30
0.0
  0
SPLINE
  5
DE
330
70
100
AcDbEntity
  8
Camada 1
 62
   250
420
  1907995
370
    15
100
AcDbSpline
210
0.0
220
0.0
230
1.0
 70
     9
 71
     3
 72
    17
 73
    13
 74
     0
 42
0.0000000001
 43
0.0000000001
 40
0.0
 40
0.0
 40
0.0
 40
0.0
 40
1.0
 40
1.0
 40
1.0
 40
2.0
 40
2.0
 40
2.0
 40
3.0
 40
3.0
 40
3.0
 40
4.0
 40
4.0
 40
4.0
 40
4.0
 10
4.479505321654374
 20
5.9554143721209
 30
0.0
 10
4.481374824251291
 20
5.958306637440001
 30
0.0
 10
4.480986981861116
 20
5.961975664131792
 30
0.0
 10
4.478094178245846
 20
5.96384570502488
 30
0.0
 10
4.475166116231468
 20
5.965679680074606
 30
0.0
 10
4.471215022346822
 20
5.964833478496041
 30
0.0
 10
4.469345250601819
 20
5.961905147333578
 30
0.0
 10
4.467475478856817
 20
5.959012343718308
 30
0.0
 10
4.46867480272262
 20
5.955555405717328
 30
0.0
 10
4.471567606337891
 20
5.953685364824241
 30
0.0
 10
4.474495668352268
 20
5.951815862227323
 30
0.0
 10
4.477635549909372
 20
5.95252156850563
 30
0.0
 10
4.479505321654374
 20
5.9554143721209
 30
0.0
  0
SPLINE
  5
DF
330
70
100
AcDbEntity
  8
Camada 1
 62
   250
420
  1907995
370
    15
100
AcDbSpline
210
0.0
220
0.0
230
1.0
 70
     9
 71
     3
 72
    17
 73
    13
 74
     0
 42
0.0000000001
 43
0.0000000001
 40
0.0
 40
0.0
 40
0.0
 40
0.0
 40
1.0
 40
1.0
 40
1.0
 40
2.0
 40
2.0
 40
2.0
 40
3.0
 40
3.0
 40
3.0
 40
4.0
 40
4.0
 40
4.0
 40
4.0
 10
4.589296746696099
 20
6.126673836765856
 30
0.0
 10
4.591166249293017
 20
6.129566102084957
 30
0.0
 10
4.590778137754757
 20
6.133235128776749
 30
0.0
 10
4.587885334139486
 20
6.135105169669836
 30
0.0
 10
4.584957541273193
 20
6.136939144719562
 30
0.0
 10
4.581006447388547
 20
6.136092943140997
 30
0.0
 10
4.57913640649546
 20
6.133164611978535
 30
0.0
 10
4.577266903898543
 20
6.130271808363264
 30
0.0
 10
4.578466227764345
 20
6.126814870362284
 30
0.0
 10
4.581359031379616
 20
6.124944829469197
 30
0.0
 10
4.584286824245909
 20
6.123075326872279
 30
0.0
 10
4.587426705803013
 20
6.123781033150586
 30
0.0
 10
4.589296746696099
 20
6.126673836765856
 30
0.0
  0
SPLINE
  5
E0
330
70
100
AcDbEntity
  8
Camada 1
 62
   250
420
  1907995
370
    15
100
AcDbSpline
210
0.0
220
0.0
230
1.0
 70
     9
 71
     3
 72
    17
 73
    13
 74
     0
 42
0.0000000001
 43
0.0000000001
 40
0.0
 40
0.0
 40
0.0
 40
0.0
 40
1.0
 40
1.0
 40
1.0
 40
2.0
 40
2.0
 40
2.0
 40
3.0
 40
3.0
 40
3.0
 40
4.0
 40
4.0
 40
4.0
 40
4.0
 10
4.712730211563244
 20
6.319216455363283
 30
0.0
 10
4.714599714160162
 20
6.322108720682384
 30
0.0
 10
4.714211602621902
 20
6.325777747374175
 30
0.0
 10
4.711318799006631
 20
6.327647788267262
 30
0.0
 10
4.708391006140338
 20
6.329481763316988
 30
0.0
 10
4.704439912255693
 20
6.328635561738424
 30
0.0
 10
4.702569871362605
 20
6.325707230575962
 30
0.0
 10
4.700700368765688
 20
6.32281442696069
 30
0.0
 10
4.70189969263149
 20
6.319357488959711
 30
0.0
 10
4.704792496246761
 20
6.317487448066623
 30
0.0
 10
4.707720289113054
 20
6.315617945469706
 30
0.0
 10
4.710860170670158
 20
6.316323651748012
 30
0.0
 10
4.712730211563244
 20
6.319216455363283
 30
0.0
  0
SPLINE
  5
E1
330
70
100
AcDbEntity
  8
Camada 1
 62
   250
420
  1907995
370
    15
100
AcDbSpline
210
0.0
220
0.0
230
1.0
 70
     9
 71
     3
 72
    17
 73
    13
 74
     0
 42
0.0000000001
 43
0.0000000001
 40
0.0
 40
0.0
 40
0.0
 40
0.0
 40
1.0
 40
1.0
 40
1.0
 40
2.0
 40
2.0
 40
2.0
 40
3.0
 40
3.0
 40
3.0
 40
4.0
 40
4.0
 40
4.0
 40
4.0
 10
4.739361337960396
 20
6.302145468937701
 30
0.0
 10
4.750543902587049
 20
6.319572269131369
 30
0.0
 10
4.74578159637486
 20
6.343067282044604
 30
0.0
 10
4.728354257885023
 20
6.354250384967426
 30
0.0
 10
4.710962446942375
 20
6.365398498639227
 30
0.0
 10
4.687149839289095
 20
6.360212553341587
 30
0.0
 10
4.675966736366272
 20
6.342785214851748
 30
0.0
 10
4.664819160990641
 20
6.325393403909102
 30
0.0
 10
4.67035769027935
 20
6.302039424592295
 30
0.0
 10
4.687749501221996
 20
6.290891849216664
 30
0.0
 10
4.705176839711834
 20
6.279708746293842
 30
0.0
 10
4.728213224288595
 20
6.284753119698884
 30
0.0
 10
4.739361337960396
 20
6.302145468937701
 30
0.0
  0
SPLINE
  5
E2
330
70
100
AcDbEntity
  8
Camada 1
 62
   250
420
  1907995
370
    15
100
AcDbSpline
210
0.0
220
0.0
230
1.0
 70
     9
 71
     3
 72
    17
 73
    13
 74
     0
 42
0.0000000001
 43
0.0000000001
 40
0.0
 40
0.0
 40
0.0
 40
0.0
 40
1.0
 40
1.0
 40
1.0
 40
2.0
 40
2.0
 40
2.0
 40
3.0
 40
3.0
 40
3.0
 40
4.0
 40
4.0
 40
4.0
 40
4.0
 10
4.615927873093251
 20
6.109602850340274
 30
0.0
 10
4.627110437719903
 20
6.127029650533943
 30
0.0
 10
4.622348131507715
 20
6.150524663447177
 30
0.0
 10
4.604920793017877
 20
6.16170776637
 30
0.0
 10
4.58752898207523
 20
6.1728558800418
 30
0.0
 10
4.56371637442195
 20
6.16766993474416
 30
0.0
 10
4.552533271499127
 20
6.150242596254322
 30
0.0
 10
4.541385696123496
 20
6.132850785311676
 30
0.0
 10
4.546924225412205
 20
6.109496805994869
 30
0.0
 10
4.564316036354851
 20
6.098349230619238
 30
0.0
 10
4.581743374844689
 20
6.087166127696415
 30
0.0
 10
4.604779759421449
 20
6.092210501101458
 30
0.0
 10
4.615927873093251
 20
6.109602850340274
 30
0.0
  0
SPLINE
  5
E3
330
70
100
AcDbEntity
  8
Camada 1
 62
   250
420
  1907995
370
    15
100
AcDbSpline
210
0.0
220
0.0
230
1.0
 70
     9
 71
     3
 72
    17
 73
    13
 74
     0
 42
0.0000000001
 43
0.0000000001
 40
0.0
 40
0.0
 40
0.0
 40
0.0
 40
1.0
 40
1.0
 40
1.0
 40
2.0
 40
2.0
 40
2.0
 40
3.0
 40
3.0
 40
3.0
 40
4.0
 40
4.0
 40
4.0
 40
4.0
 10
4.502252372039991
 20
5.940830852294902
 30
0.0
 10
4.512200623549819
 20
5.956317633093439
 30
0.0
 10
4.508143754467853
 20
5.97667276444957
 30
0.0
 10
4.49265670452123
 20
5.986586026708376
 30
0.0
 10
4.477204912973715
 20
5.996498750671014
 30
0.0
 10
4.456567445276645
 20
5.991983522400658
 30
0.0
 10
4.446619193766816
 20
5.976496203305951
 30
0.0
 10
4.436706200656095
 20
5.961009422507414
 30
0.0
 10
4.441539292814582
 20
5.940865841545925
 30
0.0
 10
4.457026073613119
 20
5.930952579287118
 30
0.0
 10
4.472477865160634
 20
5.92103985532448
 30
0.0
 10
4.492339109781184
 20
5.925343533200195
 30
0.0
 10
4.502252372039991
 20
5.940830852294902
 30
0.0
  0
SPLINE
  5
E4
330
70
100
AcDbEntity
  8
Camada 1
 62
   250
420
  1907995
370
    15
100
AcDbSpline
210
0.0
220
0.0
230
1.0
 70
     9
 71
     3
 72
    17
 73
    13
 74
     0
 42
0.0000000001
 43
0.0000000001
 40
0.0
 40
0.0
 40
0.0
 40
0.0
 40
1.0
 40
1.0
 40
1.0
 40
2.0
 40
2.0
 40
2.0
 40
3.0
 40
3.0
 40
3.0
 40
4.0
 40
4.0
 40
4.0
 40
4.0
 10
4.506136448051525
 20
5.938343385695318
 30
0.0
 10
4.517319012678179
 20
5.955770185888987
 30
0.0
 10
4.512592234013181
 20
5.979300726349412
 30
0.0
 10
4.495164895523344
 20
5.990448301725043
 30
0.0
 10
4.477773084580697
 20
6.001631404647866
 30
0.0
 10
4.45392521852831
 20
5.996410470099204
 30
0.0
 10
4.442742115605486
 20
5.978983131609366
 30
0.0
 10
4.43159427108177
 20
5.96159132066672
 30
0.0
 10
4.437133069518564
 20
5.938237341349912
 30
0.0
 10
4.45452488046121
 20
5.927089765974281
 30
0.0
 10
4.471952218951049
 20
5.915906663051458
 30
0.0
 10
4.494988603527809
 20
5.920951036456502
 30
0.0
 10
4.506136448051525
 20
5.938343385695318
 30
0.0
  0
SPLINE
  5
E5
330
70
100
AcDbEntity
  8
Camada 1
 62
   250
420
  1907995
370
    15
100
AcDbSpline
210
0.0
220
0.0
230
1.0
 70
     9
 71
     3
 72
    17
 73
    13
 74
     0
 42
0.0000000001
 43
0.0000000001
 40
0.0
 40
0.0
 40
0.0
 40
0.0
 40
1.0
 40
1.0
 40
1.0
 40
2.0
 40
2.0
 40
2.0
 40
3.0
 40
3.0
 40
3.0
 40
4.0
 40
4.0
 40
4.0
 40
4.0
 10
4.716123630616215
 20
6.31704012394971
 30
0.0
 10
4.719227984626128
 20
6.321872946960112
 30
0.0
 10
4.71831072795318
 20
6.327940621383508
 30
0.0
 10
4.713477366646608
 20
6.331009986142398
 30
0.0
 10
4.708644543636206
 20
6.334114340152311
 30
0.0
 10
4.702294263723786
 20
6.332738455142889
 30
0.0
 10
4.699189909713873
 20
6.327905632132487
 30
0.0
 10
4.696085555703962
 20
6.323072270825915
 30
0.0
 10
4.69777903545343
 20
6.317181157546138
 30
0.0
 10
4.702611858463832
 20
6.314076265240056
 30
0.0
 10
4.707445219770404
 20
6.311007438777336
 30
0.0
 10
4.713018738310134
 20
6.312206762643139
 30
0.0
 10
4.716123630616215
 20
6.31704012394971
 30
0.0
  0
SPLINE
  5
E6
330
70
100
AcDbEntity
  8
Camada 1
 62
   250
420
  1907995
370
    15
100
AcDbSpline
210
0.0
220
0.0
230
1.0
 70
     9
 71
     3
 72
    17
 73
    13
 74
     0
 42
0.0000000001
 43
0.0000000001
 40
0.0
 40
0.0
 40
0.0
 40
0.0
 40
1.0
 40
1.0
 40
1.0
 40
2.0
 40
2.0
 40
2.0
 40
3.0
 40
3.0
 40
3.0
 40
4.0
 40
4.0
 40
4.0
 40
4.0
 10
4.59269016574907
 20
6.124497505352284
 30
0.0
 10
4.595794519758983
 20
6.129330328362686
 30
0.0
 10
4.594877263086035
 20
6.135398002786082
 30
0.0
 10
4.590043901779463
 20
6.138467367544972
 30
0.0
 10
4.585211078769061
 20
6.141571721554884
 30
0.0
 10
4.57886079885664
 20
6.140195836545462
 30
0.0
 10
4.575756444846729
 20
6.13536301353506
 30
0.0
 10
4.572652090836816
 20
6.130529652228489
 30
0.0
 10
4.574345570586284
 20
6.124638538948711
 30
0.0
 10
4.579178393596687
 20
6.12153364664263
 30
0.0
 10
4.584011754903259
 20
6.11846482017991
 30
0.0
 10
4.589585273442989
 20
6.119664144045712
 30
0.0
 10
4.59269016574907
 20
6.124497505352284
 30
0.0
  0
SPLINE
  5
E7
330
70
100
AcDbEntity
  8
Camada 1
 62
   250
420
  1907995
370
    15
100
AcDbSpline
210
0.0
220
0.0
230
1.0
 70
     9
 71
     3
 72
    17
 73
    13
 74
     0
 42
0.0000000001
 43
0.0000000001
 40
0.0
 40
0.0
 40
0.0
 40
0.0
 40
1.0
 40
1.0
 40
1.0
 40
2.0
 40
2.0
 40
2.0
 40
3.0
 40
3.0
 40
3.0
 40
4.0
 40
4.0
 40
4.0
 40
4.0
 10
4.48289900985543
 20
5.953241270484345
 30
0.0
 10
4.486003363865342
 20
5.958109082745769
 30
0.0
 10
4.485086107192394
 20
5.964141767918143
 30
0.0
 10
4.480253015033907
 20
5.967211132677033
 30
0.0
 10
4.475419922875421
 20
5.970315486686945
 30
0.0
 10
4.469069912111084
 20
5.968975129224715
 30
0.0
 10
4.465965558101173
 20
5.964106778667122
 30
0.0
 10
4.462861204091261
 20
5.95927341736055
 30
0.0
 10
4.464589673091751
 20
5.953417293331795
 30
0.0
 10
4.469422765250238
 20
5.950312939321882
 30
0.0
 10
4.474255857408724
 20
5.947208585311971
 30
0.0
 10
4.479794386697434
 20
5.948407909177773
 30
0.0
 10
4.48289900985543
 20
5.953241270484345
 30
0.0
  0
SPLINE
  5
E8
330
70
100
AcDbEntity
  8
Camada 1
 62
   250
420
  1907995
370
    15
100
AcDbSpline
210
0.0
220
0.0
230
1.0
 70
     9
 71
     3
 72
    17
 73
    13
 74
     0
 42
0.0000000001
 43
0.0000000001
 40
0.0
 40
0.0
 40
0.0
 40
0.0
 40
1.0
 40
1.0
 40
1.0
 40
2.0
 40
2.0
 40
2.0
 40
3.0
 40
3.0
 40
3.0
 40
4.0
 40
4.0
 40
4.0
 40
4.0
 10
4.735480760873963
 20
6.304632935537285
 30
0.0
 10
4.745429012383792
 20
6.320119716335822
 30
0.0
 10
4.74137187415374
 20
6.340474847691953
 30
0.0
 10
4.725885093355203
 20
6.350388109950759
 30
0.0
 10
4.710433301807688
 20
6.360300833913396
 30
0.0
 10
4.689795564962533
 20
6.35578560564304
 30
0.0
 10
4.679847313452705
 20
6.340298286548334
 30
0.0
 10
4.669934589490067
 20
6.324811505749797
 30
0.0
 10
4.674732423249448
 20
6.304667924788307
 30
0.0
 10
4.690219204047985
 20
6.294719673278478
 30
0.0
 10
4.705705984846522
 20
6.284806411019672
 30
0.0
 10
4.725567498615157
 20
6.289145616442578
 30
0.0
 10
4.735480760873963
 20
6.304632935537285
 30
0.0
  0
SPLINE
  5
E9
330
70
100
AcDbEntity
  8
Camada 1
 62
   250
420
  1907995
370
    15
100
AcDbSpline
210
0.0
220
0.0
230
1.0
 70
     9
 71
     3
 72
    17
 73
    13
 74
     0
 42
0.0000000001
 43
0.0000000001
 40
0.0
 40
0.0
 40
0.0
 40
0.0
 40
1.0
 40
1.0
 40
1.0
 40
2.0
 40
2.0
 40
2.0
 40
3.0
 40
3.0
 40
3.0
 40
4.0
 40
4.0
 40
4.0
 40
4.0
 10
4.612044066229801
 20
6.112090316939858
 30
0.0
 10
4.621992317739629
 20
6.127577097738395
 30
0.0
 10
4.617935179509577
 20
6.147932229094527
 30
0.0
 10
4.60244839871104
 20
6.157845491353333
 30
0.0
 10
4.586996607163525
 20
6.16775821531597
 30
0.0
 10
4.566358870318371
 20
6.163242987045614
 30
0.0
 10
4.556410618808542
 20
6.147755667950907
 30
0.0
 10
4.546497894845905
 20
6.13226888715237
 30
0.0
 10
4.551295728605285
 20
6.112125306190881
 30
0.0
 10
4.566782509403823
 20
6.102177054681052
 30
0.0
 10
4.58226929020236
 20
6.092263792422246
 30
0.0
 10
4.602130803970994
 20
6.096602997845152
 30
0.0
 10
4.612044066229801
 20
6.112090316939858
 30
0.0
  0
SPLINE
  5
EA
330
70
100
AcDbEntity
  8
Camada 1
 62
   250
420
  1907995
370
    15
100
AcDbSpline
210
0.0
220
0.0
230
1.0
 70
     9
 71
     3
 72
    17
 73
    13
 74
     0
 42
0.0000000001
 43
0.0000000001
 40
0.0
 40
0.0
 40
0.0
 40
0.0
 40
1.0
 40
1.0
 40
1.0
 40
2.0
 40
2.0
 40
2.0
 40
3.0
 40
3.0
 40
3.0
 40
4.0
 40
4.0
 40
4.0
 40
4.0
 10
5.41882567800049
 20
6.979923327078531
 30
0.0
 10
5.421859515212188
 20
6.981581279280808
 30
0.0
 10
5.42323540022161
 20
6.985003228030766
 30
0.0
 10
5.421576909723164
 20
6.988001537695273
 30
0.0
 10
5.419883968269865
 20
6.991035374906971
 30
0.0
 10
5.416003391183433
 20
6.992129192723538
 30
0.0
 10
5.412969553971735
 20
6.990471240521261
 30
0.0
 10
5.409970706011059
 20
6.988777760771793
 30
0.0
 10
5.409335516530966
 20
6.985179250878216
 30
0.0
 10
5.411028996280434
 20
6.982145413666517
 30
0.0
 10
5.41268694848271
 20
6.979147104002011
 30
0.0
 10
5.415791302492622
 20
6.978264836580086
 30
0.0
 10
5.41882567800049
 20
6.979923327078531
 30
0.0
  0
SPLINE
  5
EB
330
70
100
AcDbEntity
  8
Camada 1
 62
   250
420
  1907995
370
    15
100
AcDbSpline
210
0.0
220
0.0
230
1.0
 70
     9
 71
     3
 72
    17
 73
    13
 74
     0
 42
0.0000000001
 43
0.0000000001
 40
0.0
 40
0.0
 40
0.0
 40
0.0
 40
1.0
 40
1.0
 40
1.0
 40
2.0
 40
2.0
 40
2.0
 40
3.0
 40
3.0
 40
3.0
 40
4.0
 40
4.0
 40
4.0
 40
4.0
 10
5.596692189830752
 20
7.078651689243248
 30
0.0
 10
5.59972602704245
 20
7.080309641445525
 30
0.0
 10
5.601101912051872
 20
7.083731590195483
 30
0.0
 10
5.599443421553426
 20
7.08672989985999
 30
0.0
 10
5.597750480100128
 20
7.089763737071688
 30
0.0
 10
5.593869903013695
 20
7.090857554888255
 30
0.0
 10
5.590836065801997
 20
7.089199602685978
 30
0.0
 10
5.587837217841321
 20
7.08750612293651
 30
0.0
 10
5.587202028361228
 20
7.083907613042932
 30
0.0
 10
5.588895508110696
 20
7.080873775831235
 30
0.0
 10
5.590553460312973
 20
7.077875466166728
 30
0.0
 10
5.593657814322885
 20
7.076993198744802
 30
0.0
 10
5.596692189830752
 20
7.078651689243248
 30
0.0
  0
SPLINE
  5
EC
330
70
100
AcDbEntity
  8
Camada 1
 62
   250
420
  1907995
370
    15
100
AcDbSpline
210
0.0
220
0.0
230
1.0
 70
     9
 71
     3
 72
    17
 73
    13
 74
     0
 42
0.0000000001
 43
0.0000000001
 40
0.0
 40
0.0
 40
0.0
 40
0.0
 40
1.0
 40
1.0
 40
1.0
 40
2.0
 40
2.0
 40
2.0
 40
3.0
 40
3.0
 40
3.0
 40
4.0
 40
4.0
 40
4.0
 40
4.0
 10
5.79666114238357
 20
7.189646206223963
 30
0.0
 10
5.799694979595268
 20
7.19130415842624
 30
0.0
 10
5.80107086460469
 20
7.194726107176198
 30
0.0
 10
5.799412374106244
 20
7.197724416840705
 30
0.0
 10
5.797719432652946
 20
7.200758254052403
 30
0.0
 10
5.793838855566513
 20
7.20185207186897
 30
0.0
 10
5.790805018354816
 20
7.200194119666693
 30
0.0
 10
5.787806170394139
 20
7.198500639917225
 30
0.0
 10
5.787170980914046
 20
7.194902130023647
 30
0.0
 10
5.788864460663514
 20
7.19186829281195
 30
0.0
 10
5.790522412865791
 20
7.188869983147443
 30
0.0
 10
5.793626766875703
 20
7.187987715725517
 30
0.0
 10
5.79666114238357
 20
7.189646206223963
 30
0.0
  0
SPLINE
  5
ED
330
70
100
AcDbEntity
  8
Camada 1
 62
   250
420
  1907995
370
    15
100
AcDbSpline
210
0.0
220
0.0
230
1.0
 70
     9
 71
     3
 72
    17
 73
    13
 74
     0
 42
0.0000000001
 43
0.0000000001
 40
0.0
 40
0.0
 40
0.0
 40
0.0
 40
1.0
 40
1.0
 40
1.0
 40
2.0
 40
2.0
 40
2.0
 40
3.0
 40
3.0
 40
3.0
 40
4.0
 40
4.0
 40
4.0
 40
4.0
 10
5.812013887435885
 20
7.161988549031442
 30
0.0
 10
5.830110866360668
 20
7.172042306590507
 30
0.0
 10
5.83706080820599
 20
7.194973185118031
 30
0.0
 10
5.827042039897948
 20
7.213070702338984
 30
0.0
 10
5.816987744042714
 20
7.231132692012745
 30
0.0
 10
5.793563247927694
 20
7.237870545167257
 30
0.0
 10
5.77546573070674
 20
7.227816787608192
 30
0.0
 10
5.757403741032979
 20
7.21779748100398
 30
0.0
 10
5.751194494716986
 20
7.194620062830793
 30
0.0
 10
5.761213801321197
 20
7.176558073157031
 30
0.0
 10
5.771267558880261
 20
7.158460555936079
 30
0.0
 10
5.793951359465953
 20
7.15196924242723
 30
0.0
 10
5.812013887435885
 20
7.161988549031442
 30
0.0
  0
SPLINE
  5
EE
330
70
100
AcDbEntity
  8
Camada 1
 62
   250
420
  1907995
370
    15
100
AcDbSpline
210
0.0
220
0.0
230
1.0
 70
     9
 71
     3
 72
    17
 73
    13
 74
     0
 42
0.0000000001
 43
0.0000000001
 40
0.0
 40
0.0
 40
0.0
 40
0.0
 40
1.0
 40
1.0
 40
1.0
 40
2.0
 40
2.0
 40
2.0
 40
3.0
 40
3.0
 40
3.0
 40
4.0
 40
4.0
 40
4.0
 40
4.0
 10
5.612041705106049
 20
7.050994032050727
 30
0.0
 10
5.630138684030833
 20
7.061047789609792
 30
0.0
 10
5.637088625876154
 20
7.083978668137316
 30
0.0
 10
5.627069857568113
 20
7.102076185358269
 30
0.0
 10
5.617015561712879
 20
7.12013817503203
 30
0.0
 10
5.593591065597858
 20
7.126876028186542
 30
0.0
 10
5.575493548376905
 20
7.116822270627477
 30
0.0
 10
5.557431558703143
 20
7.106802964023266
 30
0.0
 10
5.55122231238715
 20
7.083625545850078
 30
0.0
 10
5.561241618991362
 20
7.065563556176316
 30
0.0
 10
5.571295376550426
 20
7.047466038955364
 30
0.0
 10
5.593979177136118
 20
7.040974725446515
 30
0.0
 10
5.612041705106049
 20
7.050994032050727
 30
0.0
  0
SPLINE
  5
EF
330
70
100
AcDbEntity
  8
Camada 1
 62
   250
420
  1907995
370
    15
100
AcDbSpline
210
0.0
220
0.0
230
1.0
 70
     9
 71
     3
 72
    17
 73
    13
 74
     0
 42
0.0000000001
 43
0.0000000001
 40
0.0
 40
0.0
 40
0.0
 40
0.0
 40
1.0
 40
1.0
 40
1.0
 40
2.0
 40
2.0
 40
2.0
 40
3.0
 40
3.0
 40
3.0
 40
4.0
 40
4.0
 40
4.0
 40
4.0
 10
5.431938034395053
 20
6.956298046492261
 30
0.0
 10
5.448024477126491
 20
6.965222996983737
 30
0.0
 10
5.454092151549888
 20
6.98504898320518
 30
0.0
 10
5.445202190309434
 20
7.001135964232788
 30
0.0
 10
5.436276701521789
 20
7.017187417713205
 30
0.0
 10
5.41595709771285
 20
7.023008014194767
 30
0.0
 10
5.399870116685242
 20
7.014047536156101
 30
0.0
 10
5.383818663204825
 20
7.005157574915648
 30
0.0
 10
5.378491684310758
 20
6.985119500003394
 30
0.0
 10
5.387417173098403
 20
6.969068584819146
 30
0.0
 10
5.396342661886048
 20
6.952981603791538
 30
0.0
 10
5.415851053367445
 20
6.947372557704617
 30
0.0
 10
5.431938034395053
 20
6.956298046492261
 30
0.0
  0
SPLINE
  5
F0
330
70
100
AcDbEntity
  8
Camada 1
 62
   250
420
  1907995
370
    15
100
AcDbSpline
210
0.0
220
0.0
230
1.0
 70
     9
 71
     3
 72
    17
 73
    13
 74
     0
 42
0.0000000001
 43
0.0000000001
 40
0.0
 40
0.0
 40
0.0
 40
0.0
 40
1.0
 40
1.0
 40
1.0
 40
2.0
 40
2.0
 40
2.0
 40
3.0
 40
3.0
 40
3.0
 40
4.0
 40
4.0
 40
4.0
 40
4.0
 10
5.434174654979617
 20
6.952269437959198
 30
0.0
 10
5.452271633904401
 20
6.962323195518261
 30
0.0
 10
5.459257103296915
 20
6.985254074045786
 30
0.0
 10
5.449237796692703
 20
7.003351591266739
 30
0.0
 10
5.439184039133638
 20
7.021449108487693
 30
0.0
 10
5.415724015471426
 20
7.028151434095012
 30
0.0
 10
5.397626498250473
 20
7.018097676535948
 30
0.0
 10
5.379564508576712
 20
7.008078369931736
 30
0.0
 10
5.373355262260719
 20
6.984900951758548
 30
0.0
 10
5.383374568864931
 20
6.966838962084787
 30
0.0
 10
5.393428326423994
 20
6.948705917316642
 30
0.0
 10
5.416112127009687
 20
6.942250131354986
 30
0.0
 10
5.434174654979617
 20
6.952269437959198
 30
0.0
  0
SPLINE
  5
F1
330
70
100
AcDbEntity
  8
Camada 1
 62
   250
420
  1907995
370
    15
100
AcDbSpline
210
0.0
220
0.0
230
1.0
 70
     9
 71
     3
 72
    17
 73
    13
 74
     0
 42
0.0000000001
 43
0.0000000001
 40
0.0
 40
0.0
 40
0.0
 40
0.0
 40
1.0
 40
1.0
 40
1.0
 40
2.0
 40
2.0
 40
2.0
 40
3.0
 40
3.0
 40
3.0
 40
4.0
 40
4.0
 40
4.0
 40
4.0
 10
5.798618925552298
 20
7.186121981201787
 30
0.0
 10
5.803628309706319
 20
7.188908740471652
 30
0.0
 10
5.805709362697878
 20
7.194658820155002
 30
0.0
 10
5.802922603428012
 20
7.199703731856215
 30
0.0
 10
5.800135844158146
 20
7.204713116010236
 30
0.0
 10
5.79385608104394
 20
7.206512101808939
 30
0.0
 10
5.788846696889918
 20
7.203725342539074
 30
0.0
 10
5.783837312735897
 20
7.200938583269209
 30
0.0
 10
5.78253194452469
 20
7.194941425644026
 30
0.0
 10
5.785318703794555
 20
7.189931503193836
 30
0.0
 10
5.788106001360589
 20
7.184887129788792
 30
0.0
 10
5.793609003102107
 20
7.183334683635751
 30
0.0
 10
5.798618925552298
 20
7.186121981201787
 30
0.0
  0
SPLINE
  5
F2
330
70
100
AcDbEntity
  8
Camada 1
 62
   250
420
  1907995
370
    15
100
AcDbSpline
210
0.0
220
0.0
230
1.0
 70
     9
 71
     3
 72
    17
 73
    13
 74
     0
 42
0.0000000001
 43
0.0000000001
 40
0.0
 40
0.0
 40
0.0
 40
0.0
 40
1.0
 40
1.0
 40
1.0
 40
2.0
 40
2.0
 40
2.0
 40
3.0
 40
3.0
 40
3.0
 40
4.0
 40
4.0
 40
4.0
 40
4.0
 10
5.598646743222462
 20
7.075127464221072
 30
0.0
 10
5.603656127376483
 20
7.077914223490937
 30
0.0
 10
5.605737180368042
 20
7.083664303174287
 30
0.0
 10
5.602950421098176
 20
7.0887092148755
 30
0.0
 10
5.600163661828311
 20
7.093718599029521
 30
0.0
 10
5.593883898714104
 20
7.095517584828225
 30
0.0
 10
5.588874514560083
 20
7.092730825558359
 30
0.0
 10
5.583865130406062
 20
7.089944066288494
 30
0.0
 10
5.582559762194854
 20
7.083946908663311
 30
0.0
 10
5.585346521464719
 20
7.078936986213121
 30
0.0
 10
5.588133819030754
 20
7.073892612808077
 30
0.0
 10
5.593636820772271
 20
7.072340166655036
 30
0.0
 10
5.598646743222462
 20
7.075127464221072
 30
0.0
  0
SPLINE
  5
F3
330
70
100
AcDbEntity
  8
Camada 1
 62
   250
420
  1907995
370
    15
100
AcDbSpline
210
0.0
220
0.0
230
1.0
 70
     9
 71
     3
 72
    17
 73
    13
 74
     0
 42
0.0000000001
 43
0.0000000001
 40
0.0
 40
0.0
 40
0.0
 40
0.0
 40
1.0
 40
1.0
 40
1.0
 40
2.0
 40
2.0
 40
2.0
 40
3.0
 40
3.0
 40
3.0
 40
4.0
 40
4.0
 40
4.0
 40
4.0
 10
5.42077969309603
 20
6.976399102056355
 30
0.0
 10
5.425824066501074
 20
6.979185861326221
 30
0.0
 10
5.42787013024161
 20
6.98493594100957
 30
0.0
 10
5.425083370971745
 20
6.989980852710782
 30
0.0
 10
5.422296611701879
 20
6.994990236864804
 30
0.0
 10
5.416052376134864
 20
6.996789222663508
 30
0.0
 10
5.411007464433652
 20
6.994002463393642
 30
0.0
 10
5.40599808027963
 20
6.991215704123777
 30
0.0
 10
5.404728239615613
 20
6.985218546498595
 30
0.0
 10
5.40751499888548
 20
6.980208624048404
 30
0.0
 10
5.410301758155345
 20
6.975199239894383
 30
0.0
 10
5.41576977064584
 20
6.97361180449032
 30
0.0
 10
5.42077969309603
 20
6.976399102056355
 30
0.0
  0
SPLINE
  5
F4
330
70
100
AcDbEntity
  8
Camada 1
 62
   250
420
  1907995
370
    15
100
AcDbSpline
210
0.0
220
0.0
230
1.0
 70
     9
 71
     3
 72
    17
 73
    13
 74
     0
 42
0.0000000001
 43
0.0000000001
 40
0.0
 40
0.0
 40
0.0
 40
0.0
 40
1.0
 40
1.0
 40
1.0
 40
2.0
 40
2.0
 40
2.0
 40
3.0
 40
3.0
 40
3.0
 40
4.0
 40
4.0
 40
4.0
 40
4.0
 10
5.80977726685132
 20
7.166020925637693
 30
0.0
 10
5.825863709582758
 20
7.174945876129168
 30
0.0
 10
5.831931384006154
 20
7.194771862350612
 30
0.0
 10
5.823041422765701
 20
7.210858843378219
 30
0.0
 10
5.814115933978056
 20
7.226910296858636
 30
0.0
 10
5.793796330169118
 20
7.2327308933402
 30
0.0
 10
5.77770934914151
 20
7.223770415301532
 30
0.0
 10
5.761657895661093
 20
7.214880454061079
 30
0.0
 10
5.756330916767026
 20
7.194842379148825
 30
0.0
 10
5.765221416303648
 20
7.178755936417386
 30
0.0
 10
5.774146366795124
 20
7.162704482936971
 30
0.0
 10
5.793690285823712
 20
7.157095436850048
 30
0.0
 10
5.80977726685132
 20
7.166020925637693
 30
0.0
  0
SPLINE
  5
F5
330
70
100
AcDbEntity
  8
Camada 1
 62
   250
420
  1907995
370
    15
100
AcDbSpline
210
0.0
220
0.0
230
1.0
 70
     9
 71
     3
 72
    17
 73
    13
 74
     0
 42
0.0000000001
 43
0.0000000001
 40
0.0
 40
0.0
 40
0.0
 40
0.0
 40
1.0
 40
1.0
 40
1.0
 40
2.0
 40
2.0
 40
2.0
 40
3.0
 40
3.0
 40
3.0
 40
4.0
 40
4.0
 40
4.0
 40
4.0
 10
5.609805084521484
 20
7.055026408656978
 30
0.0
 10
5.625891527252923
 20
7.063951359148453
 30
0.0
 10
5.631959201676319
 20
7.083777345369897
 30
0.0
 10
5.623069240435865
 20
7.099864326397504
 30
0.0
 10
5.614143751648221
 20
7.115915779877921
 30
0.0
 10
5.593824147839281
 20
7.121736376359485
 30
0.0
 10
5.577737166811674
 20
7.112775898320817
 30
0.0
 10
5.561685713331257
 20
7.103885937080364
 30
0.0
 10
5.55635873443719
 20
7.08384786216811
 30
0.0
 10
5.565249233973813
 20
7.067761419436672
 30
0.0
 10
5.574174184465288
 20
7.051709965956256
 30
0.0
 10
5.593718103493876
 20
7.046100919869333
 30
0.0
 10
5.609805084521484
 20
7.055026408656978
 30
0.0
  0
SPLINE
  5
F6
330
70
100
AcDbEntity
  8
Camada 1
 62
   250
420
  1907995
370
    15
100
AcDbSpline
210
0.0
220
0.0
230
1.0
 70
     9
 71
     3
 72
    17
 73
    13
 74
     0
 42
0.0000000001
 43
0.0000000001
 40
0.0
 40
0.0
 40
0.0
 40
0.0
 40
1.0
 40
1.0
 40
1.0
 40
2.0
 40
2.0
 40
2.0
 40
3.0
 40
3.0
 40
3.0
 40
4.0
 40
4.0
 40
4.0
 40
4.0
 10
4.162319148400609
 20
6.289660765876857
 30
0.0
 10
4.1653177272132
 20
6.291318718079133
 30
0.0
 10
4.166728870621729
 20
6.294740666829092
 30
0.0
 10
4.165070649271367
 20
6.297738976493598
 30
0.0
 10
4.163377438669984
 20
6.300772813705297
 30
0.0
 10
4.159496861583551
 20
6.301866631521863
 30
0.0
 10
4.156463024371854
 20
6.300208679319586
 30
0.0
 10
4.153464176411177
 20
6.298515199570118
 30
0.0
 10
4.152829256079169
 20
6.294916689676541
 30
0.0
 10
4.154522735828638
 20
6.291882852464843
 30
0.0
 10
4.156180688030914
 20
6.288884542800336
 30
0.0
 10
4.159285042040826
 20
6.288002275378411
 30
0.0
 10
4.162319148400609
 20
6.289660765876857
 30
0.0
  0
SPLINE
  5
F7
330
70
100
AcDbEntity
  8
Camada 1
 62
   250
420
  1907995
370
    15
100
AcDbSpline
210
0.0
220
0.0
230
1.0
 70
     9
 71
     3
 72
    17
 73
    13
 74
     0
 42
0.0000000001
 43
0.0000000001
 40
0.0
 40
0.0
 40
0.0
 40
0.0
 40
1.0
 40
1.0
 40
1.0
 40
2.0
 40
2.0
 40
2.0
 40
3.0
 40
3.0
 40
3.0
 40
4.0
 40
4.0
 40
4.0
 40
4.0
 10
4.340186198527041
 20
6.388385898264556
 30
0.0
 10
4.343220035738738
 20
6.390043850466833
 30
0.0
 10
4.34459592074816
 20
6.393465799216791
 30
0.0
 10
4.342937699397799
 20
6.396464108881297
 30
0.0
 10
4.341244488796416
 20
6.399497946092996
 30
0.0
 10
4.337363911709983
 20
6.400591763909562
 30
0.0
 10
4.334330074498285
 20
6.398933811707286
 30
0.0
 10
4.331331226537609
 20
6.397240331957818
 30
0.0
 10
4.330696306205601
 20
6.393641822064241
 30
0.0
 10
4.332389785955069
 20
6.390607984852542
 30
0.0
 10
4.334047738157345
 20
6.387609675188036
 30
0.0
 10
4.337152092167257
 20
6.38672740776611
 30
0.0
 10
4.340186198527041
 20
6.388385898264556
 30
0.0
  0
SPLINE
  5
F8
330
70
100
AcDbEntity
  8
Camada 1
 62
   250
420
  1907995
370
    15
100
AcDbSpline
210
0.0
220
0.0
230
1.0
 70
     9
 71
     3
 72
    17
 73
    13
 74
     0
 42
0.0000000001
 43
0.0000000001
 40
0.0
 40
0.0
 40
0.0
 40
0.0
 40
1.0
 40
1.0
 40
1.0
 40
2.0
 40
2.0
 40
2.0
 40
3.0
 40
3.0
 40
3.0
 40
4.0
 40
4.0
 40
4.0
 40
4.0
 10
4.540158380856876
 20
6.499380415245271
 30
0.0
 10
4.543156690521382
 20
6.501038367447548
 30
0.0
 10
4.544568103077995
 20
6.504460316197506
 30
0.0
 10
4.542909612579549
 20
6.507458625862012
 30
0.0
 10
4.541216671126251
 20
6.510492463073711
 30
0.0
 10
4.537336094039819
 20
6.511586280890277
 30
0.0
 10
4.53430225682812
 20
6.509928328688001
 30
0.0
 10
4.531303408867445
 20
6.508234848938533
 30
0.0
 10
4.530668219387352
 20
6.504636339044956
 30
0.0
 10
4.53236169913682
 20
6.501602501833257
 30
0.0
 10
4.534019651339097
 20
6.498604192168751
 30
0.0
 10
4.537124005349008
 20
6.497721924746825
 30
0.0
 10
4.540158380856876
 20
6.499380415245271
 30
0.0
  0
SPLINE
  5
F9
330
70
100
AcDbEntity
  8
Camada 1
 62
   250
420
  1907995
370
    15
100
AcDbSpline
210
0.0
220
0.0
230
1.0
 70
     9
 71
     3
 72
    17
 73
    13
 74
     0
 42
0.0000000001
 43
0.0000000001
 40
0.0
 40
0.0
 40
0.0
 40
0.0
 40
1.0
 40
1.0
 40
1.0
 40
2.0
 40
2.0
 40
2.0
 40
3.0
 40
3.0
 40
3.0
 40
4.0
 40
4.0
 40
4.0
 40
4.0
 10
4.555507896132173
 20
6.47172221975658
 30
0.0
 10
4.573604875056956
 20
6.481775977315645
 30
0.0
 10
4.580554816902278
 20
6.504706855843169
 30
0.0
 10
4.570536048594235
 20
6.522804373064122
 30
0.0
 10
4.560481752739002
 20
6.540866362737884
 30
0.0
 10
4.537057256623981
 20
6.547604215892395
 30
0.0
 10
4.518959739403029
 20
6.53755045833333
 30
0.0
 10
4.500897749729267
 20
6.527531151729119
 30
0.0
 10
4.494688772561358
 20
6.504353733555931
 30
0.0
 10
4.504707810017485
 20
6.486291743882169
 30
0.0
 10
4.514761836724635
 20
6.468158699114025
 30
0.0
 10
4.537445368162241
 20
6.461702913152368
 30
0.0
 10
4.555507896132173
 20
6.47172221975658
 30
0.0
  0
SPLINE
  5
FA
330
70
100
AcDbEntity
  8
Camada 1
 62
   250
420
  1907995
370
    15
100
AcDbSpline
210
0.0
220
0.0
230
1.0
 70
     9
 71
     3
 72
    17
 73
    13
 74
     0
 42
0.0000000001
 43
0.0000000001
 40
0.0
 40
0.0
 40
0.0
 40
0.0
 40
1.0
 40
1.0
 40
1.0
 40
2.0
 40
2.0
 40
2.0
 40
3.0
 40
3.0
 40
3.0
 40
4.0
 40
4.0
 40
4.0
 40
4.0
 10
4.355535444654252
 20
6.360727702775865
 30
0.0
 10
4.37363269272712
 20
6.37078146033493
 30
0.0
 10
4.380582634572443
 20
6.393712338862454
 30
0.0
 10
4.370563597116316
 20
6.411809856083407
 30
0.0
 10
4.360509570409167
 20
6.429871845757169
 30
0.0
 10
4.337085074294146
 20
6.43660969891168
 30
0.0
 10
4.318987557073193
 20
6.426555941352615
 30
0.0
 10
4.300925298251347
 20
6.416536634748404
 30
0.0
 10
4.294716321083438
 20
6.393359216575216
 30
0.0
 10
4.304735358539566
 20
6.375297226901455
 30
0.0
 10
4.314789385246714
 20
6.357199709680502
 30
0.0
 10
4.337473185832406
 20
6.350708396171653
 30
0.0
 10
4.355535444654252
 20
6.360727702775865
 30
0.0
  0
SPLINE
  5
FB
330
70
100
AcDbEntity
  8
Camada 1
 62
   250
420
  1907995
370
    15
100
AcDbSpline
210
0.0
220
0.0
230
1.0
 70
     9
 71
     3
 72
    17
 73
    13
 74
     0
 42
0.0000000001
 43
0.0000000001
 40
0.0
 40
0.0
 40
0.0
 40
0.0
 40
1.0
 40
1.0
 40
1.0
 40
2.0
 40
2.0
 40
2.0
 40
3.0
 40
3.0
 40
3.0
 40
4.0
 40
4.0
 40
4.0
 40
4.0
 10
4.17543204309134
 20
6.266035485290586
 30
0.0
 10
4.191518485822779
 20
6.274960435782062
 30
0.0
 10
4.19758642939426
 20
6.294786422003505
 30
0.0
 10
4.188696468153807
 20
6.310873403031113
 30
0.0
 10
4.179770979366162
 20
6.32692485651153
 30
0.0
 10
4.159451106409139
 20
6.332745452993093
 30
0.0
 10
4.143364394529615
 20
6.323784974954426
 30
0.0
 10
4.127312941049199
 20
6.314895013713972
 30
0.0
 10
4.121985962155131
 20
6.294856938801719
 30
0.0
 10
4.130911450942776
 20
6.278806023617472
 30
0.0
 10
4.139836670582336
 20
6.262719042589864
 30
0.0
 10
4.159345331211818
 20
6.257109996502942
 30
0.0
 10
4.17543204309134
 20
6.266035485290586
 30
0.0
  0
SPLINE
  5
FC
330
70
100
AcDbEntity
  8
Camada 1
 62
   250
420
  1907995
370
    15
100
AcDbSpline
210
0.0
220
0.0
230
1.0
 70
     9
 71
     3
 72
    17
 73
    13
 74
     0
 42
0.0000000001
 43
0.0000000001
 40
0.0
 40
0.0
 40
0.0
 40
0.0
 40
1.0
 40
1.0
 40
1.0
 40
2.0
 40
2.0
 40
2.0
 40
3.0
 40
3.0
 40
3.0
 40
4.0
 40
4.0
 40
4.0
 40
4.0
 10
4.17766839452782
 20
6.262003108684336
 30
0.0
 10
4.195765642600689
 20
6.2720568662434
 30
0.0
 10
4.202750842845118
 20
6.294987744770924
 30
0.0
 10
4.192696546989884
 20
6.313085261991878
 30
0.0
 10
4.182677778681842
 20
6.331182779212831
 30
0.0
 10
4.159218024167715
 20
6.33788510482015
 30
0.0
 10
4.141120506946761
 20
6.327831347261086
 30
0.0
 10
4.123058248124915
 20
6.317812040656874
 30
0.0
 10
4.116849270957007
 20
6.294634622483687
 30
0.0
 10
4.126868308413134
 20
6.276572632809925
 30
0.0
 10
4.136922335120282
 20
6.258475115588971
 30
0.0
 10
4.159606135705974
 20
6.251983802080124
 30
0.0
 10
4.17766839452782
 20
6.262003108684336
 30
0.0
  0
SPLINE
  5
FD
330
70
100
AcDbEntity
  8
Camada 1
 62
   250
420
  1907995
370
    15
100
AcDbSpline
210
0.0
220
0.0
230
1.0
 70
     9
 71
     3
 72
    17
 73
    13
 74
     0
 42
0.0000000001
 43
0.0000000001
 40
0.0
 40
0.0
 40
0.0
 40
0.0
 40
1.0
 40
1.0
 40
1.0
 40
2.0
 40
2.0
 40
2.0
 40
3.0
 40
3.0
 40
3.0
 40
4.0
 40
4.0
 40
4.0
 40
4.0
 10
4.542112934248586
 20
6.495856190223094
 30
0.0
 10
4.547122318402607
 20
6.49864294949296
 30
0.0
 10
4.549203371394165
 20
6.50439302917631
 30
0.0
 10
4.5464166121243
 20
6.509437940877522
 30
0.0
 10
4.543629852854435
 20
6.514447325031543
 30
0.0
 10
4.537350089740227
 20
6.516246310830247
 30
0.0
 10
4.532340705586206
 20
6.513459551560382
 30
0.0
 10
4.527331321432185
 20
6.510672792290517
 30
0.0
 10
4.526025953220978
 20
6.504675634665334
 30
0.0
 10
4.528812712490843
 20
6.499665712215143
 30
0.0
 10
4.531600010056878
 20
6.4946213388101
 30
0.0
 10
4.537103011798395
 20
6.49306889265706
 30
0.0
 10
4.542112934248586
 20
6.495856190223094
 30
0.0
  0
SPLINE
  5
FE
330
70
100
AcDbEntity
  8
Camada 1
 62
   250
420
  1907995
370
    15
100
AcDbSpline
210
0.0
220
0.0
230
1.0
 70
     9
 71
     3
 72
    17
 73
    13
 74
     0
 42
0.0000000001
 43
0.0000000001
 40
0.0
 40
0.0
 40
0.0
 40
0.0
 40
1.0
 40
1.0
 40
1.0
 40
2.0
 40
2.0
 40
2.0
 40
3.0
 40
3.0
 40
3.0
 40
4.0
 40
4.0
 40
4.0
 40
4.0
 10
4.342140482770665
 20
6.384861673242379
 30
0.0
 10
4.347149866924686
 20
6.387648432512245
 30
0.0
 10
4.34923118906433
 20
6.393398512195595
 30
0.0
 10
4.34644416064638
 20
6.398443423896807
 30
0.0
 10
4.343657401376514
 20
6.403452808050828
 30
0.0
 10
4.337377907410392
 20
6.405251793849532
 30
0.0
 10
4.332368523256371
 20
6.402465034579667
 30
0.0
 10
4.327358869954265
 20
6.399678275309802
 30
0.0
 10
4.326053770891142
 20
6.393681117684619
 30
0.0
 10
4.328840530161008
 20
6.388671195234429
 30
0.0
 10
4.331627558578958
 20
6.383626821829385
 30
0.0
 10
4.337130829468559
 20
6.382074375676345
 30
0.0
 10
4.342140482770665
 20
6.384861673242379
 30
0.0
  0
SPLINE
  5
FF
330
70
100
AcDbEntity
  8
Camada 1
 62
   250
420
  1907995
370
    15
100
AcDbSpline
210
0.0
220
0.0
230
1.0
 70
     9
 71
     3
 72
    17
 73
    13
 74
     0
 42
0.0000000001
 43
0.0000000001
 40
0.0
 40
0.0
 40
0.0
 40
0.0
 40
1.0
 40
1.0
 40
1.0
 40
2.0
 40
2.0
 40
2.0
 40
3.0
 40
3.0
 40
3.0
 40
4.0
 40
4.0
 40
4.0
 40
4.0
 10
4.164273432644233
 20
6.28613654085468
 30
0.0
 10
4.169318075197361
 20
6.288923300124546
 30
0.0
 10
4.171364138937899
 20
6.294673379807895
 30
0.0
 10
4.168577110519948
 20
6.299718291509108
 30
0.0
 10
4.165790351250083
 20
6.304727675663129
 30
0.0
 10
4.159546115683068
 20
6.306526661461833
 30
0.0
 10
4.154501473129939
 20
6.303739902191968
 30
0.0
 10
4.149491819827834
 20
6.300953142922102
 30
0.0
 10
4.148221979163817
 20
6.29495598529692
 30
0.0
 10
4.151008738433683
 20
6.289946062846729
 30
0.0
 10
4.153795766851633
 20
6.284936678692708
 30
0.0
 10
4.159263779342127
 20
6.283349243288645
 30
0.0
 10
4.164273432644233
 20
6.28613654085468
 30
0.0
  0
SPLINE
  5
100
330
70
100
AcDbEntity
  8
Camada 1
 62
   250
420
  1907995
370
    15
100
AcDbSpline
210
0.0
220
0.0
230
1.0
 70
     9
 71
     3
 72
    17
 73
    13
 74
     0
 42
0.0000000001
 43
0.0000000001
 40
0.0
 40
0.0
 40
0.0
 40
0.0
 40
1.0
 40
1.0
 40
1.0
 40
2.0
 40
2.0
 40
2.0
 40
3.0
 40
3.0
 40
3.0
 40
4.0
 40
4.0
 40
4.0
 40
4.0
 10
4.553271275547608
 20
6.475754596362831
 30
0.0
 10
4.569357718279047
 20
6.484679546854307
 30
0.0
 10
4.575425392702443
 20
6.50450553307575
 30
0.0
 10
4.566535431461989
 20
6.520592514103358
 30
0.0
 10
4.557609942674345
 20
6.536643967583774
 30
0.0
 10
4.537290338865405
 20
6.542464564065338
 30
0.0
 10
4.521203357837797
 20
6.53350408602667
 30
0.0
 10
4.505152173505465
 20
6.524614124786218
 30
0.0
 10
4.499825194611398
 20
6.504576049873963
 30
0.0
 10
4.508715424999937
 20
6.488489607142525
 30
0.0
 10
4.517640375491412
 20
6.472438153662109
 30
0.0
 10
4.53718429452
 20
6.466829107575186
 30
0.0
 10
4.553271275547608
 20
6.475754596362831
 30
0.0
  0
SPLINE
  5
101
330
70
100
AcDbEntity
  8
Camada 1
 62
   250
420
  1907995
370
    15
100
AcDbSpline
210
0.0
220
0.0
230
1.0
 70
     9
 71
     3
 72
    17
 73
    13
 74
     0
 42
0.0000000001
 43
0.0000000001
 40
0.0
 40
0.0
 40
0.0
 40
0.0
 40
1.0
 40
1.0
 40
1.0
 40
2.0
 40
2.0
 40
2.0
 40
3.0
 40
3.0
 40
3.0
 40
4.0
 40
4.0
 40
4.0
 40
4.0
 10
4.353298824069688
 20
6.364760079382116
 30
0.0
 10
4.369385266801126
 20
6.373685029873592
 30
0.0
 10
4.375453210372607
 20
6.393511016095035
 30
0.0
 10
4.366563249132154
 20
6.409597997122643
 30
0.0
 10
4.357637760344509
 20
6.425649450603059
 30
0.0
 10
4.337317887387485
 20
6.431470047084623
 30
0.0
 10
4.321231175507961
 20
6.422509569045955
 30
0.0
 10
4.305179722027546
 20
6.413619607805503
 30
0.0
 10
4.299852743133478
 20
6.393581532893248
 30
0.0
 10
4.308742973522016
 20
6.377495090161811
 30
0.0
 10
4.317668193161576
 20
6.361443636681394
 30
0.0
 10
4.337212112190164
 20
6.355834590594471
 30
0.0
 10
4.353298824069688
 20
6.364760079382116
 30
0.0
  0
SPLINE
  5
102
330
70
100
AcDbEntity
  8
Camada 1
 62
   250
420
  1907995
370
    15
100
AcDbSpline
210
0.0
220
0.0
230
1.0
 70
     9
 71
     3
 72
    17
 73
    13
 74
     0
 42
0.0000000001
 43
0.0000000001
 40
0.0
 40
0.0
 40
0.0
 40
0.0
 40
1.0
 40
1.0
 40
1.0
 40
2.0
 40
2.0
 40
2.0
 40
3.0
 40
3.0
 40
3.0
 40
4.0
 40
4.0
 40
4.0
 40
4.0
 10
4.58052682550146
 20
7.360736645871675
 30
0.0
 10
4.578656784608373
 20
7.363628911190776
 30
0.0
 10
4.579044896146633
 20
7.367297937882566
 30
0.0
 10
4.581937699761904
 20
7.369167978775654
 30
0.0
 10
4.584865492628197
 20
7.37100195382538
 30
0.0
 10
4.588816586512843
 20
7.370155752246816
 30
0.0
 10
4.59068662740593
 20
7.367227421084353
 30
0.0
 10
4.592556130002847
 20
7.364334617469083
 30
0.0
 10
4.591356806137045
 20
7.360877679468102
 30
0.0
 10
4.588464002521774
 20
7.359007638575015
 30
0.0
 10
4.585536209655481
 20
7.357138135978098
 30
0.0
 10
4.582396328098378
 20
7.357843842256404
 30
0.0
 10
4.58052682550146
 20
7.360736645871675
 30
0.0
  0
SPLINE
  5
103
330
70
100
AcDbEntity
  8
Camada 1
 62
   250
420
  1907995
370
    15
100
AcDbSpline
210
0.0
220
0.0
230
1.0
 70
     9
 71
     3
 72
    17
 73
    13
 74
     0
 42
0.0000000001
 43
0.0000000001
 40
0.0
 40
0.0
 40
0.0
 40
0.0
 40
1.0
 40
1.0
 40
1.0
 40
2.0
 40
2.0
 40
2.0
 40
3.0
 40
3.0
 40
3.0
 40
4.0
 40
4.0
 40
4.0
 40
4.0
 10
4.45709309148623
 20
7.553279264469101
 30
0.0
 10
4.455223319741228
 20
7.556171529788202
 30
0.0
 10
4.455611162131403
 20
7.559840556479993
 30
0.0
 10
4.458503965746674
 20
7.56171059737308
 30
0.0
 10
4.461432027761052
 20
7.563544572422807
 30
0.0
 10
4.465383121645698
 20
7.562698370844242
 30
0.0
 10
4.4672528933907
 20
7.559770039681779
 30
0.0
 10
4.469122665135702
 20
7.556877236066509
 30
0.0
 10
4.4679233412699
 20
7.553420298065528
 30
0.0
 10
4.465030537654629
 20
7.551550257172441
 30
0.0
 10
4.462102475640252
 20
7.549680754575524
 30
0.0
 10
4.458962594083148
 20
7.550386460853831
 30
0.0
 10
4.45709309148623
 20
7.553279264469101
 30
0.0
  0
SPLINE
  5
104
330
70
100
AcDbEntity
  8
Camada 1
 62
   250
420
  1907995
370
    15
100
AcDbSpline
210
0.0
220
0.0
230
1.0
 70
     9
 71
     3
 72
    17
 73
    13
 74
     0
 42
0.0000000001
 43
0.0000000001
 40
0.0
 40
0.0
 40
0.0
 40
0.0
 40
1.0
 40
1.0
 40
1.0
 40
2.0
 40
2.0
 40
2.0
 40
3.0
 40
3.0
 40
3.0
 40
4.0
 40
4.0
 40
4.0
 40
4.0
 10
4.430461965089079
 20
7.536204509970332
 30
0.0
 10
4.419278862166257
 20
7.553631310164
 30
0.0
 10
4.424041168378446
 20
7.577126323077234
 30
0.0
 10
4.441468506868283
 20
7.588309426000057
 30
0.0
 10
4.45886031781093
 20
7.599457539671858
 30
0.0
 10
4.482672925464211
 20
7.594271594374218
 30
0.0
 10
4.493856028387034
 20
7.576844255884379
 30
0.0
 10
4.505003872910749
 20
7.559452444941733
 30
0.0
 10
4.499465074473955
 20
7.536098465624927
 30
0.0
 10
4.482073263531309
 20
7.524950890249295
 30
0.0
 10
4.464645925041471
 20
7.513767787326472
 30
0.0
 10
4.44160954046471
 20
7.518812160731515
 30
0.0
 10
4.430461965089079
 20
7.536204509970332
 30
0.0
  0
SPLINE
  5
105
330
70
100
AcDbEntity
  8
Camada 1
 62
   250
420
  1907995
370
    15
100
AcDbSpline
210
0.0
220
0.0
230
1.0
 70
     9
 71
     3
 72
    17
 73
    13
 74
     0
 42
0.0000000001
 43
0.0000000001
 40
0.0
 40
0.0
 40
0.0
 40
0.0
 40
1.0
 40
1.0
 40
1.0
 40
2.0
 40
2.0
 40
2.0
 40
3.0
 40
3.0
 40
3.0
 40
4.0
 40
4.0
 40
4.0
 40
4.0
 10
4.553898928881327
 20
7.343665659446092
 30
0.0
 10
4.542715825958504
 20
7.361092459639761
 30
0.0
 10
4.547478132170692
 20
7.384587472552995
 30
0.0
 10
4.564905470660531
 20
7.395770575475817
 30
0.0
 10
4.582297281603177
 20
7.406918689147619
 30
0.0
 10
4.606109889256458
 20
7.401732743849978
 30
0.0
 10
4.61729299217928
 20
7.38430540536014
 30
0.0
 10
4.628440567554911
 20
7.366913594417494
 30
0.0
 10
4.622902038266203
 20
7.343559615100687
 30
0.0
 10
4.605510227323557
 20
7.332412039725055
 30
0.0
 10
4.588082888833718
 20
7.321228936802233
 30
0.0
 10
4.565046504256958
 20
7.326273310207276
 30
0.0
 10
4.553898928881327
 20
7.343665659446092
 30
0.0
  0
SPLINE
  5
106
330
70
100
AcDbEntity
  8
Camada 1
 62
   250
420
  1907995
370
    15
100
AcDbSpline
210
0.0
220
0.0
230
1.0
 70
     9
 71
     3
 72
    17
 73
    13
 74
     0
 42
0.0000000001
 43
0.0000000001
 40
0.0
 40
0.0
 40
0.0
 40
0.0
 40
1.0
 40
1.0
 40
1.0
 40
2.0
 40
2.0
 40
2.0
 40
3.0
 40
3.0
 40
3.0
 40
4.0
 40
4.0
 40
4.0
 40
4.0
 10
4.667570931009485
 20
7.17489312310455
 30
0.0
 10
4.657622141203487
 20
7.190379903903088
 30
0.0
 10
4.661679279433537
 20
7.210735035259219
 30
0.0
 10
4.677166060232075
 20
7.220648297518025
 30
0.0
 10
4.69261785177959
 20
7.230561021480662
 30
0.0
 10
4.713255588624745
 20
7.226045793210306
 30
0.0
 10
4.723203840134574
 20
7.210558474115599
 30
0.0
 10
4.73311656409721
 20
7.195071693317062
 30
0.0
 10
4.728283741086809
 20
7.174928112355573
 30
0.0
 10
4.712796960288271
 20
7.165014850096766
 30
0.0
 10
4.697345168740756
 20
7.15510212613413
 30
0.0
 10
4.677483654972121
 20
7.159405804009844
 30
0.0
 10
4.667570931009485
 20
7.17489312310455
 30
0.0
  0
SPLINE
  5
107
330
70
100
AcDbEntity
  8
Camada 1
 62
   250
420
  1907995
370
    15
100
AcDbSpline
210
0.0
220
0.0
230
1.0
 70
     9
 71
     3
 72
    17
 73
    13
 74
     0
 42
0.0000000001
 43
0.0000000001
 40
0.0
 40
0.0
 40
0.0
 40
0.0
 40
1.0
 40
1.0
 40
1.0
 40
2.0
 40
2.0
 40
2.0
 40
3.0
 40
3.0
 40
3.0
 40
4.0
 40
4.0
 40
4.0
 40
4.0
 10
4.663687124146035
 20
7.172406194801136
 30
0.0
 10
4.652504021223212
 20
7.189832994994804
 30
0.0
 10
4.657230799888209
 20
7.21336353545523
 30
0.0
 10
4.674658138378047
 20
7.224511110830861
 30
0.0
 10
4.692049949320693
 20
7.235694213753684
 30
0.0
 10
4.715898084521166
 20
7.230473279205022
 30
0.0
 10
4.727081187443989
 20
7.213045940715184
 30
0.0
 10
4.73822876281962
 20
7.195654129772537
 30
0.0
 10
4.73269023353091
 20
7.17230015045573
 30
0.0
 10
4.715298422588264
 20
7.161152575080099
 30
0.0
 10
4.697871084098427
 20
7.149969472157277
 30
0.0
 10
4.674834699521666
 20
7.15501384556232
 30
0.0
 10
4.663687124146035
 20
7.172406194801136
 30
0.0
  0
SPLINE
  5
108
330
70
100
AcDbEntity
  8
Camada 1
 62
   250
420
  1907995
370
    15
100
AcDbSpline
210
0.0
220
0.0
230
1.0
 70
     9
 71
     3
 72
    17
 73
    13
 74
     0
 42
0.0000000001
 43
0.0000000001
 40
0.0
 40
0.0
 40
0.0
 40
0.0
 40
1.0
 40
1.0
 40
1.0
 40
2.0
 40
2.0
 40
2.0
 40
3.0
 40
3.0
 40
3.0
 40
4.0
 40
4.0
 40
4.0
 40
4.0
 10
4.453699403285175
 20
7.551102394759359
 30
0.0
 10
4.450594780127178
 20
7.555935217769761
 30
0.0
 10
4.451512036800126
 20
7.562002892193157
 30
0.0
 10
4.456345128958613
 20
7.565072256952046
 30
0.0
 10
4.4611782211171
 20
7.568176610961959
 30
0.0
 10
4.467528231881435
 20
7.566800725952537
 30
0.0
 10
4.470632585891348
 20
7.561967902942135
 30
0.0
 10
4.473736939901259
 20
7.557134541635563
 30
0.0
 10
4.472043729299875
 20
7.551243428355786
 30
0.0
 10
4.467210637141389
 20
7.548138536049704
 30
0.0
 10
4.462377544982902
 20
7.545069709586985
 30
0.0
 10
4.456803757295086
 20
7.546269033452787
 30
0.0
 10
4.453699403285175
 20
7.551102394759359
 30
0.0
  0
SPLINE
  5
109
330
70
100
AcDbEntity
  8
Camada 1
 62
   250
420
  1907995
370
    15
100
AcDbSpline
210
0.0
220
0.0
230
1.0
 70
     9
 71
     3
 72
    17
 73
    13
 74
     0
 42
0.0000000001
 43
0.0000000001
 40
0.0
 40
0.0
 40
0.0
 40
0.0
 40
1.0
 40
1.0
 40
1.0
 40
2.0
 40
2.0
 40
2.0
 40
3.0
 40
3.0
 40
3.0
 40
4.0
 40
4.0
 40
4.0
 40
4.0
 10
4.57713286815232
 20
7.358559776161932
 30
0.0
 10
4.574027975846238
 20
7.363392599172335
 30
0.0
 10
4.574945232519186
 20
7.369460273595731
 30
0.0
 10
4.579778593825758
 20
7.37252963835462
 30
0.0
 10
4.58461141683616
 20
7.375633992364532
 30
0.0
 10
4.59096169674858
 20
7.37425810735511
 30
0.0
 10
4.594066050758492
 20
7.369425284344709
 30
0.0
 10
4.597170404768404
 20
7.364591923038137
 30
0.0
 10
4.595476925018936
 20
7.35870080975836
 30
0.0
 10
4.590644102008534
 20
7.355595917452278
 30
0.0
 10
4.585810740701962
 20
7.352527090989558
 30
0.0
 10
4.580237222162232
 20
7.353726414855361
 30
0.0
 10
4.57713286815232
 20
7.358559776161932
 30
0.0
  0
SPLINE
  5
10A
330
70
100
AcDbEntity
  8
Camada 1
 62
   250
420
  1907995
370
    15
100
AcDbSpline
210
0.0
220
0.0
230
1.0
 70
     9
 71
     3
 72
    17
 73
    13
 74
     0
 42
0.0000000001
 43
0.0000000001
 40
0.0
 40
0.0
 40
0.0
 40
0.0
 40
1.0
 40
1.0
 40
1.0
 40
2.0
 40
2.0
 40
2.0
 40
3.0
 40
3.0
 40
3.0
 40
4.0
 40
4.0
 40
4.0
 40
4.0
 10
4.434346041100614
 20
7.538695206346933
 30
0.0
 10
4.424397520442701
 20
7.55418198714547
 30
0.0
 10
4.428454389524667
 20
7.574537118501601
 30
0.0
 10
4.443941439471289
 20
7.584450380760408
 30
0.0
 10
4.459393231018804
 20
7.594363104723044
 30
0.0
 10
4.480030698715875
 20
7.589847876452689
 30
0.0
 10
4.489978950225704
 20
7.574360557357982
 30
0.0
 10
4.499891943336425
 20
7.558873776559445
 30
0.0
 10
4.495094109577045
 20
7.538730195597955
 30
0.0
 10
4.479607328778508
 20
7.528781944088127
 30
0.0
 10
4.464120278831885
 20
7.518868681829321
 30
0.0
 10
4.444259034211336
 20
7.523207887252226
 30
0.0
 10
4.434346041100614
 20
7.538695206346933
 30
0.0
  0
SPLINE
  5
10B
330
70
100
AcDbEntity
  8
Camada 1
 62
   250
420
  1907995
370
    15
100
AcDbSpline
210
0.0
220
0.0
230
1.0
 70
     9
 71
     3
 72
    17
 73
    13
 74
     0
 42
0.0000000001
 43
0.0000000001
 40
0.0
 40
0.0
 40
0.0
 40
0.0
 40
1.0
 40
1.0
 40
1.0
 40
2.0
 40
2.0
 40
2.0
 40
3.0
 40
3.0
 40
3.0
 40
4.0
 40
4.0
 40
4.0
 40
4.0
 10
4.557779505967759
 20
7.346152587749507
 30
0.0
 10
4.547830716161761
 20
7.361639368548044
 30
0.0
 10
4.551887854391813
 20
7.381994499904175
 30
0.0
 10
4.56737463519035
 20
7.391907762162981
 30
0.0
 10
4.582826426737865
 20
7.401820486125618
 30
0.0
 10
4.60346416358302
 20
7.397305257855262
 30
0.0
 10
4.613412415092848
 20
7.381817938760556
 30
0.0
 10
4.623325139055485
 20
7.366331157962019
 30
0.0
 10
4.618527305296106
 20
7.346187577000529
 30
0.0
 10
4.603040524497568
 20
7.336239325490701
 30
0.0
 10
4.587553743699031
 20
7.326326063231894
 30
0.0
 10
4.567692229930396
 20
7.3306652686548
 30
0.0
 10
4.557779505967759
 20
7.346152587749507
 30
0.0
  0
SPLINE
  5
10C
330
70
100
AcDbEntity
  8
Camada 1
 62
   250
420
  1907995
370
    15
100
AcDbSpline
210
0.0
220
0.0
230
1.0
 70
     9
 71
     3
 72
    17
 73
    13
 74
     0
 42
0.0000000001
 43
0.0000000001
 40
0.0
 40
0.0
 40
0.0
 40
0.0
 40
1.0
 40
1.0
 40
1.0
 40
2.0
 40
2.0
 40
2.0
 40
3.0
 40
3.0
 40
3.0
 40
4.0
 40
4.0
 40
4.0
 40
4.0
 10
5.469308169375131
 20
5.985961603151675
 30
0.0
 10
5.467438128482044
 20
5.988853868470776
 30
0.0
 10
5.467826240020304
 20
5.992522895162567
 30
0.0
 10
5.470719043635575
 20
5.994392936055654
 30
0.0
 10
5.473646836501868
 20
5.99622691110538
 30
0.0
 10
5.477597930386513
 20
5.995380709526815
 30
0.0
 10
5.479467971279601
 20
5.992452378364354
 30
0.0
 10
5.481337473876518
 20
5.989559574749082
 30
0.0
 10
5.480138150010716
 20
5.986102636748102
 30
0.0
 10
5.477245346395445
 20
5.984232595855015
 30
0.0
 10
5.474317553529152
 20
5.982363093258098
 30
0.0
 10
5.471177671972048
 20
5.983068799536404
 30
0.0
 10
5.469308169375131
 20
5.985961603151675
 30
0.0
  0
SPLINE
  5
10D
330
70
100
AcDbEntity
  8
Camada 1
 62
   250
420
  1907995
370
    15
100
AcDbSpline
210
0.0
220
0.0
230
1.0
 70
     9
 71
     3
 72
    17
 73
    13
 74
     0
 42
0.0000000001
 43
0.0000000001
 40
0.0
 40
0.0
 40
0.0
 40
0.0
 40
1.0
 40
1.0
 40
1.0
 40
2.0
 40
2.0
 40
2.0
 40
3.0
 40
3.0
 40
3.0
 40
4.0
 40
4.0
 40
4.0
 40
4.0
 10
5.359516206037236
 20
6.157221067796632
 30
0.0
 10
5.357646165144148
 20
6.160113333115733
 30
0.0
 10
5.358034276682409
 20
6.163782359807523
 30
0.0
 10
5.360927080297679
 20
6.165652400700611
 30
0.0
 10
5.363854873163973
 20
6.167486375750336
 30
0.0
 10
5.367805967048618
 20
6.166640174171772
 30
0.0
 10
5.369676007941706
 20
6.16371184300931
 30
0.0
 10
5.371545510538624
 20
6.160819039394039
 30
0.0
 10
5.37034618667282
 20
6.157362101393059
 30
0.0
 10
5.36745338305755
 20
6.155492060499971
 30
0.0
 10
5.364525590191257
 20
6.153622557903054
 30
0.0
 10
5.361385708634154
 20
6.15432826418136
 30
0.0
 10
5.359516206037236
 20
6.157221067796632
 30
0.0
  0
SPLINE
  5
10E
330
70
100
AcDbEntity
  8
Camada 1
 62
   250
420
  1907995
370
    15
100
AcDbSpline
210
0.0
220
0.0
230
1.0
 70
     9
 71
     3
 72
    17
 73
    13
 74
     0
 42
0.0000000001
 43
0.0000000001
 40
0.0
 40
0.0
 40
0.0
 40
0.0
 40
1.0
 40
1.0
 40
1.0
 40
2.0
 40
2.0
 40
2.0
 40
3.0
 40
3.0
 40
3.0
 40
4.0
 40
4.0
 40
4.0
 40
4.0
 10
5.236082741170091
 20
6.349763686394058
 30
0.0
 10
5.234212700277003
 20
6.352655951713159
 30
0.0
 10
5.234600811815264
 20
6.35632497840495
 30
0.0
 10
5.237493615430534
 20
6.358195019298037
 30
0.0
 10
5.240421408296827
 20
6.360028994347763
 30
0.0
 10
5.244372502181473
 20
6.359182792769199
 30
0.0
 10
5.24624254307456
 20
6.356254461606736
 30
0.0
 10
5.248112045671478
 20
6.353361657991466
 30
0.0
 10
5.246912721805675
 20
6.349904719990485
 30
0.0
 10
5.244019918190405
 20
6.348034679097398
 30
0.0
 10
5.241092125324112
 20
6.34616517650048
 30
0.0
 10
5.237952243767009
 20
6.346870882778787
 30
0.0
 10
5.236082741170091
 20
6.349763686394058
 30
0.0
  0
SPLINE
  5
10F
330
70
100
AcDbEntity
  8
Camada 1
 62
   250
420
  1907995
370
    15
100
AcDbSpline
210
0.0
220
0.0
230
1.0
 70
     9
 71
     3
 72
    17
 73
    13
 74
     0
 42
0.0000000001
 43
0.0000000001
 40
0.0
 40
0.0
 40
0.0
 40
0.0
 40
1.0
 40
1.0
 40
1.0
 40
2.0
 40
2.0
 40
2.0
 40
3.0
 40
3.0
 40
3.0
 40
4.0
 40
4.0
 40
4.0
 40
4.0
 10
5.20945161477294
 20
6.332692699968475
 30
0.0
 10
5.198268511850117
 20
6.350119500162143
 30
0.0
 10
5.203030818062305
 20
6.373614513075378
 30
0.0
 10
5.220458156552144
 20
6.384797615998201
 30
0.0
 10
5.23784996749479
 20
6.395945729670001
 30
0.0
 10
5.261662575148071
 20
6.390759784372361
 30
0.0
 10
5.272845678070893
 20
6.373332445882523
 30
0.0
 10
5.283993253446524
 20
6.355940634939877
 30
0.0
 10
5.278454724157816
 20
6.33258665562307
 30
0.0
 10
5.26106291321517
 20
6.321439080247439
 30
0.0
 10
5.243635574725332
 20
6.310255977324616
 30
0.0
 10
5.220599190148571
 20
6.31530035072966
 30
0.0
 10
5.20945161477294
 20
6.332692699968475
 30
0.0
  0
SPLINE
  5
110
330
70
100
AcDbEntity
  8
Camada 1
 62
   250
420
  1907995
370
    15
100
AcDbSpline
210
0.0
220
0.0
230
1.0
 70
     9
 71
     3
 72
    17
 73
    13
 74
     0
 42
0.0000000001
 43
0.0000000001
 40
0.0
 40
0.0
 40
0.0
 40
0.0
 40
1.0
 40
1.0
 40
1.0
 40
2.0
 40
2.0
 40
2.0
 40
3.0
 40
3.0
 40
3.0
 40
4.0
 40
4.0
 40
4.0
 40
4.0
 10
5.332885079640085
 20
6.140150081371049
 30
0.0
 10
5.321701976717262
 20
6.157576881564717
 30
0.0
 10
5.326464282929451
 20
6.181071894477952
 30
0.0
 10
5.343891621419289
 20
6.192254997400774
 30
0.0
 10
5.361283432361935
 20
6.203403111072575
 30
0.0
 10
5.385096040015216
 20
6.198217165774935
 30
0.0
 10
5.396279142938039
 20
6.180789827285097
 30
0.0
 10
5.407426718313669
 20
6.16339801634245
 30
0.0
 10
5.401888189024961
 20
6.140044037025643
 30
0.0
 10
5.384496378082315
 20
6.128896461650012
 30
0.0
 10
5.367069039592476
 20
6.11771335872719
 30
0.0
 10
5.344032655015716
 20
6.122757732132233
 30
0.0
 10
5.332885079640085
 20
6.140150081371049
 30
0.0
  0
SPLINE
  5
111
330
70
100
AcDbEntity
  8
Camada 1
 62
   250
420
  1907995
370
    15
100
AcDbSpline
210
0.0
220
0.0
230
1.0
 70
     9
 71
     3
 72
    17
 73
    13
 74
     0
 42
0.0000000001
 43
0.0000000001
 40
0.0
 40
0.0
 40
0.0
 40
0.0
 40
1.0
 40
1.0
 40
1.0
 40
2.0
 40
2.0
 40
2.0
 40
3.0
 40
3.0
 40
3.0
 40
4.0
 40
4.0
 40
4.0
 40
4.0
 10
5.446560849841429
 20
5.971377545029507
 30
0.0
 10
5.436612060035431
 20
5.986864325828045
 30
0.0
 10
5.440669198265483
 20
6.007219457184175
 30
0.0
 10
5.45615597906402
 20
6.017132719442981
 30
0.0
 10
5.471607770611536
 20
6.027045443405619
 30
0.0
 10
5.49224550745669
 20
6.022530215135263
 30
0.0
 10
5.502193758966519
 20
6.007042896040556
 30
0.0
 10
5.512106482929156
 20
5.991556115242019
 30
0.0
 10
5.507273659918753
 20
5.971412534280529
 30
0.0
 10
5.491786879120216
 20
5.961499272021723
 30
0.0
 10
5.476335087572701
 20
5.951586548059086
 30
0.0
 10
5.456473573804067
 20
5.9558902259348
 30
0.0
 10
5.446560849841429
 20
5.971377545029507
 30
0.0
  0
SPLINE
  5
112
330
70
100
AcDbEntity
  8
Camada 1
 62
   250
420
  1907995
370
    15
100
AcDbSpline
210
0.0
220
0.0
230
1.0
 70
     9
 71
     3
 72
    17
 73
    13
 74
     0
 42
0.0000000001
 43
0.0000000001
 40
0.0
 40
0.0
 40
0.0
 40
0.0
 40
1.0
 40
1.0
 40
1.0
 40
2.0
 40
2.0
 40
2.0
 40
3.0
 40
3.0
 40
3.0
 40
4.0
 40
4.0
 40
4.0
 40
4.0
 10
5.23268932211712
 20
6.347586816684316
 30
0.0
 10
5.229584429811039
 20
6.352419639694717
 30
0.0
 10
5.230501686483986
 20
6.358487314118113
 30
0.0
 10
5.235335047790558
 20
6.361556678877003
 30
0.0
 10
5.24016787080096
 20
6.364661032886916
 30
0.0
 10
5.246518150713381
 20
6.363285147877494
 30
0.0
 10
5.249622504723292
 20
6.358452324867092
 30
0.0
 10
5.252726858733204
 20
6.35361896356052
 30
0.0
 10
5.251033378983736
 20
6.347727850280743
 30
0.0
 10
5.246200555973334
 20
6.344622957974661
 30
0.0
 10
5.241367194666763
 20
6.341554131511942
 30
0.0
 10
5.235793676127031
 20
6.342753455377744
 30
0.0
 10
5.23268932211712
 20
6.347586816684316
 30
0.0
  0
SPLINE
  5
113
330
70
100
AcDbEntity
  8
Camada 1
 62
   250
420
  1907995
370
    15
100
AcDbSpline
210
0.0
220
0.0
230
1.0
 70
     9
 71
     3
 72
    17
 73
    13
 74
     0
 42
0.0000000001
 43
0.0000000001
 40
0.0
 40
0.0
 40
0.0
 40
0.0
 40
1.0
 40
1.0
 40
1.0
 40
2.0
 40
2.0
 40
2.0
 40
3.0
 40
3.0
 40
3.0
 40
4.0
 40
4.0
 40
4.0
 40
4.0
 10
5.356122786984265
 20
6.155044198086889
 30
0.0
 10
5.353017894678184
 20
6.159877021097291
 30
0.0
 10
5.353935151351131
 20
6.165944695520687
 30
0.0
 10
5.358768512657703
 20
6.169014060279577
 30
0.0
 10
5.363601335668104
 20
6.172118414289489
 30
0.0
 10
5.369951615580526
 20
6.170742529280067
 30
0.0
 10
5.373055969590438
 20
6.165909706269665
 30
0.0
 10
5.376160323600349
 20
6.161076344963094
 30
0.0
 10
5.374466843850881
 20
6.155185231683317
 30
0.0
 10
5.369634020840479
 20
6.152080339377235
 30
0.0
 10
5.364800659533908
 20
6.149011512914515
 30
0.0
 10
5.359227140994176
 20
6.150210836780318
 30
0.0
 10
5.356122786984265
 20
6.155044198086889
 30
0.0
  0
SPLINE
  5
114
330
70
100
AcDbEntity
  8
Camada 1
 62
   250
420
  1907995
370
    15
100
AcDbSpline
210
0.0
220
0.0
230
1.0
 70
     9
 71
     3
 72
    17
 73
    13
 74
     0
 42
0.0000000001
 43
0.0000000001
 40
0.0
 40
0.0
 40
0.0
 40
0.0
 40
1.0
 40
1.0
 40
1.0
 40
2.0
 40
2.0
 40
2.0
 40
3.0
 40
3.0
 40
3.0
 40
4.0
 40
4.0
 40
4.0
 40
4.0
 10
5.213332191859373
 20
6.33517962827189
 30
0.0
 10
5.203383402053375
 20
6.350666409070427
 30
0.0
 10
5.207440540283426
 20
6.371021540426558
 30
0.0
 10
5.222927321081963
 20
6.380934802685365
 30
0.0
 10
5.238379112629478
 20
6.390847526648001
 30
0.0
 10
5.259016849474633
 20
6.386332298377646
 30
0.0
 10
5.268965100984462
 20
6.370844979282939
 30
0.0
 10
5.278877824947098
 20
6.355358198484402
 30
0.0
 10
5.274079991187718
 20
6.335214617522912
 30
0.0
 10
5.258593210389181
 20
6.325266366013083
 30
0.0
 10
5.243106429590644
 20
6.315353103754277
 30
0.0
 10
5.223244915822009
 20
6.319692309177183
 30
0.0
 10
5.213332191859373
 20
6.33517962827189
 30
0.0
  0
SPLINE
  5
115
330
70
100
AcDbEntity
  8
Camada 1
 62
   250
420
  1907995
370
    15
100
AcDbSpline
210
0.0
220
0.0
230
1.0
 70
     9
 71
     3
 72
    17
 73
    13
 74
     0
 42
0.0000000001
 43
0.0000000001
 40
0.0
 40
0.0
 40
0.0
 40
0.0
 40
1.0
 40
1.0
 40
1.0
 40
2.0
 40
2.0
 40
2.0
 40
3.0
 40
3.0
 40
3.0
 40
4.0
 40
4.0
 40
4.0
 40
4.0
 10
5.336769424799705
 20
6.142637009674463
 30
0.0
 10
5.326820634993707
 20
6.158123790473001
 30
0.0
 10
5.330877773223757
 20
6.178478921829132
 30
0.0
 10
5.346364554022295
 20
6.188392184087938
 30
0.0
 10
5.36181634556981
 20
6.198304908050575
 30
0.0
 10
5.382454082414965
 20
6.193789679780219
 30
0.0
 10
5.392402333924794
 20
6.178302360685512
 30
0.0
 10
5.40231505788743
 20
6.162815579886975
 30
0.0
 10
5.39751722412805
 20
6.142671998925486
 30
0.0
 10
5.382030443329513
 20
6.132723747415657
 30
0.0
 10
5.366543662530976
 20
6.122810485156851
 30
0.0
 10
5.346682148762341
 20
6.127149690579757
 30
0.0
 10
5.336769424799705
 20
6.142637009674463
 30
0.0
  0
SPLINE
  5
116
330
70
100
AcDbEntity
  8
Camada 1
 62
   250
420
  1907995
370
    15
100
AcDbSpline
210
0.0
220
0.0
230
1.0
 70
     9
 71
     3
 72
    17
 73
    13
 74
     0
 42
0.0000000001
 43
0.0000000001
 40
0.0
 40
0.0
 40
0.0
 40
0.0
 40
1.0
 40
1.0
 40
1.0
 40
2.0
 40
2.0
 40
2.0
 40
3.0
 40
3.0
 40
3.0
 40
4.0
 40
4.0
 40
4.0
 40
4.0
 10
4.529987813029014
 20
7.010470558109306
 30
0.0
 10
4.526988965068339
 20
7.012128510311582
 30
0.0
 10
4.525578090807895
 20
7.015550459061541
 30
0.0
 10
4.527236043010171
 20
7.018548768726048
 30
0.0
 10
4.52892898446347
 20
7.021582605937746
 30
0.0
 10
4.532809561549902
 20
7.022676423754313
 30
0.0
 10
4.5358433987616
 20
7.021018471552036
 30
0.0
 10
4.538842246722277
 20
7.019324991802568
 30
0.0
 10
4.539477436202369
 20
7.01572648190899
 30
0.0
 10
4.537783956452901
 20
7.012692644697293
 30
0.0
 10
4.536126004250625
 20
7.009694335032786
 30
0.0
 10
4.533021650240713
 20
7.00881206761086
 30
0.0
 10
4.529987813029014
 20
7.010470558109306
 30
0.0
  0
SPLINE
  5
117
330
70
100
AcDbEntity
  8
Camada 1
 62
   250
420
  1907995
370
    15
100
AcDbSpline
210
0.0
220
0.0
230
1.0
 70
     9
 71
     3
 72
    17
 73
    13
 74
     0
 42
0.0000000001
 43
0.0000000001
 40
0.0
 40
0.0
 40
0.0
 40
0.0
 40
1.0
 40
1.0
 40
1.0
 40
2.0
 40
2.0
 40
2.0
 40
3.0
 40
3.0
 40
3.0
 40
4.0
 40
4.0
 40
4.0
 40
4.0
 10
4.352120762902583
 20
7.109198920274023
 30
0.0
 10
4.349121914941907
 20
7.1108568724763
 30
0.0
 10
4.347711040681463
 20
7.114278821226258
 30
0.0
 10
4.34936899288374
 20
7.117277130890764
 30
0.0
 10
4.351062203485123
 20
7.120310968102463
 30
0.0
 10
4.354942780571556
 20
7.121404785919029
 30
0.0
 10
4.357976617783253
 20
7.119746833716753
 30
0.0
 10
4.36097546574393
 20
7.118053353967285
 30
0.0
 10
4.361610386075938
 20
7.114454844073708
 30
0.0
 10
4.359916906326469
 20
7.111421006862009
 30
0.0
 10
4.358258954124194
 20
7.108422697197503
 30
0.0
 10
4.355154600114281
 20
7.107540429775577
 30
0.0
 10
4.352120762902583
 20
7.109198920274023
 30
0.0
  0
SPLINE
  5
118
330
70
100
AcDbEntity
  8
Camada 1
 62
   250
420
  1907995
370
    15
100
AcDbSpline
210
0.0
220
0.0
230
1.0
 70
     9
 71
     3
 72
    17
 73
    13
 74
     0
 42
0.0000000001
 43
0.0000000001
 40
0.0
 40
0.0
 40
0.0
 40
0.0
 40
1.0
 40
1.0
 40
1.0
 40
2.0
 40
2.0
 40
2.0
 40
3.0
 40
3.0
 40
3.0
 40
4.0
 40
4.0
 40
4.0
 40
4.0
 10
4.152148580572748
 20
7.220193437254738
 30
0.0
 10
4.149149732612071
 20
7.221851389457015
 30
0.0
 10
4.147738858351628
 20
7.225273338206973
 30
0.0
 10
4.149396810553905
 20
7.228271647871479
 30
0.0
 10
4.151090021155288
 20
7.231305485083177
 30
0.0
 10
4.15497059824172
 20
7.232399302899744
 30
0.0
 10
4.158004435453418
 20
7.230741350697468
 30
0.0
 10
4.161003283414094
 20
7.229047870948
 30
0.0
 10
4.161638203746102
 20
7.225449361054423
 30
0.0
 10
4.159944723996634
 20
7.222415523842724
 30
0.0
 10
4.158286771794358
 20
7.219417214178218
 30
0.0
 10
4.155182417784446
 20
7.218534946756292
 30
0.0
 10
4.152148580572748
 20
7.220193437254738
 30
0.0
  0
SPLINE
  5
119
330
70
100
AcDbEntity
  8
Camada 1
 62
   250
420
  1907995
370
    15
100
AcDbSpline
210
0.0
220
0.0
230
1.0
 70
     9
 71
     3
 72
    17
 73
    13
 74
     0
 42
0.0000000001
 43
0.0000000001
 40
0.0
 40
0.0
 40
0.0
 40
0.0
 40
1.0
 40
1.0
 40
1.0
 40
2.0
 40
2.0
 40
2.0
 40
3.0
 40
3.0
 40
3.0
 40
4.0
 40
4.0
 40
4.0
 40
4.0
 10
4.136799334445536
 20
7.192535780062216
 30
0.0
 10
4.118701817224582
 20
7.202589537621281
 30
0.0
 10
4.111751875379261
 20
7.225520416148805
 30
0.0
 10
4.121770912835388
 20
7.243617933369758
 30
0.0
 10
4.131824939542537
 20
7.26167992304352
 30
0.0
 10
4.155249435657557
 20
7.268417776198031
 30
0.0
 10
4.17334695287851
 20
7.258364018638967
 30
0.0
 10
4.191409211700356
 20
7.248344712034755
 30
0.0
 10
4.197618188868265
 20
7.225167293861567
 30
0.0
 10
4.187599151412138
 20
7.207105304187806
 30
0.0
 10
4.177545124704989
 20
7.189007786966853
 30
0.0
 10
4.154861324119297
 20
7.182516473458004
 30
0.0
 10
4.136799334445536
 20
7.192535780062216
 30
0.0
  0
SPLINE
  5
11A
330
70
100
AcDbEntity
  8
Camada 1
 62
   250
420
  1907995
370
    15
100
AcDbSpline
210
0.0
220
0.0
230
1.0
 70
     9
 71
     3
 72
    17
 73
    13
 74
     0
 42
0.0000000001
 43
0.0000000001
 40
0.0
 40
0.0
 40
0.0
 40
0.0
 40
1.0
 40
1.0
 40
1.0
 40
2.0
 40
2.0
 40
2.0
 40
3.0
 40
3.0
 40
3.0
 40
4.0
 40
4.0
 40
4.0
 40
4.0
 10
4.336771247627287
 20
7.081541263081502
 30
0.0
 10
4.318673730406334
 20
7.091595020640566
 30
0.0
 10
4.311723788561011
 20
7.114525899168091
 30
0.0
 10
4.321742826017138
 20
7.132623416389043
 30
0.0
 10
4.331796852724288
 20
7.150685406062805
 30
0.0
 10
4.355221348839308
 20
7.157423259217316
 30
0.0
 10
4.373318866060261
 20
7.147369501658253
 30
0.0
 10
4.391381124882107
 20
7.137350195054041
 30
0.0
 10
4.397590102050016
 20
7.114172776880852
 30
0.0
 10
4.387571064593889
 20
7.096110787207091
 30
0.0
 10
4.37751703788674
 20
7.078013269986138
 30
0.0
 10
4.354833237301048
 20
7.07152195647729
 30
0.0
 10
4.336771247627287
 20
7.081541263081502
 30
0.0
  0
SPLINE
  5
11B
330
70
100
AcDbEntity
  8
Camada 1
 62
   250
420
  1907995
370
    15
100
AcDbSpline
210
0.0
220
0.0
230
1.0
 70
     9
 71
     3
 72
    17
 73
    13
 74
     0
 42
0.0000000001
 43
0.0000000001
 40
0.0
 40
0.0
 40
0.0
 40
0.0
 40
1.0
 40
1.0
 40
1.0
 40
2.0
 40
2.0
 40
2.0
 40
3.0
 40
3.0
 40
3.0
 40
4.0
 40
4.0
 40
4.0
 40
4.0
 10
4.516874918338283
 20
6.986845277523036
 30
0.0
 10
4.500788206458759
 20
6.995770228014511
 30
0.0
 10
4.494720262887279
 20
7.015596214235954
 30
0.0
 10
4.503610224127732
 20
7.031683195263562
 30
0.0
 10
4.512535712915377
 20
7.047734648743979
 30
0.0
 10
4.532855316724316
 20
7.053555245225543
 30
0.0
 10
4.548942297751923
 20
7.044594767186875
 30
0.0
 10
4.56499375123234
 20
7.035704805946422
 30
0.0
 10
4.570320730126407
 20
7.015666731034168
 30
0.0
 10
4.561395241338763
 20
6.999615815849922
 30
0.0
 10
4.552469752551118
 20
6.983528834822314
 30
0.0
 10
4.532961361069721
 20
6.977919788735391
 30
0.0
 10
4.516874918338283
 20
6.986845277523036
 30
0.0
  0
SPLINE
  5
11C
330
70
100
AcDbEntity
  8
Camada 1
 62
   250
420
  1907995
370
    15
100
AcDbSpline
210
0.0
220
0.0
230
1.0
 70
     9
 71
     3
 72
    17
 73
    13
 74
     0
 42
0.0000000001
 43
0.0000000001
 40
0.0
 40
0.0
 40
0.0
 40
0.0
 40
1.0
 40
1.0
 40
1.0
 40
2.0
 40
2.0
 40
2.0
 40
3.0
 40
3.0
 40
3.0
 40
4.0
 40
4.0
 40
4.0
 40
4.0
 10
4.514638297753718
 20
6.982812900916785
 30
0.0
 10
4.496540780532765
 20
6.99286665847585
 30
0.0
 10
4.489555580288336
 20
7.015797537003374
 30
0.0
 10
4.499574617744463
 20
7.033895054224327
 30
0.0
 10
4.509628644451612
 20
7.05199257144528
 30
0.0
 10
4.533088398965739
 20
7.0586948970526
 30
0.0
 10
4.551185916186692
 20
7.048641139493535
 30
0.0
 10
4.569247905860454
 20
7.038621832889323
 30
0.0
 10
4.575457152176447
 20
7.015444414716136
 30
0.0
 10
4.565437845572236
 20
6.997382425042374
 30
0.0
 10
4.555384088013171
 20
6.97924938027423
 30
0.0
 10
4.53270028742748
 20
6.972793594312573
 30
0.0
 10
4.514638297753718
 20
6.982812900916785
 30
0.0
  0
SPLINE
  5
11D
330
70
100
AcDbEntity
  8
Camada 1
 62
   250
420
  1907995
370
    15
100
AcDbSpline
210
0.0
220
0.0
230
1.0
 70
     9
 71
     3
 72
    17
 73
    13
 74
     0
 42
0.0000000001
 43
0.0000000001
 40
0.0
 40
0.0
 40
0.0
 40
0.0
 40
1.0
 40
1.0
 40
1.0
 40
2.0
 40
2.0
 40
2.0
 40
3.0
 40
3.0
 40
3.0
 40
4.0
 40
4.0
 40
4.0
 40
4.0
 10
4.150194296329122
 20
7.216669212232561
 30
0.0
 10
4.145184643027016
 20
7.219455971502426
 30
0.0
 10
4.143103320887373
 20
7.225206051185776
 30
0.0
 10
4.145890349305323
 20
7.230250962886989
 30
0.0
 10
4.148677108575189
 20
7.23526034704101
 30
0.0
 10
4.154956602541311
 20
7.237059332839714
 30
0.0
 10
4.159965986695332
 20
7.234272573569849
 30
0.0
 10
4.164975639997438
 20
7.231485814299984
 30
0.0
 10
4.166280739060561
 20
7.225488656674801
 30
0.0
 10
4.163493979790696
 20
7.22047873422461
 30
0.0
 10
4.160706951372746
 20
7.215434360819567
 30
0.0
 10
4.155203680483144
 20
7.213881914666527
 30
0.0
 10
4.150194296329122
 20
7.216669212232561
 30
0.0
  0
SPLINE
  5
11E
330
70
100
AcDbEntity
  8
Camada 1
 62
   250
420
  1907995
370
    15
100
AcDbSpline
210
0.0
220
0.0
230
1.0
 70
     9
 71
     3
 72
    17
 73
    13
 74
     0
 42
0.0000000001
 43
0.0000000001
 40
0.0
 40
0.0
 40
0.0
 40
0.0
 40
1.0
 40
1.0
 40
1.0
 40
2.0
 40
2.0
 40
2.0
 40
3.0
 40
3.0
 40
3.0
 40
4.0
 40
4.0
 40
4.0
 40
4.0
 10
4.350166209510874
 20
7.105674695251846
 30
0.0
 10
4.345156556208768
 20
7.108461454521711
 30
0.0
 10
4.343075234069124
 20
7.114211534205062
 30
0.0
 10
4.345862262487075
 20
7.119256445906274
 30
0.0
 10
4.34864902175694
 20
7.124265830060295
 30
0.0
 10
4.354928515723062
 20
7.126064815858999
 30
0.0
 10
4.359937899877083
 20
7.123278056589134
 30
0.0
 10
4.364947553179189
 20
7.120491297319269
 30
0.0
 10
4.366252652242311
 20
7.114494139694086
 30
0.0
 10
4.363465892972446
 20
7.109484217243895
 30
0.0
 10
4.360678864554496
 20
7.104439843838852
 30
0.0
 10
4.355175593664895
 20
7.102887397685812
 30
0.0
 10
4.350166209510874
 20
7.105674695251846
 30
0.0
  0
SPLINE
  5
11F
330
70
100
AcDbEntity
  8
Camada 1
 62
   250
420
  1907995
370
    15
100
AcDbSpline
210
0.0
220
0.0
230
1.0
 70
     9
 71
     3
 72
    17
 73
    13
 74
     0
 42
0.0000000001
 43
0.0000000001
 40
0.0
 40
0.0
 40
0.0
 40
0.0
 40
1.0
 40
1.0
 40
1.0
 40
2.0
 40
2.0
 40
2.0
 40
3.0
 40
3.0
 40
3.0
 40
4.0
 40
4.0
 40
4.0
 40
4.0
 10
4.528033259637305
 20
7.00694633308713
 30
0.0
 10
4.522988347936093
 20
7.009733092356995
 30
0.0
 10
4.520942284195555
 20
7.015483172040345
 30
0.0
 10
4.523729043465421
 20
7.020528083741558
 30
0.0
 10
4.526515802735286
 20
7.025537467895579
 30
0.0
 10
4.532760038302302
 20
7.027336453694283
 30
0.0
 10
4.537804950003515
 20
7.024549694424417
 30
0.0
 10
4.542814334157536
 20
7.021762935154551
 30
0.0
 10
4.544084174821552
 20
7.015765777529369
 30
0.0
 10
4.541297415551687
 20
7.010755855079178
 30
0.0
 10
4.538510656281821
 20
7.005746470925157
 30
0.0
 10
4.533042643791326
 20
7.004159035521094
 30
0.0
 10
4.528033259637305
 20
7.00694633308713
 30
0.0
  0
SPLINE
  5
120
330
70
100
AcDbEntity
  8
Camada 1
 62
   250
420
  1907995
370
    15
100
AcDbSpline
210
0.0
220
0.0
230
1.0
 70
     9
 71
     3
 72
    17
 73
    13
 74
     0
 42
0.0000000001
 43
0.0000000001
 40
0.0
 40
0.0
 40
0.0
 40
0.0
 40
1.0
 40
1.0
 40
1.0
 40
2.0
 40
2.0
 40
2.0
 40
3.0
 40
3.0
 40
3.0
 40
4.0
 40
4.0
 40
4.0
 40
4.0
 10
4.139035955030101
 20
7.196567618372298
 30
0.0
 10
4.122949243150577
 20
7.205492568863774
 30
0.0
 10
4.116881299579096
 20
7.225318555085217
 30
0.0
 10
4.125771260819549
 20
7.241405536112825
 30
0.0
 10
4.134696749607194
 20
7.257456989593241
 30
0.0
 10
4.155016622564218
 20
7.263277586074805
 30
0.0
 10
4.171103334443741
 20
7.254317108036137
 30
0.0
 10
4.187154787924158
 20
7.245427146795685
 30
0.0
 10
4.192481766818225
 20
7.22538907188343
 30
0.0
 10
4.183591536429688
 20
7.209302629151992
 30
0.0
 10
4.174666316790127
 20
7.193251175671576
 30
0.0
 10
4.155122397761538
 20
7.187642129584653
 30
0.0
 10
4.139035955030101
 20
7.196567618372298
 30
0.0
  0
SPLINE
  5
121
330
70
100
AcDbEntity
  8
Camada 1
 62
   250
420
  1907995
370
    15
100
AcDbSpline
210
0.0
220
0.0
230
1.0
 70
     9
 71
     3
 72
    17
 73
    13
 74
     0
 42
0.0000000001
 43
0.0000000001
 40
0.0
 40
0.0
 40
0.0
 40
0.0
 40
1.0
 40
1.0
 40
1.0
 40
2.0
 40
2.0
 40
2.0
 40
3.0
 40
3.0
 40
3.0
 40
4.0
 40
4.0
 40
4.0
 40
4.0
 10
4.339007868211851
 20
7.085573639687753
 30
0.0
 10
4.322921156332328
 20
7.094498590179228
 30
0.0
 10
4.316853212760847
 20
7.114324576400671
 30
0.0
 10
4.3257431740013
 20
7.13041155742828
 30
0.0
 10
4.334668662788945
 20
7.146463010908695
 30
0.0
 10
4.354988535745969
 20
7.152283607390259
 30
0.0
 10
4.371075247625492
 20
7.143323129351593
 30
0.0
 10
4.387126701105908
 20
7.134433168111139
 30
0.0
 10
4.392453679999976
 20
7.114395093198885
 30
0.0
 10
4.383563449611438
 20
7.098308650467447
 30
0.0
 10
4.374638229971878
 20
7.08225719698703
 30
0.0
 10
4.35509431094329
 20
7.076648150900108
 30
0.0
 10
4.339007868211851
 20
7.085573639687753
 30
0.0
  0
SPLINE
  5
122
330
70
100
AcDbEntity
  8
Camada 1
 62
   250
420
  1907995
370
    15
100
AcDbSpline
210
0.0
220
0.0
230
1.0
 70
     9
 71
     3
 72
    17
 73
    13
 74
     0
 42
0.0000000001
 43
0.0000000001
 40
0.0
 40
0.0
 40
0.0
 40
0.0
 40
1.0
 40
1.0
 40
1.0
 40
2.0
 40
2.0
 40
2.0
 40
3.0
 40
3.0
 40
3.0
 40
4.0
 40
4.0
 40
4.0
 40
4.0
 10
5.786493804332727
 20
6.320207996907631
 30
0.0
 10
5.783459428824859
 20
6.321865949109908
 30
0.0
 10
5.782084082111607
 20
6.325287897859866
 30
0.0
 10
5.783742034313884
 20
6.328286207524373
 30
0.0
 10
5.785434975767182
 20
6.331320044736071
 30
0.0
 10
5.789315552853614
 20
6.332413862552638
 30
0.0
 10
5.792349390065313
 20
6.330755910350362
 30
0.0
 10
5.795348238025988
 20
6.329062430600894
 30
0.0
 10
5.795983427506081
 20
6.325463920707316
 30
0.0
 10
5.794289947756613
 20
6.322430083495618
 30
0.0
 10
5.792631995554336
 20
6.319431773831111
 30
0.0
 10
5.789527641544425
 20
6.318549506409185
 30
0.0
 10
5.786493804332727
 20
6.320207996907631
 30
0.0
  0
SPLINE
  5
123
330
70
100
AcDbEntity
  8
Camada 1
 62
   250
420
  1907995
370
    15
100
AcDbSpline
210
0.0
220
0.0
230
1.0
 70
     9
 71
     3
 72
    17
 73
    13
 74
     0
 42
0.0000000001
 43
0.0000000001
 40
0.0
 40
0.0
 40
0.0
 40
0.0
 40
1.0
 40
1.0
 40
1.0
 40
2.0
 40
2.0
 40
2.0
 40
3.0
 40
3.0
 40
3.0
 40
4.0
 40
4.0
 40
4.0
 40
4.0
 10
5.608626754206295
 20
6.418932590999161
 30
0.0
 10
5.605592378698427
 20
6.420590543201438
 30
0.0
 10
5.604217031985175
 20
6.424012491951396
 30
0.0
 10
5.605874984187452
 20
6.427010801615902
 30
0.0
 10
5.607567925640751
 20
6.430044638827601
 30
0.0
 10
5.611448502727182
 20
6.431138456644167
 30
0.0
 10
5.614482339938881
 20
6.429480504441891
 30
0.0
 10
5.617481187899556
 20
6.427787024692423
 30
0.0
 10
5.618116377379649
 20
6.424188514798846
 30
0.0
 10
5.616422897630181
 20
6.421154677587147
 30
0.0
 10
5.614764945427905
 20
6.418156367922641
 30
0.0
 10
5.611660591417993
 20
6.417274100500716
 30
0.0
 10
5.608626754206295
 20
6.418932590999161
 30
0.0
  0
SPLINE
  5
124
330
70
100
AcDbEntity
  8
Camada 1
 62
   250
420
  1907995
370
    15
100
AcDbSpline
210
0.0
220
0.0
230
1.0
 70
     9
 71
     3
 72
    17
 73
    13
 74
     0
 42
0.0000000001
 43
0.0000000001
 40
0.0
 40
0.0
 40
0.0
 40
0.0
 40
1.0
 40
1.0
 40
1.0
 40
2.0
 40
2.0
 40
2.0
 40
3.0
 40
3.0
 40
3.0
 40
4.0
 40
4.0
 40
4.0
 40
4.0
 10
5.40865457187646
 20
6.529927107979876
 30
0.0
 10
5.405655723915783
 20
6.531585060182153
 30
0.0
 10
5.40424484965534
 20
6.535007008932111
 30
0.0
 10
5.405902801857616
 20
6.538005318596617
 30
0.0
 10
5.407595743310915
 20
6.541039155808316
 30
0.0
 10
5.411476320397347
 20
6.542132973624882
 30
0.0
 10
5.414510157609045
 20
6.540475021422606
 30
0.0
 10
5.417509005569721
 20
6.538781541673138
 30
0.0
 10
5.418144195049814
 20
6.535183031779561
 30
0.0
 10
5.416450715300346
 20
6.532149194567862
 30
0.0
 10
5.41479276309807
 20
6.529150884903356
 30
0.0
 10
5.411688409088157
 20
6.528268617481431
 30
0.0
 10
5.40865457187646
 20
6.529927107979876
 30
0.0
  0
SPLINE
  5
125
330
70
100
AcDbEntity
  8
Camada 1
 62
   250
420
  1907995
370
    15
100
AcDbSpline
210
0.0
220
0.0
230
1.0
 70
     9
 71
     3
 72
    17
 73
    13
 74
     0
 42
0.0000000001
 43
0.0000000001
 40
0.0
 40
0.0
 40
0.0
 40
0.0
 40
1.0
 40
1.0
 40
1.0
 40
2.0
 40
2.0
 40
2.0
 40
3.0
 40
3.0
 40
3.0
 40
4.0
 40
4.0
 40
4.0
 40
4.0
 10
5.393305594897332
 20
6.502269450787355
 30
0.0
 10
5.375208077676379
 20
6.512323208346419
 30
0.0
 10
5.368258135831057
 20
6.535254086873944
 30
0.0
 10
5.3782769041391
 20
6.553351604094896
 30
0.0
 10
5.388331199994333
 20
6.571413593768658
 30
0.0
 10
5.411755696109354
 20
6.578151446923169
 30
0.0
 10
5.429853213330307
 20
6.568097689364106
 30
0.0
 10
5.447915203004068
 20
6.558078382759894
 30
0.0
 10
5.454124449320062
 20
6.534900964586705
 30
0.0
 10
5.44410514271585
 20
6.516838974912944
 30
0.0
 10
5.434051385156786
 20
6.4987059301448
 30
0.0
 10
5.411367584571094
 20
6.492250144183143
 30
0.0
 10
5.393305594897332
 20
6.502269450787355
 30
0.0
  0
SPLINE
  5
126
330
70
100
AcDbEntity
  8
Camada 1
 62
   250
420
  1907995
370
    15
100
AcDbSpline
210
0.0
220
0.0
230
1.0
 70
     9
 71
     3
 72
    17
 73
    13
 74
     0
 42
0.0000000001
 43
0.0000000001
 40
0.0
 40
0.0
 40
0.0
 40
0.0
 40
1.0
 40
1.0
 40
1.0
 40
2.0
 40
2.0
 40
2.0
 40
3.0
 40
3.0
 40
3.0
 40
4.0
 40
4.0
 40
4.0
 40
4.0
 10
5.593277777227168
 20
6.39127493380664
 30
0.0
 10
5.575180260006215
 20
6.401328691365704
 30
0.0
 10
5.568230318160892
 20
6.424259569893229
 30
0.0
 10
5.578249086468935
 20
6.442357087114181
 30
0.0
 10
5.588303382324169
 20
6.460419076787943
 30
0.0
 10
5.611727878439189
 20
6.467156929942454
 30
0.0
 10
5.629825395660143
 20
6.457103172383391
 30
0.0
 10
5.647887385333904
 20
6.447083865779179
 30
0.0
 10
5.654096631649897
 20
6.423906447605991
 30
0.0
 10
5.644077325045685
 20
6.40584445793223
 30
0.0
 10
5.634023567486622
 20
6.387746940711276
 30
0.0
 10
5.611339766900929
 20
6.381255627202429
 30
0.0
 10
5.593277777227168
 20
6.39127493380664
 30
0.0
  0
SPLINE
  5
127
330
70
100
AcDbEntity
  8
Camada 1
 62
   250
420
  1907995
370
    15
100
AcDbSpline
210
0.0
220
0.0
230
1.0
 70
     9
 71
     3
 72
    17
 73
    13
 74
     0
 42
0.0000000001
 43
0.0000000001
 40
0.0
 40
0.0
 40
0.0
 40
0.0
 40
1.0
 40
1.0
 40
1.0
 40
2.0
 40
2.0
 40
2.0
 40
3.0
 40
3.0
 40
3.0
 40
4.0
 40
4.0
 40
4.0
 40
4.0
 10
5.773381447938164
 20
6.296582178025191
 30
0.0
 10
5.757294466910556
 20
6.305507128516667
 30
0.0
 10
5.75122679248716
 20
6.325333114738111
 30
0.0
 10
5.760116753727613
 20
6.341420095765718
 30
0.0
 10
5.769042242515258
 20
6.357471549246135
 30
0.0
 10
5.789361846324197
 20
6.363292145727698
 30
0.0
 10
5.805448827351805
 20
6.354331667689031
 30
0.0
 10
5.821500280832221
 20
6.345441706448577
 30
0.0
 10
5.82682725972629
 20
6.325403631536324
 30
0.0
 10
5.817901770938644
 20
6.309352716352077
 30
0.0
 10
5.808976282150999
 20
6.293265735324469
 30
0.0
 10
5.789467890669603
 20
6.287656689237547
 30
0.0
 10
5.773381447938164
 20
6.296582178025191
 30
0.0
  0
SPLINE
  5
128
330
70
100
AcDbEntity
  8
Camada 1
 62
   250
420
  1907995
370
    15
100
AcDbSpline
210
0.0
220
0.0
230
1.0
 70
     9
 71
     3
 72
    17
 73
    13
 74
     0
 42
0.0000000001
 43
0.0000000001
 40
0.0
 40
0.0
 40
0.0
 40
0.0
 40
1.0
 40
1.0
 40
1.0
 40
2.0
 40
2.0
 40
2.0
 40
3.0
 40
3.0
 40
3.0
 40
4.0
 40
4.0
 40
4.0
 40
4.0
 10
5.7711448273536
 20
6.29255033971511
 30
0.0
 10
5.753047310132647
 20
6.302604097274175
 30
0.0
 10
5.746061840740133
 20
6.325534975801699
 30
0.0
 10
5.756081147344345
 20
6.343632493022652
 30
0.0
 10
5.766134904903409
 20
6.361730010243605
 30
0.0
 10
5.789594928565621
 20
6.368432335850925
 30
0.0
 10
5.807692445786575
 20
6.35837857829186
 30
0.0
 10
5.825754435460336
 20
6.348359271687649
 30
0.0
 10
5.831963681776329
 20
6.325181853514461
 30
0.0
 10
5.821944375172117
 20
6.3071198638407
 30
0.0
 10
5.811890617613053
 20
6.289022346619747
 30
0.0
 10
5.789206817027361
 20
6.282531033110898
 30
0.0
 10
5.7711448273536
 20
6.29255033971511
 30
0.0
  0
SPLINE
  5
129
330
70
100
AcDbEntity
  8
Camada 1
 62
   250
420
  1907995
370
    15
100
AcDbSpline
210
0.0
220
0.0
230
1.0
 70
     9
 71
     3
 72
    17
 73
    13
 74
     0
 42
0.0000000001
 43
0.0000000001
 40
0.0
 40
0.0
 40
0.0
 40
0.0
 40
1.0
 40
1.0
 40
1.0
 40
2.0
 40
2.0
 40
2.0
 40
3.0
 40
3.0
 40
3.0
 40
4.0
 40
4.0
 40
4.0
 40
4.0
 10
5.406700556780919
 20
6.526402882957699
 30
0.0
 10
5.401690634330729
 20
6.529189642227565
 30
0.0
 10
5.39960958133917
 20
6.534939721910915
 30
0.0
 10
5.402396340609035
 20
6.539984633612127
 30
0.0
 10
5.405183099878901
 20
6.544994017766149
 30
0.0
 10
5.411462862993108
 20
6.546793003564852
 30
0.0
 10
5.416472247147129
 20
6.544006244294987
 30
0.0
 10
5.42148163130115
 20
6.541219485025122
 30
0.0
 10
5.422786999512358
 20
6.535222327399939
 30
0.0
 10
5.420000240242493
 20
6.530212404949748
 30
0.0
 10
5.417212942676457
 20
6.525168031544705
 30
0.0
 10
5.41170994093494
 20
6.523615585391665
 30
0.0
 10
5.406700556780919
 20
6.526402882957699
 30
0.0
  0
SPLINE
  5
12A
330
70
100
AcDbEntity
  8
Camada 1
 62
   250
420
  1907995
370
    15
100
AcDbSpline
210
0.0
220
0.0
230
1.0
 70
     9
 71
     3
 72
    17
 73
    13
 74
     0
 42
0.0000000001
 43
0.0000000001
 40
0.0
 40
0.0
 40
0.0
 40
0.0
 40
1.0
 40
1.0
 40
1.0
 40
2.0
 40
2.0
 40
2.0
 40
3.0
 40
3.0
 40
3.0
 40
4.0
 40
4.0
 40
4.0
 40
4.0
 10
5.606672739110755
 20
6.415408365976984
 30
0.0
 10
5.601662816660565
 20
6.41819512524685
 30
0.0
 10
5.599581763669005
 20
6.4239452049302
 30
0.0
 10
5.602368522938871
 20
6.428990116631412
 30
0.0
 10
5.605155282208737
 20
6.433999500785434
 30
0.0
 10
5.611435045322943
 20
6.435798486584138
 30
0.0
 10
5.616444429476964
 20
6.433011727314272
 30
0.0
 10
5.621453813630986
 20
6.430224968044407
 30
0.0
 10
5.622759181842194
 20
6.424227810419224
 30
0.0
 10
5.619972422572328
 20
6.419217887969034
 30
0.0
 10
5.617185125006293
 20
6.414173514563991
 30
0.0
 10
5.611682123264776
 20
6.41262106841095
 30
0.0
 10
5.606672739110755
 20
6.415408365976984
 30
0.0
  0
SPLINE
  5
12B
330
70
100
AcDbEntity
  8
Camada 1
 62
   250
420
  1907995
370
    15
100
AcDbSpline
210
0.0
220
0.0
230
1.0
 70
     9
 71
     3
 72
    17
 73
    13
 74
     0
 42
0.0000000001
 43
0.0000000001
 40
0.0
 40
0.0
 40
0.0
 40
0.0
 40
1.0
 40
1.0
 40
1.0
 40
2.0
 40
2.0
 40
2.0
 40
3.0
 40
3.0
 40
3.0
 40
4.0
 40
4.0
 40
4.0
 40
4.0
 10
5.784539789237187
 20
6.316683771885455
 30
0.0
 10
5.779494877535974
 20
6.31947053115532
 30
0.0
 10
5.777448813795437
 20
6.32522061083867
 30
0.0
 10
5.780235573065303
 20
6.330265522539883
 30
0.0
 10
5.783022332335168
 20
6.335274906693904
 30
0.0
 10
5.789266567902183
 20
6.337073892492607
 30
0.0
 10
5.794311479603396
 20
6.334287133222742
 30
0.0
 10
5.799320863757417
 20
6.331500373952877
 30
0.0
 10
5.800590704421433
 20
6.325503216327694
 30
0.0
 10
5.797803945151568
 20
6.320493293877504
 30
0.0
 10
5.795017185881703
 20
6.315483909723482
 30
0.0
 10
5.789549173391208
 20
6.31389647431942
 30
0.0
 10
5.784539789237187
 20
6.316683771885455
 30
0.0
  0
SPLINE
  5
12C
330
70
100
AcDbEntity
  8
Camada 1
 62
   250
420
  1907995
370
    15
100
AcDbSpline
210
0.0
220
0.0
230
1.0
 70
     9
 71
     3
 72
    17
 73
    13
 74
     0
 42
0.0000000001
 43
0.0000000001
 40
0.0
 40
0.0
 40
0.0
 40
0.0
 40
1.0
 40
1.0
 40
1.0
 40
2.0
 40
2.0
 40
2.0
 40
3.0
 40
3.0
 40
3.0
 40
4.0
 40
4.0
 40
4.0
 40
4.0
 10
5.395542215481897
 20
6.506301827393606
 30
0.0
 10
5.379455234454289
 20
6.515226777885081
 30
0.0
 10
5.373352032483701
 20
6.535052764106525
 30
0.0
 10
5.382277521271346
 20
6.551139745134133
 30
0.0
 10
5.391203010058991
 20
6.567191198614549
 30
0.0
 10
5.41152261386793
 20
6.573011795096112
 30
0.0
 10
5.427609594895538
 20
6.564051317057446
 30
0.0
 10
5.443661048375955
 20
6.555161355816992
 30
0.0
 10
5.448988027270022
 20
6.535123280904739
 30
0.0
 10
5.440097527733399
 20
6.5190368381733
 30
0.0
 10
5.431172577241924
 20
6.502985384692883
 30
0.0
 10
5.411628658213335
 20
6.497376338605961
 30
0.0
 10
5.395542215481897
 20
6.506301827393606
 30
0.0
  0
SPLINE
  5
12D
330
70
100
AcDbEntity
  8
Camada 1
 62
   250
420
  1907995
370
    15
100
AcDbSpline
210
0.0
220
0.0
230
1.0
 70
     9
 71
     3
 72
    17
 73
    13
 74
     0
 42
0.0000000001
 43
0.0000000001
 40
0.0
 40
0.0
 40
0.0
 40
0.0
 40
1.0
 40
1.0
 40
1.0
 40
2.0
 40
2.0
 40
2.0
 40
3.0
 40
3.0
 40
3.0
 40
4.0
 40
4.0
 40
4.0
 40
4.0
 10
5.595514397811732
 20
6.395307310412891
 30
0.0
 10
5.579427416784125
 20
6.404232260904366
 30
0.0
 10
5.573324214813537
 20
6.42405824712581
 30
0.0
 10
5.582249703601181
 20
6.440145228153418
 30
0.0
 10
5.591175192388827
 20
6.456196681633834
 30
0.0
 10
5.611494796197765
 20
6.462017278115397
 30
0.0
 10
5.627581777225374
 20
6.453056800076731
 30
0.0
 10
5.64363323070579
 20
6.444166838836277
 30
0.0
 10
5.648960209599858
 20
6.424128763924024
 30
0.0
 10
5.640069710063235
 20
6.408042321192585
 30
0.0
 10
5.63114475957176
 20
6.391990867712168
 30
0.0
 10
5.611600840543171
 20
6.386381821625246
 30
0.0
 10
5.595514397811732
 20
6.395307310412891
 30
0.0
  0
SPLINE
  5
12E
330
70
100
AcDbEntity
  8
Camada 1
 62
   250
420
  1907995
370
    15
100
AcDbSpline
210
0.0
220
0.0
230
1.0
 70
     9
 71
     3
 72
    17
 73
    13
 74
     0
 42
0.0000000001
 43
0.0000000001
 40
0.0
 40
0.0
 40
0.0
 40
0.0
 40
1.0
 40
1.0
 40
1.0
 40
2.0
 40
2.0
 40
2.0
 40
3.0
 40
3.0
 40
3.0
 40
4.0
 40
4.0
 40
4.0
 40
4.0
 10
4.691510576558784
 20
7.187018244324121
 30
0.0
 10
4.688476201050916
 20
7.188676196526397
 30
0.0
 10
4.687100854337664
 20
7.192098145276356
 30
0.0
 10
4.68875880653994
 20
7.195096454940863
 30
0.0
 10
4.690451747993239
 20
7.19813029215256
 30
0.0
 10
4.694332325079671
 20
7.199224109969128
 30
0.0
 10
4.69736616229137
 20
7.197566157766851
 30
0.0
 10
4.700365010252046
 20
7.195872678017383
 30
0.0
 10
4.701000199732138
 20
7.192274168123805
 30
0.0
 10
4.69930671998267
 20
7.189240330912108
 30
0.0
 10
4.697648767780393
 20
7.186242021247601
 30
0.0
 10
4.694544413770482
 20
7.185359753825675
 30
0.0
 10
4.691510576558784
 20
7.187018244324121
 30
0.0
  0
SPLINE
  5
12F
330
70
100
AcDbEntity
  8
Camada 1
 62
   250
420
  1907995
370
    15
100
AcDbSpline
210
0.0
220
0.0
230
1.0
 70
     9
 71
     3
 72
    17
 73
    13
 74
     0
 42
0.0000000001
 43
0.0000000001
 40
0.0
 40
0.0
 40
0.0
 40
0.0
 40
1.0
 40
1.0
 40
1.0
 40
2.0
 40
2.0
 40
2.0
 40
3.0
 40
3.0
 40
3.0
 40
4.0
 40
4.0
 40
4.0
 40
4.0
 10
4.678397681868052
 20
7.163392425441681
 30
0.0
 10
4.662310700840444
 20
7.172317375933157
 30
0.0
 10
4.656243026417048
 20
7.1921433621546
 30
0.0
 10
4.665132987657501
 20
7.208230343182208
 30
0.0
 10
4.674058476445146
 20
7.224281796662625
 30
0.0
 10
4.694378080254085
 20
7.230102393144187
 30
0.0
 10
4.710465061281693
 20
7.221141915105521
 30
0.0
 10
4.726516514762109
 20
7.212251953865068
 30
0.0
 10
4.731843493656176
 20
7.192213878952814
 30
0.0
 10
4.722918004868532
 20
7.176162963768566
 30
0.0
 10
4.713992516080887
 20
7.160075982740958
 30
0.0
 10
4.69448412459949
 20
7.154466936654037
 30
0.0
 10
4.678397681868052
 20
7.163392425441681
 30
0.0
  0
SPLINE
  5
130
330
70
100
AcDbEntity
  8
Camada 1
 62
   250
420
  1907995
370
    15
100
AcDbSpline
210
0.0
220
0.0
230
1.0
 70
     9
 71
     3
 72
    17
 73
    13
 74
     0
 42
0.0000000001
 43
0.0000000001
 40
0.0
 40
0.0
 40
0.0
 40
0.0
 40
1.0
 40
1.0
 40
1.0
 40
2.0
 40
2.0
 40
2.0
 40
3.0
 40
3.0
 40
3.0
 40
4.0
 40
4.0
 40
4.0
 40
4.0
 10
4.689556023167074
 20
7.183494019301945
 30
0.0
 10
4.684511111465861
 20
7.18628077857181
 30
0.0
 10
4.682465047725325
 20
7.19203085825516
 30
0.0
 10
4.68525180699519
 20
7.197075769956373
 30
0.0
 10
4.688038566265055
 20
7.202085154110394
 30
0.0
 10
4.694282801832071
 20
7.203884139909098
 30
0.0
 10
4.699327713533284
 20
7.201097380639232
 30
0.0
 10
4.704337097687305
 20
7.198310621369366
 30
0.0
 10
4.705606938351321
 20
7.192313463744184
 30
0.0
 10
4.702820179081456
 20
7.187303541293993
 30
0.0
 10
4.70003341981159
 20
7.182294157139972
 30
0.0
 10
4.694565407321095
 20
7.180706721735909
 30
0.0
 10
4.689556023167074
 20
7.183494019301945
 30
0.0
  0
LINE
  5
131
330
70
100
AcDbEntity
  8
Camada 1
 62
   250
420
  1907995
370
    15
100
AcDbLine
 10
4.689263190050828
 20
1.931289038705138
 30
0.0
 11
4.689263190050828
 21
1.911674468304294
 31
0.0
  0
LINE
  5
132
330
70
100
AcDbEntity
  8
Camada 1
 62
   250
420
  1907995
370
    15
100
AcDbLine
 10
4.650719031124917
 20
1.881639022356738
 30
0.0
 11
4.692981739990219
 21
1.913812311541742
 31
0.0
  0
LINE
  5
133
330
70
100
AcDbEntity
  8
Camada 1
 62
   250
420
  1907995
370
    15
100
AcDbLine
 10
5.280490560271131
 20
1.931289038705138
 30
0.0
 11
5.280490560271131
 21
1.913650149820659
 31
0.0
  0
LINE
  5
134
330
70
100
AcDbEntity
  8
Camada 1
 62
   250
420
  1907995
370
    15
100
AcDbLine
 10
5.308582622472496
 20
1.882291706462342
 30
0.0
 11
5.280501326194523
 21
1.913653648745761
 31
0.0
  0
LINE
  5
135
330
70
100
AcDbEntity
  8
Camada 1
 62
   250
420
  1907995
370
    15
100
AcDbLine
 10
4.687450208551715
 20
1.909730815410018
 30
0.0
 11
5.282515630461054
 21
1.909730815410018
 31
0.0
  0
LINE
  5
136
330
70
100
AcDbEntity
  8
Camada 1
 62
   250
420
  1907995
370
    15
100
AcDbLine
 10
4.657721725994857
 20
1.880400806592684
 30
0.0
 11
5.305774331355848
 21
1.880400806592684
 31
0.0
  0
LINE
  5
137
330
70
100
AcDbEntity
  8
Camada 1
 62
   250
420
  1907995
370
    15
100
AcDbLine
 10
4.657252331734992
 20
1.672586456516464
 30
0.0
 11
5.307280484038304
 21
1.672586456516464
 31
0.0
  0
LINE
  5
138
330
70
100
AcDbEntity
  8
Camada 1
 62
   250
420
  1907995
370
    15
100
AcDbLine
 10
4.686956052668049
 20
1.63108920480429
 30
0.0
 11
4.651678274899091
 21
1.674939483647698
 31
0.0
  0
LINE
  5
139
330
70
100
AcDbEntity
  8
Camada 1
 62
   250
420
  1907995
370
    15
100
AcDbLine
 10
5.26529661258884
 20
1.63207347935035
 30
0.0
 11
5.308829162118159
 21
1.675006501520809
 31
0.0
  0
LINE
  5
13A
330
70
100
AcDbEntity
  8
Camada 1
 62
   250
420
  1907995
370
    15
100
AcDbLine
 10
4.681301251406714
 20
1.633713936927115
 30
0.0
 11
5.270086910201846
 21
1.633925487321756
 31
0.0
  0
LINE
  5
13B
330
70
100
AcDbEntity
  8
Camada 1
 62
   250
420
  1907995
370
    15
100
AcDbLine
 10
4.653262480526136
 20
1.887043650473266
 30
0.0
 11
4.653262480526136
 21
1.670155780162769
 31
0.0
  0
LINE
  5
13C
330
70
100
AcDbEntity
  8
Camada 1
 62
   250
420
  1907995
370
    15
100
AcDbLine
 10
5.306811628074609
 20
1.886980131525257
 30
0.0
 11
5.306811628074609
 21
1.67009226121476
 31
0.0
  0
ENDSEC
  0
SECTION
  2
OBJECTS
  0
DICTIONARY
  5
C
330
0
100
AcDbDictionary
281
     1
  3
ACAD_COLOR
350
63
  3
ACAD_DETAILVIEWSTYLE
350
6A
  3
ACAD_GROUP
350
D
  3
ACAD_LAYOUT
350
62
  3
ACAD_MATERIAL
350
10
  3
ACAD_MLEADERSTYLE
350
66
  3
ACAD_MLINESTYLE
350
5F
  3
ACAD_PLOTSETTINGS
350
61
  3
ACAD_PLOTSTYLENAME
350
E
  3
ACAD_SCALELIST
350
42
  3
ACAD_SECTIONVIEWSTYLE
350
68
  3
ACAD_TABLESTYLE
350
64
  3
ACAD_VISUALSTYLE
350
29
  3
ACDB_RECOMPOSE_DATA
350
145
  3
AcDbVariableDictionary
350
13D
  0
DICTIONARY
  5
63
102
{ACAD_REACTORS
330
C
102
}
330
C
100
AcDbDictionary
281
     1
  0
DICTIONARY
  5
6A
102
{ACAD_REACTORS
330
C
102
}
330
C
100
AcDbDictionary
281
     1
  3
Imperial24
350
6B
  0
DICTIONARY
  5
D
102
{ACAD_REACTORS
330
C
102
}
330
C
100
AcDbDictionary
281
     1
  0
DICTIONARY
  5
62
102
{ACAD_REACTORS
330
C
102
}
330
C
100
AcDbDictionary
281
     1
  3
Layout1
350
6F
  3
Layout2
350
77
  3
Model
350
73
  0
DICTIONARY
  5
10
102
{ACAD_REACTORS
330
C
102
}
330
C
100
AcDbDictionary
281
     1
  3
ByBlock
350
19
  3
ByLayer
350
11
  3
Global
350
21
  0
DICTIONARY
  5
66
102
{ACAD_REACTORS
330
C
102
}
330
C
100
AcDbDictionary
281
     1
  3
Standard
350
67
  0
DICTIONARY
  5
5F
102
{ACAD_REACTORS
330
C
102
}
330
C
100
AcDbDictionary
281
     1
  3
Standard
350
60
  0
DICTIONARY
  5
61
102
{ACAD_REACTORS
330
C
102
}
330
C
100
AcDbDictionary
281
     1
  0
ACDBDICTIONARYWDFLT
  5
E
102
{ACAD_REACTORS
330
C
102
}
330
C
100
AcDbDictionary
281
     1
  3
Normal
350
F
100
AcDbDictionaryWithDefault
340
F
  0
DICTIONARY
  5
42
102
{ACAD_REACTORS
330
C
102
}
330
C
100
AcDbDictionary
281
     1
  3
A0
350
43
  3
A1
350
44
  3
A2
350
45
  3
A3
350
46
  3
A4
350
47
  3
A5
350
48
  3
A6
350
49
  3
A7
350
4A
  3
A8
350
4B
  3
A9
350
4C
  3
B0
350
4D
  3
B1
350
4E
  3
B2
350
4F
  3
B3
350
50
  3
B4
350
51
  3
B5
350
52
  3
B6
350
53
  0
DICTIONARY
  5
68
102
{ACAD_REACTORS
330
C
102
}
330
C
100
AcDbDictionary
281
     1
  3
Imperial24
350
69
  0
DICTIONARY
  5
64
102
{ACAD_REACTORS
330
C
102
}
330
C
100
AcDbDictionary
281
     1
  3
Standard
350
65
  0
DICTIONARY
  5
29
102
{ACAD_REACTORS
330
C
102
}
330
C
100
AcDbDictionary
281
     1
  3
2dWireframe
350
2F
  3
Basic
350
2E
  3
Brighten
350
35
  3
ColorChange
350
39
  3
Conceptual
350
32
  3
Dim
350
34
  3
EdgeColorOff
350
41
  3
Facepattern
350
38
  3
Flat
350
2A
  3
FlatWithEdges
350
2B
  3
Gouraud
350
2C
  3
GouraudWithEdges
350
2D
  3
Hidden
350
31
  3
JitterOff
350
3F
  3
Linepattern
350
37
  3
OverhangOff
350
40
  3
Realistic
350
33
  3
Shaded
350
3E
  3
Shaded with edges
350
3D
  3
Shades of Gray
350
3A
  3
Sketchy
350
3B
  3
Thicken
350
36
  3
Wireframe
350
30
  3
X-Ray
350
3C
  0
XRECORD
  5
145
102
{ACAD_REACTORS
330
C
102
}
330
C
100
AcDbXrecord
280
     1
 90
        1
330
65
  0
DICTIONARY
  5
13D
102
{ACAD_REACTORS
330
C
102
}
330
C
100
AcDbDictionary
281
     1
  3
CANNOSCALE
350
142
  3
CMLEADERSTYLE
350
13F
  3
CTABLESTYLE
350
13E
  3
CVIEWDETAILSTYLE
350
140
  3
CVIEWSECTIONSTYLE
350
141
  0
ACDBDETAILVIEWSTYLE
  5
6B
102
{ACAD_REACTORS
330
6A
102
}
330
6A
100
AcDbModelDocViewStyle
 70
     0
  3
Imperial24
290
     1
300
Imperial24
 90
        0
100
AcDbDetailViewStyle
 70
     0
 71
     0
 90
        3
 71
     1
340
55
 62
   256
 40
0.24
340
0
 62
   256
 40
0.24
300

 40
0.36
280
     3
 71
     2
340
5D
 90
       25
 62
   256
 71
     3
340
55
 62
   256
 40
0.24
 90
        1
 40
0.75
 90
        1
300
%<\AcVar ViewType \f "%tc1">% %<\AcVar ViewDetailId>%\PSCALE %<\AcVar ViewScale \f "%sn">%
 71
     4
340
5D
 90
       25
 62
   256
340
5D
 90
       25
 62
   256
280
     0
  0
LAYOUT
  5
6F
102
{ACAD_REACTORS
330
62
102
}
330
62
100
AcDbPlotSettings
  1

  2

  4

  6

 40
0.0
 41
0.0
 42
0.0
 43
0.0
 44
0.0
 45
0.0
 46
0.0
 47
0.0
 48
0.0
 49
0.0
140
0.0
141
0.0
142
1.0
143
1.0
 70
   688
 72
     0
 73
     0
 74
     5
  7

 75
    16
147
1.0
 76
     0
 77
     2
 78
   300
148
0.0
149
0.0
100
AcDbLayout
  1
Layout1
 70
     1
 71
     1
 10
0.0
 20
0.0
 11
12.0
 21
9.0
 12
0.0
 22
0.0
 32
0.0
 14
0.0
 24
0.0
 34
0.0
 15
0.0
 25
0.0
 35
0.0
146
0.0
 13
0.0
 23
0.0
 33
0.0
 16
1.0
 26
0.0
 36
0.0
 17
0.0
 27
1.0
 37
0.0
 76
     0
330
6C
  0
LAYOUT
  5
77
102
{ACAD_REACTORS
330
62
102
}
330
62
100
AcDbPlotSettings
  1

  2

  4

  6

 40
0.0
 41
0.0
 42
0.0
 43
0.0
 44
0.0
 45
0.0
 46
0.0
 47
0.0
 48
0.0
 49
0.0
140
0.0
141
0.0
142
1.0
143
1.0
 70
   688
 72
     0
 73
     0
 74
     5
  7

 75
    16
147
1.0
 76
     0
 77
     2
 78
   300
148
0.0
149
0.0
100
AcDbLayout
  1
Layout2
 70
     1
 71
     2
 10
0.0
 20
0.0
 11
12.0
 21
9.0
 12
0.0
 22
0.0
 32
0.0
 14
0.0
 24
0.0
 34
0.0
 15
0.0
 25
0.0
 35
0.0
146
0.0
 13
0.0
 23
0.0
 33
0.0
 16
1.0
 26
0.0
 36
0.0
 17
0.0
 27
1.0
 37
0.0
 76
     0
330
74
  0
LAYOUT
  5
73
102
{ACAD_REACTORS
330
62
102
}
330
62
100
AcDbPlotSettings
  1

  2

  4

  6

 40
0.0
 41
0.0
 42
0.0
 43
0.0
 44
0.0
 45
0.0
 46
0.0
 47
0.0
 48
0.0
 49
0.0
140
0.0
141
0.0
142
1.0
143
1.0
 70
  1712
 72
     0
 73
     0
 74
     0
  7

 75
     0
147
1.0
 76
     0
 77
     2
 78
   300
148
0.0
149
0.0
100
AcDbLayout
  1
Model
 70
     1
 71
     0
 10
0.0
 20
0.0
 11
12.0
 21
9.0
 12
0.0
 22
0.0
 32
0.0
 14
0.0
 24
0.0
 34
0.0
 15
0.0
 25
0.0
 35
0.0
146
0.0
 13
0.0
 23
0.0
 33
0.0
 16
1.0
 26
0.0
 36
0.0
 17
0.0
 27
1.0
 37
0.0
 76
     0
330
70
  0
MATERIAL
  5
19
102
{ACAD_XDICTIONARY
360
1A
102
}
102
{ACAD_REACTORS
330
10
102
}
330
10
100
AcDbMaterial
  1
ByBlock
 72
     0
 43
0.0208333333333333
 43
0.0
 43
0.0
 43
0.0
 43
0.0
 43
0.0208333333333333
 43
0.0
 43
0.0
 43
0.0
 43
0.0
 43
1.0
 43
0.0
 43
0.0
 43
0.0
 43
0.0
 43
1.0
 77
     0
 47
0.0208333333333333
 47
0.0
 47
0.0
 47
0.0
 47
0.0
 47
0.0208333333333333
 47
0.0
 47
0.0
 47
0.0
 47
0.0
 47
1.0
 47
0.0
 47
0.0
 47
0.0
 47
0.0
 47
1.0
171
     0
 49
0.0208333333333333
 49
0.0
 49
0.0
 49
0.0
 49
0.0
 49
0.0208333333333333
 49
0.0
 49
0.0
 49
0.0
 49
0.0
 49
1.0
 49
0.0
 49
0.0
 49
0.0
 49
0.0
 49
1.0
175
     0
142
0.0208333333333333
142
0.0
142
0.0
142
0.0
142
0.0
142
0.0208333333333333
142
0.0
142
0.0
142
0.0
142
0.0
142
1.0
142
0.0
142
0.0
142
0.0
142
0.0
142
1.0
179
     0
144
0.0208333333333333
144
0.0
144
0.0
144
0.0
144
0.0
144
0.0208333333333333
144
0.0
144
0.0
144
0.0
144
0.0
144
1.0
144
0.0
144
0.0
144
0.0
144
0.0
144
1.0
147
0.0208333333333333
147
0.0
147
0.0
147
0.0
147
0.0
147
0.0208333333333333
147
0.0
147
0.0
147
0.0
147
0.0
147
1.0
147
0.0
147
0.0
147
0.0
147
0.0
147
1.0
  0
MATERIAL
  5
11
102
{ACAD_XDICTIONARY
360
12
102
}
102
{ACAD_REACTORS
330
10
102
}
330
10
100
AcDbMaterial
  1
ByLayer
 72
     0
 43
0.0208333333333333
 43
0.0
 43
0.0
 43
0.0
 43
0.0
 43
0.0208333333333333
 43
0.0
 43
0.0
 43
0.0
 43
0.0
 43
1.0
 43
0.0
 43
0.0
 43
0.0
 43
0.0
 43
1.0
 77
     0
 47
0.0208333333333333
 47
0.0
 47
0.0
 47
0.0
 47
0.0
 47
0.0208333333333333
 47
0.0
 47
0.0
 47
0.0
 47
0.0
 47
1.0
 47
0.0
 47
0.0
 47
0.0
 47
0.0
 47
1.0
171
     0
 49
0.0208333333333333
 49
0.0
 49
0.0
 49
0.0
 49
0.0
 49
0.0208333333333333
 49
0.0
 49
0.0
 49
0.0
 49
0.0
 49
1.0
 49
0.0
 49
0.0
 49
0.0
 49
0.0
 49
1.0
175
     0
142
0.0208333333333333
142
0.0
142
0.0
142
0.0
142
0.0
142
0.0208333333333333
142
0.0
142
0.0
142
0.0
142
0.0
142
1.0
142
0.0
142
0.0
142
0.0
142
0.0
142
1.0
179
     0
144
0.0208333333333333
144
0.0
144
0.0
144
0.0
144
0.0
144
0.0208333333333333
144
0.0
144
0.0
144
0.0
144
0.0
144
1.0
144
0.0
144
0.0
144
0.0
144
0.0
144
1.0
147
0.0208333333333333
147
0.0
147
0.0
147
0.0
147
0.0
147
0.0208333333333333
147
0.0
147
0.0
147
0.0
147
0.0
147
1.0
147
0.0
147
0.0
147
0.0
147
0.0
147
1.0
  0
MATERIAL
  5
21
102
{ACAD_XDICTIONARY
360
22
102
}
102
{ACAD_REACTORS
330
10
102
}
330
10
100
AcDbMaterial
  1
Global
 72
     0
 43
0.0208333333333333
 43
0.0
 43
0.0
 43
0.0
 43
0.0
 43
0.0208333333333333
 43
0.0
 43
0.0
 43
0.0
 43
0.0
 43
1.0
 43
0.0
 43
0.0
 43
0.0
 43
0.0
 43
1.0
 77
     0
 47
0.0208333333333333
 47
0.0
 47
0.0
 47
0.0
 47
0.0
 47
0.0208333333333333
 47
0.0
 47
0.0
 47
0.0
 47
0.0
 47
1.0
 47
0.0
 47
0.0
 47
0.0
 47
0.0
 47
1.0
171
     0
 49
0.0208333333333333
 49
0.0
 49
0.0
 49
0.0
 49
0.0
 49
0.0208333333333333
 49
0.0
 49
0.0
 49
0.0
 49
0.0
 49
1.0
 49
0.0
 49
0.0
 49
0.0
 49
0.0
 49
1.0
175
     0
142
0.0208333333333333
142
0.0
142
0.0
142
0.0
142
0.0
142
0.0208333333333333
142
0.0
142
0.0
142
0.0
142
0.0
142
1.0
142
0.0
142
0.0
142
0.0
142
0.0
142
1.0
179
     0
144
0.0208333333333333
144
0.0
144
0.0
144
0.0
144
0.0
144
0.0208333333333333
144
0.0
144
0.0
144
0.0
144
0.0
144
1.0
144
0.0
144
0.0
144
0.0
144
0.0
144
1.0
147
0.0208333333333333
147
0.0
147
0.0
147
0.0
147
0.0
147
0.0208333333333333
147
0.0
147
0.0
147
0.0
147
0.0
147
1.0
147
0.0
147
0.0
147
0.0
147
0.0
147
1.0
  0
MLEADERSTYLE
  5
67
102
{ACAD_REACTORS
330
66
102
}
330
66
100
AcDbMLeaderStyle
179
     2
170
     2
171
     1
172
     0
 90
        2
 40
0.0
 41
0.0
173
     1
 91
-1056964608
340
5B
 92
       -2
290
     1
 42
0.09
291
     1
 43
0.36
  3
Standard
 44
0.18
300

342
55
174
     1
178
     6
175
     1
176
     0
 93
-1056964608
 45
0.18
292
     0
297
     0
 46
0.18
 94
-1056964608
 47
1.0
 49
1.0
140
1.0
293
     1
141
0.0
294
     1
177
     0
142
1.0
295
     1
296
     0
143
0.125
271
     0
272
     9
273
     9
298
     1
  0
MLINESTYLE
  5
60
102
{ACAD_REACTORS
330
5F
102
}
330
5F
100
AcDbMlineStyle
  2
STANDARD
 70
     0
  3

 62
   256
 51
90.0
 52
90.0
 71
     2
 49
0.5
 62
   256
  6
BYLAYER
 49
-0.5
 62
   256
  6
BYLAYER
  0
ACDBPLACEHOLDER
  5
F
102
{ACAD_REACTORS
330
E
102
}
330
E
  0
SCALE
  5
43
102
{ACAD_REACTORS
330
42
102
}
330
42
100
AcDbScale
 70
     0
300
1:1
140
1.0
141
1.0
290
     1
  0
SCALE
  5
44
102
{ACAD_REACTORS
330
42
102
}
330
42
100
AcDbScale
 70
     0
300
1/128" = 1'-0"
140
0.0078125
141
12.0
290
     0
  0
SCALE
  5
45
102
{ACAD_REACTORS
330
42
102
}
330
42
100
AcDbScale
 70
     0
300
1/64" = 1'-0"
140
0.015625
141
12.0
290
     0
  0
SCALE
  5
46
102
{ACAD_REACTORS
330
42
102
}
330
42
100
AcDbScale
 70
     0
300
1/32" = 1'-0"
140
0.03125
141
12.0
290
     0
  0
SCALE
  5
47
102
{ACAD_REACTORS
330
42
102
}
330
42
100
AcDbScale
 70
     0
300
1/16" = 1'-0"
140
0.0625
141
12.0
290
     0
  0
SCALE
  5
48
102
{ACAD_REACTORS
330
42
102
}
330
42
100
AcDbScale
 70
     0
300
3/32" = 1'-0"
140
0.09375
141
12.0
290
     0
  0
SCALE
  5
49
102
{ACAD_REACTORS
330
42
102
}
330
42
100
AcDbScale
 70
     0
300
1/8" = 1'-0"
140
0.125
141
12.0
290
     0
  0
SCALE
  5
4A
102
{ACAD_REACTORS
330
42
102
}
330
42
100
AcDbScale
 70
     0
300
3/16" = 1'-0"
140
0.1875
141
12.0
290
     0
  0
SCALE
  5
4B
102
{ACAD_REACTORS
330
42
102
}
330
42
100
AcDbScale
 70
     0
300
1/4" = 1'-0"
140
0.25
141
12.0
290
     0
  0
SCALE
  5
4C
102
{ACAD_REACTORS
330
42
102
}
330
42
100
AcDbScale
 70
     0
300
3/8" = 1'-0"
140
0.375
141
12.0
290
     0
  0
SCALE
  5
4D
102
{ACAD_REACTORS
330
42
102
}
330
42
100
AcDbScale
 70
     0
300
1/2" = 1'-0"
140
0.5
141
12.0
290
     0
  0
SCALE
  5
4E
102
{ACAD_REACTORS
330
42
102
}
330
42
100
AcDbScale
 70
     0
300
3/4" = 1'-0"
140
0.75
141
12.0
290
     0
  0
SCALE
  5
4F
102
{ACAD_REACTORS
330
42
102
}
330
42
100
AcDbScale
 70
     0
300
1" = 1'-0"
140
1.0
141
12.0
290
     0
  0
SCALE
  5
50
102
{ACAD_REACTORS
330
42
102
}
330
42
100
AcDbScale
 70
     0
300
1-1/2" = 1'-0"
140
1.5
141
12.0
290
     0
  0
SCALE
  5
51
102
{ACAD_REACTORS
330
42
102
}
330
42
100
AcDbScale
 70
     0
300
3" = 1'-0"
140
3.0
141
12.0
290
     0
  0
SCALE
  5
52
102
{ACAD_REACTORS
330
42
102
}
330
42
100
AcDbScale
 70
     0
300
6" = 1'-0"
140
6.0
141
12.0
290
     0
  0
SCALE
  5
53
102
{ACAD_REACTORS
330
42
102
}
330
42
100
AcDbScale
 70
     0
300
1'-0" = 1'-0"
140
12.0
141
12.0
290
     0
  0
ACDBSECTIONVIEWSTYLE
  5
69
102
{ACAD_REACTORS
330
68
102
}
330
68
100
AcDbModelDocViewStyle
 70
     0
  3
Imperial24
290
     1
300
Imperial24
 90
        0
100
AcDbSectionViewStyle
 70
     0
 71
     0
 90
       78
 71
     1
340
55
 62
   256
 40
0.24
340
0
340
0
 62
   256
 40
0.24
300
I, O, Q, S, X, Z
 40
0.48
 90
        3
 40
0.18
 90
        1
 71
     2
340
5D
 90
       25
 62
   256
340
5D
 90
       50
 62
   256
 40
0.24
 40
0.0
 40
0.24
 71
     3
340
55
 62
   256
 40
0.24
 90
        1
 40
0.75
 90
        1
300
%<\AcVar ViewType \f "%tc1">% %<\AcVar ViewSectionStartId>%-%<\AcVar ViewSectionEndId>%\PSCALE %<\AcVar ViewScale \f "%sn">%
 71
     4
 62
   256
 62
   257
300
ANSI31
 40
1.0
 90
        0
290
     0
290
     0
 90
        6
 40
0.0
 40
1.570796326794896
 40
0.2617993877991494
 40
1.308996938995747
 40
-0.2617993877991494
 40
1.832595714594046
  0
TABLESTYLE
  5
65
102
{ACAD_XDICTIONARY
360
143
102
}
102
{ACAD_REACTORS
330
64
102
}
330
64
100
AcDbTableStyle
280
     0
  3
Standard
 70
     0
 71
     0
 40
0.06
 41
0.06
280
     0
281
     0
  7
Standard
140
0.18
170
     2
 62
     0
 63
     7
283
     0
 90
      512
 91
        0
  1

274
    -2
284
     1
 64
     0
275
    -2
285
     1
 65
     0
276
    -2
286
     1
 66
     0
277
    -2
287
     1
 67
     0
278
    -2
288
     1
 68
     0
279
    -2
289
     1
 69
     0
  7
Standard
140
0.25
170
     5
 62
     0
 63
     7
283
     0
 90
      512
 91
        0
  1

274
    -2
284
     1
 64
     0
275
    -2
285
     1
 65
     0
276
    -2
286
     1
 66
     0
277
    -2
287
     1
 67
     0
278
    -2
288
     1
 68
     0
279
    -2
289
     1
 69
     0
  7
Standard
140
0.18
170
     5
 62
     0
 63
     7
283
     0
 90
      512
 91
        0
  1

274
    -2
284
     1
 64
     0
275
    -2
285
     1
 65
     0
276
    -2
286
     1
 66
     0
277
    -2
287
     1
 67
     0
278
    -2
288
     1
 68
     0
279
    -2
289
     1
 69
     0
  0
VISUALSTYLE
  5
2F
102
{ACAD_REACTORS
330
29
102
}
330
29
100
AcDbVisualStyle
  2
2dWireframe
 70
     4
177
     3
291
     0
 70
    58
 90
        0
176
     1
 90
        2
176
     1
 90
        0
176
     1
 90
        0
176
     1
 40
0.6
176
     1
 40
30.0
176
     1
 62
     7
420
 16777215
176
     1
 90
        1
176
     1
 90
        4
176
     1
 62
     7
176
     1
 62
   257
176
     1
 90
        1
176
     1
 90
        1
176
     1
 40
1.0
176
     1
 90
        0
176
     1
 62
   257
176
     1
 40
1.0
176
     1
 90
        1
176
     1
 90
        6
176
     1
 90
        2
176
     1
 62
     7
176
     1
 90
        5
176
     1
 90
        0
176
     1
 90
        0
176
     1
290
     0
176
     1
 90
        1
176
     1
 40
0.0
176
     1
 90
        0
176
     1
290
     1
176
     1
290
     1
176
     1
290
     0
176
     1
290
     0
176
     1
290
     0
176
     1
290
     0
176
     1
290
     0
176
     1
290
     0
176
     1
290
     0
176
     1
 90
       50
176
     1
 40
0.0
176
     1
 40
1.0
176
     1
 90
        0
176
     1
 62
    18
420
        0
176
     1
 90
       50
176
     1
 90
        3
176
     1
 62
     5
420
      255
176
     1
290
     0
176
     1
 90
       50
176
     1
 90
       50
176
     1
 90
       50
176
     1
290
     0
176
     1
 90
       50
176
     1
 62
   256
176
     0
 40
1.0
176
     0
 90
        2
176
     1
  1
strokes_ogs.tif
176
     1
290
     0
176
     1
 40
1.0
176
     1
 40
1.0
176
     1
  0
VISUALSTYLE
  5
2E
102
{ACAD_REACTORS
330
29
102
}
330
29
100
AcDbVisualStyle
  2
Basic
 70
     7
177
     3
291
     1
 70
    58
 90
        1
176
     1
 90
        0
176
     1
 90
        1
176
     1
 90
        0
176
     1
 40
0.6
176
     1
 40
30.0
176
     1
 62
     7
420
 16777215
176
     1
 90
        0
176
     1
 90
        4
176
     1
 62
     7
176
     1
 62
   257
176
     1
 90
        1
176
     1
 90
        1
176
     1
 40
1.0
176
     1
 90
        8
176
     1
 62
     7
176
     1
 40
1.0
176
     1
 90
        1
176
     1
 90
        6
176
     1
 90
        2
176
     1
 62
     7
176
     1
 90
        5
176
     1
 90
        0
176
     1
 90
        0
176
     1
290
     0
176
     1
 90
        1
176
     1
 40
0.0
176
     1
 90
        0
176
     1
290
     0
176
     1
290
     1
176
     1
290
     1
176
     1
290
     0
176
     1
290
     0
176
     1
290
     0
176
     1
290
     0
176
     1
290
     0
176
     1
290
     0
176
     1
 90
       50
176
     1
 40
0.0
176
     1
 40
1.0
176
     1
 90
        0
176
     1
 62
    18
420
        0
176
     1
 90
       50
176
     1
 90
        3
176
     1
 62
     5
420
      255
176
     1
290
     0
176
     1
 90
       50
176
     1
 90
       50
176
     1
 90
       50
176
     1
290
     0
176
     1
 90
       50
176
     1
 62
   256
176
     0
 40
1.0
176
     0
 90
        2
176
     1
  1
strokes_ogs.tif
176
     1
290
     0
176
     1
 40
1.0
176
     1
 40
1.0
176
     1
  0
VISUALSTYLE
  5
35
102
{ACAD_REACTORS
330
29
102
}
330
29
100
AcDbVisualStyle
  2
Brighten
 70
    12
177
     3
291
     1
 70
    58
 90
        2
176
     1
 90
        2
176
     1
 90
        0
176
     1
 90
        0
176
     1
 40
0.6
176
     1
 40
30.0
176
     1
 62
     7
420
 16777215
176
     1
 90
        1
176
     1
 90
        4
176
     1
 62
     7
176
     1
 62
   257
176
     1
 90
        1
176
     1
 90
        1
176
     1
 40
1.0
176
     1
 90
        8
176
     1
 62
     7
176
     1
 40
1.0
176
     1
 90
        1
176
     1
 90
        6
176
     1
 90
        2
176
     1
 62
     7
176
     1
 90
        5
176
     1
 90
        0
176
     1
 90
        0
176
     1
290
     0
176
     1
 90
        1
176
     1
 40
50.0
176
     1
 90
        0
176
     1
290
     0
176
     1
290
     1
176
     1
290
     1
176
     1
290
     0
176
     1
290
     0
176
     1
290
     0
176
     1
290
     0
176
     1
290
     0
176
     1
290
     0
176
     1
 90
       50
176
     1
 40
0.0
176
     1
 40
1.0
176
     1
 90
        0
176
     1
 62
    18
420
        0
176
     1
 90
       50
176
     1
 90
        3
176
     1
 62
     5
420
      255
176
     1
290
     0
176
     1
 90
       50
176
     1
 90
       50
176
     1
 90
       50
176
     1
290
     0
176
     1
 90
       50
176
     1
 62
   256
176
     0
 40
1.0
176
     0
 90
        2
176
     1
  1
strokes_ogs.tif
176
     1
290
     0
176
     1
 40
1.0
176
     1
 40
1.0
176
     1
  0
VISUALSTYLE
  5
39
102
{ACAD_REACTORS
330
29
102
}
330
29
100
AcDbVisualStyle
  2
ColorChange
 70
    16
177
     3
291
     1
 70
    58
 90
        2
176
     1
 90
        2
176
     1
 90
        3
176
     1
 90
        0
176
     1
 40
0.6
176
     1
 40
30.0
176
     1
 62
     8
420
  8421504
176
     1
 90
        1
176
     1
 90
        4
176
     1
 62
     7
176
     1
 62
   257
176
     1
 90
        1
176
     1
 90
        1
176
     1
 40
1.0
176
     1
 90
        8
176
     1
 62
     8
420
  8421504
176
     1
 40
1.0
176
     1
 90
        1
176
     1
 90
        6
176
     1
 90
        2
176
     1
 62
     7
176
     1
 90
        5
176
     1
 90
        0
176
     1
 90
        0
176
     1
290
     0
176
     1
 90
        1
176
     1
 40
0.0
176
     1
 90
        0
176
     1
290
     0
176
     1
290
     1
176
     1
290
     1
176
     1
290
     0
176
     1
290
     0
176
     1
290
     0
176
     1
290
     0
176
     1
290
     0
176
     1
290
     0
176
     1
 90
       50
176
     1
 40
0.0
176
     1
 40
1.0
176
     1
 90
        0
176
     1
 62
    18
420
        0
176
     1
 90
       50
176
     1
 90
        3
176
     1
 62
     5
420
      255
176
     1
290
     0
176
     1
 90
       50
176
     1
 90
       50
176
     1
 90
       50
176
     1
290
     0
176
     1
 90
       50
176
     1
 62
   256
176
     0
 40
1.0
176
     0
 90
        2
176
     1
  1
strokes_ogs.tif
176
     1
290
     0
176
     1
 40
1.0
176
     1
 40
1.0
176
     1
  0
VISUALSTYLE
  5
32
102
{ACAD_REACTORS
330
29
102
}
330
29
100
AcDbVisualStyle
  2
Conceptual
 70
     9
177
     3
291
     0
 70
    58
 90
        3
176
     1
 90
        2
176
     1
 90
        0
176
     1
 90
        0
176
     1
 40
0.6
176
     1
 40
30.0
176
     1
 62
     7
420
 16777215
176
     1
 90
        2
176
     1
 90
        2
176
     1
 62
     7
176
     1
 62
   257
176
     1
 90
        1
176
     1
 90
        1
176
     1
 40
179.0
176
     1
 90
        8
176
     1
 62
     7
176
     1
 40
1.0
176
     1
 90
        1
176
     1
 90
        6
176
     1
 90
        2
176
     1
 62
     7
176
     1
 90
        3
176
     1
 90
        0
176
     1
 90
        0
176
     1
290
     0
176
     1
 90
        1
176
     1
 40
0.0
176
     1
 90
        0
176
     1
290
     0
176
     1
290
     1
176
     1
290
     1
176
     1
290
     0
176
     1
290
     0
176
     1
290
     0
176
     1
290
     0
176
     1
290
     0
176
     1
290
     0
176
     1
 90
       50
176
     1
 40
0.0
176
     1
 40
1.0
176
     1
 90
        0
176
     1
 62
    18
420
        0
176
     1
 90
       50
176
     1
 90
        3
176
     1
 62
     5
420
      255
176
     1
290
     0
176
     1
 90
       50
176
     1
 90
       50
176
     1
 90
       50
176
     1
290
     0
176
     1
 90
       50
176
     1
 62
   256
176
     0
 40
1.0
176
     0
 90
        2
176
     1
  1
strokes_ogs.tif
176
     1
290
     0
176
     1
 40
1.0
176
     1
 40
1.0
176
     1
  0
VISUALSTYLE
  5
34
102
{ACAD_REACTORS
330
29
102
}
330
29
100
AcDbVisualStyle
  2
Dim
 70
    11
177
     3
291
     1
 70
    58
 90
        2
176
     1
 90
        2
176
     1
 90
        0
176
     1
 90
        0
176
     1
 40
0.6
176
     1
 40
30.0
176
     1
 62
     7
420
 16777215
176
     1
 90
        1
176
     1
 90
        4
176
     1
 62
     7
176
     1
 62
   257
176
     1
 90
        1
176
     1
 90
        1
176
     1
 40
1.0
176
     1
 90
        8
176
     1
 62
     7
176
     1
 40
1.0
176
     1
 90
        1
176
     1
 90
        6
176
     1
 90
        2
176
     1
 62
     7
176
     1
 90
        5
176
     1
 90
        0
176
     1
 90
        0
176
     1
290
     0
176
     1
 90
        1
176
     1
 40
-50.0
176
     1
 90
        0
176
     1
290
     0
176
     1
290
     1
176
     1
290
     1
176
     1
290
     0
176
     1
290
     0
176
     1
290
     0
176
     1
290
     0
176
     1
290
     0
176
     1
290
     0
176
     1
 90
       50
176
     1
 40
0.0
176
     1
 40
1.0
176
     1
 90
        0
176
     1
 62
    18
420
        0
176
     1
 90
       50
176
     1
 90
        3
176
     1
 62
     5
420
      255
176
     1
290
     0
176
     1
 90
       50
176
     1
 90
       50
176
     1
 90
       50
176
     1
290
     0
176
     1
 90
       50
176
     1
 62
   256
176
     0
 40
1.0
176
     0
 90
        2
176
     1
  1
strokes_ogs.tif
176
     1
290
     0
176
     1
 40
1.0
176
     1
 40
1.0
176
     1
  0
VISUALSTYLE
  5
41
102
{ACAD_REACTORS
330
29
102
}
330
29
100
AcDbVisualStyle
  2
EdgeColorOff
 70
    22
177
     3
291
     1
 70
    58
 90
        2
176
     0
 90
        2
176
     0
 90
        0
176
     0
 90
        0
176
     0
 40
0.6
176
     0
 40
30.0
176
     0
 62
     7
420
 16777215
176
     0
 90
        1
176
     0
 90
        4
176
     0
 62
     7
176
     0
 62
   257
176
     0
 90
        1
176
     0
 90
        1
176
     0
 40
1.0
176
     0
 90
        8
176
     2
 62
     7
176
     0
 40
1.0
176
     0
 90
        1
176
     0
 90
        6
176
     0
 90
        2
176
     0
 62
     7
176
     0
 90
        5
176
     0
 90
        0
176
     0
 90
        0
176
     0
290
     0
176
     0
 90
        1
176
     0
 40
0.0
176
     0
 90
        0
176
     0
290
     0
176
     0
290
     1
176
     0
290
     1
176
     0
290
     0
176
     0
290
     0
176
     0
290
     0
176
     0
290
     0
176
     0
290
     0
176
     0
290
     0
176
     0
 90
       50
176
     0
 40
0.0
176
     0
 40
1.0
176
     0
 90
        0
176
     0
 62
    18
420
        0
176
     0
 90
       50
176
     0
 90
        3
176
     0
 62
     5
420
      255
176
     0
290
     0
176
     0
 90
       50
176
     0
 90
       50
176
     0
 90
       50
176
     0
290
     0
176
     0
 90
       50
176
     0
 62
   256
176
     0
 40
1.0
176
     0
 90
        2
176
     0
  1
strokes_ogs.tif
176
     0
290
     0
176
     0
 40
1.0
176
     0
 40
1.0
176
     0
  0
VISUALSTYLE
  5
38
102
{ACAD_REACTORS
330
29
102
}
330
29
100
AcDbVisualStyle
  2
Facepattern
 70
    15
177
     3
291
     1
 70
    58
 90
        2
176
     1
 90
        2
176
     1
 90
        0
176
     1
 90
        0
176
     1
 40
0.6
176
     1
 40
30.0
176
     1
 62
     7
420
 16777215
176
     1
 90
        1
176
     1
 90
        4
176
     1
 62
     7
176
     1
 62
   257
176
     1
 90
        1
176
     1
 90
        1
176
     1
 40
1.0
176
     1
 90
        8
176
     1
 62
     7
176
     1
 40
1.0
176
     1
 90
        1
176
     1
 90
        6
176
     1
 90
        2
176
     1
 62
     7
176
     1
 90
        5
176
     1
 90
        0
176
     1
 90
        0
176
     1
290
     0
176
     1
 90
        1
176
     1
 40
0.0
176
     1
 90
        0
176
     1
290
     0
176
     1
290
     1
176
     1
290
     1
176
     1
290
     0
176
     1
290
     0
176
     1
290
     0
176
     1
290
     0
176
     1
290
     0
176
     1
290
     0
176
     1
 90
       50
176
     1
 40
0.0
176
     1
 40
1.0
176
     1
 90
        0
176
     1
 62
    18
420
        0
176
     1
 90
       50
176
     1
 90
        3
176
     1
 62
     5
420
      255
176
     1
290
     0
176
     1
 90
       50
176
     1
 90
       50
176
     1
 90
       50
176
     1
290
     0
176
     1
 90
       50
176
     1
 62
   256
176
     0
 40
1.0
176
     0
 90
        2
176
     1
  1
strokes_ogs.tif
176
     1
290
     0
176
     1
 40
1.0
176
     1
 40
1.0
176
     1
  0
VISUALSTYLE
  5
2A
102
{ACAD_REACTORS
330
29
102
}
330
29
100
AcDbVisualStyle
  2
Flat
 70
     0
177
     3
291
     1
 70
    58
 90
        2
176
     1
 90
        1
176
     1
 90
        1
176
     1
 90
        2
176
     1
 40
0.6
176
     1
 40
30.0
176
     1
 62
     7
420
 16777215
176
     1
 90
        0
176
     1
 90
        0
176
     1
 62
     7
176
     1
 62
   257
176
     1
 90
        1
176
     1
 90
        1
176
     1
 40
1.0
176
     1
 90
        8
176
     1
 62
     7
176
     1
 40
1.0
176
     1
 90
        1
176
     1
 90
        6
176
     1
 90
        2
176
     1
 62
     7
176
     1
 90
        5
176
     1
 90
        0
176
     1
 90
        0
176
     1
290
     0
176
     1
 90
       13
176
     1
 40
0.0
176
     1
 90
        0
176
     1
290
     0
176
     1
290
     1
176
     1
290
     1
176
     1
290
     0
176
     1
290
     0
176
     1
290
     0
176
     1
290
     0
176
     1
290
     0
176
     1
290
     0
176
     1
 90
       50
176
     1
 40
0.0
176
     1
 40
1.0
176
     1
 90
        0
176
     1
 62
    18
420
        0
176
     1
 90
       50
176
     1
 90
        3
176
     1
 62
     5
420
      255
176
     1
290
     0
176
     1
 90
       50
176
     1
 90
       50
176
     1
 90
       50
176
     1
290
     0
176
     1
 90
       50
176
     1
 62
   256
176
     0
 40
1.0
176
     0
 90
        2
176
     1
  1
strokes_ogs.tif
176
     1
290
     0
176
     1
 40
1.0
176
     1
 40
1.0
176
     1
  0
VISUALSTYLE
  5
2B
102
{ACAD_REACTORS
330
29
102
}
330
29
100
AcDbVisualStyle
  2
FlatWithEdges
 70
     1
177
     3
291
     1
 70
    58
 90
        2
176
     1
 90
        1
176
     1
 90
        1
176
     1
 90
        2
176
     1
 40
0.6
176
     1
 40
30.0
176
     1
 62
     7
420
 16777215
176
     1
 90
        1
176
     1
 90
        0
176
     1
 62
     7
176
     1
 62
   257
176
     1
 90
        1
176
     1
 90
        1
176
     1
 40
1.0
176
     1
 90
        0
176
     1
 62
   257
176
     1
 40
1.0
176
     1
 90
        1
176
     1
 90
        6
176
     1
 90
        2
176
     1
 62
     7
176
     1
 90
        5
176
     1
 90
        0
176
     1
 90
        0
176
     1
290
     0
176
     1
 90
       13
176
     1
 40
0.0
176
     1
 90
        0
176
     1
290
     0
176
     1
290
     1
176
     1
290
     1
176
     1
290
     0
176
     1
290
     0
176
     1
290
     0
176
     1
290
     0
176
     1
290
     0
176
     1
290
     0
176
     1
 90
       50
176
     1
 40
0.0
176
     1
 40
1.0
176
     1
 90
        0
176
     1
 62
    18
420
        0
176
     1
 90
       50
176
     1
 90
        3
176
     1
 62
     5
420
      255
176
     1
290
     0
176
     1
 90
       50
176
     1
 90
       50
176
     1
 90
       50
176
     1
290
     0
176
     1
 90
       50
176
     1
 62
   256
176
     0
 40
1.0
176
     0
 90
        2
176
     1
  1
strokes_ogs.tif
176
     1
290
     0
176
     1
 40
1.0
176
     1
 40
1.0
176
     1
  0
VISUALSTYLE
  5
2C
102
{ACAD_REACTORS
330
29
102
}
330
29
100
AcDbVisualStyle
  2
Gouraud
 70
     2
177
     3
291
     1
 70
    58
 90
        2
176
     1
 90
        2
176
     1
 90
        1
176
     1
 90
        2
176
     1
 40
0.6
176
     1
 40
30.0
176
     1
 62
     7
420
 16777215
176
     1
 90
        0
176
     1
 90
        0
176
     1
 62
     7
176
     1
 62
   257
176
     1
 90
        1
176
     1
 90
        1
176
     1
 40
1.0
176
     1
 90
        0
176
     1
 62
     7
176
     1
 40
1.0
176
     1
 90
        1
176
     1
 90
        6
176
     1
 90
        2
176
     1
 62
     7
176
     1
 90
        5
176
     1
 90
        0
176
     1
 90
        0
176
     1
290
     0
176
     1
 90
       13
176
     1
 40
0.0
176
     1
 90
        0
176
     1
290
     0
176
     1
290
     1
176
     1
290
     1
176
     1
290
     0
176
     1
290
     0
176
     1
290
     0
176
     1
290
     0
176
     1
290
     0
176
     1
290
     0
176
     1
 90
       50
176
     1
 40
0.0
176
     1
 40
1.0
176
     1
 90
        0
176
     1
 62
    18
420
        0
176
     1
 90
       50
176
     1
 90
        3
176
     1
 62
     5
420
      255
176
     1
290
     0
176
     1
 90
       50
176
     1
 90
       50
176
     1
 90
       50
176
     1
290
     0
176
     1
 90
       50
176
     1
 62
   256
176
     0
 40
1.0
176
     0
 90
        2
176
     1
  1
strokes_ogs.tif
176
     1
290
     0
176
     1
 40
1.0
176
     1
 40
1.0
176
     1
  0
VISUALSTYLE
  5
2D
102
{ACAD_REACTORS
330
29
102
}
330
29
100
AcDbVisualStyle
  2
GouraudWithEdges
 70
     3
177
     3
291
     1
 70
    58
 90
        2
176
     1
 90
        2
176
     1
 90
        1
176
     1
 90
        2
176
     1
 40
0.6
176
     1
 40
30.0
176
     1
 62
     7
420
 16777215
176
     1
 90
        1
176
     1
 90
        0
176
     1
 62
     7
176
     1
 62
   257
176
     1
 90
        1
176
     1
 90
        1
176
     1
 40
1.0
176
     1
 90
        0
176
     1
 62
   257
176
     1
 40
1.0
176
     1
 90
        1
176
     1
 90
        6
176
     1
 90
        2
176
     1
 62
     7
176
     1
 90
        5
176
     1
 90
        0
176
     1
 90
        0
176
     1
290
     0
176
     1
 90
       13
176
     1
 40
0.0
176
     1
 90
        0
176
     1
290
     0
176
     1
290
     1
176
     1
290
     1
176
     1
290
     0
176
     1
290
     0
176
     1
290
     0
176
     1
290
     0
176
     1
290
     0
176
     1
290
     0
176
     1
 90
       50
176
     1
 40
0.0
176
     1
 40
1.0
176
     1
 90
        0
176
     1
 62
    18
420
        0
176
     1
 90
       50
176
     1
 90
        3
176
     1
 62
     5
420
      255
176
     1
290
     0
176
     1
 90
       50
176
     1
 90
       50
176
     1
 90
       50
176
     1
290
     0
176
     1
 90
       50
176
     1
 62
   256
176
     0
 40
1.0
176
     0
 90
        2
176
     1
  1
strokes_ogs.tif
176
     1
290
     0
176
     1
 40
1.0
176
     1
 40
1.0
176
     1
  0
VISUALSTYLE
  5
31
102
{ACAD_REACTORS
330
29
102
}
330
29
100
AcDbVisualStyle
  2
Hidden
 70
     6
177
     3
291
     0
 70
    58
 90
        1
176
     1
 90
        2
176
     1
 90
        2
176
     1
 90
        0
176
     1
 40
0.6
176
     1
 40
30.0
176
     1
 62
     7
420
 16777215
176
     1
 90
        2
176
     1
 90
        2
176
     1
 62
     7
176
     1
 62
   257
176
     1
 90
        2
176
     1
 90
        1
176
     1
 40
40.0
176
     1
 90
        0
176
     1
 62
   257
176
     1
 40
1.0
176
     1
 90
        1
176
     1
 90
        6
176
     1
 90
        2
176
     1
 62
     7
176
     1
 90
        3
176
     1
 90
        0
176
     1
 90
        0
176
     1
290
     0
176
     1
 90
        1
176
     1
 40
0.0
176
     1
 90
        0
176
     1
290
     0
176
     1
290
     1
176
     1
290
     1
176
     1
290
     0
176
     1
290
     0
176
     1
290
     0
176
     1
290
     0
176
     1
290
     0
176
     1
290
     0
176
     1
 90
       50
176
     1
 40
0.0
176
     1
 40
1.0
176
     1
 90
        0
176
     1
 62
    18
420
        0
176
     1
 90
       50
176
     1
 90
        3
176
     1
 62
     5
420
      255
176
     1
290
     0
176
     1
 90
       50
176
     1
 90
       50
176
     1
 90
       50
176
     1
290
     0
176
     1
 90
       50
176
     1
 62
   256
176
     0
 40
1.0
176
     0
 90
        2
176
     1
  1
strokes_ogs.tif
176
     1
290
     0
176
     1
 40
1.0
176
     1
 40
1.0
176
     1
  0
VISUALSTYLE
  5
3F
102
{ACAD_REACTORS
330
29
102
}
330
29
100
AcDbVisualStyle
  2
JitterOff
 70
    20
177
     3
291
     1
 70
    58
 90
        2
176
     0
 90
        2
176
     0
 90
        0
176
     0
 90
        0
176
     0
 40
0.6
176
     0
 40
30.0
176
     0
 62
     7
420
 16777215
176
     0
 90
        1
176
     0
 90
        4
176
     0
 62
     7
176
     0
 62
   257
176
     0
 90
        1
176
     0
 90
        1
176
     0
 40
1.0
176
     0
 90
       10
176
     2
 62
     7
176
     0
 40
1.0
176
     0
 90
        1
176
     0
 90
        6
176
     0
 90
        2
176
     0
 62
     7
176
     0
 90
        5
176
     0
 90
        0
176
     0
 90
        0
176
     0
290
     0
176
     0
 90
        1
176
     0
 40
0.0
176
     0
 90
        0
176
     0
290
     0
176
     0
290
     1
176
     0
290
     1
176
     0
290
     0
176
     0
290
     0
176
     0
290
     0
176
     0
290
     0
176
     0
290
     0
176
     0
290
     0
176
     0
 90
       50
176
     0
 40
0.0
176
     0
 40
1.0
176
     0
 90
        0
176
     0
 62
    18
420
        0
176
     0
 90
       50
176
     0
 90
        3
176
     0
 62
     5
420
      255
176
     0
290
     0
176
     0
 90
       50
176
     0
 90
       50
176
     0
 90
       50
176
     0
290
     0
176
     0
 90
       50
176
     0
 62
   256
176
     0
 40
1.0
176
     0
 90
        2
176
     0
  1
strokes_ogs.tif
176
     0
290
     0
176
     0
 40
1.0
176
     0
 40
1.0
176
     0
  0
VISUALSTYLE
  5
37
102
{ACAD_REACTORS
330
29
102
}
330
29
100
AcDbVisualStyle
  2
Linepattern
 70
    14
177
     3
291
     1
 70
    58
 90
        2
176
     1
 90
        2
176
     1
 90
        0
176
     1
 90
        0
176
     1
 40
0.6
176
     1
 40
30.0
176
     1
 62
     7
420
 16777215
176
     1
 90
        1
176
     1
 90
        4
176
     1
 62
     7
176
     1
 62
   257
176
     1
 90
        7
176
     1
 90
        7
176
     1
 40
1.0
176
     1
 90
        8
176
     1
 62
     7
176
     1
 40
1.0
176
     1
 90
        1
176
     1
 90
        6
176
     1
 90
        2
176
     1
 62
     7
176
     1
 90
        5
176
     1
 90
        0
176
     1
 90
        0
176
     1
290
     0
176
     1
 90
        1
176
     1
 40
0.0
176
     1
 90
        0
176
     1
290
     0
176
     1
290
     1
176
     1
290
     1
176
     1
290
     0
176
     1
290
     0
176
     1
290
     0
176
     1
290
     0
176
     1
290
     0
176
     1
290
     0
176
     1
 90
       50
176
     1
 40
0.0
176
     1
 40
1.0
176
     1
 90
        0
176
     1
 62
    18
420
        0
176
     1
 90
       50
176
     1
 90
        3
176
     1
 62
     5
420
      255
176
     1
290
     0
176
     1
 90
       50
176
     1
 90
       50
176
     1
 90
       50
176
     1
290
     0
176
     1
 90
       50
176
     1
 62
   256
176
     0
 40
1.0
176
     0
 90
        2
176
     1
  1
strokes_ogs.tif
176
     1
290
     0
176
     1
 40
1.0
176
     1
 40
1.0
176
     1
  0
VISUALSTYLE
  5
40
102
{ACAD_REACTORS
330
29
102
}
330
29
100
AcDbVisualStyle
  2
OverhangOff
 70
    21
177
     3
291
     1
 70
    58
 90
        2
176
     0
 90
        2
176
     0
 90
        0
176
     0
 90
        0
176
     0
 40
0.6
176
     0
 40
30.0
176
     0
 62
     7
420
 16777215
176
     0
 90
        1
176
     0
 90
        4
176
     0
 62
     7
176
     0
 62
   257
176
     0
 90
        1
176
     0
 90
        1
176
     0
 40
1.0
176
     0
 90
        9
176
     2
 62
     7
176
     0
 40
1.0
176
     0
 90
        1
176
     0
 90
        6
176
     0
 90
        2
176
     0
 62
     7
176
     0
 90
        5
176
     0
 90
        0
176
     0
 90
        0
176
     0
290
     0
176
     0
 90
        1
176
     0
 40
0.0
176
     0
 90
        0
176
     0
290
     0
176
     0
290
     1
176
     0
290
     1
176
     0
290
     0
176
     0
290
     0
176
     0
290
     0
176
     0
290
     0
176
     0
290
     0
176
     0
290
     0
176
     0
 90
       50
176
     0
 40
0.0
176
     0
 40
1.0
176
     0
 90
        0
176
     0
 62
    18
420
        0
176
     0
 90
       50
176
     0
 90
        3
176
     0
 62
     5
420
      255
176
     0
290
     0
176
     0
 90
       50
176
     0
 90
       50
176
     0
 90
       50
176
     0
290
     0
176
     0
 90
       50
176
     0
 62
   256
176
     0
 40
1.0
176
     0
 90
        2
176
     0
  1
strokes_ogs.tif
176
     0
290
     0
176
     0
 40
1.0
176
     0
 40
1.0
176
     0
  0
VISUALSTYLE
  5
33
102
{ACAD_REACTORS
330
29
102
}
330
29
100
AcDbVisualStyle
  2
Realistic
 70
     8
177
     3
291
     0
 70
    58
 90
        2
176
     1
 90
        3
176
     1
 90
        0
176
     1
 90
        2
176
     1
 40
0.6
176
     1
 40
30.0
176
     1
 62
     7
420
 16777215
176
     1
 90
        0
176
     1
 90
        0
176
     1
 62
     7
176
     1
 62
   257
176
     1
 90
        1
176
     1
 90
        1
176
     1
 40
1.0
176
     1
 90
        8
176
     1
 62
   257
176
     1
 40
1.0
176
     1
 90
        1
176
     1
 90
        6
176
     1
 90
        2
176
     1
 62
     7
176
     1
 90
        3
176
     1
 90
        0
176
     1
 90
        0
176
     1
290
     0
176
     1
 90
       13
176
     1
 40
0.0
176
     1
 90
        0
176
     1
290
     0
176
     1
290
     1
176
     1
290
     1
176
     1
290
     0
176
     1
290
     0
176
     1
290
     0
176
     1
290
     0
176
     1
290
     0
176
     1
290
     0
176
     1
 90
       50
176
     1
 40
0.0
176
     1
 40
1.0
176
     1
 90
        0
176
     1
 62
    18
420
        0
176
     1
 90
       50
176
     1
 90
        3
176
     1
 62
     5
420
      255
176
     1
290
     0
176
     1
 90
       50
176
     1
 90
       50
176
     1
 90
       50
176
     1
290
     0
176
     1
 90
       50
176
     1
 62
   256
176
     0
 40
1.0
176
     0
 90
        2
176
     1
  1
strokes_ogs.tif
176
     1
290
     0
176
     1
 40
1.0
176
     1
 40
1.0
176
     1
  0
VISUALSTYLE
  5
3E
102
{ACAD_REACTORS
330
29
102
}
330
29
100
AcDbVisualStyle
  2
Shaded
 70
    27
177
     3
291
     0
 70
    58
 90
        2
176
     1
 90
        2
176
     1
 90
        1
176
     1
 90
        2
176
     1
 40
0.6
176
     1
 40
30.0
176
     1
 62
     7
420
 16777215
176
     1
 90
        0
176
     1
 90
        4
176
     1
 62
     7
176
     1
 62
   257
176
     1
 90
        1
176
     1
 90
        1
176
     1
 40
1.0
176
     1
 90
        8
176
     1
 62
   257
176
     1
 40
1.0
176
     1
 90
        1
176
     1
 90
        6
176
     1
 90
        2
176
     1
 62
     8
420
  7895160
176
     1
 90
        3
176
     1
 90
        0
176
     1
 90
        0
176
     1
290
     0
176
     1
 90
        5
176
     1
 40
0.0
176
     1
 90
        0
176
     1
290
     0
176
     1
290
     1
176
     1
290
     1
176
     1
290
     0
176
     1
290
     0
176
     1
290
     0
176
     1
290
     0
176
     1
290
     0
176
     1
290
     0
176
     1
 90
       50
176
     1
 40
0.0
176
     1
 40
1.0
176
     1
 90
        0
176
     1
 62
    18
420
        0
176
     1
 90
       50
176
     1
 90
        3
176
     1
 62
     5
420
      255
176
     1
290
     0
176
     1
 90
       50
176
     1
 90
       50
176
     1
 90
       50
176
     1
290
     0
176
     1
 90
       50
176
     1
 62
   256
176
     0
 40
1.0
176
     0
 90
        2
176
     1
  1
strokes_ogs.tif
176
     1
290
     0
176
     1
 40
1.0
176
     1
 40
1.0
176
     1
  0
VISUALSTYLE
  5
3D
102
{ACAD_REACTORS
330
29
102
}
330
29
100
AcDbVisualStyle
  2
Shaded with edges
 70
    26
177
     3
291
     0
 70
    58
 90
        2
176
     1
 90
        2
176
     1
 90
        1
176
     1
 90
        2
176
     1
 40
0.6
176
     1
 40
30.0
176
     1
 62
     7
420
 16777215
176
     1
 90
        1
176
     1
 90
        2
176
     1
 62
     7
176
     1
 62
   257
176
     1
 90
        2
176
     1
 90
        1
176
     1
 40
1.0
176
     1
 90
        8
176
     1
 62
   257
176
     1
 40
1.0
176
     1
 90
        1
176
     1
 90
        6
176
     1
 90
        2
176
     1
 62
     7
176
     1
 90
        3
176
     1
 90
        0
176
     1
 90
        0
176
     1
290
     0
176
     1
 90
        5
176
     1
 40
0.0
176
     1
 90
        0
176
     1
290
     0
176
     1
290
     1
176
     1
290
     1
176
     1
290
     0
176
     1
290
     0
176
     1
290
     0
176
     1
290
     0
176
     1
290
     0
176
     1
290
     0
176
     1
 90
       50
176
     1
 40
0.0
176
     1
 40
1.0
176
     1
 90
        0
176
     1
 62
    18
420
        0
176
     1
 90
       50
176
     1
 90
        3
176
     1
 62
     5
420
      255
176
     1
290
     0
176
     1
 90
       50
176
     1
 90
       50
176
     1
 90
       50
176
     1
290
     0
176
     1
 90
       50
176
     1
 62
   256
176
     0
 40
1.0
176
     0
 90
        2
176
     1
  1
strokes_ogs.tif
176
     1
290
     0
176
     1
 40
1.0
176
     1
 40
1.0
176
     1
  0
VISUALSTYLE
  5
3A
102
{ACAD_REACTORS
330
29
102
}
330
29
100
AcDbVisualStyle
  2
Shades of Gray
 70
    23
177
     3
291
     0
 70
    58
 90
        2
176
     1
 90
        2
176
     1
 90
        3
176
     1
 90
        0
176
     1
 40
0.6
176
     1
 40
30.0
176
     1
 62
     7
420
 16777215
176
     1
 90
        2
176
     1
 90
        2
176
     1
 62
     7
176
     1
 62
     7
176
     1
 90
        1
176
     1
 90
        1
176
     1
 40
40.0
176
     1
 90
        8
176
     1
 62
     7
176
     1
 40
1.0
176
     1
 90
        1
176
     1
 90
        6
176
     1
 90
        2
176
     1
 62
     7
176
     1
 90
        3
176
     1
 90
        0
176
     1
 90
        0
176
     1
290
     0
176
     1
 90
        1
176
     1
 40
0.0
176
     1
 90
        0
176
     1
290
     0
176
     1
290
     1
176
     1
290
     1
176
     1
290
     0
176
     1
290
     0
176
     1
290
     0
176
     1
290
     0
176
     1
290
     0
176
     1
290
     0
176
     1
 90
       50
176
     1
 40
0.0
176
     1
 40
1.0
176
     1
 90
        0
176
     1
 62
    18
420
        0
176
     1
 90
       50
176
     1
 90
        3
176
     1
 62
     5
420
      255
176
     1
290
     0
176
     1
 90
       50
176
     1
 90
       50
176
     1
 90
       50
176
     1
290
     0
176
     1
 90
       50
176
     1
 62
   256
176
     0
 40
1.0
176
     0
 90
        2
176
     1
  1
strokes_ogs.tif
176
     1
290
     0
176
     1
 40
1.0
176
     1
 40
1.0
176
     1
  0
VISUALSTYLE
  5
3B
102
{ACAD_REACTORS
330
29
102
}
330
29
100
AcDbVisualStyle
  2
Sketchy
 70
    24
177
     3
291
     0
 70
    58
 90
        1
176
     1
 90
        2
176
     1
 90
        2
176
     1
 90
        0
176
     1
 40
0.6
176
     1
 40
30.0
176
     1
 62
     7
420
 16777215
176
     1
 90
        2
176
     1
 90
        2
176
     1
 62
     7
176
     1
 62
     7
176
     1
 90
        1
176
     1
 90
        1
176
     1
 40
40.0
176
     1
 90
       11
176
     1
 62
     7
176
     1
 40
1.0
176
     1
 90
        1
176
     1
 90
        6
176
     1
 90
        2
176
     1
 62
     7
176
     1
 90
        6
176
     1
 90
        0
176
     1
 90
        0
176
     1
290
     0
176
     1
 90
        1
176
     1
 40
0.0
176
     1
 90
        0
176
     1
290
     0
176
     1
290
     1
176
     1
290
     1
176
     1
290
     0
176
     1
290
     0
176
     1
290
     0
176
     1
290
     0
176
     1
290
     0
176
     1
290
     0
176
     1
 90
       50
176
     1
 40
0.0
176
     1
 40
1.0
176
     1
 90
        0
176
     1
 62
    18
420
        0
176
     1
 90
       50
176
     1
 90
        3
176
     1
 62
     5
420
      255
176
     1
290
     0
176
     1
 90
       50
176
     1
 90
       50
176
     1
 90
       50
176
     1
290
     0
176
     1
 90
       50
176
     1
 62
   256
176
     0
 40
1.0
176
     0
 90
        2
176
     1
  1
strokes_ogs.tif
176
     1
290
     0
176
     1
 40
1.0
176
     1
 40
1.0
176
     1
  0
VISUALSTYLE
  5
36
102
{ACAD_REACTORS
330
29
102
}
330
29
100
AcDbVisualStyle
  2
Thicken
 70
    13
177
     3
291
     1
 70
    58
 90
        2
176
     1
 90
        2
176
     1
 90
        0
176
     1
 90
        0
176
     1
 40
0.6
176
     1
 40
30.0
176
     1
 62
     7
420
 16777215
176
     1
 90
        1
176
     1
 90
        4
176
     1
 62
     7
176
     1
 62
   257
176
     1
 90
        1
176
     1
 90
        1
176
     1
 40
1.0
176
     1
 90
       12
176
     1
 62
     7
176
     1
 40
1.0
176
     1
 90
        1
176
     1
 90
        6
176
     1
 90
        2
176
     1
 62
     7
176
     1
 90
        5
176
     1
 90
        0
176
     1
 90
        0
176
     1
290
     0
176
     1
 90
        1
176
     1
 40
0.0
176
     1
 90
        0
176
     1
290
     0
176
     1
290
     1
176
     1
290
     1
176
     1
290
     0
176
     1
290
     0
176
     1
290
     0
176
     1
290
     0
176
     1
290
     0
176
     1
290
     0
176
     1
 90
       50
176
     1
 40
0.0
176
     1
 40
1.0
176
     1
 90
        0
176
     1
 62
    18
420
        0
176
     1
 90
       50
176
     1
 90
        3
176
     1
 62
     5
420
      255
176
     1
290
     0
176
     1
 90
       50
176
     1
 90
       50
176
     1
 90
       50
176
     1
290
     0
176
     1
 90
       50
176
     1
 62
   256
176
     0
 40
1.0
176
     0
 90
        2
176
     1
  1
strokes_ogs.tif
176
     1
290
     0
176
     1
 40
1.0
176
     1
 40
1.0
176
     1
  0
VISUALSTYLE
  5
30
102
{ACAD_REACTORS
330
29
102
}
330
29
100
AcDbVisualStyle
  2
Wireframe
 70
     5
177
     3
291
     0
 70
    58
 90
        0
176
     1
 90
        2
176
     1
 90
        0
176
     1
 90
        0
176
     1
 40
0.6
176
     1
 40
30.0
176
     1
 62
     7
420
 16777215
176
     1
 90
        1
176
     1
 90
        4
176
     1
 62
     7
176
     1
 62
   257
176
     1
 90
        1
176
     1
 90
        1
176
     1
 40
1.0
176
     1
 90
        0
176
     1
 62
   257
176
     1
 40
1.0
176
     1
 90
        1
176
     1
 90
        6
176
     1
 90
        2
176
     1
 62
     7
176
     1
 90
        3
176
     1
 90
        0
176
     1
 90
        0
176
     1
290
     0
176
     1
 90
        1
176
     1
 40
0.0
176
     1
 90
        0
176
     1
290
     0
176
     1
290
     1
176
     1
290
     1
176
     1
290
     0
176
     1
290
     0
176
     1
290
     0
176
     1
290
     0
176
     1
290
     0
176
     1
290
     0
176
     1
 90
       50
176
     1
 40
0.0
176
     1
 40
1.0
176
     1
 90
        0
176
     1
 62
    18
420
        0
176
     1
 90
       50
176
     1
 90
        3
176
     1
 62
     5
420
      255
176
     1
290
     0
176
     1
 90
       50
176
     1
 90
       50
176
     1
 90
       50
176
     1
290
     0
176
     1
 90
       50
176
     1
 62
   256
176
     0
 40
1.0
176
     0
 90
        2
176
     1
  1
strokes_ogs.tif
176
     1
290
     0
176
     1
 40
1.0
176
     1
 40
1.0
176
     1
  0
VISUALSTYLE
  5
3C
102
{ACAD_REACTORS
330
29
102
}
330
29
100
AcDbVisualStyle
  2
X-Ray
 70
    25
177
     3
291
     0
 70
    58
 90
        2
176
     1
 90
        2
176
     1
 90
        1
176
     1
 90
        1
176
     1
 40
0.5
176
     1
 40
30.0
176
     1
 62
     7
420
 16777215
176
     1
 90
        1
176
     1
 90
        0
176
     1
 62
     7
176
     1
 62
   257
176
     1
 90
        1
176
     1
 90
        1
176
     1
 40
1.0
176
     1
 90
        8
176
     1
 62
     7
176
     1
 40
1.0
176
     1
 90
        1
176
     1
 90
        6
176
     1
 90
        2
176
     1
 62
     7
176
     1
 90
        3
176
     1
 90
        0
176
     1
 90
        0
176
     1
290
     0
176
     1
 90
       13
176
     1
 40
0.0
176
     1
 90
        0
176
     1
290
     0
176
     1
290
     1
176
     1
290
     1
176
     1
290
     0
176
     1
290
     0
176
     1
290
     0
176
     1
290
     0
176
     1
290
     0
176
     1
290
     0
176
     1
 90
       50
176
     1
 40
0.0
176
     1
 40
1.0
176
     1
 90
        0
176
     1
 62
    18
420
        0
176
     1
 90
       50
176
     1
 90
        3
176
     1
 62
     5
420
      255
176
     1
290
     0
176
     1
 90
       50
176
     1
 90
       50
176
     1
 90
       50
176
     1
290
     0
176
     1
 90
       50
176
     1
 62
   256
176
     0
 40
1.0
176
     0
 90
        2
176
     1
  1
strokes_ogs.tif
176
     1
290
     0
176
     1
 40
1.0
176
     1
 40
1.0
176
     1
  0
DICTIONARYVAR
  5
142
102
{ACAD_REACTORS
330
13D
102
}
330
13D
100
DictionaryVariables
280
     0
  1
1:1
  0
DICTIONARYVAR
  5
13F
102
{ACAD_REACTORS
330
13D
102
}
330
13D
100
DictionaryVariables
280
     0
  1
STANDARD
  0
DICTIONARYVAR
  5
13E
102
{ACAD_REACTORS
330
13D
102
}
330
13D
100
DictionaryVariables
280
     0
  1
STANDARD
  0
DICTIONARYVAR
  5
140
102
{ACAD_REACTORS
330
13D
102
}
330
13D
100
DictionaryVariables
280
     0
  1
Imperial24
  0
DICTIONARYVAR
  5
141
102
{ACAD_REACTORS
330
13D
102
}
330
13D
100
DictionaryVariables
280
     0
  1
Imperial24
  0
DICTIONARY
  5
1A
330
19
100
AcDbDictionary
280
     1
281
     1
  3
BUMPTILE
360
1C
  3
DIFFUSETILE
360
1B
  3
OPACITYTILE
360
1F
  3
REFLECTIONTILE
360
1E
  3
REFRACTIONTILE
360
20
  3
SPECULARTILE
360
1D
  0
DICTIONARY
  5
12
330
11
100
AcDbDictionary
280
     1
281
     1
  3
BUMPTILE
360
14
  3
DIFFUSETILE
360
13
  3
OPACITYTILE
360
17
  3
REFLECTIONTILE
360
16
  3
REFRACTIONTILE
360
18
  3
SPECULARTILE
360
15
  0
DICTIONARY
  5
22
330
21
100
AcDbDictionary
280
     1
281
     1
  3
BUMPTILE
360
24
  3
DIFFUSETILE
360
23
  3
OPACITYTILE
360
27
  3
REFLECTIONTILE
360
26
  3
REFRACTIONTILE
360
28
  3
SPECULARTILE
360
25
  0
DICTIONARY
  5
143
330
65
100
AcDbDictionary
280
     1
281
     1
  3
ACAD_ROUNDTRIP_2008_TABLESTYLE_CELLSTYLEMAP
360
144
  0
XRECORD
  5
1C
102
{ACAD_REACTORS
330
1A
102
}
330
1A
100
AcDbXrecord
280
     1
270
     1
271
     1
  0
XRECORD
  5
1B
102
{ACAD_REACTORS
330
1A
102
}
330
1A
100
AcDbXrecord
280
     1
270
     1
271
     1
  0
XRECORD
  5
1F
102
{ACAD_REACTORS
330
1A
102
}
330
1A
100
AcDbXrecord
280
     1
270
     1
271
     1
  0
XRECORD
  5
1E
102
{ACAD_REACTORS
330
1A
102
}
330
1A
100
AcDbXrecord
280
     1
270
     1
271
     1
  0
XRECORD
  5
20
102
{ACAD_REACTORS
330
1A
102
}
330
1A
100
AcDbXrecord
280
     1
270
     1
271
     1
  0
XRECORD
  5
1D
102
{ACAD_REACTORS
330
1A
102
}
330
1A
100
AcDbXrecord
280
     1
270
     1
271
     1
  0
XRECORD
  5
14
102
{ACAD_REACTORS
330
12
102
}
330
12
100
AcDbXrecord
280
     1
270
     1
271
     1
  0
XRECORD
  5
13
102
{ACAD_REACTORS
330
12
102
}
330
12
100
AcDbXrecord
280
     1
270
     1
271
     1
  0
XRECORD
  5
17
102
{ACAD_REACTORS
330
12
102
}
330
12
100
AcDbXrecord
280
     1
270
     1
271
     1
  0
XRECORD
  5
16
102
{ACAD_REACTORS
330
12
102
}
330
12
100
AcDbXrecord
280
     1
270
     1
271
     1
  0
XRECORD
  5
18
102
{ACAD_REACTORS
330
12
102
}
330
12
100
AcDbXrecord
280
     1
270
     1
271
     1
  0
XRECORD
  5
15
102
{ACAD_REACTORS
330
12
102
}
330
12
100
AcDbXrecord
280
     1
270
     1
271
     1
  0
XRECORD
  5
24
102
{ACAD_REACTORS
330
22
102
}
330
22
100
AcDbXrecord
280
     1
270
     1
271
     1
  0
XRECORD
  5
23
102
{ACAD_REACTORS
330
22
102
}
330
22
100
AcDbXrecord
280
     1
270
     1
271
     1
  0
XRECORD
  5
27
102
{ACAD_REACTORS
330
22
102
}
330
22
100
AcDbXrecord
280
     1
270
     1
271
     1
  0
XRECORD
  5
26
102
{ACAD_REACTORS
330
22
102
}
330
22
100
AcDbXrecord
280
     1
270
     1
271
     1
  0
XRECORD
  5
28
102
{ACAD_REACTORS
330
22
102
}
330
22
100
AcDbXrecord
280
     1
270
     1
271
     1
  0
XRECORD
  5
25
102
{ACAD_REACTORS
330
22
102
}
330
22
100
AcDbXrecord
280
     1
270
     1
271
     1
  0
CELLSTYLEMAP
  5
144
102
{ACAD_REACTORS
330
143
102
}
330
143
100
AcDbCellStyleMap
 90
        3
300
CELLSTYLE
  1
TABLEFORMAT_BEGIN
 90
        5
170
     1
 91
        0
 92
    32768
 62
   257
 93
        1
300
CONTENTFORMAT
  1
CONTENTFORMAT_BEGIN
 90
        0
 91
        0
 92
      512
 93
        0
300

 40
0.0
140
1.0
 94
        5
 62
     0
340
55
144
0.25
309
CONTENTFORMAT_END
171
     0
 94
        0
309
TABLEFORMAT_END
  1
CELLSTYLE_BEGIN
 90
        1
 91
        1
300
_TITLE
309
CELLSTYLE_END
300
CELLSTYLE
  1
TABLEFORMAT_BEGIN
 90
        5
170
     1
 91
        0
 92
        0
 62
   257
 93
        1
300
CONTENTFORMAT
  1
CONTENTFORMAT_BEGIN
 90
        0
 91
        0
 92
      512
 93
        0
300

 40
0.0
140
1.0
 94
        5
 62
     0
340
55
144
0.18
309
CONTENTFORMAT_END
171
     0
 94
        0
309
TABLEFORMAT_END
  1
CELLSTYLE_BEGIN
 90
        2
 91
        1
300
_HEADER
309
CELLSTYLE_END
300
CELLSTYLE
  1
TABLEFORMAT_BEGIN
 90
        5
170
     1
 91
        0
 92
        0
 62
   257
 93
        1
300
CONTENTFORMAT
  1
CONTENTFORMAT_BEGIN
 90
        0
 91
        0
 92
      512
 93
        0
300

 40
0.0
140
1.0
 94
        2
 62
     0
340
55
144
0.18
309
CONTENTFORMAT_END
171
     0
 94
        0
309
TABLEFORMAT_END
  1
CELLSTYLE_BEGIN
 90
        3
 91
        2
300
_DATA
309
CELLSTYLE_END
  0
ENDSEC
  0
EOF
