  0
SECTION
  2
HEADER
  9
$ACADVER
  1
AC1032
  9
$ACADMAINTVER
 90
      228
  9
$DWGCODEPAGE
  3
ANSI_1252
  9
$REQUIREDVERSIONS
160
                 0
  9
$INSBASE
 10
0.0
 20
0.0
 30
0.0
  9
$EXTMIN
 10
1.000000000000000E+20
 20
1.000000000000000E+20
 30
1.000000000000000E+20
  9
$EXTMAX
 10
-1.000000000000000E+20
 20
-1.000000000000000E+20
 30
-1.000000000000000E+20
  9
$LIMMIN
 10
0.0
 20
0.0
  9
$LIMMAX
 10
12.0
 20
9.0
  9
$ORTHOMODE
 70
     0
  9
$REGENMODE
 70
     1
  9
$FILLMODE
 70
     1
  9
$QTEXTMODE
 70
     0
  9
$MIRRTEXT
 70
     0
  9
$LTSCALE
 40
1.0
  9
$ATTMODE
 70
     1
  9
$TEXTSIZE
 40
0.2
  9
$TRACEWID
 40
0.05
  9
$TEXTSTYLE
  7
Standard
  9
$CLAYER
  8
0
  9
$CELTYPE
  6
ByLayer
  9
$CECOLOR
 62
   256
  9
$CELTSCALE
 40
1.0
  9
$DISPSILH
 70
     0
  9
$DIMSCALE
 40
1.0
  9
$DIMASZ
 40
0.18
  9
$DIMEXO
 40
0.0625
  9
$DIMDLI
 40
0.38
  9
$DIMRND
 40
0.0
  9
$DIMDLE
 40
0.0
  9
$DIMEXE
 40
0.18
  9
$DIMTP
 40
0.0
  9
$DIMTM
 40
0.0
  9
$DIMTXT
 40
0.18
  9
$DIMCEN
 40
0.09
  9
$DIMTSZ
 40
0.0
  9
$DIMTOL
 70
     0
  9
$DIMLIM
 70
     0
  9
$DIMTIH
 70
     1
  9
$DIMTOH
 70
     1
  9
$DIMSE1
 70
     0
  9
$DIMSE2
 70
     0
  9
$DIMTAD
 70
     0
  9
$DIMZIN
 70
     0
  9
$DIMBLK
  1

  9
$DIMASO
 70
     1
  9
$DIMSHO
 70
     1
  9
$DIMPOST
  1

  9
$DIMAPOST
  1

  9
$DIMALT
 70
     0
  9
$DIMALTD
 70
     2
  9
$DIMALTF
 40
25.4
  9
$DIMLFAC
 40
1.0
  9
$DIMTOFL
 70
     0
  9
$DIMTVP
 40
0.0
  9
$DIMTIX
 70
     0
  9
$DIMSOXD
 70
     0
  9
$DIMSAH
 70
     0
  9
$DIMBLK1
  1

  9
$DIMBLK2
  1

  9
$DIMSTYLE
  2
Standard
  9
$DIMCLRD
 70
     0
  9
$DIMCLRE
 70
     0
  9
$DIMCLRT
 70
     0
  9
$DIMTFAC
 40
1.0
  9
$DIMGAP
 40
0.09
  9
$DIMJUST
 70
     0
  9
$DIMSD1
 70
     0
  9
$DIMSD2
 70
     0
  9
$DIMTOLJ
 70
     1
  9
$DIMTZIN
 70
     0
  9
$DIMALTZ
 70
     0
  9
$DIMALTTZ
 70
     0
  9
$DIMUPT
 70
     0
  9
$DIMDEC
 70
     4
  9
$DIMTDEC
 70
     4
  9
$DIMALTU
 70
     2
  9
$DIMALTTD
 70
     2
  9
$DIMTXSTY
  7
Standard
  9
$DIMAUNIT
 70
     0
  9
$DIMADEC
 70
     0
  9
$DIMALTRND
 40
0.0
  9
$DIMAZIN
 70
     0
  9
$DIMDSEP
 70
    46
  9
$DIMATFIT
 70
     3
  9
$DIMFRAC
 70
     0
  9
$DIMLDRBLK
  1

  9
$DIMLUNIT
 70
     2
  9
$DIMLWD
 70
    -2
  9
$DIMLWE
 70
    -2
  9
$DIMTMOVE
 70
     0
  9
$DIMFXL
 40
1.0
  9
$DIMFXLON
 70
     0
  9
$DIMJOGANG
 40
0.7853981633974483
  9
$DIMTFILL
 70
     0
  9
$DIMTFILLCLR
 70
     0
  9
$DIMARCSYM
 70
     0
  9
$DIMLTYPE
  6

  9
$DIMLTEX1
  6

  9
$DIMLTEX2
  6

  9
$DIMTXTDIRECTION
 70
     0
  9
$LUNITS
 70
     2
  9
$LUPREC
 70
     4
  9
$SKETCHINC
 40
0.1
  9
$FILLETRAD
 40
0.0
  9
$AUNITS
 70
     0
  9
$AUPREC
 70
     0
  9
$MENU
  1
.
  9
$ELEVATION
 40
0.0
  9
$PELEVATION
 40
0.0
  9
$THICKNESS
 40
0.0
  9
$LIMCHECK
 70
     0
  9
$CHAMFERA
 40
0.0
  9
$CHAMFERB
 40
0.0
  9
$CHAMFERC
 40
0.0
  9
$CHAMFERD
 40
0.0
  9
$SKPOLY
 70
     0
  9
$TDCREATE
 40
2460185.542800926
  9
$TDUCREATE
 40
2460185.501134259
  9
$TDUPDATE
 40
2460185.542800926
  9
$TDUUPDATE
 40
2460185.501134259
  9
$TDINDWG
 40
0.0000000000
  9
$TDUSRTIMER
 40
0.0000000000
  9
$USRTIMER
 70
     1
  9
$ANGBASE
 50
0.0
  9
$ANGDIR
 70
     0
  9
$PDMODE
 70
     0
  9
$PDSIZE
 40
0.0
  9
$PLINEWID
 40
0.0
  9
$SPLFRAME
 70
     0
  9
$SPLINETYPE
 70
     6
  9
$SPLINESEGS
 70
     8
  9
$HANDSEED
  5
CB
  9
$SURFTAB1
 70
     6
  9
$SURFTAB2
 70
     6
  9
$SURFTYPE
 70
     6
  9
$SURFU
 70
     6
  9
$SURFV
 70
     6
  9
$UCSBASE
  2

  9
$UCSNAME
  2

  9
$UCSORG
 10
0.0
 20
0.0
 30
0.0
  9
$UCSXDIR
 10
1.0
 20
0.0
 30
0.0
  9
$UCSYDIR
 10
0.0
 20
1.0
 30
0.0
  9
$UCSORTHOREF
  2

  9
$UCSORTHOVIEW
 70
     0
  9
$UCSORGTOP
 10
0.0
 20
0.0
 30
0.0
  9
$UCSORGBOTTOM
 10
0.0
 20
0.0
 30
0.0
  9
$UCSORGLEFT
 10
0.0
 20
0.0
 30
0.0
  9
$UCSORGRIGHT
 10
0.0
 20
0.0
 30
0.0
  9
$UCSORGFRONT
 10
0.0
 20
0.0
 30
0.0
  9
$UCSORGBACK
 10
0.0
 20
0.0
 30
0.0
  9
$PUCSBASE
  2

  9
$PUCSNAME
  2

  9
$PUCSORG
 10
0.0
 20
0.0
 30
0.0
  9
$PUCSXDIR
 10
1.0
 20
0.0
 30
0.0
  9
$PUCSYDIR
 10
0.0
 20
1.0
 30
0.0
  9
$PUCSORTHOREF
  2

  9
$PUCSORTHOVIEW
 70
     0
  9
$PUCSORGTOP
 10
0.0
 20
0.0
 30
0.0
  9
$PUCSORGBOTTOM
 10
0.0
 20
0.0
 30
0.0
  9
$PUCSORGLEFT
 10
0.0
 20
0.0
 30
0.0
  9
$PUCSORGRIGHT
 10
0.0
 20
0.0
 30
0.0
  9
$PUCSORGFRONT
 10
0.0
 20
0.0
 30
0.0
  9
$PUCSORGBACK
 10
0.0
 20
0.0
 30
0.0
  9
$USERI1
 70
     0
  9
$USERI2
 70
     0
  9
$USERI3
 70
     0
  9
$USERI4
 70
     0
  9
$USERI5
 70
     0
  9
$USERR1
 40
0.0
  9
$USERR2
 40
0.0
  9
$USERR3
 40
0.0
  9
$USERR4
 40
0.0
  9
$USERR5
 40
0.0
  9
$WORLDVIEW
 70
     1
  9
$SHADEDGE
 70
     3
  9
$SHADEDIF
 70
    70
  9
$TILEMODE
 70
     1
  9
$MAXACTVP
 70
    64
  9
$PINSBASE
 10
0.0
 20
0.0
 30
0.0
  9
$PLIMCHECK
 70
     0
  9
$PEXTMIN
 10
1.000000000000000E+20
 20
1.000000000000000E+20
 30
1.000000000000000E+20
  9
$PEXTMAX
 10
-1.000000000000000E+20
 20
-1.000000000000000E+20
 30
-1.000000000000000E+20
  9
$PLIMMIN
 10
0.0
 20
0.0
  9
$PLIMMAX
 10
12.0
 20
9.0
  9
$UNITMODE
 70
     0
  9
$VISRETAIN
 70
     1
  9
$PLINEGEN
 70
     0
  9
$PSLTSCALE
 70
     1
  9
$TREEDEPTH
 70
  3020
  9
$CMLSTYLE
  2
Standard
  9
$CMLJUST
 70
     0
  9
$CMLSCALE
 40
1.0
  9
$PROXYGRAPHICS
 70
     1
  9
$MEASUREMENT
 70
     0
  9
$CELWEIGHT
370
    -1
  9
$ENDCAPS
280
     0
  9
$JOINSTYLE
280
     0
  9
$LWDISPLAY
290
     1
  9
$INSUNITS
 70
     4
  9
$HYPERLINKBASE
  1

  9
$STYLESHEET
  1

  9
$XEDIT
290
     1
  9
$CEPSNTYPE
380
     0
  9
$PSTYLEMODE
290
     1
  9
$FINGERPRINTGUID
  2
{1ADD1C79-F081-9D47-9311-5D3BC39ACF29}
  9
$VERSIONGUID
  2
{B01E90E9-DD65-4F4B-A8C9-35AB0EB3634B}
  9
$EXTNAMES
290
     1
  9
$PSVPSCALE
 40
0.0
  9
$OLESTARTUP
290
     0
  9
$SORTENTS
280
   127
  9
$INDEXCTL
280
     0
  9
$HIDETEXT
280
     1
  9
$XCLIPFRAME
280
     2
  9
$HALOGAP
280
     0
  9
$OBSCOLOR
 70
   257
  9
$OBSLTYPE
280
     0
  9
$INTERSECTIONDISPLAY
280
     0
  9
$INTERSECTIONCOLOR
 70
   257
  9
$DIMASSOC
280
     2
  9
$PROJECTNAME
  1

  9
$CAMERADISPLAY
290
     0
  9
$LENSLENGTH
 40
50.0
  9
$CAMERAHEIGHT
 40
0.0
  9
$STEPSPERSEC
 40
2.0
  9
$STEPSIZE
 40
6.0
  9
$3DDWFPREC
 40
2.0
  9
$PSOLWIDTH
 40
0.25
  9
$PSOLHEIGHT
 40
4.0
  9
$LOFTANG1
 40
1.570796326794896
  9
$LOFTANG2
 40
1.570796326794896
  9
$LOFTMAG1
 40
0.0
  9
$LOFTMAG2
 40
0.0
  9
$LOFTPARAM
 70
     7
  9
$LOFTNORMALS
280
     1
  9
$LATITUDE
 40
37.795
  9
$LONGITUDE
 40
-122.394
  9
$NORTHDIRECTION
 40
0.0
  9
$TIMEZONE
 70
 -8000
  9
$LIGHTGLYPHDISPLAY
280
     1
  9
$TILEMODELIGHTSYNCH
280
     1
  9
$CMATERIAL
347
11
  9
$SOLIDHIST
280
     0
  9
$SHOWHIST
280
     1
  9
$DWFFRAME
280
     2
  9
$DGNFRAME
280
     0
  9
$REALWORLDSCALE
290
     1
  9
$INTERFERECOLOR
 62
     1
  9
$INTERFEREOBJVS
345
33
  9
$INTERFEREVPVS
346
30
  9
$CSHADOW
280
     0
  9
$SHADOWPLANELOCATION
 40
0.0
  0
ENDSEC
  0
SECTION
  2
CLASSES
  0
CLASS
  1
ACDBDICTIONARYWDFLT
  2
AcDbDictionaryWithDefault
  3
ObjectDBX Classes
 90
        0
 91
        1
280
     0
281
     0
  0
CLASS
  1
MATERIAL
  2
AcDbMaterial
  3
ObjectDBX Classes
 90
     1153
 91
        3
280
     0
281
     0
  0
CLASS
  1
VISUALSTYLE
  2
AcDbVisualStyle
  3
ObjectDBX Classes
 90
     4095
 91
       24
280
     0
281
     0
  0
CLASS
  1
SCALE
  2
AcDbScale
  3
ObjectDBX Classes
 90
     1153
 91
       17
280
     0
281
     0
  0
CLASS
  1
TABLESTYLE
  2
AcDbTableStyle
  3
ObjectDBX Classes
 90
     4095
 91
        1
280
     0
281
     0
  0
CLASS
  1
MLEADERSTYLE
  2
AcDbMLeaderStyle
  3
ACDB_MLEADERSTYLE_CLASS
 90
     4095
 91
        1
280
     0
281
     0
  0
CLASS
  1
ACDBSECTIONVIEWSTYLE
  2
AcDbSectionViewStyle
  3
ObjectDBX Classes
 90
     1025
 91
        1
280
     0
281
     0
  0
CLASS
  1
ACDBDETAILVIEWSTYLE
  2
AcDbDetailViewStyle
  3
ObjectDBX Classes
 90
     1025
 91
        1
280
     0
281
     0
  0
CLASS
  1
DICTIONARYVAR
  2
AcDbDictionaryVar
  3
ObjectDBX Classes
 90
        0
 91
        5
280
     0
281
     0
  0
CLASS
  1
CELLSTYLEMAP
  2
AcDbCellStyleMap
  3
ObjectDBX Classes
 90
     1152
 91
        1
280
     0
281
     0
  0
ENDSEC
  0
SECTION
  2
TABLES
  0
TABLE
  2
VPORT
  5
8
330
0
100
AcDbSymbolTable
 70
     1
  0
VPORT
  5
57
330
8
100
AcDbSymbolTableRecord
100
AcDbViewportTableRecord
  2
*Active
 70
     0
 10
0.0
 20
0.0
 11
1.0
 21
1.0
 12
0.0
 22
0.0
 13
0.0
 23
0.0
 14
1.0
 24
1.0
 15
0.0
 25
0.0
 16
0.0
 26
0.0
 36
1.0
 17
49.99999998749409
 27
-49.99999998749409
 37
0.0
 40
101.9999999744879
 41
1.0
 42
50.0
 43
0.0
 44
0.0
 50
0.0
 51
0.0
 71
     0
 72
   100
 73
     1
 74
     1
 75
     0
 76
     0
 77
     0
 78
     0
281
     0
 65
     1
110
0.0
120
0.0
130
0.0
111
1.0
121
0.0
131
0.0
112
0.0
122
1.0
132
0.0
 79
     0
146
0.0
 60
     3
 61
     5
292
     1
282
     1
141
0.0
142
0.0
 63
   250
421
  3355443
  0
ENDTAB
  0
TABLE
  2
LTYPE
  5
5
330
0
100
AcDbSymbolTable
 70
     1
  0
LTYPE
  5
5B
330
5
100
AcDbSymbolTableRecord
100
AcDbLinetypeTableRecord
  2
ByBlock
 70
     0
  3

 72
    65
 73
     0
 40
0.0
  0
LTYPE
  5
5C
330
5
100
AcDbSymbolTableRecord
100
AcDbLinetypeTableRecord
  2
ByLayer
 70
     0
  3

 72
    65
 73
     0
 40
0.0
  0
LTYPE
  5
5D
330
5
100
AcDbSymbolTableRecord
100
AcDbLinetypeTableRecord
  2
Continuous
 70
     0
  3
Solid line
 72
    65
 73
     0
 40
0.0
  0
ENDTAB
  0
TABLE
  2
LAYER
  5
2
330
0
100
AcDbSymbolTable
 70
     2
  0
LAYER
  5
54
330
2
100
AcDbSymbolTableRecord
100
AcDbLayerTableRecord
  2
0
 70
     0
 62
     7
  6
Continuous
370
    -3
390
F
347
21
348
0
  0
LAYER
  5
78
330
2
100
AcDbSymbolTableRecord
100
AcDbLayerTableRecord
  2
Camada 1
 70
     0
 62
     7
  6
Continuous
370
     0
390
F
347
21
348
0
  0
ENDTAB
  0
TABLE
  2
STYLE
  5
3
330
0
100
AcDbSymbolTable
 70
     2
  0
STYLE
  5
55
330
3
100
AcDbSymbolTableRecord
100
AcDbTextStyleTableRecord
  2
Standard
 70
     0
 40
0.0
 41
1.0
 50
0.0
 71
     0
 42
0.2
  3
txt
  4

  0
STYLE
  5
5A
330
3
100
AcDbSymbolTableRecord
100
AcDbTextStyleTableRecord
  2
Annotative
 70
     0
 40
0.0
 41
1.0
 50
0.0
 71
     0
 42
0.2
  3
txt
  4

1001
AcadAnnotative
1000
AnnotativeData
1002
{
1070
     1
1070
     1
1002
}
  0
ENDTAB
  0
TABLE
  2
VIEW
  5
6
330
0
100
AcDbSymbolTable
 70
     0
  0
ENDTAB
  0
TABLE
  2
UCS
  5
7
330
0
100
AcDbSymbolTable
 70
     0
  0
ENDTAB
  0
TABLE
  2
APPID
  5
9
330
0
100
AcDbSymbolTable
 70
     2
  0
APPID
  5
56
330
9
100
AcDbSymbolTableRecord
100
AcDbRegAppTableRecord
  2
ACAD
 70
     0
  0
APPID
  5
5E
330
9
100
AcDbSymbolTableRecord
100
AcDbRegAppTableRecord
  2
AcadAnnotative
 70
     0
  0
ENDTAB
  0
TABLE
  2
DIMSTYLE
  5
A
330
0
100
AcDbSymbolTable
 70
     2
100
AcDbDimStyleTable
 71
     0
  0
DIMSTYLE
105
58
330
A
100
AcDbSymbolTableRecord
100
AcDbDimStyleTableRecord
  2
Standard
 70
     0
340
55
  0
DIMSTYLE
105
59
330
A
100
AcDbSymbolTableRecord
100
AcDbDimStyleTableRecord
  2
Annotative
 70
     0
340
55
1001
AcadAnnotative
1000
AnnotativeData
1002
{
1070
     1
1070
     1
1002
}
  0
ENDTAB
  0
TABLE
  2
BLOCK_RECORD
  5
1
330
0
100
AcDbSymbolTable
 70
     1
  0
BLOCK_RECORD
  5
70
330
1
100
AcDbSymbolTableRecord
100
AcDbBlockTableRecord
  2
*Model_Space
340
73
 70
     0
280
     1
281
     0
  0
BLOCK_RECORD
  5
6C
330
1
100
AcDbSymbolTableRecord
100
AcDbBlockTableRecord
  2
*Paper_Space
340
6F
 70
     0
280
     1
281
     0
  0
BLOCK_RECORD
  5
74
330
1
100
AcDbSymbolTableRecord
100
AcDbBlockTableRecord
  2
*Paper_Space0
340
77
 70
     0
280
     1
281
     0
  0
ENDTAB
  0
ENDSEC
  0
SECTION
  2
BLOCKS
  0
BLOCK
  5
71
330
70
100
AcDbEntity
  8
0
100
AcDbBlockBegin
  2
*Model_Space
 70
     0
 10
0.0
 20
0.0
 30
0.0
  3
*Model_Space
  1

  0
ENDBLK
  5
72
330
70
100
AcDbEntity
  8
0
100
AcDbBlockEnd
  0
BLOCK
  5
6D
330
6C
100
AcDbEntity
 67
     1
  8
0
100
AcDbBlockBegin
  2
*Paper_Space
 70
     0
 10
0.0
 20
0.0
 30
0.0
  3
*Paper_Space
  1

  0
ENDBLK
  5
6E
330
6C
100
AcDbEntity
 67
     1
  8
0
100
AcDbBlockEnd
  0
BLOCK
  5
75
330
74
100
AcDbEntity
 67
     1
  8
0
100
AcDbBlockBegin
  2
*Paper_Space0
 70
     0
 10
0.0
 20
0.0
 30
0.0
  3
*Paper_Space0
  1

  0
ENDBLK
  5
76
330
74
100
AcDbEntity
 67
     1
  8
0
100
AcDbBlockEnd
  0
ENDSEC
  0
SECTION
  2
ENTITIES
  0
LINE
  5
79
330
70
100
AcDbEntity
  8
Camada 1
 62
   250
420
  1907995
370
    20
100
AcDbLine
 10
34.67280280364955
 20
-46.51889407794072
 30
0.0
 11
34.67280280364955
 21
-51.61218300618248
 31
0.0
  0
LINE
  5
7A
330
70
100
AcDbEntity
  8
Camada 1
 62
   250
420
  1907995
370
    20
100
AcDbLine
 10
37.09010168917631
 20
-46.51889407794072
 30
0.0
 11
34.67280280364955
 21
-46.51889407794072
 31
0.0
  0
LINE
  5
7B
330
70
100
AcDbEntity
  8
Camada 1
 62
   250
420
  1907995
370
    20
100
AcDbLine
 10
34.67280280364955
 20
-51.61218300618248
 30
0.0
 11
37.09010168917631
 21
-51.61218300618248
 31
0.0
  0
LINE
  5
7C
330
70
100
AcDbEntity
  8
Camada 1
 62
   250
420
  1907995
370
    20
100
AcDbLine
 10
37.09010168917631
 20
-45.13713052689844
 30
0.0
 11
37.09010168917631
 21
-53.07991500375009
 31
0.0
  0
LINE
  5
7D
330
70
100
AcDbEntity
  8
Camada 1
 62
   250
420
  1907995
370
    20
100
AcDbLine
 10
88.72889395296107
 20
-53.07991500375009
 30
0.0
 11
88.72889395296107
 21
-49.10891869650495
 31
0.0
  0
LINE
  5
7E
330
70
100
AcDbEntity
  8
Camada 1
 62
   250
420
  1907995
370
    20
100
AcDbLine
 10
88.72889395296107
 20
-45.13713052689844
 30
0.0
 11
37.09010168917631
 21
-45.13713052689844
 31
0.0
  0
LINE
  5
7F
330
70
100
AcDbEntity
  8
Camada 1
 62
   250
420
  1907995
370
    20
100
AcDbLine
 10
37.09010168917631
 20
-53.07991500375009
 30
0.0
 11
88.72889395296107
 21
-53.07991500375009
 31
0.0
  0
LINE
  5
80
330
70
100
AcDbEntity
  8
Camada 1
 62
   250
420
  1907995
370
    20
100
AcDbLine
 10
88.72889395296107
 20
-49.10891869650495
 30
0.0
 11
88.72889395296107
 21
-45.13713052689844
 31
0.0
  0
LWPOLYLINE
  5
81
330
70
100
AcDbEntity
  8
Camada 1
 62
   250
420
  1907995
370
    20
100
AcDbPolyline
 90
       29
 70
     1
 43
0.0
 10
85.01578485104104
 20
-47.12302461170153
 10
85.01578485104104
 20
-47.03666325637056
 10
85.10135434401098
 20
-47.03666325637056
 10
85.10135434401098
 20
-46.86394054570891
 10
85.18771569934195
 20
-46.86394054570891
 10
85.18771569934195
 20
-46.77758523512865
 10
85.27407705467295
 20
-46.77758523512865
 10
85.36043841000392
 20
-46.77758523512865
 10
85.44759162769533
 20
-46.77758523512865
 10
85.53394693827526
 20
-46.77758523512865
 10
85.62030829360624
 20
-46.77758523512865
 10
85.62030829360624
 20
-46.86394054570891
 10
85.70666964893723
 20
-46.86394054570891
 10
85.70666964893723
 20
-46.95070085459563
 10
85.79303100426821
 20
-46.95070085459563
 10
85.79303100426821
 20
-47.29534836880777
 10
85.70666964893723
 20
-47.29534836880777
 10
85.70666964893723
 20
-47.38210263294344
 10
85.62030829360624
 20
-47.38210263294344
 10
85.62030829360624
 20
-47.46846398827442
 10
85.53394693827526
 20
-47.46846398827442
 10
85.44759162769533
 20
-47.46846398827442
 10
85.36043841000392
 20
-47.46846398827442
 10
85.27407705467295
 20
-47.46846398827442
 10
85.18771569934195
 20
-47.46846398827442
 10
85.18771569934195
 20
-47.38210263294344
 10
85.10135434401098
 20
-47.38210263294344
 10
85.10135434401098
 20
-47.20938596703252
 10
85.01578485104104
 20
-47.20938596703252
  0
LWPOLYLINE
  5
82
330
70
100
AcDbEntity
  8
Camada 1
 62
   250
420
  1907995
370
    20
100
AcDbPolyline
 90
       29
 70
     1
 43
0.0
 10
85.01578485104104
 20
-48.41803389860814
 10
85.01578485104104
 20
-48.33167254327715
 10
85.10135434401098
 20
-48.33167254327715
 10
85.10135434401098
 20
-48.15895587736624
 10
85.18771569934195
 20
-48.15895587736624
 10
85.18771569934195
 20
-48.07259452203525
 10
85.27407705467295
 20
-48.07259452203525
 10
85.36043841000392
 20
-48.07259452203525
 10
85.44759162769533
 20
-48.07259452203525
 10
85.53394693827526
 20
-48.07259452203525
 10
85.62030829360624
 20
-48.07259452203525
 10
85.62030829360624
 20
-48.15895587736624
 10
85.70666964893723
 20
-48.15895587736624
 10
85.70666964893723
 20
-48.24531118794617
 10
85.79303100426821
 20
-48.24531118794617
 10
85.79303100426821
 20
-48.59075660927011
 10
85.70666964893723
 20
-48.59075660927011
 10
85.70666964893723
 20
-48.67711796460109
 10
85.62030829360624
 20
-48.67711796460109
 10
85.62030829360624
 20
-48.76308036637602
 10
85.53394693827526
 20
-48.76308036637602
 10
85.44759162769533
 20
-48.76308036637602
 10
85.36043841000392
 20
-48.76308036637602
 10
85.27407705467295
 20
-48.76308036637602
 10
85.18771569934195
 20
-48.76308036637602
 10
85.18771569934195
 20
-48.67711796460109
 10
85.10135434401098
 20
-48.67711796460109
 10
85.10135434401098
 20
-48.50439525393912
 10
85.01578485104104
 20
-48.50439525393912
  0
LWPOLYLINE
  5
83
330
70
100
AcDbEntity
  8
Camada 1
 62
   250
420
  1907995
370
    20
100
AcDbPolyline
 90
       29
 70
     1
 43
0.0
 10
85.79303100426821
 20
-49.71304318551474
 10
85.79303100426821
 20
-49.62668183018376
 10
85.70666964893723
 20
-49.62668183018376
 10
85.70666964893723
 20
-49.45396516427283
 10
85.62030829360624
 20
-49.45396516427283
 10
85.62030829360624
 20
-49.36760380894185
 10
85.53394693827526
 20
-49.36760380894185
 10
85.44759162769533
 20
-49.36760380894185
 10
85.36043841000392
 20
-49.36760380894185
 10
85.27407705467295
 20
-49.36760380894185
 10
85.27407705467295
 20
-49.45396516427283
 10
85.18771569934195
 20
-49.45396516427283
 10
85.10135434401098
 20
-49.45396516427283
 10
85.10135434401098
 20
-49.62668183018376
 10
85.01578485104104
 20
-49.62668183018376
 10
85.01578485104104
 20
-49.79940454084572
 10
85.10135434401098
 20
-49.79940454084572
 10
85.10135434401098
 20
-49.97212725150768
 10
85.18771569934195
 20
-49.97212725150768
 10
85.18771569934195
 20
-50.05848860683835
 10
85.27407705467295
 20
-50.05848860683835
 10
85.36043841000392
 20
-50.05848860683835
 10
85.44759162769533
 20
-50.05848860683835
 10
85.53394693827526
 20
-50.05848860683835
 10
85.62030829360624
 20
-50.05848860683835
 10
85.62030829360624
 20
-49.97212725150768
 10
85.70666964893723
 20
-49.97212725150768
 10
85.70666964893723
 20
-49.88536694262065
 10
85.79303100426821
 20
-49.88536694262065
  0
LWPOLYLINE
  5
84
330
70
100
AcDbEntity
  8
Camada 1
 62
   250
420
  1907995
370
    20
100
AcDbPolyline
 90
       30
 70
     1
 43
0.0
 10
85.01578485104104
 20
-51.00805247242133
 10
85.01578485104104
 20
-50.92169716184076
 10
85.10135434401098
 20
-50.92169716184076
 10
85.10135434401098
 20
-50.74897445117944
 10
85.18771569934195
 20
-50.74897445117944
 10
85.27407705467295
 20
-50.74897445117944
 10
85.27407705467295
 20
-50.66261309584845
 10
85.36043841000392
 20
-50.66261309584845
 10
85.44759162769533
 20
-50.66261309584845
 10
85.53394693827526
 20
-50.66261309584845
 10
85.53394693827526
 20
-50.74897445117944
 10
85.62030829360624
 20
-50.74897445117944
 10
85.70666964893723
 20
-50.74897445117944
 10
85.70666964893723
 20
-50.92169716184076
 10
85.79303100426821
 20
-50.92169716184076
 10
85.79303100426821
 20
-51.1807751830833
 10
85.70666964893723
 20
-51.1807751830833
 10
85.70666964893723
 20
-51.26713653841364
 10
85.62030829360624
 20
-51.26713653841364
 10
85.62030829360624
 20
-51.35309894018889
 10
85.53394693827526
 20
-51.35309894018889
 10
85.44759162769533
 20
-51.43985924907561
 10
85.36043841000392
 20
-51.43985924907561
 10
85.36043841000392
 20
-51.35309894018889
 10
85.27407705467295
 20
-51.35309894018889
 10
85.18771569934195
 20
-51.35309894018889
 10
85.18771569934195
 20
-51.26713653841364
 10
85.10135434401098
 20
-51.26713653841364
 10
85.10135434401098
 20
-51.1807751830833
 10
85.01578485104104
 20
-51.09441382775232
  0
LWPOLYLINE
  5
85
330
70
100
AcDbEntity
  8
Camada 1
 62
   250
420
  1907995
370
    20
100
AcDbPolyline
 90
       29
 70
     1
 43
0.0
 10
84.58359121033186
 20
-47.12302461170153
 10
84.58359121033186
 20
-47.03666325637056
 10
84.49683090144514
 20
-47.03666325637056
 10
84.49683090144514
 20
-46.86394054570891
 10
84.4112614084752
 20
-46.86394054570891
 10
84.4112614084752
 20
-46.77758523512865
 10
84.32529900669996
 20
-46.77758523512865
 10
84.2385447425643
 20
-46.77758523512865
 10
84.15218338723331
 20
-46.77758523512865
 10
84.06582203190232
 20
-46.77758523512865
 10
83.97985963012708
 20
-46.77758523512865
 10
83.97985963012708
 20
-46.86394054570891
 10
83.89270641243504
 20
-46.86394054570891
 10
83.89270641243504
 20
-46.95070085459563
 10
83.80634505710405
 20
-46.95070085459563
 10
83.80634505710405
 20
-47.29534836880777
 10
83.89270641243504
 20
-47.29534836880777
 10
83.89270641243504
 20
-47.38210263294344
 10
83.97985963012708
 20
-47.38210263294344
 10
83.97985963012708
 20
-47.46846398827442
 10
84.06582203190232
 20
-47.46846398827442
 10
84.15218338723331
 20
-47.46846398827442
 10
84.2385447425643
 20
-47.46846398827442
 10
84.32529900669996
 20
-47.46846398827442
 10
84.4112614084752
 20
-47.46846398827442
 10
84.4112614084752
 20
-47.38210263294344
 10
84.49683090144514
 20
-47.38210263294344
 10
84.49683090144514
 20
-47.20938596703252
 10
84.58359121033186
 20
-47.20938596703252
  0
LWPOLYLINE
  5
86
330
70
100
AcDbEntity
  8
Camada 1
 62
   250
420
  1907995
370
    20
100
AcDbPolyline
 90
       29
 70
     1
 43
0.0
 10
83.80634505710405
 20
-48.41803389860814
 10
83.80634505710405
 20
-48.33167254327715
 10
83.89270641243504
 20
-48.24531118794617
 10
83.89270641243504
 20
-48.15895587736624
 10
83.97985963012708
 20
-48.15895587736624
 10
83.97985963012708
 20
-48.07259452203525
 10
84.06582203190232
 20
-48.07259452203525
 10
84.15218338723331
 20
-48.07259452203525
 10
84.2385447425643
 20
-48.07259452203525
 10
84.32529900669996
 20
-48.07259452203525
 10
84.4112614084752
 20
-48.07259452203525
 10
84.4112614084752
 20
-48.15895587736624
 10
84.49683090144514
 20
-48.15895587736624
 10
84.49683090144514
 20
-48.33167254327715
 10
84.58359121033186
 20
-48.33167254327715
 10
84.58359121033186
 20
-48.50439525393912
 10
84.49683090144514
 20
-48.50439525393912
 10
84.49683090144514
 20
-48.67711796460109
 10
84.4112614084752
 20
-48.67711796460109
 10
84.4112614084752
 20
-48.76308036637602
 10
84.32529900669996
 20
-48.76308036637602
 10
84.2385447425643
 20
-48.76308036637602
 10
84.15218338723331
 20
-48.76308036637602
 10
84.06582203190232
 20
-48.76308036637602
 10
83.97985963012708
 20
-48.76308036637602
 10
83.97985963012708
 20
-48.67711796460109
 10
83.89270641243504
 20
-48.67711796460109
 10
83.89270641243504
 20
-48.59075660927011
 10
83.80634505710405
 20
-48.59075660927011
  0
LWPOLYLINE
  5
87
330
70
100
AcDbEntity
  8
Camada 1
 62
   250
420
  1907995
370
    20
100
AcDbPolyline
 90
       29
 70
     1
 43
0.0
 10
84.58359121033186
 20
-49.71304318551474
 10
84.58359121033186
 20
-49.62668183018376
 10
84.49683090144514
 20
-49.62668183018376
 10
84.49683090144514
 20
-49.45396516427283
 10
84.4112614084752
 20
-49.45396516427283
 10
84.32529900669996
 20
-49.45396516427283
 10
84.32529900669996
 20
-49.36760380894185
 10
84.2385447425643
 20
-49.36760380894185
 10
84.15218338723331
 20
-49.36760380894185
 10
84.06582203190232
 20
-49.36760380894185
 10
83.97985963012708
 20
-49.36760380894185
 10
83.97985963012708
 20
-49.45396516427283
 10
83.89270641243504
 20
-49.45396516427283
 10
83.89270641243504
 20
-49.62668183018376
 10
83.80634505710405
 20
-49.62668183018376
 10
83.80634505710405
 20
-49.88536694262065
 10
83.89270641243504
 20
-49.88536694262065
 10
83.89270641243504
 20
-49.97212725150768
 10
83.97985963012708
 20
-49.97212725150768
 10
83.97985963012708
 20
-50.05848860683835
 10
84.06582203190232
 20
-50.05848860683835
 10
84.15218338723331
 20
-50.05848860683835
 10
84.2385447425643
 20
-50.05848860683835
 10
84.32529900669996
 20
-50.05848860683835
 10
84.4112614084752
 20
-50.05848860683835
 10
84.4112614084752
 20
-49.97212725150768
 10
84.49683090144514
 20
-49.97212725150768
 10
84.49683090144514
 20
-49.79940454084572
 10
84.58359121033186
 20
-49.79940454084572
  0
LWPOLYLINE
  5
88
330
70
100
AcDbEntity
  8
Camada 1
 62
   250
420
  1907995
370
    20
100
AcDbPolyline
 90
       30
 70
     1
 43
0.0
 10
83.80634505710405
 20
-51.00805247242133
 10
83.80634505710405
 20
-50.92169716184076
 10
83.89270641243504
 20
-50.92169716184076
 10
83.89270641243504
 20
-50.74897445117944
 10
83.97985963012708
 20
-50.74897445117944
 10
84.06582203190232
 20
-50.74897445117944
 10
84.06582203190232
 20
-50.66261309584845
 10
84.15218338723331
 20
-50.66261309584845
 10
84.2385447425643
 20
-50.66261309584845
 10
84.32529900669996
 20
-50.66261309584845
 10
84.32529900669996
 20
-50.74897445117944
 10
84.4112614084752
 20
-50.74897445117944
 10
84.49683090144514
 20
-50.74897445117944
 10
84.49683090144514
 20
-50.92169716184076
 10
84.58359121033186
 20
-50.92169716184076
 10
84.58359121033186
 20
-51.1807751830833
 10
84.49683090144514
 20
-51.1807751830833
 10
84.49683090144514
 20
-51.26713653841364
 10
84.4112614084752
 20
-51.26713653841364
 10
84.4112614084752
 20
-51.35309894018889
 10
84.32529900669996
 20
-51.35309894018889
 10
84.2385447425643
 20
-51.35309894018889
 10
84.2385447425643
 20
-51.43985924907561
 10
84.15218338723331
 20
-51.43985924907561
 10
84.06582203190232
 20
-51.35309894018889
 10
83.97985963012708
 20
-51.35309894018889
 10
83.97985963012708
 20
-51.26713653841364
 10
83.89270641243504
 20
-51.26713653841364
 10
83.89270641243504
 20
-51.1807751830833
 10
83.80634505710405
 20
-51.1807751830833
  0
LWPOLYLINE
  5
89
330
70
100
AcDbEntity
  8
Camada 1
 62
   250
420
  1907995
370
    20
100
AcDbPolyline
 90
       27
 70
     1
 43
0.0
 10
83.37493723400552
 20
-47.12302461170153
 10
83.28897483223027
 20
-47.12302461170153
 10
83.28897483223027
 20
-46.86394054570891
 10
83.20182161453885
 20
-46.86394054570891
 10
83.20182161453885
 20
-46.77758523512865
 10
83.11546025920788
 20
-46.77758523512865
 10
83.02909890387688
 20
-46.77758523512865
 10
82.94273754854591
 20
-46.77758523512865
 10
82.85717410032638
 20
-46.77758523512865
 10
82.77081274499542
 20
-46.77758523512865
 10
82.77081274499542
 20
-46.86394054570891
 10
82.68445138966443
 20
-46.86394054570891
 10
82.68445138966443
 20
-46.95070085459563
 10
82.59769712552875
 20
-46.95070085459563
 10
82.59769712552875
 20
-47.29534836880777
 10
82.68445138966443
 20
-47.29534836880777
 10
82.68445138966443
 20
-47.38210263294344
 10
82.77081274499542
 20
-47.38210263294344
 10
82.77081274499542
 20
-47.46846398827442
 10
82.85717410032638
 20
-47.46846398827442
 10
82.94273754854591
 20
-47.46846398827442
 10
83.02909890387688
 20
-47.46846398827442
 10
83.11546025920788
 20
-47.46846398827442
 10
83.20182161453885
 20
-47.46846398827442
 10
83.20182161453885
 20
-47.38210263294344
 10
83.28897483223027
 20
-47.38210263294344
 10
83.28897483223027
 20
-47.12302461170153
  0
LWPOLYLINE
  5
8A
330
70
100
AcDbEntity
  8
Camada 1
 62
   250
420
  1907995
370
    20
100
AcDbPolyline
 90
       27
 70
     1
 43
0.0
 10
82.59769712552875
 20
-48.41803389860814
 10
82.59769712552875
 20
-48.24531118794617
 10
82.68445138966443
 20
-48.24531118794617
 10
82.68445138966443
 20
-48.15895587736624
 10
82.77081274499542
 20
-48.15895587736624
 10
82.77081274499542
 20
-48.07259452203525
 10
82.85717410032638
 20
-48.07259452203525
 10
82.94273754854591
 20
-48.07259452203525
 10
83.02909890387688
 20
-48.07259452203525
 10
83.11546025920788
 20
-48.07259452203525
 10
83.20182161453885
 20
-48.15895587736624
 10
83.28897483223027
 20
-48.15895587736624
 10
83.28897483223027
 20
-48.41803389860814
 10
83.37493723400552
 20
-48.41803389860814
 10
83.28897483223027
 20
-48.41803389860814
 10
83.28897483223027
 20
-48.67711796460109
 10
83.20182161453885
 20
-48.67711796460109
 10
83.20182161453885
 20
-48.76308036637602
 10
83.11546025920788
 20
-48.76308036637602
 10
83.02909890387688
 20
-48.76308036637602
 10
82.94273754854591
 20
-48.76308036637602
 10
82.85717410032638
 20
-48.76308036637602
 10
82.77081274499542
 20
-48.76308036637602
 10
82.77081274499542
 20
-48.67711796460109
 10
82.68445138966443
 20
-48.67711796460109
 10
82.68445138966443
 20
-48.59075660927011
 10
82.59769712552875
 20
-48.59075660927011
  0
LWPOLYLINE
  5
8B
330
70
100
AcDbEntity
  8
Camada 1
 62
   250
420
  1907995
370
    20
100
AcDbPolyline
 90
       27
 70
     1
 43
0.0
 10
83.37493723400552
 20
-49.71304318551474
 10
83.28897483223027
 20
-49.71304318551474
 10
83.28897483223027
 20
-49.54032651960382
 10
83.20182161453885
 20
-49.45396516427283
 10
83.11546025920788
 20
-49.45396516427283
 10
83.11546025920788
 20
-49.36760380894185
 10
83.02909890387688
 20
-49.36760380894185
 10
82.94273754854591
 20
-49.36760380894185
 10
82.85717410032638
 20
-49.36760380894185
 10
82.77081274499542
 20
-49.36760380894185
 10
82.77081274499542
 20
-49.45396516427283
 10
82.68445138966443
 20
-49.45396516427283
 10
82.68445138966443
 20
-49.54032651960382
 10
82.59769712552875
 20
-49.54032651960382
 10
82.59769712552875
 20
-49.88536694262065
 10
82.68445138966443
 20
-49.88536694262065
 10
82.68445138966443
 20
-49.97212725150768
 10
82.77081274499542
 20
-49.97212725150768
 10
82.77081274499542
 20
-50.05848860683835
 10
82.85717410032638
 20
-50.05848860683835
 10
82.94273754854591
 20
-50.05848860683835
 10
83.02909890387688
 20
-50.05848860683835
 10
83.11546025920788
 20
-50.05848860683835
 10
83.20182161453885
 20
-50.05848860683835
 10
83.20182161453885
 20
-49.97212725150768
 10
83.28897483223027
 20
-49.97212725150768
 10
83.28897483223027
 20
-49.79940454084572
  0
LWPOLYLINE
  5
8C
330
70
100
AcDbEntity
  8
Camada 1
 62
   250
420
  1907995
370
    20
100
AcDbPolyline
 90
       30
 70
     1
 43
0.0
 10
83.37493723400552
 20
-51.00805247242133
 10
83.28897483223027
 20
-51.00805247242133
 10
83.28897483223027
 20
-50.83533580651041
 10
83.20182161453885
 20
-50.83533580651041
 10
83.20182161453885
 20
-50.74897445117944
 10
83.11546025920788
 20
-50.74897445117944
 10
83.11546025920788
 20
-50.66261309584845
 10
83.02909890387688
 20
-50.66261309584845
 10
82.94273754854591
 20
-50.66261309584845
 10
82.85717410032638
 20
-50.66261309584845
 10
82.77081274499542
 20
-50.66261309584845
 10
82.77081274499542
 20
-50.74897445117944
 10
82.68445138966443
 20
-50.74897445117944
 10
82.68445138966443
 20
-50.83533580651041
 10
82.59769712552875
 20
-50.83533580651041
 10
82.59769712552875
 20
-51.1807751830833
 10
82.68445138966443
 20
-51.1807751830833
 10
82.68445138966443
 20
-51.35309894018889
 10
82.77081274499542
 20
-51.35309894018889
 10
82.85717410032638
 20
-51.35309894018889
 10
82.85717410032638
 20
-51.43985924907561
 10
82.94273754854591
 20
-51.43985924907561
 10
83.02909890387688
 20
-51.43985924907561
 10
83.02909890387688
 20
-51.35309894018889
 10
83.11546025920788
 20
-51.35309894018889
 10
83.20182161453885
 20
-51.35309894018889
 10
83.20182161453885
 20
-51.26713653841364
 10
83.28897483223027
 20
-51.26713653841364
 10
83.28897483223027
 20
-51.09441382775232
 10
83.37493723400552
 20
-51.09441382775232
  0
LWPOLYLINE
  5
8D
330
70
100
AcDbEntity
  8
Camada 1
 62
   250
420
  1907995
370
    20
100
AcDbPolyline
 90
       23
 70
     1
 43
0.0
 10
82.07992794709859
 20
-47.12302461170153
 10
82.07992794709859
 20
-46.95070085459563
 10
81.99356659176826
 20
-46.86394054570891
 10
81.90720523643726
 20
-46.77758523512865
 10
81.8208499258567
 20
-46.77758523512865
 10
81.73369670816528
 20
-46.77758523512865
 10
81.6473353528343
 20
-46.77758523512865
 10
81.56097399750333
 20
-46.77758523512865
 10
81.56097399750333
 20
-46.86394054570891
 10
81.47540450453339
 20
-46.86394054570891
 10
81.47540450453339
 20
-46.95070085459563
 10
81.38904314920242
 20
-46.95070085459563
 10
81.38904314920242
 20
-47.29534836880777
 10
81.47540450453339
 20
-47.29534836880777
 10
81.47540450453339
 20
-47.38210263294344
 10
81.56097399750333
 20
-47.38210263294344
 10
81.56097399750333
 20
-47.46846398827442
 10
81.6473353528343
 20
-47.46846398827442
 10
81.73369670816528
 20
-47.46846398827442
 10
81.8208499258567
 20
-47.46846398827442
 10
81.90720523643726
 20
-47.46846398827442
 10
81.99356659176826
 20
-47.38210263294344
 10
82.07992794709859
 20
-47.38210263294344
  0
LWPOLYLINE
  5
8E
330
70
100
AcDbEntity
  8
Camada 1
 62
   250
420
  1907995
370
    20
100
AcDbPolyline
 90
       25
 70
     1
 43
0.0
 10
82.07992794709859
 20
-48.41803389860814
 10
82.07992794709859
 20
-48.24531118794617
 10
81.99356659176826
 20
-48.24531118794617
 10
81.99356659176826
 20
-48.15895587736624
 10
81.90720523643726
 20
-48.15895587736624
 10
81.90720523643726
 20
-48.07259452203525
 10
81.8208499258567
 20
-48.07259452203525
 10
81.73369670816528
 20
-48.07259452203525
 10
81.6473353528343
 20
-48.07259452203525
 10
81.56097399750333
 20
-48.07259452203525
 10
81.56097399750333
 20
-48.15895587736624
 10
81.47540450453339
 20
-48.15895587736624
 10
81.47540450453339
 20
-48.24531118794617
 10
81.38904314920242
 20
-48.24531118794617
 10
81.38904314920242
 20
-48.59075660927011
 10
81.47540450453339
 20
-48.59075660927011
 10
81.47540450453339
 20
-48.67711796460109
 10
81.56097399750333
 20
-48.76308036637602
 10
81.6473353528343
 20
-48.76308036637602
 10
81.73369670816528
 20
-48.76308036637602
 10
81.8208499258567
 20
-48.76308036637602
 10
81.90720523643726
 20
-48.76308036637602
 10
81.99356659176826
 20
-48.76308036637602
 10
81.99356659176826
 20
-48.67711796460109
 10
82.07992794709859
 20
-48.67711796460109
  0
LWPOLYLINE
  5
8F
330
70
100
AcDbEntity
  8
Camada 1
 62
   250
420
  1907995
370
    20
100
AcDbPolyline
 90
       25
 70
     1
 43
0.0
 10
82.07992794709859
 20
-49.71304318551474
 10
82.07992794709859
 20
-49.54032651960382
 10
81.99356659176826
 20
-49.54032651960382
 10
81.99356659176826
 20
-49.45396516427283
 10
81.90720523643726
 20
-49.45396516427283
 10
81.90720523643726
 20
-49.36760380894185
 10
81.8208499258567
 20
-49.36760380894185
 10
81.73369670816528
 20
-49.36760380894185
 10
81.6473353528343
 20
-49.36760380894185
 10
81.56097399750333
 20
-49.36760380894185
 10
81.56097399750333
 20
-49.45396516427283
 10
81.47540450453339
 20
-49.45396516427283
 10
81.47540450453339
 20
-49.54032651960382
 10
81.38904314920242
 20
-49.54032651960382
 10
81.38904314920242
 20
-49.88536694262065
 10
81.47540450453339
 20
-49.97212725150768
 10
81.47540450453339
 20
-50.05848860683835
 10
81.56097399750333
 20
-50.05848860683835
 10
81.6473353528343
 20
-50.05848860683835
 10
81.73369670816528
 20
-50.05848860683835
 10
81.8208499258567
 20
-50.05848860683835
 10
81.90720523643726
 20
-50.05848860683835
 10
81.99356659176826
 20
-50.05848860683835
 10
81.99356659176826
 20
-49.97212725150768
 10
82.07992794709859
 20
-49.97212725150768
  0
LWPOLYLINE
  5
90
330
70
100
AcDbEntity
  8
Camada 1
 62
   250
420
  1907995
370
    20
100
AcDbPolyline
 90
       27
 70
     1
 43
0.0
 10
82.07992794709859
 20
-51.00805247242133
 10
82.07992794709859
 20
-50.83533580651041
 10
81.99356659176826
 20
-50.83533580651041
 10
81.99356659176826
 20
-50.74897445117944
 10
81.90720523643726
 20
-50.74897445117944
 10
81.90720523643726
 20
-50.66261309584845
 10
81.8208499258567
 20
-50.66261309584845
 10
81.73369670816528
 20
-50.66261309584845
 10
81.6473353528343
 20
-50.66261309584845
 10
81.56097399750333
 20
-50.66261309584845
 10
81.56097399750333
 20
-50.74897445117944
 10
81.47540450453339
 20
-50.74897445117944
 10
81.47540450453339
 20
-50.83533580651041
 10
81.38904314920242
 20
-50.83533580651041
 10
81.38904314920242
 20
-51.26713653841364
 10
81.47540450453339
 20
-51.26713653841364
 10
81.47540450453339
 20
-51.35309894018889
 10
81.56097399750333
 20
-51.35309894018889
 10
81.6473353528343
 20
-51.35309894018889
 10
81.6473353528343
 20
-51.43985924907561
 10
81.73369670816528
 20
-51.43985924907561
 10
81.8208499258567
 20
-51.43985924907561
 10
81.8208499258567
 20
-51.35309894018889
 10
81.90720523643726
 20
-51.35309894018889
 10
81.99356659176826
 20
-51.35309894018889
 10
81.99356659176826
 20
-51.26713653841364
 10
82.07992794709859
 20
-51.26713653841364
  0
LWPOLYLINE
  5
91
330
70
100
AcDbEntity
  8
Camada 1
 62
   250
420
  1907995
370
    20
100
AcDbPolyline
 90
       23
 70
     1
 43
0.0
 10
80.17920440171032
 20
-47.12302461170153
 10
80.17920440171032
 20
-46.95070085459563
 10
80.26596471059704
 20
-46.86394054570891
 10
80.35232606592803
 20
-46.77758523512865
 10
80.43908033006369
 20
-46.77758523512865
 10
80.52544168539467
 20
-46.77758523512865
 10
80.61180304072566
 20
-46.77758523512865
 10
80.6981583513056
 20
-46.77758523512865
 10
80.6981583513056
 20
-46.86394054570891
 10
80.78372784427552
 20
-46.86394054570891
 10
80.78372784427552
 20
-46.95070085459563
 10
80.8700891996065
 20
-46.95070085459563
 10
80.8700891996065
 20
-47.29534836880777
 10
80.78372784427552
 20
-47.29534836880777
 10
80.78372784427552
 20
-47.38210263294344
 10
80.6981583513056
 20
-47.38210263294344
 10
80.6981583513056
 20
-47.46846398827442
 10
80.61180304072566
 20
-47.46846398827442
 10
80.52544168539467
 20
-47.46846398827442
 10
80.43908033006369
 20
-47.46846398827442
 10
80.35232606592803
 20
-47.46846398827442
 10
80.26596471059704
 20
-47.38210263294344
 10
80.17920440171032
 20
-47.38210263294344
  0
LWPOLYLINE
  5
92
330
70
100
AcDbEntity
  8
Camada 1
 62
   250
420
  1907995
370
    20
100
AcDbPolyline
 90
       25
 70
     1
 43
0.0
 10
80.17920440171032
 20
-48.41803389860814
 10
80.17920440171032
 20
-48.24531118794617
 10
80.26596471059704
 20
-48.24531118794617
 10
80.26596471059704
 20
-48.15895587736624
 10
80.35232606592803
 20
-48.15895587736624
 10
80.35232606592803
 20
-48.07259452203525
 10
80.43908033006369
 20
-48.07259452203525
 10
80.52544168539467
 20
-48.07259452203525
 10
80.61180304072566
 20
-48.07259452203525
 10
80.6981583513056
 20
-48.07259452203525
 10
80.6981583513056
 20
-48.15895587736624
 10
80.78372784427552
 20
-48.15895587736624
 10
80.78372784427552
 20
-48.24531118794617
 10
80.8700891996065
 20
-48.24531118794617
 10
80.8700891996065
 20
-48.59075660927011
 10
80.78372784427552
 20
-48.59075660927011
 10
80.78372784427552
 20
-48.67711796460109
 10
80.6981583513056
 20
-48.76308036637602
 10
80.61180304072566
 20
-48.76308036637602
 10
80.52544168539467
 20
-48.76308036637602
 10
80.43908033006369
 20
-48.76308036637602
 10
80.35232606592803
 20
-48.76308036637602
 10
80.26596471059704
 20
-48.76308036637602
 10
80.26596471059704
 20
-48.67711796460109
 10
80.17920440171032
 20
-48.67711796460109
  0
LWPOLYLINE
  5
93
330
70
100
AcDbEntity
  8
Camada 1
 62
   250
420
  1907995
370
    20
100
AcDbPolyline
 90
       25
 70
     1
 43
0.0
 10
80.8700891996065
 20
-49.71304318551474
 10
80.8700891996065
 20
-49.54032651960382
 10
80.78372784427552
 20
-49.54032651960382
 10
80.78372784427552
 20
-49.45396516427283
 10
80.6981583513056
 20
-49.45396516427283
 10
80.6981583513056
 20
-49.36760380894185
 10
80.61180304072566
 20
-49.36760380894185
 10
80.52544168539467
 20
-49.36760380894185
 10
80.43908033006369
 20
-49.36760380894185
 10
80.35232606592803
 20
-49.36760380894185
 10
80.35232606592803
 20
-49.45396516427283
 10
80.26596471059704
 20
-49.45396516427283
 10
80.26596471059704
 20
-49.54032651960382
 10
80.17920440171032
 20
-49.54032651960382
 10
80.17920440171032
 20
-49.97212725150768
 10
80.26596471059704
 20
-49.97212725150768
 10
80.26596471059704
 20
-50.05848860683835
 10
80.35232606592803
 20
-50.05848860683835
 10
80.43908033006369
 20
-50.05848860683835
 10
80.52544168539467
 20
-50.05848860683835
 10
80.61180304072566
 20
-50.05848860683835
 10
80.6981583513056
 20
-50.05848860683835
 10
80.78372784427552
 20
-50.05848860683835
 10
80.78372784427552
 20
-49.97212725150768
 10
80.8700891996065
 20
-49.88536694262065
  0
LWPOLYLINE
  5
94
330
70
100
AcDbEntity
  8
Camada 1
 62
   250
420
  1907995
370
    20
100
AcDbPolyline
 90
       27
 70
     1
 43
0.0
 10
80.17920440171032
 20
-51.00805247242133
 10
80.17920440171032
 20
-50.83533580651041
 10
80.26596471059704
 20
-50.83533580651041
 10
80.26596471059704
 20
-50.74897445117944
 10
80.35232606592803
 20
-50.74897445117944
 10
80.35232606592803
 20
-50.66261309584845
 10
80.43908033006369
 20
-50.66261309584845
 10
80.52544168539467
 20
-50.66261309584845
 10
80.61180304072566
 20
-50.66261309584845
 10
80.6981583513056
 20
-50.66261309584845
 10
80.6981583513056
 20
-50.74897445117944
 10
80.78372784427552
 20
-50.74897445117944
 10
80.78372784427552
 20
-50.83533580651041
 10
80.8700891996065
 20
-50.83533580651041
 10
80.8700891996065
 20
-51.26713653841364
 10
80.78372784427552
 20
-51.26713653841364
 10
80.78372784427552
 20
-51.35309894018889
 10
80.6981583513056
 20
-51.35309894018889
 10
80.61180304072566
 20
-51.35309894018889
 10
80.61180304072566
 20
-51.43985924907561
 10
80.52544168539467
 20
-51.43985924907561
 10
80.43908033006369
 20
-51.43985924907561
 10
80.43908033006369
 20
-51.35309894018889
 10
80.35232606592803
 20
-51.35309894018889
 10
80.26596471059704
 20
-51.35309894018889
 10
80.26596471059704
 20
-51.26713653841364
 10
80.17920440171032
 20
-51.26713653841364
  0
LWPOLYLINE
  5
95
330
70
100
AcDbEntity
  8
Camada 1
 62
   250
420
  1907995
370
    20
100
AcDbPolyline
 90
       25
 70
     1
 43
0.0
 10
79.66223313039162
 20
-47.12302461170153
 10
79.66223313039162
 20
-46.95070085459563
 10
79.57507991270022
 20
-46.95070085459563
 10
79.57507991270022
 20
-46.86394054570891
 10
79.48871855736924
 20
-46.86394054570891
 10
79.48871855736924
 20
-46.77758523512865
 10
79.40235720203826
 20
-46.77758523512865
 10
79.31678770906834
 20
-46.77758523512865
 10
79.23043239848777
 20
-46.77758523512865
 10
79.14407104315677
 20
-46.77758523512865
 10
79.05731073427006
 20
-46.77758523512865
 10
79.05731073427006
 20
-46.86394054570891
 10
78.97134833249545
 20
-46.86394054570891
 10
78.97134833249545
 20
-47.38210263294344
 10
79.05731073427006
 20
-47.38210263294344
 10
79.05731073427006
 20
-47.46846398827442
 10
79.14407104315677
 20
-47.46846398827442
 10
79.23043239848777
 20
-47.46846398827442
 10
79.31678770906834
 20
-47.46846398827442
 10
79.40235720203826
 20
-47.46846398827442
 10
79.48871855736924
 20
-47.46846398827442
 10
79.48871855736924
 20
-47.38210263294344
 10
79.57507991270022
 20
-47.38210263294344
 10
79.57507991270022
 20
-47.29534836880777
 10
79.66223313039162
 20
-47.29534836880777
  0
LWPOLYLINE
  5
96
330
70
100
AcDbEntity
  8
Camada 1
 62
   250
420
  1907995
370
    20
100
AcDbPolyline
 90
       25
 70
     1
 43
0.0
 10
79.66223313039162
 20
-48.41803389860814
 10
79.66223313039162
 20
-48.24531118794617
 10
79.57507991270022
 20
-48.24531118794617
 10
79.57507991270022
 20
-48.15895587736624
 10
79.48871855736924
 20
-48.15895587736624
 10
79.48871855736924
 20
-48.07259452203525
 10
79.40235720203826
 20
-48.07259452203525
 10
79.31678770906834
 20
-48.07259452203525
 10
79.23043239848777
 20
-48.07259452203525
 10
79.14407104315677
 20
-48.07259452203525
 10
79.14407104315677
 20
-48.15895587736624
 10
79.05731073427006
 20
-48.15895587736624
 10
78.97134833249545
 20
-48.15895587736624
 10
78.97134833249545
 20
-48.67711796460109
 10
79.05731073427006
 20
-48.67711796460109
 10
79.05731073427006
 20
-48.76308036637602
 10
79.14407104315677
 20
-48.76308036637602
 10
79.23043239848777
 20
-48.76308036637602
 10
79.31678770906834
 20
-48.76308036637602
 10
79.40235720203826
 20
-48.76308036637602
 10
79.48871855736924
 20
-48.76308036637602
 10
79.48871855736924
 20
-48.67711796460109
 10
79.57507991270022
 20
-48.67711796460109
 10
79.57507991270022
 20
-48.59075660927011
 10
79.66223313039162
 20
-48.59075660927011
  0
LWPOLYLINE
  5
97
330
70
100
AcDbEntity
  8
Camada 1
 62
   250
420
  1907995
370
    20
100
AcDbPolyline
 90
       26
 70
     1
 43
0.0
 10
79.66223313039162
 20
-49.71304318551474
 10
79.66223313039162
 20
-49.54032651960382
 10
79.57507991270022
 20
-49.54032651960382
 10
79.57507991270022
 20
-49.45396516427283
 10
79.48871855736924
 20
-49.45396516427283
 10
79.48871855736924
 20
-49.36760380894185
 10
79.40235720203826
 20
-49.36760380894185
 10
79.31678770906834
 20
-49.36760380894185
 10
79.23043239848777
 20
-49.36760380894185
 10
79.14407104315677
 20
-49.36760380894185
 10
79.14407104315677
 20
-49.45396516427283
 10
79.05731073427006
 20
-49.45396516427283
 10
79.05731073427006
 20
-49.54032651960382
 10
78.97134833249545
 20
-49.54032651960382
 10
78.97134833249545
 20
-49.97212725150768
 10
79.05731073427006
 20
-49.97212725150768
 10
79.05731073427006
 20
-50.05848860683835
 10
79.14407104315677
 20
-50.05848860683835
 10
79.23043239848777
 20
-50.05848860683835
 10
79.31678770906834
 20
-50.05848860683835
 10
79.40235720203826
 20
-50.05848860683835
 10
79.48871855736924
 20
-50.05848860683835
 10
79.48871855736924
 20
-49.97212725150768
 10
79.57507991270022
 20
-49.97212725150768
 10
79.57507991270022
 20
-49.88536694262065
 10
79.66223313039162
 20
-49.88536694262065
  0
LWPOLYLINE
  5
98
330
70
100
AcDbEntity
  8
Camada 1
 62
   250
420
  1907995
370
    20
100
AcDbPolyline
 90
       27
 70
     1
 43
0.0
 10
79.66223313039162
 20
-51.00805247242133
 10
79.66223313039162
 20
-50.83533580651041
 10
79.57507991270022
 20
-50.83533580651041
 10
79.57507991270022
 20
-50.74897445117944
 10
79.48871855736924
 20
-50.74897445117944
 10
79.48871855736924
 20
-50.66261309584845
 10
79.40235720203826
 20
-50.66261309584845
 10
79.31678770906834
 20
-50.66261309584845
 10
79.23043239848777
 20
-50.66261309584845
 10
79.14407104315677
 20
-50.66261309584845
 10
79.14407104315677
 20
-50.74897445117944
 10
79.05731073427006
 20
-50.74897445117944
 10
79.05731073427006
 20
-50.83533580651041
 10
78.97134833249545
 20
-50.83533580651041
 10
78.97134833249545
 20
-51.26713653841364
 10
79.05731073427006
 20
-51.26713653841364
 10
79.05731073427006
 20
-51.35309894018889
 10
79.14407104315677
 20
-51.35309894018889
 10
79.23043239848777
 20
-51.35309894018889
 10
79.23043239848777
 20
-51.43985924907561
 10
79.31678770906834
 20
-51.43985924907561
 10
79.40235720203826
 20
-51.43985924907561
 10
79.40235720203826
 20
-51.35309894018889
 10
79.48871855736924
 20
-51.35309894018889
 10
79.57507991270022
 20
-51.35309894018889
 10
79.57507991270022
 20
-51.1807751830833
 10
79.66223313039162
 20
-51.1807751830833
  0
LWPOLYLINE
  5
99
330
70
100
AcDbEntity
  8
Camada 1
 62
   250
420
  1907995
370
    20
100
AcDbPolyline
 90
       29
 70
     1
 43
0.0
 10
77.67594009203278
 20
-47.12302461170153
 10
77.67594009203278
 20
-47.03666325637056
 10
77.76230144736378
 20
-47.03666325637056
 10
77.76230144736378
 20
-46.86394054570891
 10
77.84866280269476
 20
-46.86394054570891
 10
77.84866280269476
 20
-46.77758523512865
 10
77.93502415802574
 20
-46.77758523512865
 10
78.02059365099566
 20
-46.77758523512865
 10
78.10695500632665
 20
-46.77758523512865
 10
78.19331031690658
 20
-46.77758523512865
 10
78.28046353459862
 20
-46.77758523512865
 10
78.28046353459862
 20
-46.86394054570891
 10
78.36682488992962
 20
-46.86394054570891
 10
78.36682488992962
 20
-46.95070085459563
 10
78.45318624526059
 20
-46.95070085459563
 10
78.45318624526059
 20
-47.29534836880777
 10
78.36682488992962
 20
-47.29534836880777
 10
78.36682488992962
 20
-47.38210263294344
 10
78.28046353459862
 20
-47.38210263294344
 10
78.28046353459862
 20
-47.46846398827442
 10
78.19331031690658
 20
-47.46846398827442
 10
78.10695500632665
 20
-47.46846398827442
 10
78.02059365099566
 20
-47.46846398827442
 10
77.93502415802574
 20
-47.46846398827442
 10
77.84866280269476
 20
-47.46846398827442
 10
77.84866280269476
 20
-47.38210263294344
 10
77.76230144736378
 20
-47.38210263294344
 10
77.76230144736378
 20
-47.20938596703252
 10
77.67594009203278
 20
-47.20938596703252
  0
LWPOLYLINE
  5
9A
330
70
100
AcDbEntity
  8
Camada 1
 62
   250
420
  1907995
370
    20
100
AcDbPolyline
 90
       29
 70
     1
 43
0.0
 10
78.45318624526059
 20
-48.41803389860814
 10
78.45318624526059
 20
-48.24531118794617
 10
78.36682488992962
 20
-48.24531118794617
 10
78.36682488992962
 20
-48.15895587736624
 10
78.28046353459862
 20
-48.15895587736624
 10
78.28046353459862
 20
-48.07259452203525
 10
78.19331031690658
 20
-48.07259452203525
 10
78.10695500632665
 20
-48.07259452203525
 10
78.02059365099566
 20
-48.07259452203525
 10
77.93502415802574
 20
-48.07259452203525
 10
77.84866280269476
 20
-48.07259452203525
 10
77.84866280269476
 20
-48.15895587736624
 10
77.76230144736378
 20
-48.15895587736624
 10
77.76230144736378
 20
-48.33167254327715
 10
77.67594009203278
 20
-48.33167254327715
 10
77.67594009203278
 20
-48.50439525393912
 10
77.76230144736378
 20
-48.50439525393912
 10
77.76230144736378
 20
-48.67711796460109
 10
77.84866280269476
 20
-48.67711796460109
 10
77.84866280269476
 20
-48.76308036637602
 10
77.93502415802574
 20
-48.76308036637602
 10
78.02059365099566
 20
-48.76308036637602
 10
78.10695500632665
 20
-48.76308036637602
 10
78.19331031690658
 20
-48.76308036637602
 10
78.28046353459862
 20
-48.76308036637602
 10
78.28046353459862
 20
-48.67711796460109
 10
78.36682488992962
 20
-48.67711796460109
 10
78.36682488992962
 20
-48.59075660927011
 10
78.45318624526059
 20
-48.59075660927011
  0
LWPOLYLINE
  5
9B
330
70
100
AcDbEntity
  8
Camada 1
 62
   250
420
  1907995
370
    20
100
AcDbPolyline
 90
       29
 70
     1
 43
0.0
 10
78.45318624526059
 20
-49.71304318551474
 10
78.45318624526059
 20
-49.62668183018376
 10
78.36682488992962
 20
-49.62668183018376
 10
78.36682488992962
 20
-49.45396516427283
 10
78.28046353459862
 20
-49.45396516427283
 10
78.28046353459862
 20
-49.36760380894185
 10
78.19331031690658
 20
-49.36760380894185
 10
78.10695500632665
 20
-49.36760380894185
 10
78.02059365099566
 20
-49.36760380894185
 10
77.93502415802574
 20
-49.36760380894185
 10
77.93502415802574
 20
-49.45396516427283
 10
77.84866280269476
 20
-49.45396516427283
 10
77.76230144736378
 20
-49.45396516427283
 10
77.76230144736378
 20
-49.62668183018376
 10
77.67594009203278
 20
-49.62668183018376
 10
77.67594009203278
 20
-49.79940454084572
 10
77.76230144736378
 20
-49.79940454084572
 10
77.76230144736378
 20
-49.97212725150768
 10
77.84866280269476
 20
-49.97212725150768
 10
77.84866280269476
 20
-50.05848860683835
 10
77.93502415802574
 20
-50.05848860683835
 10
78.02059365099566
 20
-50.05848860683835
 10
78.10695500632665
 20
-50.05848860683835
 10
78.19331031690658
 20
-50.05848860683835
 10
78.28046353459862
 20
-50.05848860683835
 10
78.28046353459862
 20
-49.97212725150768
 10
78.36682488992962
 20
-49.97212725150768
 10
78.36682488992962
 20
-49.88536694262065
 10
78.45318624526059
 20
-49.88536694262065
  0
LWPOLYLINE
  5
9C
330
70
100
AcDbEntity
  8
Camada 1
 62
   250
420
  1907995
370
    20
100
AcDbPolyline
 90
       30
 70
     1
 43
0.0
 10
77.67594009203278
 20
-51.00805247242133
 10
77.67594009203278
 20
-50.92169716184076
 10
77.76230144736378
 20
-50.92169716184076
 10
77.76230144736378
 20
-50.74897445117944
 10
77.84866280269476
 20
-50.74897445117944
 10
77.93502415802574
 20
-50.74897445117944
 10
77.93502415802574
 20
-50.66261309584845
 10
78.02059365099566
 20
-50.66261309584845
 10
78.10695500632665
 20
-50.66261309584845
 10
78.19331031690658
 20
-50.66261309584845
 10
78.19331031690658
 20
-50.74897445117944
 10
78.28046353459862
 20
-50.74897445117944
 10
78.36682488992962
 20
-50.74897445117944
 10
78.36682488992962
 20
-50.92169716184076
 10
78.45318624526059
 20
-50.92169716184076
 10
78.45318624526059
 20
-51.1807751830833
 10
78.36682488992962
 20
-51.1807751830833
 10
78.36682488992962
 20
-51.26713653841364
 10
78.28046353459862
 20
-51.26713653841364
 10
78.28046353459862
 20
-51.35309894018889
 10
78.19331031690658
 20
-51.35309894018889
 10
78.10695500632665
 20
-51.43985924907561
 10
78.02059365099566
 20
-51.43985924907561
 10
78.02059365099566
 20
-51.35309894018889
 10
77.93502415802574
 20
-51.35309894018889
 10
77.84866280269476
 20
-51.35309894018889
 10
77.84866280269476
 20
-51.26713653841364
 10
77.76230144736378
 20
-51.26713653841364
 10
77.76230144736378
 20
-51.1807751830833
 10
77.67594009203278
 20
-51.09441382775232
  0
LWPOLYLINE
  5
9D
330
70
100
AcDbEntity
  8
Camada 1
 62
   250
420
  1907995
370
    20
100
AcDbPolyline
 90
       29
 70
     1
 43
0.0
 10
76.4661013445407
 20
-47.12302461170153
 10
76.4661013445407
 20
-46.95070085459563
 10
76.55246269987168
 20
-46.95070085459563
 10
76.55246269987168
 20
-46.86394054570891
 10
76.63882405520266
 20
-46.86394054570891
 10
76.63882405520266
 20
-46.77758523512865
 10
76.72557831933834
 20
-46.77758523512865
 10
76.81273153703038
 20
-46.77758523512865
 10
76.89869998355604
 20
-46.77758523512865
 10
76.98506133888702
 20
-46.77758523512865
 10
77.07141664946695
 20
-46.77758523512865
 10
77.07141664946695
 20
-46.86394054570891
 10
77.15817695835368
 20
-46.86394054570891
 10
77.15817695835368
 20
-47.03666325637056
 10
77.24334749776851
 20
-47.03666325637056
 10
77.24334749776851
 20
-47.20938596703252
 10
77.15817695835368
 20
-47.20938596703252
 10
77.15817695835368
 20
-47.38210263294344
 10
77.07141664946695
 20
-47.38210263294344
 10
77.07141664946695
 20
-47.46846398827442
 10
76.98506133888702
 20
-47.46846398827442
 10
76.89869998355604
 20
-47.46846398827442
 10
76.81273153703038
 20
-47.46846398827442
 10
76.72557831933834
 20
-47.46846398827442
 10
76.63882405520266
 20
-47.46846398827442
 10
76.63882405520266
 20
-47.38210263294344
 10
76.55246269987168
 20
-47.38210263294344
 10
76.55246269987168
 20
-47.29534836880777
 10
76.4661013445407
 20
-47.29534836880777
  0
LWPOLYLINE
  5
9E
330
70
100
AcDbEntity
  8
Camada 1
 62
   250
420
  1907995
370
    20
100
AcDbPolyline
 90
       29
 70
     1
 43
0.0
 10
77.24334749776851
 20
-48.41803389860814
 10
77.24334749776851
 20
-48.33167254327715
 10
77.15817695835368
 20
-48.33167254327715
 10
77.15817695835368
 20
-48.15895587736624
 10
77.07141664946695
 20
-48.15895587736624
 10
77.07141664946695
 20
-48.07259452203525
 10
76.98506133888702
 20
-48.07259452203525
 10
76.89869998355604
 20
-48.07259452203525
 10
76.81273153703038
 20
-48.07259452203525
 10
76.72557831933834
 20
-48.07259452203525
 10
76.63882405520266
 20
-48.07259452203525
 10
76.63882405520266
 20
-48.15895587736624
 10
76.55246269987168
 20
-48.15895587736624
 10
76.55246269987168
 20
-48.24531118794617
 10
76.4661013445407
 20
-48.33167254327715
 10
76.4661013445407
 20
-48.59075660927011
 10
76.55246269987168
 20
-48.59075660927011
 10
76.55246269987168
 20
-48.67711796460109
 10
76.63882405520266
 20
-48.67711796460109
 10
76.63882405520266
 20
-48.76308036637602
 10
76.72557831933834
 20
-48.76308036637602
 10
76.81273153703038
 20
-48.76308036637602
 10
76.89869998355604
 20
-48.76308036637602
 10
76.98506133888702
 20
-48.76308036637602
 10
77.07141664946695
 20
-48.76308036637602
 10
77.07141664946695
 20
-48.67711796460109
 10
77.15817695835368
 20
-48.67711796460109
 10
77.15817695835368
 20
-48.50439525393912
 10
77.24334749776851
 20
-48.50439525393912
  0
LWPOLYLINE
  5
9F
330
70
100
AcDbEntity
  8
Camada 1
 62
   250
420
  1907995
370
    20
100
AcDbPolyline
 90
       29
 70
     1
 43
0.0
 10
77.24334749776851
 20
-49.71304318551474
 10
77.24334749776851
 20
-49.62668183018376
 10
77.15817695835368
 20
-49.62668183018376
 10
77.15817695835368
 20
-49.45396516427283
 10
77.07141664946695
 20
-49.45396516427283
 10
76.98506133888702
 20
-49.45396516427283
 10
76.98506133888702
 20
-49.36760380894185
 10
76.89869998355604
 20
-49.36760380894185
 10
76.81273153703038
 20
-49.36760380894185
 10
76.72557831933834
 20
-49.36760380894185
 10
76.63882405520266
 20
-49.36760380894185
 10
76.63882405520266
 20
-49.45396516427283
 10
76.55246269987168
 20
-49.45396516427283
 10
76.55246269987168
 20
-49.62668183018376
 10
76.4661013445407
 20
-49.62668183018376
 10
76.4661013445407
 20
-49.88536694262065
 10
76.55246269987168
 20
-49.88536694262065
 10
76.55246269987168
 20
-49.97212725150768
 10
76.63882405520266
 20
-49.97212725150768
 10
76.63882405520266
 20
-50.05848860683835
 10
76.72557831933834
 20
-50.05848860683835
 10
76.81273153703038
 20
-50.05848860683835
 10
76.89869998355604
 20
-50.05848860683835
 10
76.98506133888702
 20
-50.05848860683835
 10
77.07141664946695
 20
-50.05848860683835
 10
77.07141664946695
 20
-49.97212725150768
 10
77.15817695835368
 20
-49.97212725150768
 10
77.15817695835368
 20
-49.79940454084572
 10
77.24334749776851
 20
-49.79940454084572
  0
LWPOLYLINE
  5
A0
330
70
100
AcDbEntity
  8
Camada 1
 62
   250
420
  1907995
370
    20
100
AcDbPolyline
 90
       30
 70
     1
 43
0.0
 10
77.24334749776851
 20
-51.00805247242133
 10
77.24334749776851
 20
-50.92169716184076
 10
77.15817695835368
 20
-50.92169716184076
 10
77.15817695835368
 20
-50.74897445117944
 10
77.07141664946695
 20
-50.74897445117944
 10
76.98506133888702
 20
-50.74897445117944
 10
76.98506133888702
 20
-50.66261309584845
 10
76.89869998355604
 20
-50.66261309584845
 10
76.81273153703038
 20
-50.66261309584845
 10
76.72557831933834
 20
-50.66261309584845
 10
76.72557831933834
 20
-50.74897445117944
 10
76.63882405520266
 20
-50.74897445117944
 10
76.55246269987168
 20
-50.74897445117944
 10
76.55246269987168
 20
-50.92169716184076
 10
76.4661013445407
 20
-50.92169716184076
 10
76.4661013445407
 20
-51.1807751830833
 10
76.55246269987168
 20
-51.1807751830833
 10
76.55246269987168
 20
-51.26713653841364
 10
76.63882405520266
 20
-51.26713653841364
 10
76.63882405520266
 20
-51.35309894018889
 10
76.72557831933834
 20
-51.35309894018889
 10
76.81273153703038
 20
-51.43985924907561
 10
76.89869998355604
 20
-51.43985924907561
 10
76.89869998355604
 20
-51.35309894018889
 10
76.98506133888702
 20
-51.35309894018889
 10
77.07141664946695
 20
-51.35309894018889
 10
77.07141664946695
 20
-51.26713653841364
 10
77.15817695835368
 20
-51.26713653841364
 10
77.15817695835368
 20
-51.1807751830833
 10
77.24334749776851
 20
-51.1807751830833
  0
LWPOLYLINE
  5
A1
330
70
100
AcDbEntity
  8
Camada 1
 62
   250
420
  1907995
370
    20
100
AcDbPolyline
 90
       27
 70
     1
 43
0.0
 10
76.03469956619257
 20
-47.12302461170153
 10
75.94833821086158
 20
-47.12302461170153
 10
75.94833821086158
 20
-46.86394054570891
 10
75.86197685553059
 20
-46.86394054570891
 10
75.86197685553059
 20
-46.77758523512865
 10
75.77601445375535
 20
-46.77758523512865
 10
75.69004600722969
 20
-46.77758523512865
 10
75.60369069664976
 20
-46.77758523512865
 10
75.51693038776304
 20
-46.77758523512865
 10
75.43056903243206
 20
-46.77758523512865
 10
75.43056903243206
 20
-46.86394054570891
 10
75.34460663065681
 20
-46.86394054570891
 10
75.34460663065681
 20
-46.95070085459563
 10
75.25745341296476
 20
-46.95070085459563
 10
75.25745341296476
 20
-47.29534836880777
 10
75.34460663065681
 20
-47.29534836880777
 10
75.34460663065681
 20
-47.38210263294344
 10
75.43056903243206
 20
-47.38210263294344
 10
75.43056903243206
 20
-47.46846398827442
 10
75.51693038776304
 20
-47.46846398827442
 10
75.60369069664976
 20
-47.46846398827442
 10
75.69004600722969
 20
-47.46846398827442
 10
75.77601445375535
 20
-47.46846398827442
 10
75.86197685553059
 20
-47.46846398827442
 10
75.86197685553059
 20
-47.38210263294344
 10
75.94833821086158
 20
-47.38210263294344
 10
75.94833821086158
 20
-47.12302461170153
  0
LWPOLYLINE
  5
A2
330
70
100
AcDbEntity
  8
Camada 1
 62
   250
420
  1907995
370
    20
100
AcDbPolyline
 90
       26
 70
     1
 43
0.0
 10
76.03469956619257
 20
-48.41803389860814
 10
75.94833821086158
 20
-48.41803389860814
 10
75.94833821086158
 20
-48.15895587736624
 10
75.86197685553059
 20
-48.15895587736624
 10
75.77601445375535
 20
-48.07259452203525
 10
75.69004600722969
 20
-48.07259452203525
 10
75.60369069664976
 20
-48.07259452203525
 10
75.51693038776304
 20
-48.07259452203525
 10
75.43056903243206
 20
-48.07259452203525
 10
75.43056903243206
 20
-48.15895587736624
 10
75.34460663065681
 20
-48.15895587736624
 10
75.34460663065681
 20
-48.24531118794617
 10
75.25745341296476
 20
-48.24531118794617
 10
75.25745341296476
 20
-48.59075660927011
 10
75.34460663065681
 20
-48.59075660927011
 10
75.34460663065681
 20
-48.67711796460109
 10
75.43056903243206
 20
-48.67711796460109
 10
75.43056903243206
 20
-48.76308036637602
 10
75.51693038776304
 20
-48.76308036637602
 10
75.60369069664976
 20
-48.76308036637602
 10
75.69004600722969
 20
-48.76308036637602
 10
75.77601445375535
 20
-48.76308036637602
 10
75.86197685553059
 20
-48.76308036637602
 10
75.86197685553059
 20
-48.67711796460109
 10
75.94833821086158
 20
-48.67711796460109
 10
75.94833821086158
 20
-48.41803389860814
  0
LWPOLYLINE
  5
A3
330
70
100
AcDbEntity
  8
Camada 1
 62
   250
420
  1907995
370
    20
100
AcDbPolyline
 90
       28
 70
     1
 43
0.0
 10
76.03469956619257
 20
-49.71304318551474
 10
75.94833821086158
 20
-49.71304318551474
 10
75.94833821086158
 20
-49.54032651960382
 10
75.86197685553059
 20
-49.45396516427283
 10
75.77601445375535
 20
-49.45396516427283
 10
75.77601445375535
 20
-49.36760380894185
 10
75.69004600722969
 20
-49.36760380894185
 10
75.60369069664976
 20
-49.36760380894185
 10
75.51693038776304
 20
-49.36760380894185
 10
75.43056903243206
 20
-49.36760380894185
 10
75.43056903243206
 20
-49.45396516427283
 10
75.34460663065681
 20
-49.45396516427283
 10
75.34460663065681
 20
-49.54032651960382
 10
75.25745341296476
 20
-49.54032651960382
 10
75.25745341296476
 20
-49.88536694262065
 10
75.34460663065681
 20
-49.88536694262065
 10
75.34460663065681
 20
-49.97212725150768
 10
75.43056903243206
 20
-49.97212725150768
 10
75.43056903243206
 20
-50.05848860683835
 10
75.51693038776304
 20
-50.05848860683835
 10
75.60369069664976
 20
-50.05848860683835
 10
75.69004600722969
 20
-50.05848860683835
 10
75.77601445375535
 20
-50.05848860683835
 10
75.86197685553059
 20
-50.05848860683835
 10
75.86197685553059
 20
-49.97212725150768
 10
75.94833821086158
 20
-49.97212725150768
 10
75.94833821086158
 20
-49.79940454084572
 10
76.03469956619257
 20
-49.79940454084572
  0
LWPOLYLINE
  5
A4
330
70
100
AcDbEntity
  8
Camada 1
 62
   250
420
  1907995
370
    20
100
AcDbPolyline
 90
       31
 70
     1
 43
0.0
 10
75.25745341296476
 20
-51.00805247242133
 10
75.25745341296476
 20
-50.83533580651041
 10
75.34460663065681
 20
-50.83533580651041
 10
75.34460663065681
 20
-50.74897445117944
 10
75.43056903243206
 20
-50.74897445117944
 10
75.43056903243206
 20
-50.66261309584845
 10
75.51693038776304
 20
-50.66261309584845
 10
75.60369069664976
 20
-50.66261309584845
 10
75.69004600722969
 20
-50.66261309584845
 10
75.77601445375535
 20
-50.66261309584845
 10
75.77601445375535
 20
-50.74897445117944
 10
75.86197685553059
 20
-50.74897445117944
 10
75.86197685553059
 20
-50.83533580651041
 10
75.94833821086158
 20
-50.83533580651041
 10
75.94833821086158
 20
-51.00805247242133
 10
76.03469956619257
 20
-51.00805247242133
 10
76.03469956619257
 20
-51.09441382775232
 10
75.94833821086158
 20
-51.09441382775232
 10
75.94833821086158
 20
-51.26713653841364
 10
75.86197685553059
 20
-51.26713653841364
 10
75.86197685553059
 20
-51.35309894018889
 10
75.77601445375535
 20
-51.35309894018889
 10
75.69004600722969
 20
-51.35309894018889
 10
75.69004600722969
 20
-51.43985924907561
 10
75.60369069664976
 20
-51.43985924907561
 10
75.51693038776304
 20
-51.43985924907561
 10
75.51693038776304
 20
-51.35309894018889
 10
75.43056903243206
 20
-51.35309894018889
 10
75.34460663065681
 20
-51.35309894018889
 10
75.34460663065681
 20
-51.1807751830833
 10
75.25745341296476
 20
-51.1807751830833
  0
LWPOLYLINE
  5
A5
330
70
100
AcDbEntity
  8
Camada 1
 62
   250
420
  1907995
370
    20
100
AcDbPolyline
 90
       23
 70
     1
 43
0.0
 10
74.04919839019417
 20
-47.12302461170153
 10
74.04919839019417
 20
-46.95070085459563
 10
74.13555974552514
 20
-46.95070085459563
 10
74.13555974552514
 20
-46.86394054570891
 10
74.22192110085612
 20
-46.86394054570891
 10
74.22192110085612
 20
-46.77758523512865
 10
74.30828245618712
 20
-46.77758523512865
 10
74.39385194915702
 20
-46.77758523512865
 10
74.48020725973761
 20
-46.77758523512865
 10
74.56656861506859
 20
-46.77758523512865
 10
74.65372183276
 20
-46.86394054570891
 10
74.74008318809097
 20
-46.95070085459563
 10
74.74008318809097
 20
-47.38210263294344
 10
74.65372183276
 20
-47.38210263294344
 10
74.56656861506859
 20
-47.46846398827442
 10
74.48020725973761
 20
-47.46846398827442
 10
74.39385194915702
 20
-47.46846398827442
 10
74.30828245618712
 20
-47.46846398827442
 10
74.22192110085612
 20
-47.46846398827442
 10
74.22192110085612
 20
-47.38210263294344
 10
74.13555974552514
 20
-47.38210263294344
 10
74.13555974552514
 20
-47.29534836880777
 10
74.04919839019417
 20
-47.29534836880777
  0
LWPOLYLINE
  5
A6
330
70
100
AcDbEntity
  8
Camada 1
 62
   250
420
  1907995
370
    20
100
AcDbPolyline
 90
       25
 70
     1
 43
0.0
 10
74.74008318809097
 20
-48.41803389860814
 10
74.74008318809097
 20
-48.24531118794617
 10
74.65372183276
 20
-48.24531118794617
 10
74.65372183276
 20
-48.15895587736624
 10
74.56656861506859
 20
-48.15895587736624
 10
74.56656861506859
 20
-48.07259452203525
 10
74.48020725973761
 20
-48.07259452203525
 10
74.39385194915702
 20
-48.07259452203525
 10
74.30828245618712
 20
-48.07259452203525
 10
74.22192110085612
 20
-48.07259452203525
 10
74.22192110085612
 20
-48.15895587736624
 10
74.13555974552514
 20
-48.15895587736624
 10
74.13555974552514
 20
-48.24531118794617
 10
74.04919839019417
 20
-48.24531118794617
 10
74.04919839019417
 20
-48.59075660927011
 10
74.13555974552514
 20
-48.59075660927011
 10
74.13555974552514
 20
-48.67711796460109
 10
74.22192110085612
 20
-48.76308036637602
 10
74.30828245618712
 20
-48.76308036637602
 10
74.39385194915702
 20
-48.76308036637602
 10
74.48020725973761
 20
-48.76308036637602
 10
74.56656861506859
 20
-48.76308036637602
 10
74.65372183276
 20
-48.76308036637602
 10
74.65372183276
 20
-48.67711796460109
 10
74.74008318809097
 20
-48.67711796460109
  0
LWPOLYLINE
  5
A7
330
70
100
AcDbEntity
  8
Camada 1
 62
   250
420
  1907995
370
    20
100
AcDbPolyline
 90
       25
 70
     1
 43
0.0
 10
74.74008318809097
 20
-49.71304318551474
 10
74.74008318809097
 20
-49.54032651960382
 10
74.65372183276
 20
-49.54032651960382
 10
74.65372183276
 20
-49.45396516427283
 10
74.56656861506859
 20
-49.45396516427283
 10
74.56656861506859
 20
-49.36760380894185
 10
74.48020725973761
 20
-49.36760380894185
 10
74.39385194915702
 20
-49.36760380894185
 10
74.30828245618712
 20
-49.36760380894185
 10
74.22192110085612
 20
-49.36760380894185
 10
74.22192110085612
 20
-49.45396516427283
 10
74.13555974552514
 20
-49.45396516427283
 10
74.13555974552514
 20
-49.54032651960382
 10
74.04919839019417
 20
-49.54032651960382
 10
74.04919839019417
 20
-49.88536694262065
 10
74.13555974552514
 20
-49.97212725150768
 10
74.13555974552514
 20
-50.05848860683835
 10
74.22192110085612
 20
-50.05848860683835
 10
74.30828245618712
 20
-50.05848860683835
 10
74.39385194915702
 20
-50.05848860683835
 10
74.48020725973761
 20
-50.05848860683835
 10
74.56656861506859
 20
-50.05848860683835
 10
74.65372183276
 20
-50.05848860683835
 10
74.65372183276
 20
-49.97212725150768
 10
74.74008318809097
 20
-49.97212725150768
  0
LWPOLYLINE
  5
A8
330
70
100
AcDbEntity
  8
Camada 1
 62
   250
420
  1907995
370
    20
100
AcDbPolyline
 90
       27
 70
     1
 43
0.0
 10
74.04919839019417
 20
-51.00805247242133
 10
74.04919839019417
 20
-50.83533580651041
 10
74.13555974552514
 20
-50.83533580651041
 10
74.13555974552514
 20
-50.74897445117944
 10
74.22192110085612
 20
-50.74897445117944
 10
74.22192110085612
 20
-50.66261309584845
 10
74.30828245618712
 20
-50.66261309584845
 10
74.39385194915702
 20
-50.66261309584845
 10
74.48020725973761
 20
-50.66261309584845
 10
74.56656861506859
 20
-50.66261309584845
 10
74.56656861506859
 20
-50.74897445117944
 10
74.65372183276
 20
-50.74897445117944
 10
74.65372183276
 20
-50.83533580651041
 10
74.74008318809097
 20
-50.83533580651041
 10
74.74008318809097
 20
-51.26713653841364
 10
74.65372183276
 20
-51.26713653841364
 10
74.65372183276
 20
-51.35309894018889
 10
74.56656861506859
 20
-51.35309894018889
 10
74.48020725973761
 20
-51.35309894018889
 10
74.48020725973761
 20
-51.43985924907561
 10
74.39385194915702
 20
-51.43985924907561
 10
74.30828245618712
 20
-51.43985924907561
 10
74.30828245618712
 20
-51.35309894018889
 10
74.22192110085612
 20
-51.35309894018889
 10
74.13555974552514
 20
-51.35309894018889
 10
74.13555974552514
 20
-51.26713653841364
 10
74.04919839019417
 20
-51.26713653841364
  0
LINE
  5
A9
330
70
100
AcDbEntity
  8
Camada 1
 62
   250
420
  1907995
370
    20
100
AcDbLine
 10
86.48391580216502
 20
-52.04398373808571
 30
0.0
 11
86.48391580216502
 21
-46.17345470136782
 31
0.0
  0
LINE
  5
AA
330
70
100
AcDbEntity
  8
Camada 1
 62
   250
420
  1907995
370
    20
100
AcDbLine
 10
73.2719582817174
 20
-46.17345470136782
 30
0.0
 11
73.2719582817174
 21
-52.04398373808571
 31
0.0
  0
LINE
  5
AB
330
70
100
AcDbEntity
  8
Camada 1
 62
   250
420
  1907995
370
    20
100
AcDbLine
 10
86.48391580216502
 20
-46.17345470136782
 30
0.0
 11
73.2719582817174
 21
-46.17345470136782
 31
0.0
  0
LINE
  5
AC
330
70
100
AcDbEntity
  8
Camada 1
 62
   250
420
  1907995
370
    20
100
AcDbLine
 10
73.2719582817174
 20
-52.04398373808571
 30
0.0
 11
86.48391580216502
 21
-52.04398373808571
 31
0.0
  0
LWPOLYLINE
  5
AD
330
70
100
AcDbEntity
  8
Camada 1
 62
   250
420
  1907995
370
    20
100
AcDbPolyline
 90
      207
 70
     1
 43
0.0
 10
11.70330419629894
 20
-49.10891869650495
 10
11.70330419629894
 20
-48.93619598584267
 10
11.78887217808173
 20
-48.84983463051201
 10
11.78887217808173
 20
-48.24531118794617
 10
11.87523353341272
 20
-48.15895587736624
 10
11.87523353341272
 20
-47.9002707649287
 10
11.96159337755594
 20
-47.81390940959836
 10
11.96159337755594
 20
-47.72714910071099
 10
12.04874659524735
 20
-47.64118669893639
 10
12.04874659524735
 20
-47.46846398827442
 10
12.13510643939057
 20
-47.38210263294344
 10
12.13510643939057
 20
-47.29534836880777
 10
12.22146779472155
 20
-47.20938596703252
 10
12.22146779472155
 20
-47.12302461170153
 10
12.30782763886477
 20
-47.12302461170153
 10
12.30782763886477
 20
-46.95070085459563
 10
12.39418748300799
 20
-46.95070085459563
 10
12.39418748300799
 20
-46.86394054570891
 10
12.47975697597855
 20
-46.77758523512865
 10
12.56611682012177
 20
-46.69122387979735
 10
12.56611682012177
 20
-46.60486252446669
 10
12.652476664265
 20
-46.60486252446669
 10
12.652476664265
 20
-46.51889407794072
 10
12.7396298819564
 20
-46.43253876736078
 10
12.82559379491941
 20
-46.34617741202979
 10
12.91235108143061
 20
-46.25941710314307
 10
12.99871092557383
 20
-46.25941710314307
 10
12.99871092557383
 20
-46.17345470136782
 10
13.08507228090481
 20
-46.08709334603684
 10
13.17103619386782
 20
-46.00073199070617
 10
13.25700010683083
 20
-46.00073199070617
 10
13.25700010683083
 20
-45.91437668012592
 10
13.34336146216118
 20
-45.91437668012592
 10
13.34336146216118
 20
-45.82840823359995
 10
13.51647708162847
 20
-45.82840823359995
 10
13.51647708162847
 20
-45.74165396946396
 10
13.60283843695945
 20
-45.74165396946396
 10
13.68959421228289
 20
-45.65529261413329
 10
13.77595556761387
 20
-45.56893125880199
 10
13.94748746235904
 20
-45.56893125880199
 10
13.94748746235904
 20
-45.48296885702707
 10
14.12060459301345
 20
-45.48296885702707
 10
14.2077578107055
 20
-45.39660750169608
 10
14.29372172366787
 20
-45.39660750169608
 10
14.38008156781173
 20
-45.3102461463651
 10
14.46644292314207
 20
-45.3102461463651
 10
14.55319869846615
 20
-45.3102461463651
 10
14.63837074906809
 20
-45.22388479103443
 10
14.72473210439908
 20
-45.22388479103443
 10
14.89864109741456
 20
-45.22388479103443
 10
14.98460501037692
 20
-45.13713052689844
 10
15.07096636570791
 20
-45.13713052689844
 10
15.33004740932534
 20
-45.13713052689844
 10
15.67548829708598
 20
-45.13713052689844
 10
16.10649867781655
 20
-45.13713052689844
 10
16.36637158379504
 20
-45.13713052689844
 10
16.45273293912602
 20
-45.13713052689844
 10
16.53909278326924
 20
-45.22388479103443
 10
16.71181398274345
 20
-45.22388479103443
 10
16.79738196452561
 20
-45.22388479103443
 10
16.88374180866883
 20
-45.3102461463651
 10
16.97010316399981
 20
-45.3102461463651
 10
17.05725638169186
 20
-45.3102461463651
 10
17.14322029465423
 20
-45.39660750169608
 10
17.22958013879745
 20
-45.39660750169608
 10
17.31633742530929
 20
-45.48296885702707
 10
17.48866118241488
 20
-45.48296885702707
 10
17.48866118241488
 20
-45.56893125880199
 10
17.66098645070887
 20
-45.56893125880199
 10
17.74734629485209
 20
-45.65529261413329
 10
17.83410358136328
 20
-45.74165396946396
 10
17.92046342550651
 20
-45.74165396946396
 10
17.92046342550651
 20
-45.82840823359995
 10
18.09358055616092
 20
-45.82840823359995
 10
18.09358055616092
 20
-45.91437668012592
 10
18.17954446912393
 20
-45.91437668012592
 10
18.17954446912393
 20
-46.00073199070617
 10
18.26511396209449
 20
-46.00073199070617
 10
18.35147380623771
 20
-46.08709334603684
 10
18.43823109274891
 20
-46.17345470136782
 10
18.43823109274891
 20
-46.25941710314307
 10
18.52538279925255
 20
-46.25941710314307
 10
18.61134671221556
 20
-46.34617741202979
 10
18.69770806754655
 20
-46.43253876736078
 10
18.78406640050201
 20
-46.51889407794072
 10
18.78406640050201
 20
-46.60486252446669
 10
18.8708236870132
 20
-46.60486252446669
 10
18.8708236870132
 20
-46.69122387979735
 10
18.95599724880291
 20
-46.77758523512865
 10
19.04235558175901
 20
-46.86394054570891
 10
19.04235558175901
 20
-46.95070085459563
 10
19.12871693708935
 20
-46.95070085459563
 10
19.12871693708935
 20
-47.12302461170153
 10
19.2158701547814
 20
-47.12302461170153
 10
19.2158701547814
 20
-47.20938596703252
 10
19.30223151011238
 20
-47.29534836880777
 10
19.30223151011238
 20
-47.38210263294344
 10
19.38858984306784
 20
-47.46846398827442
 10
19.38858984306784
 20
-47.64118669893639
 10
19.47495119839883
 20
-47.72714910071099
 10
19.47495119839883
 20
-47.81390940959836
 10
19.56131255372981
 20
-47.9002707649287
 10
19.56131255372981
 20
-48.15895587736624
 10
19.64767088668527
 20
-48.24531118794617
 10
19.64767088668527
 20
-48.84983463051201
 10
19.73324037965519
 20
-48.93619598584267
 10
19.73324037965519
 20
-49.19488109827988
 10
19.64767088668527
 20
-49.28124245361087
 10
19.64767088668527
 20
-49.88536694262065
 10
19.56131255372981
 20
-49.97212725150768
 10
19.56131255372981
 20
-50.23081236394458
 10
19.47495119839883
 20
-50.31717371927556
 10
19.47495119839883
 20
-50.40392798341123
 10
19.38858984306784
 20
-50.49028933874222
 10
19.38858984306784
 20
-50.66261309584845
 10
19.30223151011238
 20
-50.74897445117944
 10
19.30223151011238
 20
-50.92169716184076
 10
19.2158701547814
 20
-50.92169716184076
 10
19.2158701547814
 20
-51.00805247242133
 10
19.12871693708935
 20
-51.09441382775232
 10
19.12871693708935
 20
-51.1807751830833
 10
19.04235558175901
 20
-51.26713653841364
 10
18.95599724880291
 20
-51.35309894018889
 10
18.95599724880291
 20
-51.43985924907561
 10
18.8708236870132
 20
-51.43985924907561
 10
18.8708236870132
 20
-51.52622060440723
 10
18.78406640050201
 20
-51.61218300618248
 10
18.69770806754655
 20
-51.69854436151283
 10
18.61134671221556
 20
-51.78490571684381
 10
18.61134671221556
 20
-51.87126102742374
 10
18.52538279925255
 20
-51.87126102742374
 10
18.43823109274891
 20
-51.95762238275537
 10
18.35147380623771
 20
-52.04398373808571
 10
18.26511396209449
 20
-52.13034509341669
 10
18.17954446912393
 20
-52.13034509341669
 10
18.17954446912393
 20
-52.21670644874768
 10
18.09358055616092
 20
-52.21670644874768
 10
18.09358055616092
 20
-52.30306780407866
 10
18.00682478083749
 20
-52.30306780407866
 10
17.92046342550651
 20
-52.38903020585391
 10
17.83410358136328
 20
-52.47539156118489
 10
17.74734629485209
 20
-52.47539156118489
 10
17.74734629485209
 20
-52.56214582532056
 10
17.57422916419767
 20
-52.56214582532056
 10
17.48866118241488
 20
-52.64850718065154
 10
17.40269726945251
 20
-52.64850718065154
 10
17.31633742530929
 20
-52.73446958242679
 10
17.22958013879745
 20
-52.73446958242679
 10
17.14322029465423
 20
-52.82083093775778
 10
16.97010316399981
 20
-52.82083093775778
 10
16.88374180866883
 20
-52.90719229308876
 10
16.71181398274345
 20
-52.90719229308876
 10
16.62545413860023
 20
-52.99394655722443
 10
16.36637158379504
 20
-52.99394655722443
 10
16.10649867781655
 20
-52.99394655722443
 10
16.10649867781655
 20
-53.07991500375009
 10
15.67548829708598
 20
-53.07991500375009
 10
15.33004740932534
 20
-53.07991500375009
 10
15.33004740932534
 20
-52.99394655722443
 10
15.07096636570791
 20
-52.99394655722443
 10
14.81148787972251
 20
-52.99394655722443
 10
14.72473210439908
 20
-52.90719229308876
 10
14.55319869846615
 20
-52.90719229308876
 10
14.46644292314207
 20
-52.82083093775778
 10
14.29372172366787
 20
-52.82083093775778
 10
14.2077578107055
 20
-52.73446958242679
 10
14.12060459301345
 20
-52.73446958242679
 10
14.03424474887023
 20
-52.64850718065154
 10
13.94748746235904
 20
-52.64850718065154
 10
13.86191948057688
 20
-52.56214582532056
 10
13.68959421228289
 20
-52.56214582532056
 10
13.68959421228289
 20
-52.47539156118489
 10
13.60283843695945
 20
-52.47539156118489
 10
13.51647708162847
 20
-52.38903020585391
 10
13.4297213063044
 20
-52.30306780407866
 10
13.34336146216118
 20
-52.30306780407866
 10
13.34336146216118
 20
-52.21670644874768
 10
13.25700010683083
 20
-52.21670644874768
 10
13.25700010683083
 20
-52.13034509341669
 10
13.17103619386782
 20
-52.13034509341669
 10
13.08507228090481
 20
-52.04398373808571
 10
12.99871092557383
 20
-51.95762238275537
 10
12.91235108143061
 20
-51.87126102742374
 10
12.82559379491941
 20
-51.87126102742374
 10
12.82559379491941
 20
-51.78490571684381
 10
12.7396298819564
 20
-51.69854436151283
 10
12.652476664265
 20
-51.61218300618248
 10
12.56611682012177
 20
-51.52622060440723
 10
12.56611682012177
 20
-51.43985924907561
 10
12.47975697597855
 20
-51.43985924907561
 10
12.47975697597855
 20
-51.35309894018889
 10
12.39418748300799
 20
-51.26713653841364
 10
12.30782763886477
 20
-51.1807751830833
 10
12.30782763886477
 20
-51.09441382775232
 10
12.22146779472155
 20
-51.00805247242133
 10
12.22146779472155
 20
-50.92169716184076
 10
12.13510643939057
 20
-50.92169716184076
 10
12.13510643939057
 20
-50.74897445117944
 10
12.04874659524735
 20
-50.66261309584845
 10
12.04874659524735
 20
-50.49028933874222
 10
11.96159337755594
 20
-50.40392798341123
 10
11.96159337755594
 20
-50.31717371927556
 10
11.87523353341272
 20
-50.23081236394458
 10
11.87523353341272
 20
-49.97212725150768
 10
11.78887217808173
 20
-49.88536694262065
 10
11.78887217808173
 20
-49.28124245361087
 10
11.70330419629894
 20
-49.19488109827988
  0
LWPOLYLINE
  5
AE
330
70
100
AcDbEntity
  8
Camada 1
 62
   250
420
  1907995
370
    20
100
AcDbPolyline
 90
        6
 70
     0
 43
0.0
 10
11.53058450801249
 20
-47.46846398827442
 10
11.53058450801249
 20
-47.46846398827442
 10
11.61694435215572
 20
-47.38210263294344
 10
11.61694435215572
 20
-47.20938596703252
 10
11.70330419629894
 20
-47.20938596703252
 10
11.70330419629894
 20
-47.12302461170153
  0
LINE
  5
AF
330
70
100
AcDbEntity
  8
Camada 1
 62
   250
420
  1907995
370
    20
100
AcDbLine
 10
11.53058450801249
 20
-47.46846398827442
 30
0.0
 11
12.04874659524735
 21
-47.46846398827442
 31
0.0
  0
LINE
  5
B0
330
70
100
AcDbEntity
  8
Camada 1
 62
   250
420
  1907995
370
    20
100
AcDbLine
 10
12.47975697597855
 20
-46.77758523512865
 30
0.0
 11
11.87523353341272
 21
-46.77758523512865
 31
0.0
  0
LWPOLYLINE
  5
B1
330
70
100
AcDbEntity
  8
Camada 1
 62
   250
420
  1907995
370
    20
100
AcDbPolyline
 90
        6
 70
     0
 43
0.0
 10
11.87523353341272
 20
-46.77758523512865
 10
11.87523353341272
 20
-46.86394054570891
 10
11.78887217808173
 20
-46.95070085459563
 10
11.78887217808173
 20
-47.03666325637056
 10
11.70330419629894
 20
-47.03666325637056
 10
11.70330419629894
 20
-47.12302461170153
  0
LINE
  5
B2
330
70
100
AcDbEntity
  8
Camada 1
 62
   250
420
  1907995
370
    20
100
AcDbLine
 10
11.27110602202709
 20
-48.76308036637602
 30
0.0
 11
11.27110602202709
 21
-48.41803389860814
 31
0.0
  0
LINE
  5
B3
330
70
100
AcDbEntity
  8
Camada 1
 62
   250
420
  1907995
370
    20
100
AcDbLine
 10
11.27110602202709
 20
-48.76308036637602
 30
0.0
 11
11.78887217808173
 21
-48.76308036637602
 31
0.0
  0
LINE
  5
B4
330
70
100
AcDbEntity
  8
Camada 1
 62
   250
420
  1907995
370
    20
100
AcDbLine
 10
11.87523353341272
 20
-48.07259452203525
 30
0.0
 11
11.35786330853893
 21
-48.07259452203525
 31
0.0
  0
LWPOLYLINE
  5
B5
330
70
100
AcDbEntity
  8
Camada 1
 62
   250
420
  1907995
370
    20
100
AcDbPolyline
 90
        4
 70
     0
 43
0.0
 10
11.35786330853893
 20
-48.07259452203525
 10
11.35786330853893
 20
-48.24531118794617
 10
11.27110602202709
 20
-48.33167254327715
 10
11.27110602202709
 20
-48.41803389860814
  0
LWPOLYLINE
  5
B6
330
70
100
AcDbEntity
  8
Camada 1
 62
   250
420
  1907995
370
    20
100
AcDbPolyline
 90
        4
 70
     0
 43
0.0
 10
11.35786330853893
 20
-50.05848860683835
 10
11.35786330853893
 20
-49.88536694262065
 10
11.27110602202709
 20
-49.79940454084572
 10
11.27110602202709
 20
-49.71304318551474
  0
LINE
  5
B7
330
70
100
AcDbEntity
  8
Camada 1
 62
   250
420
  1907995
370
    20
100
AcDbLine
 10
11.35786330853893
 20
-50.05848860683835
 30
0.0
 11
11.87523353341272
 21
-50.05848860683835
 31
0.0
  0
LINE
  5
B8
330
70
100
AcDbEntity
  8
Camada 1
 62
   250
420
  1907995
370
    20
100
AcDbLine
 10
11.78887217808173
 20
-49.36760380894185
 30
0.0
 11
11.27110602202709
 21
-49.36760380894185
 31
0.0
  0
LINE
  5
B9
330
70
100
AcDbEntity
  8
Camada 1
 62
   250
420
  1907995
370
    20
100
AcDbLine
 10
11.27110602202709
 20
-49.36760380894185
 30
0.0
 11
11.27110602202709
 21
-49.71304318551474
 31
0.0
  0
LWPOLYLINE
  5
BA
330
70
100
AcDbEntity
  8
Camada 1
 62
   250
420
  1907995
370
    20
100
AcDbPolyline
 90
        6
 70
     0
 43
0.0
 10
11.87523353341272
 20
-51.43985924907561
 10
11.87523353341272
 20
-51.26713653841364
 10
11.78887217808173
 20
-51.26713653841364
 10
11.78887217808173
 20
-51.09441382775232
 10
11.70330419629894
 20
-51.09441382775232
 10
11.70330419629894
 20
-51.00805247242133
  0
LINE
  5
BB
330
70
100
AcDbEntity
  8
Camada 1
 62
   250
420
  1907995
370
    20
100
AcDbLine
 10
11.87523353341272
 20
-51.43985924907561
 30
0.0
 11
12.47975697597855
 21
-51.43985924907561
 31
0.0
  0
LINE
  5
BC
330
70
100
AcDbEntity
  8
Camada 1
 62
   250
420
  1907995
370
    20
100
AcDbLine
 10
12.04874659524735
 20
-50.66261309584845
 30
0.0
 11
11.53058450801249
 21
-50.66261309584845
 31
0.0
  0
LWPOLYLINE
  5
BD
330
70
100
AcDbEntity
  8
Camada 1
 62
   250
420
  1907995
370
    20
100
AcDbPolyline
 90
        5
 70
     0
 43
0.0
 10
11.53058450801249
 20
-50.66261309584845
 10
11.53058450801249
 20
-50.74897445117944
 10
11.61694435215572
 20
-50.83533580651041
 10
11.61694435215572
 20
-50.92169716184076
 10
11.70330419629894
 20
-51.00805247242133
  0
LINE
  5
BE
330
70
100
AcDbEntity
  8
Camada 1
 62
   250
420
  1907995
370
    20
100
AcDbLine
 10
34.67280280364955
 20
-46.51889407794072
 30
0.0
 11
35.1909648908844
 21
-51.61218300618248
 31
0.0
  0
LINE
  5
BF
330
70
100
AcDbEntity
  8
Camada 1
 62
   250
420
  1907995
370
    20
100
AcDbLine
 10
35.27732624621539
 20
-46.51889407794072
 30
0.0
 11
35.79548833345024
 21
-51.61218300618248
 31
0.0
  0
LINE
  5
C0
330
70
100
AcDbEntity
  8
Camada 1
 62
   250
420
  1907995
370
    20
100
AcDbLine
 10
35.88184968878059
 20
-46.51889407794072
 30
0.0
 11
36.39921991365501
 21
-51.61218300618248
 31
0.0
  0
LINE
  5
C1
330
70
100
AcDbEntity
  8
Camada 1
 62
   250
420
  1907995
370
    20
100
AcDbLine
 10
36.48637313134642
 20
-46.51889407794072
 30
0.0
 11
37.00374335622021
 21
-51.61218300618248
 31
0.0
  0
ENDSEC
  0
SECTION
  2
OBJECTS
  0
DICTIONARY
  5
C
330
0
100
AcDbDictionary
281
     1
  3
ACAD_COLOR
350
63
  3
ACAD_DETAILVIEWSTYLE
350
6A
  3
ACAD_GROUP
350
D
  3
ACAD_LAYOUT
350
62
  3
ACAD_MATERIAL
350
10
  3
ACAD_MLEADERSTYLE
350
66
  3
ACAD_MLINESTYLE
350
5F
  3
ACAD_PLOTSETTINGS
350
61
  3
ACAD_PLOTSTYLENAME
350
E
  3
ACAD_SCALELIST
350
42
  3
ACAD_SECTIONVIEWSTYLE
350
68
  3
ACAD_TABLESTYLE
350
64
  3
ACAD_VISUALSTYLE
350
29
  3
ACDB_RECOMPOSE_DATA
350
CA
  3
AcDbVariableDictionary
350
C2
  0
DICTIONARY
  5
63
102
{ACAD_REACTORS
330
C
102
}
330
C
100
AcDbDictionary
281
     1
  0
DICTIONARY
  5
6A
102
{ACAD_REACTORS
330
C
102
}
330
C
100
AcDbDictionary
281
     1
  3
Imperial24
350
6B
  0
DICTIONARY
  5
D
102
{ACAD_REACTORS
330
C
102
}
330
C
100
AcDbDictionary
281
     1
  0
DICTIONARY
  5
62
102
{ACAD_REACTORS
330
C
102
}
330
C
100
AcDbDictionary
281
     1
  3
Layout1
350
6F
  3
Layout2
350
77
  3
Model
350
73
  0
DICTIONARY
  5
10
102
{ACAD_REACTORS
330
C
102
}
330
C
100
AcDbDictionary
281
     1
  3
ByBlock
350
19
  3
ByLayer
350
11
  3
Global
350
21
  0
DICTIONARY
  5
66
102
{ACAD_REACTORS
330
C
102
}
330
C
100
AcDbDictionary
281
     1
  3
Standard
350
67
  0
DICTIONARY
  5
5F
102
{ACAD_REACTORS
330
C
102
}
330
C
100
AcDbDictionary
281
     1
  3
Standard
350
60
  0
DICTIONARY
  5
61
102
{ACAD_REACTORS
330
C
102
}
330
C
100
AcDbDictionary
281
     1
  0
ACDBDICTIONARYWDFLT
  5
E
102
{ACAD_REACTORS
330
C
102
}
330
C
100
AcDbDictionary
281
     1
  3
Normal
350
F
100
AcDbDictionaryWithDefault
340
F
  0
DICTIONARY
  5
42
102
{ACAD_REACTORS
330
C
102
}
330
C
100
AcDbDictionary
281
     1
  3
A0
350
43
  3
A1
350
44
  3
A2
350
45
  3
A3
350
46
  3
A4
350
47
  3
A5
350
48
  3
A6
350
49
  3
A7
350
4A
  3
A8
350
4B
  3
A9
350
4C
  3
B0
350
4D
  3
B1
350
4E
  3
B2
350
4F
  3
B3
350
50
  3
B4
350
51
  3
B5
350
52
  3
B6
350
53
  0
DICTIONARY
  5
68
102
{ACAD_REACTORS
330
C
102
}
330
C
100
AcDbDictionary
281
     1
  3
Imperial24
350
69
  0
DICTIONARY
  5
64
102
{ACAD_REACTORS
330
C
102
}
330
C
100
AcDbDictionary
281
     1
  3
Standard
350
65
  0
DICTIONARY
  5
29
102
{ACAD_REACTORS
330
C
102
}
330
C
100
AcDbDictionary
281
     1
  3
2dWireframe
350
2F
  3
Basic
350
2E
  3
Brighten
350
35
  3
ColorChange
350
39
  3
Conceptual
350
32
  3
Dim
350
34
  3
EdgeColorOff
350
41
  3
Facepattern
350
38
  3
Flat
350
2A
  3
FlatWithEdges
350
2B
  3
Gouraud
350
2C
  3
GouraudWithEdges
350
2D
  3
Hidden
350
31
  3
JitterOff
350
3F
  3
Linepattern
350
37
  3
OverhangOff
350
40
  3
Realistic
350
33
  3
Shaded
350
3E
  3
Shaded with edges
350
3D
  3
Shades of Gray
350
3A
  3
Sketchy
350
3B
  3
Thicken
350
36
  3
Wireframe
350
30
  3
X-Ray
350
3C
  0
XRECORD
  5
CA
102
{ACAD_REACTORS
330
C
102
}
330
C
100
AcDbXrecord
280
     1
 90
        1
330
65
  0
DICTIONARY
  5
C2
102
{ACAD_REACTORS
330
C
102
}
330
C
100
AcDbDictionary
281
     1
  3
CANNOSCALE
350
C7
  3
CMLEADERSTYLE
350
C4
  3
CTABLESTYLE
350
C3
  3
CVIEWDETAILSTYLE
350
C5
  3
CVIEWSECTIONSTYLE
350
C6
  0
ACDBDETAILVIEWSTYLE
  5
6B
102
{ACAD_REACTORS
330
6A
102
}
330
6A
100
AcDbModelDocViewStyle
 70
     0
  3
Imperial24
290
     1
300
Imperial24
 90
        0
100
AcDbDetailViewStyle
 70
     0
 71
     0
 90
        3
 71
     1
340
55
 62
   256
 40
0.24
340
0
 62
   256
 40
0.24
300

 40
0.36
280
     3
 71
     2
340
5D
 90
       25
 62
   256
 71
     3
340
55
 62
   256
 40
0.24
 90
        1
 40
0.75
 90
        1
300
%<\AcVar ViewType \f "%tc1">% %<\AcVar ViewDetailId>%\PSCALE %<\AcVar ViewScale \f "%sn">%
 71
     4
340
5D
 90
       25
 62
   256
340
5D
 90
       25
 62
   256
280
     0
  0
LAYOUT
  5
6F
102
{ACAD_REACTORS
330
62
102
}
330
62
100
AcDbPlotSettings
  1

  2

  4

  6

 40
0.0
 41
0.0
 42
0.0
 43
0.0
 44
0.0
 45
0.0
 46
0.0
 47
0.0
 48
0.0
 49
0.0
140
0.0
141
0.0
142
1.0
143
1.0
 70
   688
 72
     0
 73
     0
 74
     5
  7

 75
    16
147
1.0
 76
     0
 77
     2
 78
   300
148
0.0
149
0.0
100
AcDbLayout
  1
Layout1
 70
     1
 71
     1
 10
0.0
 20
0.0
 11
12.0
 21
9.0
 12
0.0
 22
0.0
 32
0.0
 14
0.0
 24
0.0
 34
0.0
 15
0.0
 25
0.0
 35
0.0
146
0.0
 13
0.0
 23
0.0
 33
0.0
 16
1.0
 26
0.0
 36
0.0
 17
0.0
 27
1.0
 37
0.0
 76
     0
330
6C
  0
LAYOUT
  5
77
102
{ACAD_REACTORS
330
62
102
}
330
62
100
AcDbPlotSettings
  1

  2

  4

  6

 40
0.0
 41
0.0
 42
0.0
 43
0.0
 44
0.0
 45
0.0
 46
0.0
 47
0.0
 48
0.0
 49
0.0
140
0.0
141
0.0
142
1.0
143
1.0
 70
   688
 72
     0
 73
     0
 74
     5
  7

 75
    16
147
1.0
 76
     0
 77
     2
 78
   300
148
0.0
149
0.0
100
AcDbLayout
  1
Layout2
 70
     1
 71
     2
 10
0.0
 20
0.0
 11
12.0
 21
9.0
 12
0.0
 22
0.0
 32
0.0
 14
0.0
 24
0.0
 34
0.0
 15
0.0
 25
0.0
 35
0.0
146
0.0
 13
0.0
 23
0.0
 33
0.0
 16
1.0
 26
0.0
 36
0.0
 17
0.0
 27
1.0
 37
0.0
 76
     0
330
74
  0
LAYOUT
  5
73
102
{ACAD_REACTORS
330
62
102
}
330
62
100
AcDbPlotSettings
  1

  2

  4

  6

 40
0.0
 41
0.0
 42
0.0
 43
0.0
 44
0.0
 45
0.0
 46
0.0
 47
0.0
 48
0.0
 49
0.0
140
0.0
141
0.0
142
1.0
143
1.0
 70
  1712
 72
     0
 73
     0
 74
     0
  7

 75
     0
147
1.0
 76
     0
 77
     2
 78
   300
148
0.0
149
0.0
100
AcDbLayout
  1
Model
 70
     1
 71
     0
 10
0.0
 20
0.0
 11
12.0
 21
9.0
 12
0.0
 22
0.0
 32
0.0
 14
0.0
 24
0.0
 34
0.0
 15
0.0
 25
0.0
 35
0.0
146
0.0
 13
0.0
 23
0.0
 33
0.0
 16
1.0
 26
0.0
 36
0.0
 17
0.0
 27
1.0
 37
0.0
 76
     0
330
70
  0
MATERIAL
  5
19
102
{ACAD_XDICTIONARY
360
1A
102
}
102
{ACAD_REACTORS
330
10
102
}
330
10
100
AcDbMaterial
  1
ByBlock
 72
     0
 43
0.0208333333333333
 43
0.0
 43
0.0
 43
0.0
 43
0.0
 43
0.0208333333333333
 43
0.0
 43
0.0
 43
0.0
 43
0.0
 43
1.0
 43
0.0
 43
0.0
 43
0.0
 43
0.0
 43
1.0
 77
     0
 47
0.0208333333333333
 47
0.0
 47
0.0
 47
0.0
 47
0.0
 47
0.0208333333333333
 47
0.0
 47
0.0
 47
0.0
 47
0.0
 47
1.0
 47
0.0
 47
0.0
 47
0.0
 47
0.0
 47
1.0
171
     0
 49
0.0208333333333333
 49
0.0
 49
0.0
 49
0.0
 49
0.0
 49
0.0208333333333333
 49
0.0
 49
0.0
 49
0.0
 49
0.0
 49
1.0
 49
0.0
 49
0.0
 49
0.0
 49
0.0
 49
1.0
175
     0
142
0.0208333333333333
142
0.0
142
0.0
142
0.0
142
0.0
142
0.0208333333333333
142
0.0
142
0.0
142
0.0
142
0.0
142
1.0
142
0.0
142
0.0
142
0.0
142
0.0
142
1.0
179
     0
144
0.0208333333333333
144
0.0
144
0.0
144
0.0
144
0.0
144
0.0208333333333333
144
0.0
144
0.0
144
0.0
144
0.0
144
1.0
144
0.0
144
0.0
144
0.0
144
0.0
144
1.0
147
0.0208333333333333
147
0.0
147
0.0
147
0.0
147
0.0
147
0.0208333333333333
147
0.0
147
0.0
147
0.0
147
0.0
147
1.0
147
0.0
147
0.0
147
0.0
147
0.0
147
1.0
  0
MATERIAL
  5
11
102
{ACAD_XDICTIONARY
360
12
102
}
102
{ACAD_REACTORS
330
10
102
}
330
10
100
AcDbMaterial
  1
ByLayer
 72
     0
 43
0.0208333333333333
 43
0.0
 43
0.0
 43
0.0
 43
0.0
 43
0.0208333333333333
 43
0.0
 43
0.0
 43
0.0
 43
0.0
 43
1.0
 43
0.0
 43
0.0
 43
0.0
 43
0.0
 43
1.0
 77
     0
 47
0.0208333333333333
 47
0.0
 47
0.0
 47
0.0
 47
0.0
 47
0.0208333333333333
 47
0.0
 47
0.0
 47
0.0
 47
0.0
 47
1.0
 47
0.0
 47
0.0
 47
0.0
 47
0.0
 47
1.0
171
     0
 49
0.0208333333333333
 49
0.0
 49
0.0
 49
0.0
 49
0.0
 49
0.0208333333333333
 49
0.0
 49
0.0
 49
0.0
 49
0.0
 49
1.0
 49
0.0
 49
0.0
 49
0.0
 49
0.0
 49
1.0
175
     0
142
0.0208333333333333
142
0.0
142
0.0
142
0.0
142
0.0
142
0.0208333333333333
142
0.0
142
0.0
142
0.0
142
0.0
142
1.0
142
0.0
142
0.0
142
0.0
142
0.0
142
1.0
179
     0
144
0.0208333333333333
144
0.0
144
0.0
144
0.0
144
0.0
144
0.0208333333333333
144
0.0
144
0.0
144
0.0
144
0.0
144
1.0
144
0.0
144
0.0
144
0.0
144
0.0
144
1.0
147
0.0208333333333333
147
0.0
147
0.0
147
0.0
147
0.0
147
0.0208333333333333
147
0.0
147
0.0
147
0.0
147
0.0
147
1.0
147
0.0
147
0.0
147
0.0
147
0.0
147
1.0
  0
MATERIAL
  5
21
102
{ACAD_XDICTIONARY
360
22
102
}
102
{ACAD_REACTORS
330
10
102
}
330
10
100
AcDbMaterial
  1
Global
 72
     0
 43
0.0208333333333333
 43
0.0
 43
0.0
 43
0.0
 43
0.0
 43
0.0208333333333333
 43
0.0
 43
0.0
 43
0.0
 43
0.0
 43
1.0
 43
0.0
 43
0.0
 43
0.0
 43
0.0
 43
1.0
 77
     0
 47
0.0208333333333333
 47
0.0
 47
0.0
 47
0.0
 47
0.0
 47
0.0208333333333333
 47
0.0
 47
0.0
 47
0.0
 47
0.0
 47
1.0
 47
0.0
 47
0.0
 47
0.0
 47
0.0
 47
1.0
171
     0
 49
0.0208333333333333
 49
0.0
 49
0.0
 49
0.0
 49
0.0
 49
0.0208333333333333
 49
0.0
 49
0.0
 49
0.0
 49
0.0
 49
1.0
 49
0.0
 49
0.0
 49
0.0
 49
0.0
 49
1.0
175
     0
142
0.0208333333333333
142
0.0
142
0.0
142
0.0
142
0.0
142
0.0208333333333333
142
0.0
142
0.0
142
0.0
142
0.0
142
1.0
142
0.0
142
0.0
142
0.0
142
0.0
142
1.0
179
     0
144
0.0208333333333333
144
0.0
144
0.0
144
0.0
144
0.0
144
0.0208333333333333
144
0.0
144
0.0
144
0.0
144
0.0
144
1.0
144
0.0
144
0.0
144
0.0
144
0.0
144
1.0
147
0.0208333333333333
147
0.0
147
0.0
147
0.0
147
0.0
147
0.0208333333333333
147
0.0
147
0.0
147
0.0
147
0.0
147
1.0
147
0.0
147
0.0
147
0.0
147
0.0
147
1.0
  0
MLEADERSTYLE
  5
67
102
{ACAD_REACTORS
330
66
102
}
330
66
100
AcDbMLeaderStyle
179
     2
170
     2
171
     1
172
     0
 90
        2
 40
0.0
 41
0.0
173
     1
 91
-1056964608
340
5B
 92
       -2
290
     1
 42
0.09
291
     1
 43
0.36
  3
Standard
 44
0.18
300

342
55
174
     1
178
     6
175
     1
176
     0
 93
-1056964608
 45
0.18
292
     0
297
     0
 46
0.18
 94
-1056964608
 47
1.0
 49
1.0
140
1.0
293
     1
141
0.0
294
     1
177
     0
142
1.0
295
     1
296
     0
143
0.125
271
     0
272
     9
273
     9
298
     1
  0
MLINESTYLE
  5
60
102
{ACAD_REACTORS
330
5F
102
}
330
5F
100
AcDbMlineStyle
  2
STANDARD
 70
     0
  3

 62
   256
 51
90.0
 52
90.0
 71
     2
 49
0.5
 62
   256
  6
BYLAYER
 49
-0.5
 62
   256
  6
BYLAYER
  0
ACDBPLACEHOLDER
  5
F
102
{ACAD_REACTORS
330
E
102
}
330
E
  0
SCALE
  5
43
102
{ACAD_REACTORS
330
42
102
}
330
42
100
AcDbScale
 70
     0
300
1:1
140
1.0
141
1.0
290
     1
  0
SCALE
  5
44
102
{ACAD_REACTORS
330
42
102
}
330
42
100
AcDbScale
 70
     0
300
1/128" = 1'-0"
140
0.0078125
141
12.0
290
     0
  0
SCALE
  5
45
102
{ACAD_REACTORS
330
42
102
}
330
42
100
AcDbScale
 70
     0
300
1/64" = 1'-0"
140
0.015625
141
12.0
290
     0
  0
SCALE
  5
46
102
{ACAD_REACTORS
330
42
102
}
330
42
100
AcDbScale
 70
     0
300
1/32" = 1'-0"
140
0.03125
141
12.0
290
     0
  0
SCALE
  5
47
102
{ACAD_REACTORS
330
42
102
}
330
42
100
AcDbScale
 70
     0
300
1/16" = 1'-0"
140
0.0625
141
12.0
290
     0
  0
SCALE
  5
48
102
{ACAD_REACTORS
330
42
102
}
330
42
100
AcDbScale
 70
     0
300
3/32" = 1'-0"
140
0.09375
141
12.0
290
     0
  0
SCALE
  5
49
102
{ACAD_REACTORS
330
42
102
}
330
42
100
AcDbScale
 70
     0
300
1/8" = 1'-0"
140
0.125
141
12.0
290
     0
  0
SCALE
  5
4A
102
{ACAD_REACTORS
330
42
102
}
330
42
100
AcDbScale
 70
     0
300
3/16" = 1'-0"
140
0.1875
141
12.0
290
     0
  0
SCALE
  5
4B
102
{ACAD_REACTORS
330
42
102
}
330
42
100
AcDbScale
 70
     0
300
1/4" = 1'-0"
140
0.25
141
12.0
290
     0
  0
SCALE
  5
4C
102
{ACAD_REACTORS
330
42
102
}
330
42
100
AcDbScale
 70
     0
300
3/8" = 1'-0"
140
0.375
141
12.0
290
     0
  0
SCALE
  5
4D
102
{ACAD_REACTORS
330
42
102
}
330
42
100
AcDbScale
 70
     0
300
1/2" = 1'-0"
140
0.5
141
12.0
290
     0
  0
SCALE
  5
4E
102
{ACAD_REACTORS
330
42
102
}
330
42
100
AcDbScale
 70
     0
300
3/4" = 1'-0"
140
0.75
141
12.0
290
     0
  0
SCALE
  5
4F
102
{ACAD_REACTORS
330
42
102
}
330
42
100
AcDbScale
 70
     0
300
1" = 1'-0"
140
1.0
141
12.0
290
     0
  0
SCALE
  5
50
102
{ACAD_REACTORS
330
42
102
}
330
42
100
AcDbScale
 70
     0
300
1-1/2" = 1'-0"
140
1.5
141
12.0
290
     0
  0
SCALE
  5
51
102
{ACAD_REACTORS
330
42
102
}
330
42
100
AcDbScale
 70
     0
300
3" = 1'-0"
140
3.0
141
12.0
290
     0
  0
SCALE
  5
52
102
{ACAD_REACTORS
330
42
102
}
330
42
100
AcDbScale
 70
     0
300
6" = 1'-0"
140
6.0
141
12.0
290
     0
  0
SCALE
  5
53
102
{ACAD_REACTORS
330
42
102
}
330
42
100
AcDbScale
 70
     0
300
1'-0" = 1'-0"
140
12.0
141
12.0
290
     0
  0
ACDBSECTIONVIEWSTYLE
  5
69
102
{ACAD_REACTORS
330
68
102
}
330
68
100
AcDbModelDocViewStyle
 70
     0
  3
Imperial24
290
     1
300
Imperial24
 90
        0
100
AcDbSectionViewStyle
 70
     0
 71
     0
 90
       78
 71
     1
340
55
 62
   256
 40
0.24
340
0
340
0
 62
   256
 40
0.24
300
I, O, Q, S, X, Z
 40
0.48
 90
        3
 40
0.18
 90
        1
 71
     2
340
5D
 90
       25
 62
   256
340
5D
 90
       50
 62
   256
 40
0.24
 40
0.0
 40
0.24
 71
     3
340
55
 62
   256
 40
0.24
 90
        1
 40
0.75
 90
        1
300
%<\AcVar ViewType \f "%tc1">% %<\AcVar ViewSectionStartId>%-%<\AcVar ViewSectionEndId>%\PSCALE %<\AcVar ViewScale \f "%sn">%
 71
     4
 62
   256
 62
   257
300
ANSI31
 40
1.0
 90
        0
290
     0
290
     0
 90
        6
 40
0.0
 40
1.570796326794896
 40
0.2617993877991494
 40
1.308996938995747
 40
-0.2617993877991494
 40
1.832595714594046
  0
TABLESTYLE
  5
65
102
{ACAD_XDICTIONARY
360
C8
102
}
102
{ACAD_REACTORS
330
64
102
}
330
64
100
AcDbTableStyle
280
     0
  3
Standard
 70
     0
 71
     0
 40
0.06
 41
0.06
280
     0
281
     0
  7
Standard
140
0.18
170
     2
 62
     0
 63
     7
283
     0
 90
      512
 91
        0
  1

274
    -2
284
     1
 64
     0
275
    -2
285
     1
 65
     0
276
    -2
286
     1
 66
     0
277
    -2
287
     1
 67
     0
278
    -2
288
     1
 68
     0
279
    -2
289
     1
 69
     0
  7
Standard
140
0.25
170
     5
 62
     0
 63
     7
283
     0
 90
      512
 91
        0
  1

274
    -2
284
     1
 64
     0
275
    -2
285
     1
 65
     0
276
    -2
286
     1
 66
     0
277
    -2
287
     1
 67
     0
278
    -2
288
     1
 68
     0
279
    -2
289
     1
 69
     0
  7
Standard
140
0.18
170
     5
 62
     0
 63
     7
283
     0
 90
      512
 91
        0
  1

274
    -2
284
     1
 64
     0
275
    -2
285
     1
 65
     0
276
    -2
286
     1
 66
     0
277
    -2
287
     1
 67
     0
278
    -2
288
     1
 68
     0
279
    -2
289
     1
 69
     0
  0
VISUALSTYLE
  5
2F
102
{ACAD_REACTORS
330
29
102
}
330
29
100
AcDbVisualStyle
  2
2dWireframe
 70
     4
177
     3
291
     0
 70
    58
 90
        0
176
     1
 90
        2
176
     1
 90
        0
176
     1
 90
        0
176
     1
 40
0.6
176
     1
 40
30.0
176
     1
 62
     7
420
 16777215
176
     1
 90
        1
176
     1
 90
        4
176
     1
 62
     7
176
     1
 62
   257
176
     1
 90
        1
176
     1
 90
        1
176
     1
 40
1.0
176
     1
 90
        0
176
     1
 62
   257
176
     1
 40
1.0
176
     1
 90
        1
176
     1
 90
        6
176
     1
 90
        2
176
     1
 62
     7
176
     1
 90
        5
176
     1
 90
        0
176
     1
 90
        0
176
     1
290
     0
176
     1
 90
        1
176
     1
 40
0.0
176
     1
 90
        0
176
     1
290
     1
176
     1
290
     1
176
     1
290
     0
176
     1
290
     0
176
     1
290
     0
176
     1
290
     0
176
     1
290
     0
176
     1
290
     0
176
     1
290
     0
176
     1
 90
       50
176
     1
 40
0.0
176
     1
 40
1.0
176
     1
 90
        0
176
     1
 62
    18
420
        0
176
     1
 90
       50
176
     1
 90
        3
176
     1
 62
     5
420
      255
176
     1
290
     0
176
     1
 90
       50
176
     1
 90
       50
176
     1
 90
       50
176
     1
290
     0
176
     1
 90
       50
176
     1
 62
   256
176
     0
 40
1.0
176
     0
 90
        2
176
     1
  1
strokes_ogs.tif
176
     1
290
     0
176
     1
 40
1.0
176
     1
 40
1.0
176
     1
  0
VISUALSTYLE
  5
2E
102
{ACAD_REACTORS
330
29
102
}
330
29
100
AcDbVisualStyle
  2
Basic
 70
     7
177
     3
291
     1
 70
    58
 90
        1
176
     1
 90
        0
176
     1
 90
        1
176
     1
 90
        0
176
     1
 40
0.6
176
     1
 40
30.0
176
     1
 62
     7
420
 16777215
176
     1
 90
        0
176
     1
 90
        4
176
     1
 62
     7
176
     1
 62
   257
176
     1
 90
        1
176
     1
 90
        1
176
     1
 40
1.0
176
     1
 90
        8
176
     1
 62
     7
176
     1
 40
1.0
176
     1
 90
        1
176
     1
 90
        6
176
     1
 90
        2
176
     1
 62
     7
176
     1
 90
        5
176
     1
 90
        0
176
     1
 90
        0
176
     1
290
     0
176
     1
 90
        1
176
     1
 40
0.0
176
     1
 90
        0
176
     1
290
     0
176
     1
290
     1
176
     1
290
     1
176
     1
290
     0
176
     1
290
     0
176
     1
290
     0
176
     1
290
     0
176
     1
290
     0
176
     1
290
     0
176
     1
 90
       50
176
     1
 40
0.0
176
     1
 40
1.0
176
     1
 90
        0
176
     1
 62
    18
420
        0
176
     1
 90
       50
176
     1
 90
        3
176
     1
 62
     5
420
      255
176
     1
290
     0
176
     1
 90
       50
176
     1
 90
       50
176
     1
 90
       50
176
     1
290
     0
176
     1
 90
       50
176
     1
 62
   256
176
     0
 40
1.0
176
     0
 90
        2
176
     1
  1
strokes_ogs.tif
176
     1
290
     0
176
     1
 40
1.0
176
     1
 40
1.0
176
     1
  0
VISUALSTYLE
  5
35
102
{ACAD_REACTORS
330
29
102
}
330
29
100
AcDbVisualStyle
  2
Brighten
 70
    12
177
     3
291
     1
 70
    58
 90
        2
176
     1
 90
        2
176
     1
 90
        0
176
     1
 90
        0
176
     1
 40
0.6
176
     1
 40
30.0
176
     1
 62
     7
420
 16777215
176
     1
 90
        1
176
     1
 90
        4
176
     1
 62
     7
176
     1
 62
   257
176
     1
 90
        1
176
     1
 90
        1
176
     1
 40
1.0
176
     1
 90
        8
176
     1
 62
     7
176
     1
 40
1.0
176
     1
 90
        1
176
     1
 90
        6
176
     1
 90
        2
176
     1
 62
     7
176
     1
 90
        5
176
     1
 90
        0
176
     1
 90
        0
176
     1
290
     0
176
     1
 90
        1
176
     1
 40
50.0
176
     1
 90
        0
176
     1
290
     0
176
     1
290
     1
176
     1
290
     1
176
     1
290
     0
176
     1
290
     0
176
     1
290
     0
176
     1
290
     0
176
     1
290
     0
176
     1
290
     0
176
     1
 90
       50
176
     1
 40
0.0
176
     1
 40
1.0
176
     1
 90
        0
176
     1
 62
    18
420
        0
176
     1
 90
       50
176
     1
 90
        3
176
     1
 62
     5
420
      255
176
     1
290
     0
176
     1
 90
       50
176
     1
 90
       50
176
     1
 90
       50
176
     1
290
     0
176
     1
 90
       50
176
     1
 62
   256
176
     0
 40
1.0
176
     0
 90
        2
176
     1
  1
strokes_ogs.tif
176
     1
290
     0
176
     1
 40
1.0
176
     1
 40
1.0
176
     1
  0
VISUALSTYLE
  5
39
102
{ACAD_REACTORS
330
29
102
}
330
29
100
AcDbVisualStyle
  2
ColorChange
 70
    16
177
     3
291
     1
 70
    58
 90
        2
176
     1
 90
        2
176
     1
 90
        3
176
     1
 90
        0
176
     1
 40
0.6
176
     1
 40
30.0
176
     1
 62
     8
420
  8421504
176
     1
 90
        1
176
     1
 90
        4
176
     1
 62
     7
176
     1
 62
   257
176
     1
 90
        1
176
     1
 90
        1
176
     1
 40
1.0
176
     1
 90
        8
176
     1
 62
     8
420
  8421504
176
     1
 40
1.0
176
     1
 90
        1
176
     1
 90
        6
176
     1
 90
        2
176
     1
 62
     7
176
     1
 90
        5
176
     1
 90
        0
176
     1
 90
        0
176
     1
290
     0
176
     1
 90
        1
176
     1
 40
0.0
176
     1
 90
        0
176
     1
290
     0
176
     1
290
     1
176
     1
290
     1
176
     1
290
     0
176
     1
290
     0
176
     1
290
     0
176
     1
290
     0
176
     1
290
     0
176
     1
290
     0
176
     1
 90
       50
176
     1
 40
0.0
176
     1
 40
1.0
176
     1
 90
        0
176
     1
 62
    18
420
        0
176
     1
 90
       50
176
     1
 90
        3
176
     1
 62
     5
420
      255
176
     1
290
     0
176
     1
 90
       50
176
     1
 90
       50
176
     1
 90
       50
176
     1
290
     0
176
     1
 90
       50
176
     1
 62
   256
176
     0
 40
1.0
176
     0
 90
        2
176
     1
  1
strokes_ogs.tif
176
     1
290
     0
176
     1
 40
1.0
176
     1
 40
1.0
176
     1
  0
VISUALSTYLE
  5
32
102
{ACAD_REACTORS
330
29
102
}
330
29
100
AcDbVisualStyle
  2
Conceptual
 70
     9
177
     3
291
     0
 70
    58
 90
        3
176
     1
 90
        2
176
     1
 90
        0
176
     1
 90
        0
176
     1
 40
0.6
176
     1
 40
30.0
176
     1
 62
     7
420
 16777215
176
     1
 90
        2
176
     1
 90
        2
176
     1
 62
     7
176
     1
 62
   257
176
     1
 90
        1
176
     1
 90
        1
176
     1
 40
179.0
176
     1
 90
        8
176
     1
 62
     7
176
     1
 40
1.0
176
     1
 90
        1
176
     1
 90
        6
176
     1
 90
        2
176
     1
 62
     7
176
     1
 90
        3
176
     1
 90
        0
176
     1
 90
        0
176
     1
290
     0
176
     1
 90
        1
176
     1
 40
0.0
176
     1
 90
        0
176
     1
290
     0
176
     1
290
     1
176
     1
290
     1
176
     1
290
     0
176
     1
290
     0
176
     1
290
     0
176
     1
290
     0
176
     1
290
     0
176
     1
290
     0
176
     1
 90
       50
176
     1
 40
0.0
176
     1
 40
1.0
176
     1
 90
        0
176
     1
 62
    18
420
        0
176
     1
 90
       50
176
     1
 90
        3
176
     1
 62
     5
420
      255
176
     1
290
     0
176
     1
 90
       50
176
     1
 90
       50
176
     1
 90
       50
176
     1
290
     0
176
     1
 90
       50
176
     1
 62
   256
176
     0
 40
1.0
176
     0
 90
        2
176
     1
  1
strokes_ogs.tif
176
     1
290
     0
176
     1
 40
1.0
176
     1
 40
1.0
176
     1
  0
VISUALSTYLE
  5
34
102
{ACAD_REACTORS
330
29
102
}
330
29
100
AcDbVisualStyle
  2
Dim
 70
    11
177
     3
291
     1
 70
    58
 90
        2
176
     1
 90
        2
176
     1
 90
        0
176
     1
 90
        0
176
     1
 40
0.6
176
     1
 40
30.0
176
     1
 62
     7
420
 16777215
176
     1
 90
        1
176
     1
 90
        4
176
     1
 62
     7
176
     1
 62
   257
176
     1
 90
        1
176
     1
 90
        1
176
     1
 40
1.0
176
     1
 90
        8
176
     1
 62
     7
176
     1
 40
1.0
176
     1
 90
        1
176
     1
 90
        6
176
     1
 90
        2
176
     1
 62
     7
176
     1
 90
        5
176
     1
 90
        0
176
     1
 90
        0
176
     1
290
     0
176
     1
 90
        1
176
     1
 40
-50.0
176
     1
 90
        0
176
     1
290
     0
176
     1
290
     1
176
     1
290
     1
176
     1
290
     0
176
     1
290
     0
176
     1
290
     0
176
     1
290
     0
176
     1
290
     0
176
     1
290
     0
176
     1
 90
       50
176
     1
 40
0.0
176
     1
 40
1.0
176
     1
 90
        0
176
     1
 62
    18
420
        0
176
     1
 90
       50
176
     1
 90
        3
176
     1
 62
     5
420
      255
176
     1
290
     0
176
     1
 90
       50
176
     1
 90
       50
176
     1
 90
       50
176
     1
290
     0
176
     1
 90
       50
176
     1
 62
   256
176
     0
 40
1.0
176
     0
 90
        2
176
     1
  1
strokes_ogs.tif
176
     1
290
     0
176
     1
 40
1.0
176
     1
 40
1.0
176
     1
  0
VISUALSTYLE
  5
41
102
{ACAD_REACTORS
330
29
102
}
330
29
100
AcDbVisualStyle
  2
EdgeColorOff
 70
    22
177
     3
291
     1
 70
    58
 90
        2
176
     0
 90
        2
176
     0
 90
        0
176
     0
 90
        0
176
     0
 40
0.6
176
     0
 40
30.0
176
     0
 62
     7
420
 16777215
176
     0
 90
        1
176
     0
 90
        4
176
     0
 62
     7
176
     0
 62
   257
176
     0
 90
        1
176
     0
 90
        1
176
     0
 40
1.0
176
     0
 90
        8
176
     2
 62
     7
176
     0
 40
1.0
176
     0
 90
        1
176
     0
 90
        6
176
     0
 90
        2
176
     0
 62
     7
176
     0
 90
        5
176
     0
 90
        0
176
     0
 90
        0
176
     0
290
     0
176
     0
 90
        1
176
     0
 40
0.0
176
     0
 90
        0
176
     0
290
     0
176
     0
290
     1
176
     0
290
     1
176
     0
290
     0
176
     0
290
     0
176
     0
290
     0
176
     0
290
     0
176
     0
290
     0
176
     0
290
     0
176
     0
 90
       50
176
     0
 40
0.0
176
     0
 40
1.0
176
     0
 90
        0
176
     0
 62
    18
420
        0
176
     0
 90
       50
176
     0
 90
        3
176
     0
 62
     5
420
      255
176
     0
290
     0
176
     0
 90
       50
176
     0
 90
       50
176
     0
 90
       50
176
     0
290
     0
176
     0
 90
       50
176
     0
 62
   256
176
     0
 40
1.0
176
     0
 90
        2
176
     0
  1
strokes_ogs.tif
176
     0
290
     0
176
     0
 40
1.0
176
     0
 40
1.0
176
     0
  0
VISUALSTYLE
  5
38
102
{ACAD_REACTORS
330
29
102
}
330
29
100
AcDbVisualStyle
  2
Facepattern
 70
    15
177
     3
291
     1
 70
    58
 90
        2
176
     1
 90
        2
176
     1
 90
        0
176
     1
 90
        0
176
     1
 40
0.6
176
     1
 40
30.0
176
     1
 62
     7
420
 16777215
176
     1
 90
        1
176
     1
 90
        4
176
     1
 62
     7
176
     1
 62
   257
176
     1
 90
        1
176
     1
 90
        1
176
     1
 40
1.0
176
     1
 90
        8
176
     1
 62
     7
176
     1
 40
1.0
176
     1
 90
        1
176
     1
 90
        6
176
     1
 90
        2
176
     1
 62
     7
176
     1
 90
        5
176
     1
 90
        0
176
     1
 90
        0
176
     1
290
     0
176
     1
 90
        1
176
     1
 40
0.0
176
     1
 90
        0
176
     1
290
     0
176
     1
290
     1
176
     1
290
     1
176
     1
290
     0
176
     1
290
     0
176
     1
290
     0
176
     1
290
     0
176
     1
290
     0
176
     1
290
     0
176
     1
 90
       50
176
     1
 40
0.0
176
     1
 40
1.0
176
     1
 90
        0
176
     1
 62
    18
420
        0
176
     1
 90
       50
176
     1
 90
        3
176
     1
 62
     5
420
      255
176
     1
290
     0
176
     1
 90
       50
176
     1
 90
       50
176
     1
 90
       50
176
     1
290
     0
176
     1
 90
       50
176
     1
 62
   256
176
     0
 40
1.0
176
     0
 90
        2
176
     1
  1
strokes_ogs.tif
176
     1
290
     0
176
     1
 40
1.0
176
     1
 40
1.0
176
     1
  0
VISUALSTYLE
  5
2A
102
{ACAD_REACTORS
330
29
102
}
330
29
100
AcDbVisualStyle
  2
Flat
 70
     0
177
     3
291
     1
 70
    58
 90
        2
176
     1
 90
        1
176
     1
 90
        1
176
     1
 90
        2
176
     1
 40
0.6
176
     1
 40
30.0
176
     1
 62
     7
420
 16777215
176
     1
 90
        0
176
     1
 90
        0
176
     1
 62
     7
176
     1
 62
   257
176
     1
 90
        1
176
     1
 90
        1
176
     1
 40
1.0
176
     1
 90
        8
176
     1
 62
     7
176
     1
 40
1.0
176
     1
 90
        1
176
     1
 90
        6
176
     1
 90
        2
176
     1
 62
     7
176
     1
 90
        5
176
     1
 90
        0
176
     1
 90
        0
176
     1
290
     0
176
     1
 90
       13
176
     1
 40
0.0
176
     1
 90
        0
176
     1
290
     0
176
     1
290
     1
176
     1
290
     1
176
     1
290
     0
176
     1
290
     0
176
     1
290
     0
176
     1
290
     0
176
     1
290
     0
176
     1
290
     0
176
     1
 90
       50
176
     1
 40
0.0
176
     1
 40
1.0
176
     1
 90
        0
176
     1
 62
    18
420
        0
176
     1
 90
       50
176
     1
 90
        3
176
     1
 62
     5
420
      255
176
     1
290
     0
176
     1
 90
       50
176
     1
 90
       50
176
     1
 90
       50
176
     1
290
     0
176
     1
 90
       50
176
     1
 62
   256
176
     0
 40
1.0
176
     0
 90
        2
176
     1
  1
strokes_ogs.tif
176
     1
290
     0
176
     1
 40
1.0
176
     1
 40
1.0
176
     1
  0
VISUALSTYLE
  5
2B
102
{ACAD_REACTORS
330
29
102
}
330
29
100
AcDbVisualStyle
  2
FlatWithEdges
 70
     1
177
     3
291
     1
 70
    58
 90
        2
176
     1
 90
        1
176
     1
 90
        1
176
     1
 90
        2
176
     1
 40
0.6
176
     1
 40
30.0
176
     1
 62
     7
420
 16777215
176
     1
 90
        1
176
     1
 90
        0
176
     1
 62
     7
176
     1
 62
   257
176
     1
 90
        1
176
     1
 90
        1
176
     1
 40
1.0
176
     1
 90
        0
176
     1
 62
   257
176
     1
 40
1.0
176
     1
 90
        1
176
     1
 90
        6
176
     1
 90
        2
176
     1
 62
     7
176
     1
 90
        5
176
     1
 90
        0
176
     1
 90
        0
176
     1
290
     0
176
     1
 90
       13
176
     1
 40
0.0
176
     1
 90
        0
176
     1
290
     0
176
     1
290
     1
176
     1
290
     1
176
     1
290
     0
176
     1
290
     0
176
     1
290
     0
176
     1
290
     0
176
     1
290
     0
176
     1
290
     0
176
     1
 90
       50
176
     1
 40
0.0
176
     1
 40
1.0
176
     1
 90
        0
176
     1
 62
    18
420
        0
176
     1
 90
       50
176
     1
 90
        3
176
     1
 62
     5
420
      255
176
     1
290
     0
176
     1
 90
       50
176
     1
 90
       50
176
     1
 90
       50
176
     1
290
     0
176
     1
 90
       50
176
     1
 62
   256
176
     0
 40
1.0
176
     0
 90
        2
176
     1
  1
strokes_ogs.tif
176
     1
290
     0
176
     1
 40
1.0
176
     1
 40
1.0
176
     1
  0
VISUALSTYLE
  5
2C
102
{ACAD_REACTORS
330
29
102
}
330
29
100
AcDbVisualStyle
  2
Gouraud
 70
     2
177
     3
291
     1
 70
    58
 90
        2
176
     1
 90
        2
176
     1
 90
        1
176
     1
 90
        2
176
     1
 40
0.6
176
     1
 40
30.0
176
     1
 62
     7
420
 16777215
176
     1
 90
        0
176
     1
 90
        0
176
     1
 62
     7
176
     1
 62
   257
176
     1
 90
        1
176
     1
 90
        1
176
     1
 40
1.0
176
     1
 90
        0
176
     1
 62
     7
176
     1
 40
1.0
176
     1
 90
        1
176
     1
 90
        6
176
     1
 90
        2
176
     1
 62
     7
176
     1
 90
        5
176
     1
 90
        0
176
     1
 90
        0
176
     1
290
     0
176
     1
 90
       13
176
     1
 40
0.0
176
     1
 90
        0
176
     1
290
     0
176
     1
290
     1
176
     1
290
     1
176
     1
290
     0
176
     1
290
     0
176
     1
290
     0
176
     1
290
     0
176
     1
290
     0
176
     1
290
     0
176
     1
 90
       50
176
     1
 40
0.0
176
     1
 40
1.0
176
     1
 90
        0
176
     1
 62
    18
420
        0
176
     1
 90
       50
176
     1
 90
        3
176
     1
 62
     5
420
      255
176
     1
290
     0
176
     1
 90
       50
176
     1
 90
       50
176
     1
 90
       50
176
     1
290
     0
176
     1
 90
       50
176
     1
 62
   256
176
     0
 40
1.0
176
     0
 90
        2
176
     1
  1
strokes_ogs.tif
176
     1
290
     0
176
     1
 40
1.0
176
     1
 40
1.0
176
     1
  0
VISUALSTYLE
  5
2D
102
{ACAD_REACTORS
330
29
102
}
330
29
100
AcDbVisualStyle
  2
GouraudWithEdges
 70
     3
177
     3
291
     1
 70
    58
 90
        2
176
     1
 90
        2
176
     1
 90
        1
176
     1
 90
        2
176
     1
 40
0.6
176
     1
 40
30.0
176
     1
 62
     7
420
 16777215
176
     1
 90
        1
176
     1
 90
        0
176
     1
 62
     7
176
     1
 62
   257
176
     1
 90
        1
176
     1
 90
        1
176
     1
 40
1.0
176
     1
 90
        0
176
     1
 62
   257
176
     1
 40
1.0
176
     1
 90
        1
176
     1
 90
        6
176
     1
 90
        2
176
     1
 62
     7
176
     1
 90
        5
176
     1
 90
        0
176
     1
 90
        0
176
     1
290
     0
176
     1
 90
       13
176
     1
 40
0.0
176
     1
 90
        0
176
     1
290
     0
176
     1
290
     1
176
     1
290
     1
176
     1
290
     0
176
     1
290
     0
176
     1
290
     0
176
     1
290
     0
176
     1
290
     0
176
     1
290
     0
176
     1
 90
       50
176
     1
 40
0.0
176
     1
 40
1.0
176
     1
 90
        0
176
     1
 62
    18
420
        0
176
     1
 90
       50
176
     1
 90
        3
176
     1
 62
     5
420
      255
176
     1
290
     0
176
     1
 90
       50
176
     1
 90
       50
176
     1
 90
       50
176
     1
290
     0
176
     1
 90
       50
176
     1
 62
   256
176
     0
 40
1.0
176
     0
 90
        2
176
     1
  1
strokes_ogs.tif
176
     1
290
     0
176
     1
 40
1.0
176
     1
 40
1.0
176
     1
  0
VISUALSTYLE
  5
31
102
{ACAD_REACTORS
330
29
102
}
330
29
100
AcDbVisualStyle
  2
Hidden
 70
     6
177
     3
291
     0
 70
    58
 90
        1
176
     1
 90
        2
176
     1
 90
        2
176
     1
 90
        0
176
     1
 40
0.6
176
     1
 40
30.0
176
     1
 62
     7
420
 16777215
176
     1
 90
        2
176
     1
 90
        2
176
     1
 62
     7
176
     1
 62
   257
176
     1
 90
        2
176
     1
 90
        1
176
     1
 40
40.0
176
     1
 90
        0
176
     1
 62
   257
176
     1
 40
1.0
176
     1
 90
        1
176
     1
 90
        6
176
     1
 90
        2
176
     1
 62
     7
176
     1
 90
        3
176
     1
 90
        0
176
     1
 90
        0
176
     1
290
     0
176
     1
 90
        1
176
     1
 40
0.0
176
     1
 90
        0
176
     1
290
     0
176
     1
290
     1
176
     1
290
     1
176
     1
290
     0
176
     1
290
     0
176
     1
290
     0
176
     1
290
     0
176
     1
290
     0
176
     1
290
     0
176
     1
 90
       50
176
     1
 40
0.0
176
     1
 40
1.0
176
     1
 90
        0
176
     1
 62
    18
420
        0
176
     1
 90
       50
176
     1
 90
        3
176
     1
 62
     5
420
      255
176
     1
290
     0
176
     1
 90
       50
176
     1
 90
       50
176
     1
 90
       50
176
     1
290
     0
176
     1
 90
       50
176
     1
 62
   256
176
     0
 40
1.0
176
     0
 90
        2
176
     1
  1
strokes_ogs.tif
176
     1
290
     0
176
     1
 40
1.0
176
     1
 40
1.0
176
     1
  0
VISUALSTYLE
  5
3F
102
{ACAD_REACTORS
330
29
102
}
330
29
100
AcDbVisualStyle
  2
JitterOff
 70
    20
177
     3
291
     1
 70
    58
 90
        2
176
     0
 90
        2
176
     0
 90
        0
176
     0
 90
        0
176
     0
 40
0.6
176
     0
 40
30.0
176
     0
 62
     7
420
 16777215
176
     0
 90
        1
176
     0
 90
        4
176
     0
 62
     7
176
     0
 62
   257
176
     0
 90
        1
176
     0
 90
        1
176
     0
 40
1.0
176
     0
 90
       10
176
     2
 62
     7
176
     0
 40
1.0
176
     0
 90
        1
176
     0
 90
        6
176
     0
 90
        2
176
     0
 62
     7
176
     0
 90
        5
176
     0
 90
        0
176
     0
 90
        0
176
     0
290
     0
176
     0
 90
        1
176
     0
 40
0.0
176
     0
 90
        0
176
     0
290
     0
176
     0
290
     1
176
     0
290
     1
176
     0
290
     0
176
     0
290
     0
176
     0
290
     0
176
     0
290
     0
176
     0
290
     0
176
     0
290
     0
176
     0
 90
       50
176
     0
 40
0.0
176
     0
 40
1.0
176
     0
 90
        0
176
     0
 62
    18
420
        0
176
     0
 90
       50
176
     0
 90
        3
176
     0
 62
     5
420
      255
176
     0
290
     0
176
     0
 90
       50
176
     0
 90
       50
176
     0
 90
       50
176
     0
290
     0
176
     0
 90
       50
176
     0
 62
   256
176
     0
 40
1.0
176
     0
 90
        2
176
     0
  1
strokes_ogs.tif
176
     0
290
     0
176
     0
 40
1.0
176
     0
 40
1.0
176
     0
  0
VISUALSTYLE
  5
37
102
{ACAD_REACTORS
330
29
102
}
330
29
100
AcDbVisualStyle
  2
Linepattern
 70
    14
177
     3
291
     1
 70
    58
 90
        2
176
     1
 90
        2
176
     1
 90
        0
176
     1
 90
        0
176
     1
 40
0.6
176
     1
 40
30.0
176
     1
 62
     7
420
 16777215
176
     1
 90
        1
176
     1
 90
        4
176
     1
 62
     7
176
     1
 62
   257
176
     1
 90
        7
176
     1
 90
        7
176
     1
 40
1.0
176
     1
 90
        8
176
     1
 62
     7
176
     1
 40
1.0
176
     1
 90
        1
176
     1
 90
        6
176
     1
 90
        2
176
     1
 62
     7
176
     1
 90
        5
176
     1
 90
        0
176
     1
 90
        0
176
     1
290
     0
176
     1
 90
        1
176
     1
 40
0.0
176
     1
 90
        0
176
     1
290
     0
176
     1
290
     1
176
     1
290
     1
176
     1
290
     0
176
     1
290
     0
176
     1
290
     0
176
     1
290
     0
176
     1
290
     0
176
     1
290
     0
176
     1
 90
       50
176
     1
 40
0.0
176
     1
 40
1.0
176
     1
 90
        0
176
     1
 62
    18
420
        0
176
     1
 90
       50
176
     1
 90
        3
176
     1
 62
     5
420
      255
176
     1
290
     0
176
     1
 90
       50
176
     1
 90
       50
176
     1
 90
       50
176
     1
290
     0
176
     1
 90
       50
176
     1
 62
   256
176
     0
 40
1.0
176
     0
 90
        2
176
     1
  1
strokes_ogs.tif
176
     1
290
     0
176
     1
 40
1.0
176
     1
 40
1.0
176
     1
  0
VISUALSTYLE
  5
40
102
{ACAD_REACTORS
330
29
102
}
330
29
100
AcDbVisualStyle
  2
OverhangOff
 70
    21
177
     3
291
     1
 70
    58
 90
        2
176
     0
 90
        2
176
     0
 90
        0
176
     0
 90
        0
176
     0
 40
0.6
176
     0
 40
30.0
176
     0
 62
     7
420
 16777215
176
     0
 90
        1
176
     0
 90
        4
176
     0
 62
     7
176
     0
 62
   257
176
     0
 90
        1
176
     0
 90
        1
176
     0
 40
1.0
176
     0
 90
        9
176
     2
 62
     7
176
     0
 40
1.0
176
     0
 90
        1
176
     0
 90
        6
176
     0
 90
        2
176
     0
 62
     7
176
     0
 90
        5
176
     0
 90
        0
176
     0
 90
        0
176
     0
290
     0
176
     0
 90
        1
176
     0
 40
0.0
176
     0
 90
        0
176
     0
290
     0
176
     0
290
     1
176
     0
290
     1
176
     0
290
     0
176
     0
290
     0
176
     0
290
     0
176
     0
290
     0
176
     0
290
     0
176
     0
290
     0
176
     0
 90
       50
176
     0
 40
0.0
176
     0
 40
1.0
176
     0
 90
        0
176
     0
 62
    18
420
        0
176
     0
 90
       50
176
     0
 90
        3
176
     0
 62
     5
420
      255
176
     0
290
     0
176
     0
 90
       50
176
     0
 90
       50
176
     0
 90
       50
176
     0
290
     0
176
     0
 90
       50
176
     0
 62
   256
176
     0
 40
1.0
176
     0
 90
        2
176
     0
  1
strokes_ogs.tif
176
     0
290
     0
176
     0
 40
1.0
176
     0
 40
1.0
176
     0
  0
VISUALSTYLE
  5
33
102
{ACAD_REACTORS
330
29
102
}
330
29
100
AcDbVisualStyle
  2
Realistic
 70
     8
177
     3
291
     0
 70
    58
 90
        2
176
     1
 90
        3
176
     1
 90
        0
176
     1
 90
        2
176
     1
 40
0.6
176
     1
 40
30.0
176
     1
 62
     7
420
 16777215
176
     1
 90
        0
176
     1
 90
        0
176
     1
 62
     7
176
     1
 62
   257
176
     1
 90
        1
176
     1
 90
        1
176
     1
 40
1.0
176
     1
 90
        8
176
     1
 62
   257
176
     1
 40
1.0
176
     1
 90
        1
176
     1
 90
        6
176
     1
 90
        2
176
     1
 62
     7
176
     1
 90
        3
176
     1
 90
        0
176
     1
 90
        0
176
     1
290
     0
176
     1
 90
       13
176
     1
 40
0.0
176
     1
 90
        0
176
     1
290
     0
176
     1
290
     1
176
     1
290
     1
176
     1
290
     0
176
     1
290
     0
176
     1
290
     0
176
     1
290
     0
176
     1
290
     0
176
     1
290
     0
176
     1
 90
       50
176
     1
 40
0.0
176
     1
 40
1.0
176
     1
 90
        0
176
     1
 62
    18
420
        0
176
     1
 90
       50
176
     1
 90
        3
176
     1
 62
     5
420
      255
176
     1
290
     0
176
     1
 90
       50
176
     1
 90
       50
176
     1
 90
       50
176
     1
290
     0
176
     1
 90
       50
176
     1
 62
   256
176
     0
 40
1.0
176
     0
 90
        2
176
     1
  1
strokes_ogs.tif
176
     1
290
     0
176
     1
 40
1.0
176
     1
 40
1.0
176
     1
  0
VISUALSTYLE
  5
3E
102
{ACAD_REACTORS
330
29
102
}
330
29
100
AcDbVisualStyle
  2
Shaded
 70
    27
177
     3
291
     0
 70
    58
 90
        2
176
     1
 90
        2
176
     1
 90
        1
176
     1
 90
        2
176
     1
 40
0.6
176
     1
 40
30.0
176
     1
 62
     7
420
 16777215
176
     1
 90
        0
176
     1
 90
        4
176
     1
 62
     7
176
     1
 62
   257
176
     1
 90
        1
176
     1
 90
        1
176
     1
 40
1.0
176
     1
 90
        8
176
     1
 62
   257
176
     1
 40
1.0
176
     1
 90
        1
176
     1
 90
        6
176
     1
 90
        2
176
     1
 62
     8
420
  7895160
176
     1
 90
        3
176
     1
 90
        0
176
     1
 90
        0
176
     1
290
     0
176
     1
 90
        5
176
     1
 40
0.0
176
     1
 90
        0
176
     1
290
     0
176
     1
290
     1
176
     1
290
     1
176
     1
290
     0
176
     1
290
     0
176
     1
290
     0
176
     1
290
     0
176
     1
290
     0
176
     1
290
     0
176
     1
 90
       50
176
     1
 40
0.0
176
     1
 40
1.0
176
     1
 90
        0
176
     1
 62
    18
420
        0
176
     1
 90
       50
176
     1
 90
        3
176
     1
 62
     5
420
      255
176
     1
290
     0
176
     1
 90
       50
176
     1
 90
       50
176
     1
 90
       50
176
     1
290
     0
176
     1
 90
       50
176
     1
 62
   256
176
     0
 40
1.0
176
     0
 90
        2
176
     1
  1
strokes_ogs.tif
176
     1
290
     0
176
     1
 40
1.0
176
     1
 40
1.0
176
     1
  0
VISUALSTYLE
  5
3D
102
{ACAD_REACTORS
330
29
102
}
330
29
100
AcDbVisualStyle
  2
Shaded with edges
 70
    26
177
     3
291
     0
 70
    58
 90
        2
176
     1
 90
        2
176
     1
 90
        1
176
     1
 90
        2
176
     1
 40
0.6
176
     1
 40
30.0
176
     1
 62
     7
420
 16777215
176
     1
 90
        1
176
     1
 90
        2
176
     1
 62
     7
176
     1
 62
   257
176
     1
 90
        2
176
     1
 90
        1
176
     1
 40
1.0
176
     1
 90
        8
176
     1
 62
   257
176
     1
 40
1.0
176
     1
 90
        1
176
     1
 90
        6
176
     1
 90
        2
176
     1
 62
     7
176
     1
 90
        3
176
     1
 90
        0
176
     1
 90
        0
176
     1
290
     0
176
     1
 90
        5
176
     1
 40
0.0
176
     1
 90
        0
176
     1
290
     0
176
     1
290
     1
176
     1
290
     1
176
     1
290
     0
176
     1
290
     0
176
     1
290
     0
176
     1
290
     0
176
     1
290
     0
176
     1
290
     0
176
     1
 90
       50
176
     1
 40
0.0
176
     1
 40
1.0
176
     1
 90
        0
176
     1
 62
    18
420
        0
176
     1
 90
       50
176
     1
 90
        3
176
     1
 62
     5
420
      255
176
     1
290
     0
176
     1
 90
       50
176
     1
 90
       50
176
     1
 90
       50
176
     1
290
     0
176
     1
 90
       50
176
     1
 62
   256
176
     0
 40
1.0
176
     0
 90
        2
176
     1
  1
strokes_ogs.tif
176
     1
290
     0
176
     1
 40
1.0
176
     1
 40
1.0
176
     1
  0
VISUALSTYLE
  5
3A
102
{ACAD_REACTORS
330
29
102
}
330
29
100
AcDbVisualStyle
  2
Shades of Gray
 70
    23
177
     3
291
     0
 70
    58
 90
        2
176
     1
 90
        2
176
     1
 90
        3
176
     1
 90
        0
176
     1
 40
0.6
176
     1
 40
30.0
176
     1
 62
     7
420
 16777215
176
     1
 90
        2
176
     1
 90
        2
176
     1
 62
     7
176
     1
 62
     7
176
     1
 90
        1
176
     1
 90
        1
176
     1
 40
40.0
176
     1
 90
        8
176
     1
 62
     7
176
     1
 40
1.0
176
     1
 90
        1
176
     1
 90
        6
176
     1
 90
        2
176
     1
 62
     7
176
     1
 90
        3
176
     1
 90
        0
176
     1
 90
        0
176
     1
290
     0
176
     1
 90
        1
176
     1
 40
0.0
176
     1
 90
        0
176
     1
290
     0
176
     1
290
     1
176
     1
290
     1
176
     1
290
     0
176
     1
290
     0
176
     1
290
     0
176
     1
290
     0
176
     1
290
     0
176
     1
290
     0
176
     1
 90
       50
176
     1
 40
0.0
176
     1
 40
1.0
176
     1
 90
        0
176
     1
 62
    18
420
        0
176
     1
 90
       50
176
     1
 90
        3
176
     1
 62
     5
420
      255
176
     1
290
     0
176
     1
 90
       50
176
     1
 90
       50
176
     1
 90
       50
176
     1
290
     0
176
     1
 90
       50
176
     1
 62
   256
176
     0
 40
1.0
176
     0
 90
        2
176
     1
  1
strokes_ogs.tif
176
     1
290
     0
176
     1
 40
1.0
176
     1
 40
1.0
176
     1
  0
VISUALSTYLE
  5
3B
102
{ACAD_REACTORS
330
29
102
}
330
29
100
AcDbVisualStyle
  2
Sketchy
 70
    24
177
     3
291
     0
 70
    58
 90
        1
176
     1
 90
        2
176
     1
 90
        2
176
     1
 90
        0
176
     1
 40
0.6
176
     1
 40
30.0
176
     1
 62
     7
420
 16777215
176
     1
 90
        2
176
     1
 90
        2
176
     1
 62
     7
176
     1
 62
     7
176
     1
 90
        1
176
     1
 90
        1
176
     1
 40
40.0
176
     1
 90
       11
176
     1
 62
     7
176
     1
 40
1.0
176
     1
 90
        1
176
     1
 90
        6
176
     1
 90
        2
176
     1
 62
     7
176
     1
 90
        6
176
     1
 90
        0
176
     1
 90
        0
176
     1
290
     0
176
     1
 90
        1
176
     1
 40
0.0
176
     1
 90
        0
176
     1
290
     0
176
     1
290
     1
176
     1
290
     1
176
     1
290
     0
176
     1
290
     0
176
     1
290
     0
176
     1
290
     0
176
     1
290
     0
176
     1
290
     0
176
     1
 90
       50
176
     1
 40
0.0
176
     1
 40
1.0
176
     1
 90
        0
176
     1
 62
    18
420
        0
176
     1
 90
       50
176
     1
 90
        3
176
     1
 62
     5
420
      255
176
     1
290
     0
176
     1
 90
       50
176
     1
 90
       50
176
     1
 90
       50
176
     1
290
     0
176
     1
 90
       50
176
     1
 62
   256
176
     0
 40
1.0
176
     0
 90
        2
176
     1
  1
strokes_ogs.tif
176
     1
290
     0
176
     1
 40
1.0
176
     1
 40
1.0
176
     1
  0
VISUALSTYLE
  5
36
102
{ACAD_REACTORS
330
29
102
}
330
29
100
AcDbVisualStyle
  2
Thicken
 70
    13
177
     3
291
     1
 70
    58
 90
        2
176
     1
 90
        2
176
     1
 90
        0
176
     1
 90
        0
176
     1
 40
0.6
176
     1
 40
30.0
176
     1
 62
     7
420
 16777215
176
     1
 90
        1
176
     1
 90
        4
176
     1
 62
     7
176
     1
 62
   257
176
     1
 90
        1
176
     1
 90
        1
176
     1
 40
1.0
176
     1
 90
       12
176
     1
 62
     7
176
     1
 40
1.0
176
     1
 90
        1
176
     1
 90
        6
176
     1
 90
        2
176
     1
 62
     7
176
     1
 90
        5
176
     1
 90
        0
176
     1
 90
        0
176
     1
290
     0
176
     1
 90
        1
176
     1
 40
0.0
176
     1
 90
        0
176
     1
290
     0
176
     1
290
     1
176
     1
290
     1
176
     1
290
     0
176
     1
290
     0
176
     1
290
     0
176
     1
290
     0
176
     1
290
     0
176
     1
290
     0
176
     1
 90
       50
176
     1
 40
0.0
176
     1
 40
1.0
176
     1
 90
        0
176
     1
 62
    18
420
        0
176
     1
 90
       50
176
     1
 90
        3
176
     1
 62
     5
420
      255
176
     1
290
     0
176
     1
 90
       50
176
     1
 90
       50
176
     1
 90
       50
176
     1
290
     0
176
     1
 90
       50
176
     1
 62
   256
176
     0
 40
1.0
176
     0
 90
        2
176
     1
  1
strokes_ogs.tif
176
     1
290
     0
176
     1
 40
1.0
176
     1
 40
1.0
176
     1
  0
VISUALSTYLE
  5
30
102
{ACAD_REACTORS
330
29
102
}
330
29
100
AcDbVisualStyle
  2
Wireframe
 70
     5
177
     3
291
     0
 70
    58
 90
        0
176
     1
 90
        2
176
     1
 90
        0
176
     1
 90
        0
176
     1
 40
0.6
176
     1
 40
30.0
176
     1
 62
     7
420
 16777215
176
     1
 90
        1
176
     1
 90
        4
176
     1
 62
     7
176
     1
 62
   257
176
     1
 90
        1
176
     1
 90
        1
176
     1
 40
1.0
176
     1
 90
        0
176
     1
 62
   257
176
     1
 40
1.0
176
     1
 90
        1
176
     1
 90
        6
176
     1
 90
        2
176
     1
 62
     7
176
     1
 90
        3
176
     1
 90
        0
176
     1
 90
        0
176
     1
290
     0
176
     1
 90
        1
176
     1
 40
0.0
176
     1
 90
        0
176
     1
290
     0
176
     1
290
     1
176
     1
290
     1
176
     1
290
     0
176
     1
290
     0
176
     1
290
     0
176
     1
290
     0
176
     1
290
     0
176
     1
290
     0
176
     1
 90
       50
176
     1
 40
0.0
176
     1
 40
1.0
176
     1
 90
        0
176
     1
 62
    18
420
        0
176
     1
 90
       50
176
     1
 90
        3
176
     1
 62
     5
420
      255
176
     1
290
     0
176
     1
 90
       50
176
     1
 90
       50
176
     1
 90
       50
176
     1
290
     0
176
     1
 90
       50
176
     1
 62
   256
176
     0
 40
1.0
176
     0
 90
        2
176
     1
  1
strokes_ogs.tif
176
     1
290
     0
176
     1
 40
1.0
176
     1
 40
1.0
176
     1
  0
VISUALSTYLE
  5
3C
102
{ACAD_REACTORS
330
29
102
}
330
29
100
AcDbVisualStyle
  2
X-Ray
 70
    25
177
     3
291
     0
 70
    58
 90
        2
176
     1
 90
        2
176
     1
 90
        1
176
     1
 90
        1
176
     1
 40
0.5
176
     1
 40
30.0
176
     1
 62
     7
420
 16777215
176
     1
 90
        1
176
     1
 90
        0
176
     1
 62
     7
176
     1
 62
   257
176
     1
 90
        1
176
     1
 90
        1
176
     1
 40
1.0
176
     1
 90
        8
176
     1
 62
     7
176
     1
 40
1.0
176
     1
 90
        1
176
     1
 90
        6
176
     1
 90
        2
176
     1
 62
     7
176
     1
 90
        3
176
     1
 90
        0
176
     1
 90
        0
176
     1
290
     0
176
     1
 90
       13
176
     1
 40
0.0
176
     1
 90
        0
176
     1
290
     0
176
     1
290
     1
176
     1
290
     1
176
     1
290
     0
176
     1
290
     0
176
     1
290
     0
176
     1
290
     0
176
     1
290
     0
176
     1
290
     0
176
     1
 90
       50
176
     1
 40
0.0
176
     1
 40
1.0
176
     1
 90
        0
176
     1
 62
    18
420
        0
176
     1
 90
       50
176
     1
 90
        3
176
     1
 62
     5
420
      255
176
     1
290
     0
176
     1
 90
       50
176
     1
 90
       50
176
     1
 90
       50
176
     1
290
     0
176
     1
 90
       50
176
     1
 62
   256
176
     0
 40
1.0
176
     0
 90
        2
176
     1
  1
strokes_ogs.tif
176
     1
290
     0
176
     1
 40
1.0
176
     1
 40
1.0
176
     1
  0
DICTIONARYVAR
  5
C7
102
{ACAD_REACTORS
330
C2
102
}
330
C2
100
DictionaryVariables
280
     0
  1
1:1
  0
DICTIONARYVAR
  5
C4
102
{ACAD_REACTORS
330
C2
102
}
330
C2
100
DictionaryVariables
280
     0
  1
STANDARD
  0
DICTIONARYVAR
  5
C3
102
{ACAD_REACTORS
330
C2
102
}
330
C2
100
DictionaryVariables
280
     0
  1
STANDARD
  0
DICTIONARYVAR
  5
C5
102
{ACAD_REACTORS
330
C2
102
}
330
C2
100
DictionaryVariables
280
     0
  1
Imperial24
  0
DICTIONARYVAR
  5
C6
102
{ACAD_REACTORS
330
C2
102
}
330
C2
100
DictionaryVariables
280
     0
  1
Imperial24
  0
DICTIONARY
  5
1A
330
19
100
AcDbDictionary
280
     1
281
     1
  3
BUMPTILE
360
1C
  3
DIFFUSETILE
360
1B
  3
OPACITYTILE
360
1F
  3
REFLECTIONTILE
360
1E
  3
REFRACTIONTILE
360
20
  3
SPECULARTILE
360
1D
  0
DICTIONARY
  5
12
330
11
100
AcDbDictionary
280
     1
281
     1
  3
BUMPTILE
360
14
  3
DIFFUSETILE
360
13
  3
OPACITYTILE
360
17
  3
REFLECTIONTILE
360
16
  3
REFRACTIONTILE
360
18
  3
SPECULARTILE
360
15
  0
DICTIONARY
  5
22
330
21
100
AcDbDictionary
280
     1
281
     1
  3
BUMPTILE
360
24
  3
DIFFUSETILE
360
23
  3
OPACITYTILE
360
27
  3
REFLECTIONTILE
360
26
  3
REFRACTIONTILE
360
28
  3
SPECULARTILE
360
25
  0
DICTIONARY
  5
C8
330
65
100
AcDbDictionary
280
     1
281
     1
  3
ACAD_ROUNDTRIP_2008_TABLESTYLE_CELLSTYLEMAP
360
C9
  0
XRECORD
  5
1C
102
{ACAD_REACTORS
330
1A
102
}
330
1A
100
AcDbXrecord
280
     1
270
     1
271
     1
  0
XRECORD
  5
1B
102
{ACAD_REACTORS
330
1A
102
}
330
1A
100
AcDbXrecord
280
     1
270
     1
271
     1
  0
XRECORD
  5
1F
102
{ACAD_REACTORS
330
1A
102
}
330
1A
100
AcDbXrecord
280
     1
270
     1
271
     1
  0
XRECORD
  5
1E
102
{ACAD_REACTORS
330
1A
102
}
330
1A
100
AcDbXrecord
280
     1
270
     1
271
     1
  0
XRECORD
  5
20
102
{ACAD_REACTORS
330
1A
102
}
330
1A
100
AcDbXrecord
280
     1
270
     1
271
     1
  0
XRECORD
  5
1D
102
{ACAD_REACTORS
330
1A
102
}
330
1A
100
AcDbXrecord
280
     1
270
     1
271
     1
  0
XRECORD
  5
14
102
{ACAD_REACTORS
330
12
102
}
330
12
100
AcDbXrecord
280
     1
270
     1
271
     1
  0
XRECORD
  5
13
102
{ACAD_REACTORS
330
12
102
}
330
12
100
AcDbXrecord
280
     1
270
     1
271
     1
  0
XRECORD
  5
17
102
{ACAD_REACTORS
330
12
102
}
330
12
100
AcDbXrecord
280
     1
270
     1
271
     1
  0
XRECORD
  5
16
102
{ACAD_REACTORS
330
12
102
}
330
12
100
AcDbXrecord
280
     1
270
     1
271
     1
  0
XRECORD
  5
18
102
{ACAD_REACTORS
330
12
102
}
330
12
100
AcDbXrecord
280
     1
270
     1
271
     1
  0
XRECORD
  5
15
102
{ACAD_REACTORS
330
12
102
}
330
12
100
AcDbXrecord
280
     1
270
     1
271
     1
  0
XRECORD
  5
24
102
{ACAD_REACTORS
330
22
102
}
330
22
100
AcDbXrecord
280
     1
270
     1
271
     1
  0
XRECORD
  5
23
102
{ACAD_REACTORS
330
22
102
}
330
22
100
AcDbXrecord
280
     1
270
     1
271
     1
  0
XRECORD
  5
27
102
{ACAD_REACTORS
330
22
102
}
330
22
100
AcDbXrecord
280
     1
270
     1
271
     1
  0
XRECORD
  5
26
102
{ACAD_REACTORS
330
22
102
}
330
22
100
AcDbXrecord
280
     1
270
     1
271
     1
  0
XRECORD
  5
28
102
{ACAD_REACTORS
330
22
102
}
330
22
100
AcDbXrecord
280
     1
270
     1
271
     1
  0
XRECORD
  5
25
102
{ACAD_REACTORS
330
22
102
}
330
22
100
AcDbXrecord
280
     1
270
     1
271
     1
  0
CELLSTYLEMAP
  5
C9
102
{ACAD_REACTORS
330
C8
102
}
330
C8
100
AcDbCellStyleMap
 90
        3
300
CELLSTYLE
  1
TABLEFORMAT_BEGIN
 90
        5
170
     1
 91
        0
 92
    32768
 62
   257
 93
        1
300
CONTENTFORMAT
  1
CONTENTFORMAT_BEGIN
 90
        0
 91
        0
 92
      512
 93
        0
300

 40
0.0
140
1.0
 94
        5
 62
     0
340
55
144
0.25
309
CONTENTFORMAT_END
171
     0
 94
        0
309
TABLEFORMAT_END
  1
CELLSTYLE_BEGIN
 90
        1
 91
        1
300
_TITLE
309
CELLSTYLE_END
300
CELLSTYLE
  1
TABLEFORMAT_BEGIN
 90
        5
170
     1
 91
        0
 92
        0
 62
   257
 93
        1
300
CONTENTFORMAT
  1
CONTENTFORMAT_BEGIN
 90
        0
 91
        0
 92
      512
 93
        0
300

 40
0.0
140
1.0
 94
        5
 62
     0
340
55
144
0.18
309
CONTENTFORMAT_END
171
     0
 94
        0
309
TABLEFORMAT_END
  1
CELLSTYLE_BEGIN
 90
        2
 91
        1
300
_HEADER
309
CELLSTYLE_END
300
CELLSTYLE
  1
TABLEFORMAT_BEGIN
 90
        5
170
     1
 91
        0
 92
        0
 62
   257
 93
        1
300
CONTENTFORMAT
  1
CONTENTFORMAT_BEGIN
 90
        0
 91
        0
 92
      512
 93
        0
300

 40
0.0
140
1.0
 94
        2
 62
     0
340
55
144
0.18
309
CONTENTFORMAT_END
171
     0
 94
        0
309
TABLEFORMAT_END
  1
CELLSTYLE_BEGIN
 90
        3
 91
        2
300
_DATA
309
CELLSTYLE_END
  0
ENDSEC
  0
EOF
