  0
SECTION
  2
HEADER
  9
$ACADVER
  1
AC1032
  9
$ACADMAINTVER
 90
      228
  9
$DWGCODEPAGE
  3
ANSI_1252
  9
$REQUIREDVERSIONS
160
                 0
  9
$INSBASE
 10
0.0
 20
0.0
 30
0.0
  9
$EXTMIN
 10
1.000000000000000E+20
 20
1.000000000000000E+20
 30
1.000000000000000E+20
  9
$EXTMAX
 10
-1.000000000000000E+20
 20
-1.000000000000000E+20
 30
-1.000000000000000E+20
  9
$LIMMIN
 10
0.0
 20
0.0
  9
$LIMMAX
 10
12.0
 20
9.0
  9
$ORTHOMODE
 70
     0
  9
$REGENMODE
 70
     1
  9
$FILLMODE
 70
     1
  9
$QTEXTMODE
 70
     0
  9
$MIRRTEXT
 70
     0
  9
$LTSCALE
 40
1.0
  9
$ATTMODE
 70
     1
  9
$TEXTSIZE
 40
0.2
  9
$TRACEWID
 40
0.05
  9
$TEXTSTYLE
  7
Standard
  9
$CLAYER
  8
0
  9
$CELTYPE
  6
ByLayer
  9
$CECOLOR
 62
   256
  9
$CELTSCALE
 40
1.0
  9
$DISPSILH
 70
     0
  9
$DIMSCALE
 40
1.0
  9
$DIMASZ
 40
0.18
  9
$DIMEXO
 40
0.0625
  9
$DIMDLI
 40
0.38
  9
$DIMRND
 40
0.0
  9
$DIMDLE
 40
0.0
  9
$DIMEXE
 40
0.18
  9
$DIMTP
 40
0.0
  9
$DIMTM
 40
0.0
  9
$DIMTXT
 40
0.18
  9
$DIMCEN
 40
0.09
  9
$DIMTSZ
 40
0.0
  9
$DIMTOL
 70
     0
  9
$DIMLIM
 70
     0
  9
$DIMTIH
 70
     1
  9
$DIMTOH
 70
     1
  9
$DIMSE1
 70
     0
  9
$DIMSE2
 70
     0
  9
$DIMTAD
 70
     0
  9
$DIMZIN
 70
     0
  9
$DIMBLK
  1

  9
$DIMASO
 70
     1
  9
$DIMSHO
 70
     1
  9
$DIMPOST
  1

  9
$DIMAPOST
  1

  9
$DIMALT
 70
     0
  9
$DIMALTD
 70
     2
  9
$DIMALTF
 40
25.4
  9
$DIMLFAC
 40
1.0
  9
$DIMTOFL
 70
     0
  9
$DIMTVP
 40
0.0
  9
$DIMTIX
 70
     0
  9
$DIMSOXD
 70
     0
  9
$DIMSAH
 70
     0
  9
$DIMBLK1
  1

  9
$DIMBLK2
  1

  9
$DIMSTYLE
  2
Standard
  9
$DIMCLRD
 70
     0
  9
$DIMCLRE
 70
     0
  9
$DIMCLRT
 70
     0
  9
$DIMTFAC
 40
1.0
  9
$DIMGAP
 40
0.09
  9
$DIMJUST
 70
     0
  9
$DIMSD1
 70
     0
  9
$DIMSD2
 70
     0
  9
$DIMTOLJ
 70
     1
  9
$DIMTZIN
 70
     0
  9
$DIMALTZ
 70
     0
  9
$DIMALTTZ
 70
     0
  9
$DIMUPT
 70
     0
  9
$DIMDEC
 70
     4
  9
$DIMTDEC
 70
     4
  9
$DIMALTU
 70
     2
  9
$DIMALTTD
 70
     2
  9
$DIMTXSTY
  7
Standard
  9
$DIMAUNIT
 70
     0
  9
$DIMADEC
 70
     0
  9
$DIMALTRND
 40
0.0
  9
$DIMAZIN
 70
     0
  9
$DIMDSEP
 70
    46
  9
$DIMATFIT
 70
     3
  9
$DIMFRAC
 70
     0
  9
$DIMLDRBLK
  1

  9
$DIMLUNIT
 70
     2
  9
$DIMLWD
 70
    -2
  9
$DIMLWE
 70
    -2
  9
$DIMTMOVE
 70
     0
  9
$DIMFXL
 40
1.0
  9
$DIMFXLON
 70
     0
  9
$DIMJOGANG
 40
0.7853981633974483
  9
$DIMTFILL
 70
     0
  9
$DIMTFILLCLR
 70
     0
  9
$DIMARCSYM
 70
     0
  9
$DIMLTYPE
  6

  9
$DIMLTEX1
  6

  9
$DIMLTEX2
  6

  9
$DIMTXTDIRECTION
 70
     0
  9
$LUNITS
 70
     2
  9
$LUPREC
 70
     4
  9
$SKETCHINC
 40
0.1
  9
$FILLETRAD
 40
0.0
  9
$AUNITS
 70
     0
  9
$AUPREC
 70
     0
  9
$MENU
  1
.
  9
$ELEVATION
 40
0.0
  9
$PELEVATION
 40
0.0
  9
$THICKNESS
 40
0.0
  9
$LIMCHECK
 70
     0
  9
$CHAMFERA
 40
0.0
  9
$CHAMFERB
 40
0.0
  9
$CHAMFERC
 40
0.0
  9
$CHAMFERD
 40
0.0
  9
$SKPOLY
 70
     0
  9
$TDCREATE
 40
2460145.751319444
  9
$TDUCREATE
 40
2460145.709652778
  9
$TDUPDATE
 40
2460145.751319444
  9
$TDUUPDATE
 40
2460145.709652778
  9
$TDINDWG
 40
0.0000000000
  9
$TDUSRTIMER
 40
0.0000000000
  9
$USRTIMER
 70
     1
  9
$ANGBASE
 50
0.0
  9
$ANGDIR
 70
     0
  9
$PDMODE
 70
     0
  9
$PDSIZE
 40
0.0
  9
$PLINEWID
 40
0.0
  9
$SPLFRAME
 70
     0
  9
$SPLINETYPE
 70
     6
  9
$SPLINESEGS
 70
     8
  9
$HANDSEED
  5
141
  9
$SURFTAB1
 70
     6
  9
$SURFTAB2
 70
     6
  9
$SURFTYPE
 70
     6
  9
$SURFU
 70
     6
  9
$SURFV
 70
     6
  9
$UCSBASE
  2

  9
$UCSNAME
  2

  9
$UCSORG
 10
0.0
 20
0.0
 30
0.0
  9
$UCSXDIR
 10
1.0
 20
0.0
 30
0.0
  9
$UCSYDIR
 10
0.0
 20
1.0
 30
0.0
  9
$UCSORTHOREF
  2

  9
$UCSORTHOVIEW
 70
     0
  9
$UCSORGTOP
 10
0.0
 20
0.0
 30
0.0
  9
$UCSORGBOTTOM
 10
0.0
 20
0.0
 30
0.0
  9
$UCSORGLEFT
 10
0.0
 20
0.0
 30
0.0
  9
$UCSORGRIGHT
 10
0.0
 20
0.0
 30
0.0
  9
$UCSORGFRONT
 10
0.0
 20
0.0
 30
0.0
  9
$UCSORGBACK
 10
0.0
 20
0.0
 30
0.0
  9
$PUCSBASE
  2

  9
$PUCSNAME
  2

  9
$PUCSORG
 10
0.0
 20
0.0
 30
0.0
  9
$PUCSXDIR
 10
1.0
 20
0.0
 30
0.0
  9
$PUCSYDIR
 10
0.0
 20
1.0
 30
0.0
  9
$PUCSORTHOREF
  2

  9
$PUCSORTHOVIEW
 70
     0
  9
$PUCSORGTOP
 10
0.0
 20
0.0
 30
0.0
  9
$PUCSORGBOTTOM
 10
0.0
 20
0.0
 30
0.0
  9
$PUCSORGLEFT
 10
0.0
 20
0.0
 30
0.0
  9
$PUCSORGRIGHT
 10
0.0
 20
0.0
 30
0.0
  9
$PUCSORGFRONT
 10
0.0
 20
0.0
 30
0.0
  9
$PUCSORGBACK
 10
0.0
 20
0.0
 30
0.0
  9
$USERI1
 70
     0
  9
$USERI2
 70
     0
  9
$USERI3
 70
     0
  9
$USERI4
 70
     0
  9
$USERI5
 70
     0
  9
$USERR1
 40
0.0
  9
$USERR2
 40
0.0
  9
$USERR3
 40
0.0
  9
$USERR4
 40
0.0
  9
$USERR5
 40
0.0
  9
$WORLDVIEW
 70
     1
  9
$SHADEDGE
 70
     3
  9
$SHADEDIF
 70
    70
  9
$TILEMODE
 70
     1
  9
$MAXACTVP
 70
    64
  9
$PINSBASE
 10
0.0
 20
0.0
 30
0.0
  9
$PLIMCHECK
 70
     0
  9
$PEXTMIN
 10
1.000000000000000E+20
 20
1.000000000000000E+20
 30
1.000000000000000E+20
  9
$PEXTMAX
 10
-1.000000000000000E+20
 20
-1.000000000000000E+20
 30
-1.000000000000000E+20
  9
$PLIMMIN
 10
0.0
 20
0.0
  9
$PLIMMAX
 10
12.0
 20
9.0
  9
$UNITMODE
 70
     0
  9
$VISRETAIN
 70
     1
  9
$PLINEGEN
 70
     0
  9
$PSLTSCALE
 70
     1
  9
$TREEDEPTH
 70
  3020
  9
$CMLSTYLE
  2
Standard
  9
$CMLJUST
 70
     0
  9
$CMLSCALE
 40
1.0
  9
$PROXYGRAPHICS
 70
     1
  9
$MEASUREMENT
 70
     0
  9
$CELWEIGHT
370
    -1
  9
$ENDCAPS
280
     0
  9
$JOINSTYLE
280
     0
  9
$LWDISPLAY
290
     1
  9
$INSUNITS
 70
     4
  9
$HYPERLINKBASE
  1

  9
$STYLESHEET
  1

  9
$XEDIT
290
     1
  9
$CEPSNTYPE
380
     0
  9
$PSTYLEMODE
290
     1
  9
$FINGERPRINTGUID
  2
{8025BDD2-F72B-C141-A1E5-23E7C976156D}
  9
$VERSIONGUID
  2
{55846956-F531-D143-9568-06809725BF01}
  9
$EXTNAMES
290
     1
  9
$PSVPSCALE
 40
0.0
  9
$OLESTARTUP
290
     0
  9
$SORTENTS
280
   127
  9
$INDEXCTL
280
     0
  9
$HIDETEXT
280
     1
  9
$XCLIPFRAME
280
     2
  9
$HALOGAP
280
     0
  9
$OBSCOLOR
 70
   257
  9
$OBSLTYPE
280
     0
  9
$INTERSECTIONDISPLAY
280
     0
  9
$INTERSECTIONCOLOR
 70
   257
  9
$DIMASSOC
280
     2
  9
$PROJECTNAME
  1

  9
$CAMERADISPLAY
290
     0
  9
$LENSLENGTH
 40
50.0
  9
$CAMERAHEIGHT
 40
0.0
  9
$STEPSPERSEC
 40
2.0
  9
$STEPSIZE
 40
6.0
  9
$3DDWFPREC
 40
2.0
  9
$PSOLWIDTH
 40
0.25
  9
$PSOLHEIGHT
 40
4.0
  9
$LOFTANG1
 40
1.570796326794896
  9
$LOFTANG2
 40
1.570796326794896
  9
$LOFTMAG1
 40
0.0
  9
$LOFTMAG2
 40
0.0
  9
$LOFTPARAM
 70
     7
  9
$LOFTNORMALS
280
     1
  9
$LATITUDE
 40
37.795
  9
$LONGITUDE
 40
-122.394
  9
$NORTHDIRECTION
 40
0.0
  9
$TIMEZONE
 70
 -8000
  9
$LIGHTGLYPHDISPLAY
280
     1
  9
$TILEMODELIGHTSYNCH
280
     1
  9
$CMATERIAL
347
11
  9
$SOLIDHIST
280
     0
  9
$SHOWHIST
280
     1
  9
$DWFFRAME
280
     2
  9
$DGNFRAME
280
     0
  9
$REALWORLDSCALE
290
     1
  9
$INTERFERECOLOR
 62
     1
  9
$INTERFEREOBJVS
345
33
  9
$INTERFEREVPVS
346
30
  9
$CSHADOW
280
     0
  9
$SHADOWPLANELOCATION
 40
0.0
  0
ENDSEC
  0
SECTION
  2
CLASSES
  0
CLASS
  1
ACDBDICTIONARYWDFLT
  2
AcDbDictionaryWithDefault
  3
ObjectDBX Classes
 90
        0
 91
        1
280
     0
281
     0
  0
CLASS
  1
MATERIAL
  2
AcDbMaterial
  3
ObjectDBX Classes
 90
     1153
 91
        3
280
     0
281
     0
  0
CLASS
  1
VISUALSTYLE
  2
AcDbVisualStyle
  3
ObjectDBX Classes
 90
     4095
 91
       24
280
     0
281
     0
  0
CLASS
  1
SCALE
  2
AcDbScale
  3
ObjectDBX Classes
 90
     1153
 91
       17
280
     0
281
     0
  0
CLASS
  1
TABLESTYLE
  2
AcDbTableStyle
  3
ObjectDBX Classes
 90
     4095
 91
        1
280
     0
281
     0
  0
CLASS
  1
MLEADERSTYLE
  2
AcDbMLeaderStyle
  3
ACDB_MLEADERSTYLE_CLASS
 90
     4095
 91
        1
280
     0
281
     0
  0
CLASS
  1
ACDBSECTIONVIEWSTYLE
  2
AcDbSectionViewStyle
  3
ObjectDBX Classes
 90
     1025
 91
        1
280
     0
281
     0
  0
CLASS
  1
ACDBDETAILVIEWSTYLE
  2
AcDbDetailViewStyle
  3
ObjectDBX Classes
 90
     1025
 91
        1
280
     0
281
     0
  0
CLASS
  1
DICTIONARYVAR
  2
AcDbDictionaryVar
  3
ObjectDBX Classes
 90
        0
 91
        5
280
     0
281
     0
  0
CLASS
  1
CELLSTYLEMAP
  2
AcDbCellStyleMap
  3
ObjectDBX Classes
 90
     1152
 91
        1
280
     0
281
     0
  0
ENDSEC
  0
SECTION
  2
TABLES
  0
TABLE
  2
VPORT
  5
8
330
0
100
AcDbSymbolTable
 70
     1
  0
VPORT
  5
57
330
8
100
AcDbSymbolTableRecord
100
AcDbViewportTableRecord
  2
*Active
 70
     0
 10
0.0
 20
0.0
 11
1.0
 21
1.0
 12
0.0
 22
0.0
 13
0.0
 23
0.0
 14
1.0
 24
1.0
 15
0.0
 25
0.0
 16
0.0
 26
0.0
 36
1.0
 17
49.99999998749986
 27
-49.99999998749986
 37
0.0
 40
101.9999999744997
 41
1.0
 42
50.0
 43
0.0
 44
0.0
 50
0.0
 51
0.0
 71
     0
 72
   100
 73
     1
 74
     1
 75
     0
 76
     0
 77
     0
 78
     0
281
     0
 65
     1
110
0.0
120
0.0
130
0.0
111
1.0
121
0.0
131
0.0
112
0.0
122
1.0
132
0.0
 79
     0
146
0.0
 60
     3
 61
     5
292
     1
282
     1
141
0.0
142
0.0
 63
   250
421
  3355443
  0
ENDTAB
  0
TABLE
  2
LTYPE
  5
5
330
0
100
AcDbSymbolTable
 70
     2
  0
LTYPE
  5
5B
330
5
100
AcDbSymbolTableRecord
100
AcDbLinetypeTableRecord
  2
ByBlock
 70
     0
  3

 72
    65
 73
     0
 40
0.0
  0
LTYPE
  5
5C
330
5
100
AcDbSymbolTableRecord
100
AcDbLinetypeTableRecord
  2
ByLayer
 70
     0
  3

 72
    65
 73
     0
 40
0.0
  0
LTYPE
  5
5D
330
5
100
AcDbSymbolTableRecord
100
AcDbLinetypeTableRecord
  2
Continuous
 70
     0
  3
Solid line
 72
    65
 73
     0
 40
0.0
  0
LTYPE
  5
135
330
5
100
AcDbSymbolTableRecord
100
AcDbLinetypeTableRecord
  2
AI-Linetype-0
 70
     0
  3
Adobe Illustrator Linetype No. 0
 72
    65
 73
     2
 40
2.1166666661375
 49
1.05833333306875
 74
     0
 49
-1.05833333306875
 74
     0
  0
ENDTAB
  0
TABLE
  2
LAYER
  5
2
330
0
100
AcDbSymbolTable
 70
     2
  0
LAYER
  5
54
330
2
100
AcDbSymbolTableRecord
100
AcDbLayerTableRecord
  2
0
 70
     0
 62
     7
  6
Continuous
370
    -3
390
F
347
21
348
0
  0
LAYER
  5
78
330
2
100
AcDbSymbolTableRecord
100
AcDbLayerTableRecord
  2
Camada 1
 70
     0
 62
     7
  6
Continuous
370
     0
390
F
347
21
348
0
  0
ENDTAB
  0
TABLE
  2
STYLE
  5
3
330
0
100
AcDbSymbolTable
 70
     2
  0
STYLE
  5
55
330
3
100
AcDbSymbolTableRecord
100
AcDbTextStyleTableRecord
  2
Standard
 70
     0
 40
0.0
 41
1.0
 50
0.0
 71
     0
 42
0.2
  3
txt
  4

  0
STYLE
  5
5A
330
3
100
AcDbSymbolTableRecord
100
AcDbTextStyleTableRecord
  2
Annotative
 70
     0
 40
0.0
 41
1.0
 50
0.0
 71
     0
 42
0.2
  3
txt
  4

1001
AcadAnnotative
1000
AnnotativeData
1002
{
1070
     1
1070
     1
1002
}
  0
ENDTAB
  0
TABLE
  2
VIEW
  5
6
330
0
100
AcDbSymbolTable
 70
     0
  0
ENDTAB
  0
TABLE
  2
UCS
  5
7
330
0
100
AcDbSymbolTable
 70
     0
  0
ENDTAB
  0
TABLE
  2
APPID
  5
9
330
0
100
AcDbSymbolTable
 70
     2
  0
APPID
  5
56
330
9
100
AcDbSymbolTableRecord
100
AcDbRegAppTableRecord
  2
ACAD
 70
     0
  0
APPID
  5
5E
330
9
100
AcDbSymbolTableRecord
100
AcDbRegAppTableRecord
  2
AcadAnnotative
 70
     0
  0
ENDTAB
  0
TABLE
  2
DIMSTYLE
  5
A
330
0
100
AcDbSymbolTable
 70
     2
100
AcDbDimStyleTable
 71
     0
  0
DIMSTYLE
105
58
330
A
100
AcDbSymbolTableRecord
100
AcDbDimStyleTableRecord
  2
Standard
 70
     0
340
55
  0
DIMSTYLE
105
59
330
A
100
AcDbSymbolTableRecord
100
AcDbDimStyleTableRecord
  2
Annotative
 70
     0
340
55
1001
AcadAnnotative
1000
AnnotativeData
1002
{
1070
     1
1070
     1
1002
}
  0
ENDTAB
  0
TABLE
  2
BLOCK_RECORD
  5
1
330
0
100
AcDbSymbolTable
 70
     2
  0
BLOCK_RECORD
  5
70
330
1
100
AcDbSymbolTableRecord
100
AcDbBlockTableRecord
  2
*Model_Space
340
73
 70
     0
280
     1
281
     0
  0
BLOCK_RECORD
  5
6C
330
1
100
AcDbSymbolTableRecord
100
AcDbBlockTableRecord
  2
*Paper_Space
340
6F
 70
     0
280
     1
281
     0
  0
BLOCK_RECORD
  5
74
330
1
100
AcDbSymbolTableRecord
100
AcDbBlockTableRecord
  2
*Paper_Space0
340
77
 70
     0
280
     1
281
     0
  0
BLOCK_RECORD
  5
79
330
1
100
AcDbSymbolTableRecord
100
AcDbBlockTableRecord
  2
Block_0
340
0
102
{BLKREFS
331
7A
102
}
 70
     0
280
     1
281
     0
  0
ENDTAB
  0
ENDSEC
  0
SECTION
  2
BLOCKS
  0
BLOCK
  5
71
330
70
100
AcDbEntity
  8
0
100
AcDbBlockBegin
  2
*Model_Space
 70
     0
 10
0.0
 20
0.0
 30
0.0
  3
*Model_Space
  1

  0
ENDBLK
  5
72
330
70
100
AcDbEntity
  8
0
100
AcDbBlockEnd
  0
BLOCK
  5
6D
330
6C
100
AcDbEntity
 67
     1
  8
0
100
AcDbBlockBegin
  2
*Paper_Space
 70
     0
 10
0.0
 20
0.0
 30
0.0
  3
*Paper_Space
  1

  0
ENDBLK
  5
6E
330
6C
100
AcDbEntity
 67
     1
  8
0
100
AcDbBlockEnd
  0
BLOCK
  5
75
330
74
100
AcDbEntity
 67
     1
  8
0
100
AcDbBlockBegin
  2
*Paper_Space0
 70
     0
 10
0.0
 20
0.0
 30
0.0
  3
*Paper_Space0
  1

  0
ENDBLK
  5
76
330
74
100
AcDbEntity
 67
     1
  8
0
100
AcDbBlockEnd
  0
BLOCK
  5
7B
330
79
100
AcDbEntity
  8
0
100
AcDbBlockBegin
  2
Block_0
 70
     0
 10
0.0
 20
0.0
 30
0.0
  3
Block_0
  1

  0
CIRCLE
  5
7D
330
79
100
AcDbEntity
  8
Camada 1
 62
   250
420
  1907995
370
    15
100
AcDbCircle
 10
62.10847661880421
 20
-43.7364227867222
 30
0.0
 40
1.550428645406098
  0
CIRCLE
  5
7E
330
79
100
AcDbEntity
  8
Camada 1
 62
   250
420
  1907995
370
    15
100
AcDbCircle
 10
62.10847661880325
 20
-43.73642278672292
 30
0.0
 40
1.291895439282638
  0
CIRCLE
  5
7F
330
79
100
AcDbEntity
  8
Camada 1
 62
   250
420
  1907995
370
    15
100
AcDbCircle
 10
62.10847661922613
 20
-53.14993196724699
 30
0.0
 40
1.55042864540686
  0
CIRCLE
  5
80
330
79
100
AcDbEntity
  8
Camada 1
 62
   250
420
  1907995
370
    15
100
AcDbCircle
 10
62.10847661922613
 20
-53.14993196724923
 30
0.0
 40
1.291895439284643
  0
LWPOLYLINE
  5
81
330
79
100
AcDbEntity
  8
Camada 1
 62
   250
420
  1907995
370
    15
100
AcDbPolyline
 90
        1
 70
     0
 43
0.0
 10
70.42794426894781
 20
-53.09928617173003
  0
LWPOLYLINE
  5
82
330
79
100
AcDbEntity
  8
Camada 1
 62
   250
420
  1907995
370
    15
100
AcDbPolyline
 90
        1
 70
     0
 43
0.0
 10
71.69394711482786
 20
-53.09928617178907
  0
LWPOLYLINE
  5
83
330
79
100
AcDbEntity
  8
Camada 1
 62
   250
420
  1907995
370
    15
100
AcDbPolyline
 90
        1
 70
     0
 43
0.0
 10
71.88384680721063
 20
-54.87169015603115
  0
LWPOLYLINE
  5
84
330
79
100
AcDbEntity
  8
Camada 1
 62
   250
420
  1907995
370
    15
100
AcDbPolyline
 90
        1
 70
     0
 43
0.0
 10
71.88384680736978
 20
-51.32688218756238
  0
LWPOLYLINE
  5
85
330
79
100
AcDbEntity
  8
Camada 1
 62
   250
420
  1907995
370
    15
100
AcDbPolyline
 90
        1
 70
     0
 43
0.0
 10
71.69394711474573
 20
-54.8716901560196
  0
LWPOLYLINE
  5
86
330
79
100
AcDbEntity
  8
Camada 1
 62
   250
420
  1907995
370
    15
100
AcDbPolyline
 90
        1
 70
     0
 43
0.0
 10
71.04824027645164
 20
-53.06194032897065
  0
LINE
  5
87
330
79
100
AcDbEntity
  8
Camada 1
 62
   250
420
  1907995
370
    15
100
AcDbLine
 10
71.05234126152812
 20
-50.47493193905521
 30
0.0
 11
71.04824027655045
 21
-50.87808578703381
 31
0.0
  0
SPLINE
  5
88
330
79
100
AcDbEntity
  8
Camada 1
 62
   250
420
  1907995
370
    15
100
AcDbSpline
210
0.0
220
0.0
230
1.0
 70
    27
 71
     3
 72
    11
 73
     7
 74
     0
 42
0.0000000001
 43
0.0000000001
 40
0.0
 40
0.0
 40
0.0
 40
0.0
 40
1.0
 40
1.0
 40
1.0
 40
2.0
 40
2.0
 40
2.0
 40
2.0
 10
71.04824468295658
 20
-53.06194473547176
 30
0.0
 10
71.04824468295658
 20
-53.06194473547176
 30
0.0
 10
71.05234126129582
 20
-55.65288299116945
 30
0.0
 10
71.05234126129582
 20
-55.65288299116945
 30
0.0
 10
71.05234126129582
 20
-55.65288299116945
 30
0.0
 10
71.04824468295658
 20
-53.06194473547176
 30
0.0
 10
71.04824468295658
 20
-53.06194473547176
 30
0.0
  0
LWPOLYLINE
  5
89
330
79
100
AcDbEntity
  8
Camada 1
 62
   250
420
  1907995
370
    15
100
AcDbPolyline
 90
        3
 70
     0
 43
0.0
 10
71.04824468295658
 20
-53.06194473547176
 10
71.0482446830554
 20
-50.87809019353875
 10
71.04824468295658
 20
-53.06194473547176
  0
SPLINE
  5
8A
330
79
100
AcDbEntity
  8
Camada 1
 62
   250
420
  1907995
370
    15
100
AcDbSpline
210
0.0
220
0.0
230
1.0
 70
     8
 71
     3
 72
     8
 73
     4
 74
     0
 42
0.0000000001
 43
0.0000000001
 40
0.0
 40
0.0
 40
0.0
 40
0.0
 40
1.0
 40
1.0
 40
1.0
 40
1.0
 10
72.59281339511274
 20
-51.04203705540207
 30
0.0
 10
72.12080647732785
 20
-50.8037319333624
 30
0.0
 10
71.57644758304607
 20
-50.64714539949378
 30
0.0
 10
71.05120864667206
 20
-50.58627544328154
 30
0.0
  0
SPLINE
  5
8B
330
79
100
AcDbEntity
  8
Camada 1
 62
   250
420
  1907995
370
    15
100
AcDbSpline
210
0.0
220
0.0
230
1.0
 70
     8
 71
     3
 72
     8
 73
     4
 74
     0
 42
0.0000000001
 43
0.0000000001
 40
0.0
 40
0.0
 40
0.0
 40
0.0
 40
1.0
 40
1.0
 40
1.0
 40
1.0
 10
71.70660699627948
 20
-55.49273221060918
 30
0.0
 10
71.50007305647337
 20
-55.5470117849344
 30
0.0
 10
71.2648500606193
 20
-55.59155720497246
 30
0.0
 10
71.05425277773304
 20
-55.61596303596044
 30
0.0
  0
LWPOLYLINE
  5
8C
330
79
100
AcDbEntity
  8
Camada 1
 62
   250
420
  1907995
370
    15
100
AcDbPolyline
 90
        1
 70
     0
 43
0.0
 10
71.07360557346265
 20
-53.09928617176083
  0
SPLINE
  5
8D
330
79
100
AcDbEntity
  8
Camada 1
 62
   250
420
  1907995
370
    15
100
AcDbSpline
210
0.0
220
0.0
230
1.0
 70
     8
 71
     3
 72
     8
 73
     4
 74
     0
 42
0.0000000001
 43
0.0000000001
 40
0.0
 40
0.0
 40
0.0
 40
0.0
 40
1.0
 40
1.0
 40
1.0
 40
1.0
 10
70.38135872458203
 20
-60.44579312364847
 30
0.0
 10
70.4000481703569
 20
-60.44768791970602
 30
0.0
 10
70.42123316536531
 20
-60.42650182307362
 30
0.0
 10
70.41933983814146
 20
-60.4078131117156
 30
0.0
  0
LWPOLYLINE
  5
8E
330
79
100
AcDbEntity
  8
Camada 1
 62
   250
420
  1907995
370
    15
100
AcDbPolyline
 90
        4
 70
     1
 43
0.0
 10
70.40821488858831
 20
-53.06390783229123
 10
70.40821488846768
 20
-55.73363728968759
 10
70.40821488858831
 20
-53.06390783229123
 10
70.40821488870768
 20
-50.394178374892
  0
LWPOLYLINE
  5
8F
330
79
100
AcDbEntity
  8
Camada 1
 62
   250
420
  1907995
370
    15
100
AcDbPolyline
 90
        1
 70
     0
 43
0.0
 10
69.91293282498879
 20
-48.44317150165585
  0
LWPOLYLINE
  5
90
330
79
100
AcDbEntity
  8
Camada 1
 62
   250
420
  1907995
370
    15
100
AcDbPolyline
 90
        1
 70
     0
 43
0.0
 10
70.41933396334312
 20
-48.44317150167703
  0
LINE
  5
91
330
79
100
AcDbEntity
  8
Camada 1
 62
   250
420
  1907995
370
    15
100
AcDbLine
 10
70.41341571592804
 20
-43.88528645054122
 30
0.0
 11
70.41119008464872
 21
-46.6706882436374
 31
0.0
  0
LINE
  5
92
330
79
100
AcDbEntity
  8
Camada 1
 62
   250
420
  1907995
370
    15
100
AcDbLine
 10
70.40821488846768
 20
-55.73363728968759
 30
0.0
 11
70.41933396280666
 21
-60.40780833800479
 31
0.0
  0
SPLINE
  5
93
330
79
100
AcDbEntity
  8
Camada 1
 62
   250
420
  1907995
370
    15
100
AcDbSpline
210
0.0
220
0.0
230
1.0
 70
    27
 71
     3
 72
    14
 73
    10
 74
     0
 42
0.0000000001
 43
0.0000000001
 40
0.0
 40
0.0
 40
0.0
 40
0.0
 40
1.0
 40
1.0
 40
1.0
 40
2.0
 40
2.0
 40
2.0
 40
3.0
 40
3.0
 40
3.0
 40
3.0
 10
69.91293870073942
 20
-39.28441917348571
 30
0.0
 10
69.91293870073942
 20
-39.28441917348571
 30
0.0
 10
69.91293870082412
 20
-37.36638028286144
 30
0.0
 10
69.91293870082412
 20
-37.36638028286144
 30
0.0
 10
69.91293870088059
 20
-36.13601429123103
 30
0.0
 10
69.91293870088059
 20
-36.13601429123103
 30
0.0
 10
69.91293870082412
 20
-37.36638028286144
 30
0.0
 10
69.91293870082412
 20
-37.36638028286144
 30
0.0
 10
69.91293870073942
 20
-39.28441917348571
 30
0.0
 10
69.91293870073942
 20
-39.28441917348571
 30
0.0
  0
LWPOLYLINE
  5
94
330
79
100
AcDbEntity
  8
Camada 1
 62
   250
420
  1907995
370
    15
100
AcDbPolyline
 90
        1
 70
     0
 43
0.0
 10
69.91293282457938
 20
-57.60192897073912
  0
SPLINE
  5
95
330
79
100
AcDbEntity
  8
Camada 1
 62
   250
420
  1907995
370
    15
100
AcDbSpline
210
0.0
220
0.0
230
1.0
 70
     8
 71
     3
 72
     8
 73
     4
 74
     0
 42
0.0000000001
 43
0.0000000001
 40
0.0
 40
0.0
 40
0.0
 40
0.0
 40
1.0
 40
1.0
 40
1.0
 40
1.0
 10
71.01436014796997
 20
-50.43695229432531
 30
0.0
 10
71.03304959374868
 20
-50.43505749826777
 30
0.0
 10
71.05423458875325
 20
-50.45624396210891
 30
0.0
 10
71.05234126152812
 20
-50.47493193905521
 30
0.0
  0
SPLINE
  5
96
330
79
100
AcDbEntity
  8
Camada 1
 62
   250
420
  1907995
370
    15
100
AcDbSpline
210
0.0
220
0.0
230
1.0
 70
     8
 71
     3
 72
     8
 73
     4
 74
     0
 42
0.0000000001
 43
0.0000000001
 40
0.0
 40
0.0
 40
0.0
 40
0.0
 40
1.0
 40
1.0
 40
1.0
 40
1.0
 10
71.01436014773383
 20
-55.69086337031074
 30
0.0
 10
71.03304959351253
 20
-55.69275816637214
 30
0.0
 10
71.05423458852094
 20
-55.67157243694688
 30
0.0
 10
71.05234126129582
 20
-55.65288299116945
 30
0.0
  0
LWPOLYLINE
  5
97
330
79
100
AcDbEntity
  8
Camada 1
 62
   250
420
  1907995
370
    15
100
AcDbPolyline
 90
        1
 70
     0
 43
0.0
 10
69.91293282478344
 20
-53.06390342576575
  0
LINE
  5
98
330
79
100
AcDbEntity
  8
Camada 1
 62
   250
420
  1907995
370
    15
100
AcDbLine
 10
70.40821488870768
 20
-55.69085896380965
 30
0.0
 11
71.01435574123271
 21
-55.69085896380965
 31
0.0
  0
LWPOLYLINE
  5
99
330
79
100
AcDbEntity
  8
Camada 1
 62
   250
420
  1907995
370
    15
100
AcDbPolyline
 90
        1
 70
     0
 43
0.0
 10
71.05233538607524
 20
-53.06390342581837
  0
LWPOLYLINE
  5
9A
330
79
100
AcDbEntity
  8
Camada 1
 62
   250
420
  1907995
370
    15
100
AcDbPolyline
 90
        4
 70
     1
 43
0.0
 10
71.54020130658726
 20
-45.27809094531946
 10
71.54020130652309
 20
-46.65215298225837
 10
71.54020130658726
 20
-45.27809094531946
 10
71.5402013066463
 20
-43.9040274395446
  0
SPLINE
  5
9B
330
79
100
AcDbEntity
  8
Camada 1
 62
   250
420
  1907995
370
    15
100
AcDbSpline
210
0.0
220
0.0
230
1.0
 70
     8
 71
     3
 72
     8
 73
     4
 74
     0
 42
0.0000000001
 43
0.0000000001
 40
0.0
 40
0.0
 40
0.0
 40
0.0
 40
1.0
 40
1.0
 40
1.0
 40
1.0
 10
71.49544152334023
 20
-46.67069407578456
 30
0.0
 10
71.5265896204139
 20
-46.67385206921723
 30
0.0
 10
71.56189892464952
 20
-46.63854129615304
 30
0.0
 10
71.55874093122071
 20
-46.60739319907551
 30
0.0
  0
SPLINE
  5
9C
330
79
100
AcDbEntity
  8
Camada 1
 62
   250
420
  1907995
370
    15
100
AcDbSpline
210
0.0
220
0.0
230
1.0
 70
     8
 71
     3
 72
     8
 73
     4
 74
     0
 42
0.0000000001
 43
0.0000000001
 40
0.0
 40
0.0
 40
0.0
 40
0.0
 40
1.0
 40
1.0
 40
1.0
 40
1.0
 10
71.49544152346729
 20
-43.88548781484794
 30
0.0
 10
71.52658962054096
 20
-43.88232982141881
 30
0.0
 10
71.56189892477273
 20
-43.91764059448973
 30
0.0
 10
71.55874093134007
 20
-43.94878722272778
 30
0.0
  0
LWPOLYLINE
  5
9D
330
79
100
AcDbEntity
  8
Camada 1
 62
   250
420
  1907995
370
    15
100
AcDbPolyline
 90
        3
 70
     0
 43
0.0
 10
71.49543711696233
 20
-43.88548340834652
 10
70.41341571592804
 20
-43.88528645054122
 10
70.41341571592804
 20
-41.1631859836707
  0
LWPOLYLINE
  5
9E
330
79
100
AcDbEntity
  8
Camada 1
 62
   250
420
  1907995
370
    15
100
AcDbPolyline
 90
        1
 70
     0
 43
0.0
 10
71.55873652477865
 20
-45.27808653881515
  0
LINE
  5
9F
330
79
100
AcDbEntity
  8
Camada 1
 62
   250
420
  1907995
370
    15
100
AcDbLine
 10
71.55873652483897
 20
-43.94878281622636
 30
0.0
 11
71.55873652471832
 21
-46.60738879257441
 31
0.0
  0
LWPOLYLINE
  5
A0
330
79
100
AcDbEntity
  8
Camada 1
 62
   250
420
  1907995
370
    15
100
AcDbPolyline
 90
        4
 70
     0
 43
0.0
 10
71.55874093122071
 20
-46.60739319907551
 10
71.55874093127976
 20
-45.27809094531946
 10
71.55874093134007
 20
-43.94878722272778
 10
71.55874093127976
 20
-45.27809094531946
  0
LWPOLYLINE
  5
A1
330
79
100
AcDbEntity
  8
Camada 1
 62
   250
420
  1907995
370
    15
100
AcDbPolyline
 90
        4
 70
     1
 43
0.0
 10
71.54020130658726
 20
-45.27809094531946
 10
71.5402013066463
 20
-43.9040274395446
 10
71.54020130658726
 20
-45.27809094531946
 10
71.54020130652309
 20
-46.65215298225837
  0
SPLINE
  5
A2
330
79
100
AcDbEntity
  8
Camada 1
 62
   250
420
  1907995
370
    15
100
AcDbSpline
210
0.0
220
0.0
230
1.0
 70
     8
 71
     3
 72
     8
 73
     4
 74
     0
 42
0.0000000001
 43
0.0000000001
 40
0.0
 40
0.0
 40
0.0
 40
0.0
 40
1.0
 40
1.0
 40
1.0
 40
1.0
 10
71.49544152346729
 20
-43.88548781484794
 30
0.0
 10
71.52658962054096
 20
-43.88232982141881
 30
0.0
 10
71.56189892477273
 20
-43.91764059448973
 30
0.0
 10
71.55874093134007
 20
-43.94878722272778
 30
0.0
  0
SPLINE
  5
A3
330
79
100
AcDbEntity
  8
Camada 1
 62
   250
420
  1907995
370
    15
100
AcDbSpline
210
0.0
220
0.0
230
1.0
 70
     8
 71
     3
 72
     8
 73
     4
 74
     0
 42
0.0000000001
 43
0.0000000001
 40
0.0
 40
0.0
 40
0.0
 40
0.0
 40
1.0
 40
1.0
 40
1.0
 40
1.0
 10
71.49544152334023
 20
-46.67069407578456
 30
0.0
 10
71.5265896204139
 20
-46.67385206921723
 30
0.0
 10
71.56189892464952
 20
-46.63854129615304
 30
0.0
 10
71.55874093122071
 20
-46.60739319907551
 30
0.0
  0
LWPOLYLINE
  5
A4
330
79
100
AcDbEntity
  8
Camada 1
 62
   250
420
  1907995
370
    15
100
AcDbPolyline
 90
        1
 70
     0
 43
0.0
 10
71.49543711696233
 20
-43.88548340834652
  0
LWPOLYLINE
  5
A5
330
79
100
AcDbEntity
  8
Camada 1
 62
   250
420
  1907995
370
    15
100
AcDbPolyline
 90
        5
 70
     0
 43
0.0
 10
71.49543711683913
 20
-46.67068820044656
 10
70.41192369511427
 20
-46.67068820040099
 10
70.41119008464872
 20
-46.6706882436374
 10
70.40821488846768
 20
-50.43694788782421
 10
71.01435574146886
 20
-50.43694788782421
  0
LWPOLYLINE
  5
A6
330
79
100
AcDbEntity
  8
Camada 1
 62
   250
420
  1907995
370
    15
100
AcDbPolyline
 90
        1
 70
     0
 43
0.0
 10
71.55873652477865
 20
-45.27808653881515
  0
LINE
  5
A7
330
79
100
AcDbEntity
  8
Camada 1
 62
   250
420
  1907995
370
    15
100
AcDbLine
 10
71.55873652471832
 20
-46.60738879257441
 30
0.0
 11
71.55873652483897
 21
-43.94878281622636
 31
0.0
  0
LWPOLYLINE
  5
A8
330
79
100
AcDbEntity
  8
Camada 1
 62
   250
420
  1907995
370
    15
100
AcDbPolyline
 90
        4
 70
     1
 43
0.0
 10
71.54020130658726
 20
-42.55598660325571
 10
71.54020130652309
 20
-43.9300486401943
 10
71.54020130658726
 20
-42.55598660325571
 10
71.5402013066463
 20
-41.18192309748053
  0
LINE
  5
A9
330
79
100
AcDbEntity
  8
Camada 1
 62
   250
420
  1907995
370
    15
100
AcDbLine
 10
71.55873652483897
 20
-41.22667847416229
 30
0.0
 11
71.55873652471832
 21
-43.88528445051002
 31
0.0
  0
LWPOLYLINE
  5
AA
330
79
100
AcDbEntity
  8
Camada 1
 62
   250
420
  1907995
370
    15
100
AcDbPolyline
 90
        4
 70
     0
 43
0.0
 10
71.55874093122071
 20
-43.88528885701497
 10
71.55874093127976
 20
-42.55598660325571
 10
71.55874093134007
 20
-41.22668288066371
 10
71.55874093127976
 20
-42.55598660325571
  0
LWPOLYLINE
  5
AB
330
79
100
AcDbEntity
  8
Camada 1
 62
   250
420
  1907995
370
    15
100
AcDbPolyline
 90
        4
 70
     1
 43
0.0
 10
71.54020130658726
 20
-42.55598660325571
 10
71.5402013066463
 20
-41.18192309748053
 10
71.54020130658726
 20
-42.55598660325571
 10
71.54020130652309
 20
-43.9300486401943
  0
SPLINE
  5
AC
330
79
100
AcDbEntity
  8
Camada 1
 62
   250
420
  1907995
370
    15
100
AcDbSpline
210
0.0
220
0.0
230
1.0
 70
     8
 71
     3
 72
    14
 73
    10
 74
     0
 42
0.0000000001
 43
0.0000000001
 40
0.0
 40
0.0
 40
0.0
 40
0.0
 40
1.0
 40
1.0
 40
1.0
 40
2.0
 40
2.0
 40
2.0
 40
3.0
 40
3.0
 40
3.0
 40
3.0
 10
71.55874093134007
 20
-41.22668288066371
 30
0.0
 10
71.56189892477273
 20
-41.19553625242565
 30
0.0
 10
71.52658962054096
 20
-41.16022547935473
 30
0.0
 10
71.49544152346729
 20
-41.16338347278387
 30
0.0
 10
71.49544152346729
 20
-41.16338347278387
 30
0.0
 10
70.41341571592804
 20
-41.1631859836707
 30
0.0
 10
70.41341571592804
 20
-41.1631859836707
 30
0.0
 10
70.41341571592804
 20
-41.1631859836707
 30
0.0
 10
70.41933396387958
 20
-36.47853466534894
 30
0.0
 10
70.41933396387958
 20
-36.47853466534894
 30
0.0
  0
SPLINE
  5
AD
330
79
100
AcDbEntity
  8
Camada 1
 62
   250
420
  1907995
370
    15
100
AcDbSpline
210
0.0
220
0.0
230
1.0
 70
     8
 71
     3
 72
     8
 73
     4
 74
     0
 42
0.0000000001
 43
0.0000000001
 40
0.0
 40
0.0
 40
0.0
 40
0.0
 40
1.0
 40
1.0
 40
1.0
 40
1.0
 10
71.49544152334023
 20
-43.94858973372371
 30
0.0
 10
71.5265896204139
 20
-43.95174772715637
 30
0.0
 10
71.56189892464952
 20
-43.91643695408897
 30
0.0
 10
71.55874093122071
 20
-43.88528885701497
 30
0.0
  0
LINE
  5
AE
330
79
100
AcDbEntity
  8
Camada 1
 62
   250
420
  1907995
370
    15
100
AcDbLine
 10
71.55873652471832
 20
-43.88528445051002
 30
0.0
 11
71.55873652483897
 21
-41.22667847416229
 31
0.0
  0
LWPOLYLINE
  5
AF
330
79
100
AcDbEntity
  8
Camada 1
 62
   250
420
  1907995
370
    15
100
AcDbPolyline
 90
        1
 70
     0
 43
0.0
 10
70.41933396348429
 20
-45.2780865387651
  0
LWPOLYLINE
  5
B0
330
79
100
AcDbEntity
  8
Camada 1
 62
   250
420
  1907995
370
    15
100
AcDbPolyline
 90
        1
 70
     0
 43
0.0
 10
70.41933396348429
 20
-45.2780865387651
  0
LINE
  5
B1
330
79
100
AcDbEntity
  8
Camada 1
 62
   250
420
  1907995
370
    15
100
AcDbLine
 10
72.90930896545048
 20
-55.82752223127159
 30
0.0
 11
73.06123048202207
 21
-55.82752223127929
 31
0.0
  0
LINE
  5
B2
330
79
100
AcDbEntity
  8
Camada 1
 62
   250
420
  1907995
370
    15
100
AcDbLine
 10
73.89679147900181
 20
-55.8275222313178
 30
0.0
 11
74.04871152674099
 21
-55.8275222313255
 31
0.0
  0
LWPOLYLINE
  5
B3
330
79
100
AcDbEntity
  8
Camada 1
 62
   250
420
  1907995
370
    15
100
AcDbPolyline
 90
        1
 70
     0
 43
0.0
 10
73.47901098051386
 20
-55.82752223129727
  0
LWPOLYLINE
  5
B4
330
79
100
AcDbEntity
  8
Camada 1
 62
   250
420
  1907995
370
    15
100
AcDbPolyline
 90
        4
 70
     1
 43
0.0
 10
74.04871593324208
 20
-55.8275266378266
 10
73.47901538701496
 20
-55.82752663780222
 10
72.90931484078399
 20
-55.82752663777655
 10
73.47901538701496
 20
-55.82752663780222
  0
LWPOLYLINE
  5
B5
330
79
100
AcDbEntity
  8
Camada 1
 62
   250
420
  1907995
370
    15
100
AcDbPolyline
 90
        3
 70
     0
 43
0.0
 10
73.89679588550291
 20
-55.8275266378189
 10
73.47901538701496
 20
-55.82752663780222
 10
73.06123488852318
 20
-55.8275266377804
  0
LWPOLYLINE
  5
B6
330
79
100
AcDbEntity
  8
Camada 1
 62
   250
420
  1907995
370
    15
100
AcDbPolyline
 90
        3
 70
     0
 43
0.0
 10
73.06123488852318
 20
-55.8275266377804
 10
73.47901538701496
 20
-55.82752663780222
 10
73.89679588550291
 20
-55.8275266378189
  0
SPLINE
  5
B7
330
79
100
AcDbEntity
  8
Camada 1
 62
   250
420
  1907995
370
    15
100
AcDbSpline
210
0.0
220
0.0
230
1.0
 70
     8
 71
     3
 72
    23
 73
    19
 74
     0
 42
0.0000000001
 43
0.0000000001
 40
0.0
 40
0.0
 40
0.0
 40
0.0
 40
1.0
 40
1.0
 40
1.0
 40
2.0
 40
2.0
 40
2.0
 40
3.0
 40
3.0
 40
3.0
 40
4.0
 40
4.0
 40
4.0
 40
5.0
 40
5.0
 40
5.0
 40
6.0
 40
6.0
 40
6.0
 40
6.0
 10
74.04871152674099
 20
-55.8275222313255
 30
0.0
 10
74.04871152674099
 20
-55.8275222313255
 30
0.0
 10
74.04871152674099
 20
-55.86718589440602
 30
0.0
 10
74.04871593324208
 20
-55.86719030091097
 30
0.0
 10
74.05356308594878
 20
-55.92546482714541
 30
0.0
 10
73.99404298834747
 20
-55.99169235590744
 30
0.0
 10
73.935584857844
 20
-55.99307232559126
 30
0.0
 10
73.935584857844
 20
-55.99307232559126
 30
0.0
 10
73.47901538700469
 20
-56.01742706468397
 30
0.0
 10
73.47901538700469
 20
-56.01742706468397
 30
0.0
 10
73.47901538700469
 20
-56.01742706468397
 30
0.0
 10
73.0224459161641
 20
-55.99307232557073
 30
0.0
 10
73.0224459161641
 20
-55.99307232557073
 30
0.0
 10
72.96398778566064
 20
-55.99169235588306
 30
0.0
 10
72.90446768806062
 20
-55.92546482712102
 30
0.0
 10
72.90930896544662
 20
-55.86718589435725
 30
0.0
 10
72.90930896544662
 20
-55.86718589435725
 30
0.0
 10
72.90930896545048
 20
-55.82752223127159
 30
0.0
 10
72.90930896545048
 20
-55.82752223127159
 30
0.0
  0
LINE
  5
B8
330
79
100
AcDbEntity
  8
Camada 1
 62
   250
420
  1907995
370
    15
100
AcDbLine
 10
71.70661140290764
 20
-53.01905257494608
 30
0.0
 11
71.73033454333846
 21
-52.91204506914467
 31
0.0
  0
LINE
  5
B9
330
79
100
AcDbEntity
  8
Camada 1
 62
   250
420
  1907995
370
    15
100
AcDbLine
 10
71.70661140290764
 20
-53.01905257494608
 30
0.0
 11
71.73033454333846
 21
-52.91204506914467
 31
0.0
  0
SPLINE
  5
BA
330
79
100
AcDbEntity
  8
Camada 1
 62
   250
420
  1907995
370
    15
100
AcDbSpline
210
0.0
220
0.0
230
1.0
 70
     8
 71
     3
 72
     8
 73
     4
 74
     0
 42
0.0000000001
 43
0.0000000001
 40
0.0
 40
0.0
 40
0.0
 40
0.0
 40
1.0
 40
1.0
 40
1.0
 40
1.0
 10
75.18811849478028
 20
-50.42169551415462
 30
0.0
 10
75.19001329083784
 20
-50.4030060683759
 30
0.0
 10
75.16882829583199
 20
-50.38182107336749
 30
0.0
 10
75.15013885005456
 20
-50.38371586942503
 30
0.0
  0
LWPOLYLINE
  5
BB
330
79
100
AcDbEntity
  8
Camada 1
 62
   250
420
  1907995
370
    15
100
AcDbPolyline
 90
        1
 70
     0
 43
0.0
 10
71.70660699634236
 20
-54.42328446541448
  0
LWPOLYLINE
  5
BC
330
79
100
AcDbEntity
  8
Camada 1
 62
   250
420
  1907995
370
    15
100
AcDbPolyline
 90
        1
 70
     0
 43
0.0
 10
72.3198202856814
 20
-51.64787532831315
  0
LINE
  5
BD
330
79
100
AcDbEntity
  8
Camada 1
 62
   250
420
  1907995
370
    15
100
AcDbLine
 10
75.18811408827534
 20
-50.42169110764966
 30
0.0
 11
75.18811408771064
 21
-63.52145559793207
 31
0.0
  0
LWPOLYLINE
  5
BE
330
79
100
AcDbEntity
  8
Camada 1
 62
   250
420
  1907995
370
    15
100
AcDbPolyline
 90
        1
 70
     0
 43
0.0
 10
75.18811408799298
 20
-56.71372348907525
  0
LWPOLYLINE
  5
BF
330
79
100
AcDbEntity
  8
Camada 1
 62
   250
420
  1907995
370
    15
100
AcDbPolyline
 90
        1
 70
     0
 43
0.0
 10
74.61841354167346
 20
-58.6975191470918
  0
LWPOLYLINE
  5
C0
330
79
100
AcDbEntity
  8
Camada 1
 62
   250
420
  1907995
370
    15
100
AcDbPolyline
 90
        1
 70
     0
 43
0.0
 10
73.7638605193588
 20
-52.52958489123365
  0
LWPOLYLINE
  5
C1
330
79
100
AcDbEntity
  8
Camada 1
 62
   250
420
  1907995
370
    15
100
AcDbPolyline
 90
        4
 70
     1
 43
0.0
 10
71.70661140290764
 20
-53.01905257494608
 10
71.70661140281907
 20
-54.95467928573427
 10
71.70661140278443
 20
-55.76422649542787
 10
71.70661140281907
 20
-54.95467928573427
  0
LWPOLYLINE
  5
C2
330
79
100
AcDbEntity
  8
Camada 1
 62
   250
420
  1907995
370
    15
100
AcDbPolyline
 90
        5
 70
     0
 43
0.0
 10
71.70661140279854
 20
-55.44139581576156
 10
71.70661140281907
 20
-54.9994449442545
 10
71.70661140290764
 20
-53.01905257494608
 10
71.70661140281907
 20
-54.9994449442545
 10
71.70661140279469
 20
-55.51042669705666
  0
LWPOLYLINE
  5
C3
330
79
100
AcDbEntity
  8
Camada 1
 62
   250
420
  1907995
370
    15
100
AcDbPolyline
 90
        4
 70
     0
 43
0.0
 10
71.73033454333846
 20
-52.91204506914467
 10
71.71721051016799
 20
-52.94656414060174
 10
71.70926705506201
 20
-52.98247860450677
 10
71.70661140290764
 20
-53.01905257494608
  0
LWPOLYLINE
  5
C4
330
79
100
AcDbEntity
  8
Camada 1
 62
   250
420
  1907995
370
    15
100
AcDbPolyline
 90
        4
 70
     0
 43
0.0
 10
71.73033454333846
 20
-52.91204506914467
 10
71.71724282451966
 20
-52.94645250920714
 10
71.70928174340159
 20
-52.98237578611566
 10
71.70661140290764
 20
-53.01905257494608
  0
LWPOLYLINE
  5
C5
330
79
100
AcDbEntity
  8
Camada 1
 62
   250
420
  1907995
370
    15
100
AcDbPolyline
 90
        5
 70
     0
 43
0.0
 10
71.73033454333846
 20
-52.91204506914467
 10
72.01211128101039
 20
-52.3077718390227
 10
72.26053667037902
 20
-51.77502201920483
 10
72.47672261888546
 20
-51.31140948860927
 10
72.65611427182822
 20
-50.92670566644947
  0
LWPOLYLINE
  5
C6
330
79
100
AcDbEntity
  8
Camada 1
 62
   250
420
  1907995
370
    15
100
AcDbPolyline
 90
       12
 70
     1
 43
0.0
 10
71.73033454333846
 20
-52.91204506914467
 10
71.98706325217876
 20
-52.36149077612726
 10
72.20562724318421
 20
-51.89277845334512
 10
72.5566521670639
 20
-51.14000241814818
 10
72.80212079327845
 20
-50.61359135212699
 10
72.87834741055066
 20
-50.45012479910703
 10
72.9093148410304
 20
-50.38371586932621
 10
72.87834741055066
 20
-50.45012479910703
 10
72.80212079327845
 20
-50.61359135212699
 10
72.5566521670639
 20
-51.14000241814818
 10
72.20562724318421
 20
-51.89277845334512
 10
71.98706325217876
 20
-52.36149077612726
  0
LWPOLYLINE
  5
C7
330
79
100
AcDbEntity
  8
Camada 1
 62
   250
420
  1907995
370
    15
100
AcDbPolyline
 90
        5
 70
     0
 43
0.0
 10
72.65611427182822
 20
-50.92670566644947
 10
72.47672261888546
 20
-51.31140948860927
 10
72.26053667037902
 20
-51.77502201920483
 10
72.01211128101039
 20
-52.3077718390227
 10
71.73033454333846
 20
-52.91204506914467
  0
LWPOLYLINE
  5
C8
330
79
100
AcDbEntity
  8
Camada 1
 62
   250
420
  1907995
370
    15
100
AcDbPolyline
 90
        4
 70
     1
 43
0.0
 10
72.82076176753093
 20
-50.57361556178758
 10
72.77830070979773
 20
-50.66467593517481
 10
72.59281339511274
 20
-51.04203705540207
 10
72.77830070979773
 20
-50.66467593517481
  0
LWPOLYLINE
  5
C9
330
79
100
AcDbEntity
  8
Camada 1
 62
   250
420
  1907995
370
    15
100
AcDbPolyline
 90
        4
 70
     0
 43
0.0
 10
71.70661140290764
 20
-53.01905257494608
 10
71.70926705506201
 20
-52.98247860450677
 10
71.71721051016799
 20
-52.94656414060174
 10
71.73033454333846
 20
-52.91204506914467
  0
LWPOLYLINE
  5
CA
330
79
100
AcDbEntity
  8
Camada 1
 62
   250
420
  1907995
370
    15
100
AcDbPolyline
 90
        4
 70
     0
 43
0.0
 10
71.70661140290764
 20
-53.01905257494608
 10
71.70928174340159
 20
-52.98237578611566
 10
71.71724282451966
 20
-52.94645250920714
 10
71.73033454333846
 20
-52.91204506914467
  0
SPLINE
  5
CB
330
79
100
AcDbEntity
  8
Camada 1
 62
   250
420
  1907995
370
    15
100
AcDbSpline
210
0.0
220
0.0
230
1.0
 70
    27
 71
     3
 72
    11
 73
     7
 74
     0
 42
0.0000000001
 43
0.0000000001
 40
0.0
 40
0.0
 40
0.0
 40
0.0
 40
1.0
 40
1.0
 40
1.0
 40
2.0
 40
2.0
 40
2.0
 40
2.0
 10
75.18811849478028
 20
-50.42169551415462
 30
0.0
 10
75.18811849478028
 20
-50.42169551415462
 30
0.0
 10
75.1881184946558
 20
-53.10562125365165
 30
0.0
 10
75.1881184946558
 20
-53.10562125365165
 30
0.0
 10
75.1881184946558
 20
-53.10562125365165
 30
0.0
 10
75.18811849478028
 20
-50.42169551415462
 30
0.0
 10
75.18811849478028
 20
-50.42169551415462
 30
0.0
  0
LINE
  5
CC
330
79
100
AcDbEntity
  8
Camada 1
 62
   250
420
  1907995
370
    15
100
AcDbLine
 10
75.15013884960922
 20
-60.32183600633348
 30
0.0
 11
75.18811849433238
 21
-60.32183600633348
 31
0.0
  0
LINE
  5
CD
330
79
100
AcDbEntity
  8
Camada 1
 62
   250
420
  1907995
370
    15
100
AcDbLine
 10
75.18811849421559
 20
-63.52146046344306
 30
0.0
 11
75.18811849433238
 21
-60.32183600633348
 31
0.0
  0
SPLINE
  5
CE
330
79
100
AcDbEntity
  8
Camada 1
 62
   250
420
  1907995
370
    15
100
AcDbSpline
210
0.0
220
0.0
230
1.0
 70
     8
 71
     3
 72
     8
 73
     4
 74
     0
 42
0.0000000001
 43
0.0000000001
 40
0.0
 40
0.0
 40
0.0
 40
0.0
 40
1.0
 40
1.0
 40
1.0
 40
1.0
 10
75.18811849421559
 20
-63.52146046344306
 30
0.0
 10
75.19001329027314
 20
-63.54014926660767
 30
0.0
 10
75.16882829526473
 20
-63.56133517963329
 30
0.0
 10
75.15013884948601
 20
-63.55944056717868
 30
0.0
  0
LINE
  5
CF
330
79
100
AcDbEntity
  8
Camada 1
 62
   250
420
  1907995
370
    15
100
AcDbLine
 10
75.18811849433238
 20
-60.32183600633348
 30
0.0
 11
75.18811849421559
 21
-63.52146046344306
 31
0.0
  0
LINE
  5
D0
330
79
100
AcDbEntity
  8
Camada 1
 62
   250
420
  1907995
370
    15
100
AcDbLine
 10
75.15013884960922
 20
-60.32183600633348
 30
0.0
 11
75.18811849433238
 21
-60.32183600633348
 31
0.0
  0
LWPOLYLINE
  5
D1
330
79
100
AcDbEntity
  8
Camada 1
 62
   250
420
  1907995
370
    15
100
AcDbPolyline
 90
        6
 70
     0
 43
0.0
 10
73.04856913160969
 20
-55.82752223127929
 10
71.70660699627948
 20
-55.82752223121898
 10
71.70660699628332
 20
-55.76422208892292
 10
71.70661140279469
 20
-55.51042669705666
 10
71.70661140278058
 20
-55.82752663772008
 10
71.70661140279854
 20
-55.44139581576156
  0
SPLINE
  5
D2
330
79
100
AcDbEntity
  8
Camada 1
 62
   250
420
  1907995
370
    15
100
AcDbSpline
210
0.0
220
0.0
230
1.0
 70
     8
 71
     3
 72
    26
 73
    22
 74
     0
 42
0.0000000001
 43
0.0000000001
 40
0.0
 40
0.0
 40
0.0
 40
0.0
 40
1.0
 40
1.0
 40
1.0
 40
2.0
 40
2.0
 40
2.0
 40
3.0
 40
3.0
 40
3.0
 40
4.0
 40
4.0
 40
4.0
 40
5.0
 40
5.0
 40
5.0
 40
6.0
 40
6.0
 40
6.0
 40
7.0
 40
7.0
 40
7.0
 40
7.0
 10
73.90945136057663
 20
-55.8275222313178
 30
0.0
 10
73.90945136057663
 20
-55.8275222313178
 30
0.0
 10
74.36521297262657
 20
-55.82752223133962
 30
0.0
 10
74.3652173791315
 20
-55.82752663784072
 30
0.0
 10
74.48980976743136
 20
-55.81489539853589
 30
0.0
 10
74.63104845319344
 20
-55.95613555314836
 30
0.0
 10
74.61841354179409
 20
-56.08072280052641
 30
0.0
 10
74.61841354179409
 20
-56.08072280052641
 30
0.0
 10
74.61841354148352
 20
-63.52145559790641
 30
0.0
 10
74.61841354148352
 20
-63.52145559790641
 30
0.0
 10
74.61841794798463
 20
-63.52146046341868
 30
0.0
 10
74.61841794810398
 20
-60.3218360063091
 30
0.0
 10
74.61841794810398
 20
-60.3218360063091
 30
0.0
 10
74.61841794810398
 20
-60.3218360063091
 30
0.0
 10
74.61841794798463
 20
-63.53578879134293
 30
0.0
 10
74.61841794798463
 20
-63.53578879134293
 30
0.0
 10
74.61841794798077
 20
-63.54884882208778
 30
0.0
 10
74.62900519474986
 20
-63.55943606885301
 30
0.0
 10
74.642065225487
 20
-63.55943606885301
 30
0.0
 10
74.642065225487
 20
-63.55943606885301
 30
0.0
 10
75.15013444298107
 20
-63.55943606887355
 30
0.0
 10
75.15013444298107
 20
-63.55943606887355
 30
0.0
  0
LWPOLYLINE
  5
D3
330
79
100
AcDbEntity
  8
Camada 1
 62
   250
420
  1907995
370
    15
100
AcDbPolyline
 90
        3
 70
     0
 43
0.0
 10
75.1501344435496
 20
-50.38370999408766
 10
72.90930896569304
 20
-50.38370999398884
 10
72.82075736102726
 20
-50.57361115528263
  0
LWPOLYLINE
  5
D4
330
79
100
AcDbEntity
  8
Camada 1
 62
   250
420
  1907995
370
    15
100
AcDbPolyline
 90
        1
 70
     0
 43
0.0
 10
71.70660699640653
 20
-53.01904743402813
  0
LWPOLYLINE
  5
D5
330
79
100
AcDbEntity
  8
Camada 1
 62
   250
420
  1907995
370
    15
100
AcDbPolyline
 90
        1
 70
     0
 43
0.0
 10
71.73033013683735
 20
-52.91204066264228
  0
SPLINE
  5
D6
330
79
100
AcDbEntity
  8
Camada 1
 62
   250
420
  1907995
370
    15
100
AcDbSpline
210
0.0
220
0.0
230
1.0
 70
    27
 71
     3
 72
    11
 73
     7
 74
     0
 42
0.0000000001
 43
0.0000000001
 40
0.0
 40
0.0
 40
0.0
 40
0.0
 40
1.0
 40
1.0
 40
1.0
 40
2.0
 40
2.0
 40
2.0
 40
2.0
 10
75.18811408783
 20
-60.32183086541553
 30
0.0
 10
75.18811408783
 20
-60.32183086541553
 30
0.0
 10
75.18811408815469
 20
-53.10561611273369
 30
0.0
 10
75.18811408815469
 20
-53.10561611273369
 30
0.0
 10
75.18811408815469
 20
-53.10561611273369
 30
0.0
 10
75.18811408783
 20
-60.32183086541553
 30
0.0
 10
75.18811408783
 20
-60.32183086541553
 30
0.0
  0
LWPOLYLINE
  5
D7
330
79
100
AcDbEntity
  8
Camada 1
 62
   250
420
  1907995
370
    15
100
AcDbPolyline
 90
        1
 70
     0
 43
0.0
 10
74.61841354186725
 20
-54.38928315812558
  0
LWPOLYLINE
  5
D8
330
79
100
AcDbEntity
  8
Camada 1
 62
   250
420
  1907995
370
    15
100
AcDbPolyline
 90
        1
 70
     0
 43
0.0
 10
74.61841354160288
 20
-60.32183086539114
  0
LWPOLYLINE
  5
D9
330
79
100
AcDbEntity
  8
Camada 1
 62
   250
420
  1907995
370
    15
100
AcDbPolyline
 90
        3
 70
     0
 43
0.0
 10
70.38135872458203
 20
-60.44579312364847
 10
69.82396263467883
 20
-60.44569397731978
 10
69.8239626349291
 20
-57.49179549592683
  0
LINE
  5
DA
330
79
100
AcDbEntity
  8
Camada 1
 62
   250
420
  1907995
370
    15
100
AcDbLine
 10
69.9135492312501
 20
-57.49179549592683
 30
0.0
 11
65.68597023240463
 21
-57.49179549592683
 31
0.0
  0
LINE
  5
DB
330
79
100
AcDbEntity
  8
Camada 1
 62
   250
420
  1907995
370
    15
100
AcDbLine
 10
64.74994003389362
 20
-39.39455925810165
 30
0.0
 11
65.6859717088322
 21
-39.39455925810165
 31
0.0
  0
LINE
  5
DC
330
79
100
AcDbEntity
  8
Camada 1
 62
   250
420
  1907995
370
    15
100
AcDbLine
 10
60.99744203634918
 20
-39.39455925810165
 30
0.0
 11
63.77414548108425
 21
-39.39455925810165
 31
0.0
  0
LINE
  5
DD
330
79
100
AcDbEntity
  8
Camada 1
 62
   250
420
  1907995
370
    15
100
AcDbLine
 10
59.58633047972295
 20
-57.49179549592683
 30
0.0
 11
59.58633047972295
 21
-39.39455925810165
 31
0.0
  0
LINE
  5
DE
330
79
100
AcDbEntity
  8
Camada 1
 62
   250
420
  1907995
370
    15
100
AcDbLine
 10
65.68597205525728
 20
-39.39455925810165
 30
0.0
 11
65.68597205525728
 21
-57.49179549592683
 31
0.0
  0
LINE
  5
DF
330
79
100
AcDbEntity
  8
Camada 1
 62
   250
420
  1907995
370
    15
100
AcDbLine
 10
67.39167410054939
 20
-39.39455925810165
 30
0.0
 11
67.39167410054939
 21
-57.49179549592683
 31
0.0
  0
LINE
  5
E0
330
79
100
AcDbEntity
  8
Camada 1
 62
   250
420
  1907995
370
    15
100
AcDbLine
 10
68.02895008605259
 20
-39.39455925810165
 30
0.0
 11
68.02895008605259
 21
-57.49179549592683
 31
0.0
  0
LINE
  5
E1
330
79
100
AcDbEntity
  8
Camada 1
 62
   250
420
  1907995
370
    15
100
AcDbLine
 10
68.68898592817895
 20
-39.3945533827431
 30
0.0
 11
68.68898592817895
 21
-57.49178962056507
 31
0.0
  0
LINE
  5
E2
330
79
100
AcDbEntity
  8
Camada 1
 62
   250
420
  1907995
370
    15
100
AcDbLine
 10
69.326261913686
 20
-39.39455925810165
 30
0.0
 11
69.326261913686
 21
-57.49179549592683
 31
0.0
  0
LINE
  5
E3
330
79
100
AcDbEntity
  8
Camada 1
 62
   250
420
  1907995
370
    15
100
AcDbLine
 10
59.58633047972295
 20
-40.85304142671438
 30
0.0
 11
69.9135492312501
 21
-40.85304142671438
 31
0.0
  0
LINE
  5
E4
330
79
100
AcDbEntity
  8
Camada 1
 62
   250
420
  1907995
370
    15
100
AcDbLine
 10
59.58633048040315
 20
-56.0333133277052
 30
0.0
 11
69.9135492319303
 21
-56.03331332677859
 31
0.0
  0
LINE
  5
E5
330
79
100
AcDbEntity
  8
Camada 1
 62
   250
420
  1907995
370
    15
100
AcDbLine
 10
65.68597205525728
 20
-57.49179549592683
 30
0.0
 11
64.74993985548588
 21
-57.49179549592683
 31
0.0
  0
LWPOLYLINE
  5
E6
330
79
100
AcDbEntity
  8
Camada 1
 62
   250
420
  1907995
370
    15
100
AcDbPolyline
 90
        3
 70
     0
 43
0.0
 10
59.58633048040315
 20
-56.0333133277052
 10
60.99744159048128
 20
-56.0333133277052
 10
60.99744159048128
 20
-57.49179666131773
  0
LWPOLYLINE
  5
E7
330
79
100
AcDbEntity
  8
Camada 1
 62
   250
420
  1907995
370
    15
100
AcDbPolyline
 90
        8
 70
     0
 43
0.0
 10
59.58633048040315
 20
-56.0333133277052
 10
59.58633048040315
 20
-58.79629897819027
 10
60.99744159048128
 20
-58.79629897819027
 10
60.99744203634918
 20
-57.49179549592683
 10
64.74993823056658
 20
-57.49179549592683
 10
64.74993985548588
 20
-59.48389513060213
 10
65.68597205525728
 20
-59.48389513060213
 10
65.68597205525728
 20
-57.49179549592683
  0
LINE
  5
E8
330
79
100
AcDbEntity
  8
Camada 1
 62
   250
420
  1907995
370
    15
100
AcDbLine
 10
65.68597205444489
 20
-39.39455925788667
 30
0.0
 11
64.74993985467093
 21
-39.39455925797459
 31
0.0
  0
LINE
  5
E9
330
79
100
AcDbEntity
  8
Camada 1
 62
   250
420
  1907995
370
    15
100
AcDbLine
 10
60.99744158967017
 20
-39.39455809291896
 30
0.0
 11
60.99744158957777
 21
-38.39851062047441
 31
0.0
  0
LWPOLYLINE
  5
EA
330
79
100
AcDbEntity
  8
Camada 1
 62
   250
420
  1907995
370
    15
100
AcDbPolyline
 90
        3
 70
     0
 43
0.0
 10
59.58633047972295
 20
-40.85304142665791
 10
60.9974415897998
 20
-40.85304142653085
 10
60.99744158967017
 20
-39.39455809291896
  0
LINE
  5
EB
330
79
100
AcDbEntity
  8
Camada 1
 62
   250
420
  1907995
370
    15
100
AcDbLine
 10
59.58633047959204
 20
-39.39455809304249
 30
0.0
 11
59.58633047972295
 21
-40.85304142665791
 31
0.0
  0
LWPOLYLINE
  5
EC
330
79
100
AcDbEntity
  8
Camada 1
 62
   250
420
  1907995
370
    15
100
AcDbPolyline
 90
        3
 70
     0
 43
0.0
 10
63.77414409874515
 20
-39.3945533827431
 10
60.99744158957777
 20
-39.3945533827431
 10
60.99744158957777
 20
-38.39850944059138
  0
SPLINE
  5
ED
330
79
100
AcDbEntity
  8
Camada 1
 62
   250
420
  1907995
370
    15
100
AcDbSpline
210
0.0
220
0.0
230
1.0
 70
     8
 71
     3
 72
    47
 73
    43
 74
     0
 42
0.0000000001
 43
0.0000000001
 40
0.0
 40
0.0
 40
0.0
 40
0.0
 40
1.0
 40
1.0
 40
1.0
 40
2.0
 40
2.0
 40
2.0
 40
3.0
 40
3.0
 40
3.0
 40
4.0
 40
4.0
 40
4.0
 40
5.0
 40
5.0
 40
5.0
 40
6.0
 40
6.0
 40
6.0
 40
7.0
 40
7.0
 40
7.0
 40
8.0
 40
8.0
 40
8.0
 40
9.0
 40
9.0
 40
9.0
 40
10.0
 40
10.0
 40
10.0
 40
11.0
 40
11.0
 40
11.0
 40
12.0
 40
12.0
 40
12.0
 40
13.0
 40
13.0
 40
13.0
 40
14.0
 40
14.0
 40
14.0
 40
14.0
 10
70.41933983921694
 20
-36.47854054068631
 30
0.0
 10
70.42123316644207
 20
-36.45985109490824
 30
0.0
 10
70.40004817143624
 20
-36.43866463106709
 30
0.0
 10
70.3813587256588
 20
-36.44055942712463
 30
0.0
 10
70.3813587256588
 20
-36.44055942712463
 30
0.0
 10
69.91293282552781
 20
-36.44065049482048
 30
0.0
 10
69.91293282552781
 20
-36.44065049482048
 30
0.0
 10
69.91293282552781
 20
-36.44065049482048
 30
0.0
 10
69.91293282544055
 20
-39.39455871179374
 30
0.0
 10
69.91293282544055
 20
-39.39455871179374
 30
0.0
 10
69.91293282544055
 20
-39.39455871179374
 30
0.0
 10
69.9135492312501
 20
-39.39455925810165
 30
0.0
 10
69.9135492312501
 20
-39.39455925810165
 30
0.0
 10
69.9135492312501
 20
-39.39455925810165
 30
0.0
 10
65.6859717088322
 20
-39.39455925810165
 30
0.0
 10
65.6859717088322
 20
-39.39455925810165
 30
0.0
 10
65.6859717088322
 20
-39.39455925810165
 30
0.0
 10
65.6859720542652
 20
-37.40245962321137
 30
0.0
 10
65.6859720542652
 20
-37.40245962321137
 30
0.0
 10
65.6859720542652
 20
-37.40245962321137
 30
0.0
 10
64.74993985449509
 20
-37.40245962329608
 30
0.0
 10
64.74993985449509
 20
-37.40245962329608
 30
0.0
 10
64.74993985449509
 20
-37.40245962329608
 30
0.0
 10
64.74993985467093
 20
-39.39455925797459
 30
0.0
 10
64.74993985467093
 20
-39.39455925797459
 30
0.0
 10
64.74993985467093
 20
-39.39455925797459
 30
0.0
 10
63.77414548108425
 20
-39.39455925810165
 30
0.0
 10
63.77414548108425
 20
-39.39455925810165
 30
0.0
 10
63.77414409874515
 20
-39.3945533827431
 30
0.0
 10
63.77414409874515
 20
-38.39850944059138
 30
0.0
 10
63.77414409874515
 20
-38.39850944059138
 30
0.0
 10
63.77414409874515
 20
-38.39850944059138
 30
0.0
 10
60.99744158957777
 20
-38.39851062047441
 30
0.0
 10
60.99744158957777
 20
-38.39851062047441
 30
0.0
 10
60.99744158957777
 20
-38.39851062047441
 30
0.0
 10
60.99744158954954
 20
-38.09005577604579
 30
0.0
 10
60.99744158954954
 20
-38.09005577604579
 30
0.0
 10
60.99744158954954
 20
-38.09005577604579
 30
0.0
 10
59.58633047947269
 20
-38.09005577617252
 30
0.0
 10
59.58633047947269
 20
-38.09005577617252
 30
0.0
 10
59.58633047947269
 20
-38.09005577617252
 30
0.0
 10
59.58633047959204
 20
-39.39455809304249
 30
0.0
 10
59.58633047959204
 20
-39.39455809304249
 30
0.0
  0
LINE
  5
EE
330
79
100
AcDbEntity
  8
Camada 1
 62
   250
420
  1907995
370
    15
100
AcDbLine
 10
69.91293282490409
 20
-57.60192897073912
 30
0.0
 11
69.91293282544055
 21
-39.39455871179374
 31
0.0
  0
LWPOLYLINE
  5
EF
330
79
100
AcDbEntity
  8
Camada 1
 62
   250
420
  1907995
370
    15
100
AcDbPolyline
 90
        1
 70
     0
 43
0.0
 10
36.56364851070657
 20
-54.6297222455402
  0
SPLINE
  5
F0
330
79
100
AcDbEntity
  8
Camada 1
 62
   250
420
  1907995
370
    15
100
AcDbSpline
210
0.0
220
0.0
230
1.0
 70
     8
 71
     3
 72
     8
 73
     4
 74
     0
 42
0.0000000001
 43
0.0000000001
 40
0.0
 40
0.0
 40
0.0
 40
0.0
 40
1.0
 40
1.0
 40
1.0
 40
1.0
 10
31.05108073653675
 20
-62.06454563287007
 30
0.0
 10
30.99931587543523
 20
-62.57514988326
 30
0.0
 10
31.57814682052168
 20
-63.1539802603491
 30
0.0
 10
32.08875050291427
 20
-63.10221483123998
 30
0.0
  0
LINE
  5
F1
330
79
100
AcDbEntity
  8
Camada 1
 62
   250
420
  1907995
370
    15
100
AcDbLine
 10
31.11593463543334
 20
-56.61677495740614
 30
0.0
 11
31.05108073653675
 21
-56.61677495740614
 31
0.0
  0
LINE
  5
F2
330
79
100
AcDbEntity
  8
Camada 1
 62
   250
420
  1907995
370
    15
100
AcDbLine
 10
31.05108073653675
 20
-54.67322210972673
 30
0.0
 11
31.05157660227281
 21
-54.67764798121051
 31
0.0
  0
LINE
  5
F3
330
79
100
AcDbEntity
  8
Camada 1
 62
   250
420
  1907995
370
    15
100
AcDbLine
 10
31.05108073653675
 20
-54.70752715774678
 30
0.0
 11
31.05228149273872
 21
-54.71414097288359
 31
0.0
  0
SPLINE
  5
F4
330
79
100
AcDbEntity
  8
Camada 1
 62
   250
420
  1907995
370
    15
100
AcDbSpline
210
0.0
220
0.0
230
1.0
 70
     8
 71
     3
 72
     8
 73
     4
 74
     0
 42
0.0000000001
 43
0.0000000001
 40
0.0
 40
0.0
 40
0.0
 40
0.0
 40
1.0
 40
1.0
 40
1.0
 40
1.0
 10
36.56370531090625
 20
-51.16900428193709
 30
0.0
 10
36.61546960400272
 20
-50.65840116754953
 30
0.0
 10
36.03663922691747
 20
-50.07956965446286
 30
0.0
 10
35.52603497652881
 20
-50.13133394756447
 30
0.0
  0
SPLINE
  5
F5
330
79
100
AcDbEntity
  8
Camada 1
 62
   250
420
  1907995
370
    15
100
AcDbSpline
210
0.0
220
0.0
230
1.0
 70
     8
 71
     3
 72
     8
 73
     4
 74
     0
 42
0.0000000001
 43
0.0000000001
 40
0.0
 40
0.0
 40
0.0
 40
0.0
 40
1.0
 40
1.0
 40
1.0
 40
1.0
 10
32.08875050291427
 20
-50.13133394756447
 30
0.0
 10
31.57814682052168
 20
-50.07956965446286
 30
0.0
 10
30.99931587543523
 20
-50.65840116754953
 30
0.0
 10
31.05108073653675
 20
-51.16900428193709
 30
0.0
  0
LINE
  5
F6
330
79
100
AcDbEntity
  8
Camada 1
 62
   250
420
  1907995
370
    15
100
AcDbLine
 10
36.55990651361265
 20
-52.83137910589214
 30
0.0
 11
36.55990651361265
 21
-54.60628875555548
 31
0.0
  0
LINE
  5
F7
330
79
100
AcDbEntity
  8
Camada 1
 62
   250
420
  1907995
370
    15
100
AcDbLine
 10
36.56370531090625
 20
-53.71883449872371
 30
0.0
 11
36.55073441752001
 21
-53.71883449872371
 31
0.0
  0
LINE
  5
F8
330
79
100
AcDbEntity
  8
Camada 1
 62
   250
420
  1907995
370
    15
100
AcDbLine
 10
36.55990651361265
 20
-52.83137910589214
 30
0.0
 11
36.55990651361265
 21
-52.72335080794158
 31
0.0
  0
LINE
  5
F9
330
79
100
AcDbEntity
  8
Camada 1
 62
   250
420
  1907995
370
    15
100
AcDbLine
 10
31.06405162991785
 20
-53.71883449872371
 30
0.0
 11
31.05108073653675
 21
-53.71883449872371
 31
0.0
  0
LINE
  5
FA
330
79
100
AcDbEntity
  8
Camada 1
 62
   250
420
  1907995
370
    15
100
AcDbLine
 10
36.55990651361265
 20
-51.16512823637475
 30
0.0
 11
36.55990651361265
 21
-52.72335080794158
 31
0.0
  0
SPLINE
  5
FB
330
79
100
AcDbEntity
  8
Camada 1
 62
   250
420
  1907995
370
    15
100
AcDbSpline
210
0.0
220
0.0
230
1.0
 70
     8
 71
     3
 72
    17
 73
    13
 74
     0
 42
0.0000000001
 43
0.0000000001
 40
0.0
 40
0.0
 40
0.0
 40
0.0
 40
1.0
 40
1.0
 40
1.0
 40
2.0
 40
2.0
 40
2.0
 40
3.0
 40
3.0
 40
3.0
 40
4.0
 40
4.0
 40
4.0
 40
4.0
 10
35.52603497652881
 20
-50.13336512267012
 30
0.0
 10
35.65610175157599
 20
-50.13333217855564
 30
0.0
 10
35.78620715076299
 20
-50.15844013839548
 30
0.0
 10
35.90545689596718
 20
-50.20541276673415
 30
0.0
 10
36.04443221418416
 20
-50.26021473446367
 30
0.0
 10
36.16879284126758
 20
-50.34484703055476
 30
0.0
 10
36.26897930377867
 20
-50.44813137590667
 30
0.0
 10
36.37144686227241
 20
-50.55383995373474
 30
0.0
 10
36.44850655587033
 20
-50.67921730437849
 30
0.0
 10
36.49733427869798
 20
-50.81293065218458
 30
0.0
 10
36.53870299942858
 20
-50.92629135278576
 30
0.0
 10
36.55967476880255
 20
-51.04563765833054
 30
0.0
 10
36.55990651361265
 20
-51.16512823637475
 30
0.0
  0
LINE
  5
FC
330
79
100
AcDbEntity
  8
Camada 1
 62
   250
420
  1907995
370
    15
100
AcDbLine
 10
35.90258621392216
 20
-50.21045208036421
 30
0.0
 11
35.90735288660011
 21
-50.20387007333692
 31
0.0
  0
LINE
  5
FD
330
79
100
AcDbEntity
  8
Camada 1
 62
   250
420
  1907995
370
    15
100
AcDbLine
 10
36.2631481953777
 20
-50.45165185222085
 30
0.0
 11
36.27247933202313
 21
-50.4481222878761
 31
0.0
  0
LINE
  5
FE
330
79
100
AcDbEntity
  8
Camada 1
 62
   250
420
  1907995
370
    15
100
AcDbLine
 10
36.48926865047853
 20
-50.81398259186606
 30
0.0
 11
36.50146138113842
 21
-50.81503907555962
 31
0.0
  0
LINE
  5
FF
330
79
100
AcDbEntity
  8
Camada 1
 62
   250
420
  1907995
370
    15
100
AcDbLine
 10
32.08875050291427
 20
-50.13336512267012
 30
0.0
 11
35.52603497652881
 21
-50.13336512267012
 31
0.0
  0
LINE
  5
100
330
79
100
AcDbEntity
  8
Camada 1
 62
   250
420
  1907995
370
    15
100
AcDbLine
 10
33.80739273971898
 20
-50.1388236217674
 30
0.0
 11
33.80739273971898
 21
-50.13133394756447
 31
0.0
  0
LINE
  5
101
330
79
100
AcDbEntity
  8
Camada 1
 62
   250
420
  1907995
370
    15
100
AcDbLine
 10
31.35164239607993
 20
-50.45165412423074
 30
0.0
 11
31.34231182743312
 21
-50.44812455988086
 31
0.0
  0
LWPOLYLINE
  5
102
330
79
100
AcDbEntity
  8
Camada 1
 62
   250
420
  1907995
370
    15
100
AcDbPolyline
 90
        1
 70
     0
 43
0.0
 10
33.80739614773252
 20
-63.10221937525718
  0
LINE
  5
103
330
79
100
AcDbEntity
  8
Camada 1
 62
   250
420
  1907995
370
    15
100
AcDbLine
 10
36.56370871891593
 20
-51.16900882595173
 30
0.0
 11
36.56370871891593
 21
-54.60629329956883
 31
0.0
  0
LWPOLYLINE
  5
104
330
79
100
AcDbEntity
  8
Camada 1
 62
   250
420
  1907995
370
    15
100
AcDbPolyline
 90
        1
 70
     0
 43
0.0
 10
36.56370871891593
 20
-56.6167795014195
  0
LINE
  5
105
330
79
100
AcDbEntity
  8
Camada 1
 62
   250
420
  1907995
370
    15
100
AcDbLine
 10
32.08875504692442
 20
-50.13133849157783
 30
0.0
 11
35.52603838454107
 21
-50.13133849157783
 31
0.0
  0
LWPOLYLINE
  5
106
330
79
100
AcDbEntity
  8
Camada 1
 62
   250
420
  1907995
370
    15
100
AcDbPolyline
 90
        1
 70
     0
 43
0.0
 10
33.80739614773252
 20
-50.13133849157783
  0
LINE
  5
107
330
79
100
AcDbEntity
  8
Camada 1
 62
   250
420
  1907995
370
    15
100
AcDbLine
 10
31.0510841445503
 20
-54.60629329956883
 30
0.0
 11
31.0510841445503
 21
-51.16900882595173
 31
0.0
  0
LWPOLYLINE
  5
108
330
79
100
AcDbEntity
  8
Camada 1
 62
   250
420
  1907995
370
    15
100
AcDbPolyline
 90
        1
 70
     0
 43
0.0
 10
31.0510841445503
 20
-56.6167795014195
  0
LINE
  5
109
330
79
100
AcDbEntity
  8
Camada 1
 62
   250
420
  1907995
370
    15
100
AcDbLine
 10
31.05108073653675
 20
-54.60628875555548
 30
0.0
 11
31.05108073653675
 21
-54.64526732392386
 31
0.0
  0
SPLINE
  5
10A
330
79
100
AcDbEntity
  8
Camada 1
 62
   250
420
  1907995
370
    15
100
AcDbSpline
210
0.0
220
0.0
230
1.0
 70
     8
 71
     3
 72
     8
 73
     4
 74
     0
 42
0.0000000001
 43
0.0000000001
 40
0.0
 40
0.0
 40
0.0
 40
0.0
 40
1.0
 40
1.0
 40
1.0
 40
1.0
 10
35.52603497652881
 20
-50.13133394756447
 30
0.0
 10
36.03663922691747
 20
-50.07956965446286
 30
0.0
 10
36.61546960400272
 20
-50.65840116754953
 30
0.0
 10
36.56370531090625
 20
-51.16900428193709
 30
0.0
  0
SPLINE
  5
10B
330
79
100
AcDbEntity
  8
Camada 1
 62
   250
420
  1907995
370
    15
100
AcDbSpline
210
0.0
220
0.0
230
1.0
 70
     8
 71
     3
 72
     8
 73
     4
 74
     0
 42
0.0000000001
 43
0.0000000001
 40
0.0
 40
0.0
 40
0.0
 40
0.0
 40
1.0
 40
1.0
 40
1.0
 40
1.0
 10
31.05108073653675
 20
-51.16900428193709
 30
0.0
 10
30.99931587543523
 20
-50.65840116754953
 30
0.0
 10
31.57814682052168
 20
-50.07956965446286
 30
0.0
 10
32.08875050291427
 20
-50.13133394756447
 30
0.0
  0
SPLINE
  5
10C
330
79
100
AcDbEntity
  8
Camada 1
 62
   250
420
  1907995
370
    15
100
AcDbSpline
210
0.0
220
0.0
230
1.0
 70
     8
 71
     3
 72
     8
 73
     4
 74
     0
 42
0.0000000001
 43
0.0000000001
 40
0.0
 40
0.0
 40
0.0
 40
0.0
 40
1.0
 40
1.0
 40
1.0
 40
1.0
 10
32.08875050291427
 20
-63.10221483123998
 30
0.0
 10
31.57814682052168
 20
-63.1539802603491
 30
0.0
 10
30.99931587543523
 20
-62.57514988326
 30
0.0
 10
31.05108073653675
 20
-62.06454563287007
 30
0.0
  0
LINE
  5
10D
330
79
100
AcDbEntity
  8
Camada 1
 62
   250
420
  1907995
370
    15
100
AcDbLine
 10
31.05221787651709
 20
-54.65486201349277
 30
0.0
 11
31.05108073653675
 21
-54.60628875555548
 31
0.0
  0
LINE
  5
10E
330
79
100
AcDbEntity
  8
Camada 1
 62
   250
420
  1907995
370
    15
100
AcDbLine
 10
31.05108073653675
 20
-54.64526732392386
 30
0.0
 11
31.05108073653675
 21
-54.65202427556416
 31
0.0
  0
LWPOLYLINE
  5
10F
330
79
100
AcDbEntity
  8
Camada 1
 62
   250
420
  1907995
370
    15
100
AcDbPolyline
 90
        5
 70
     0
 43
0.0
 10
36.56370531090625
 20
-55.65002194313949
 10
36.56370531090625
 20
-55.60685379211271
 10
36.56370531090625
 20
-55.27151677891117
 10
36.56370531090625
 20
-54.92758021561996
 10
36.56370531090625
 20
-54.60628875555548
  0
SPLINE
  5
110
330
79
100
AcDbEntity
  8
Camada 1
 62
   250
420
  1907995
370
    15
100
AcDbSpline
210
0.0
220
0.0
230
1.0
 70
    24
 71
     3
 72
    14
 73
    10
 74
     0
 42
0.0000000001
 43
0.0000000001
 40
0.0
 40
0.0
 40
0.0
 40
0.0
 40
1.0
 40
1.0
 40
1.0
 40
2.0
 40
2.0
 40
2.0
 40
3.0
 40
3.0
 40
3.0
 40
3.0
 10
31.05108073653675
 20
-54.60628875555548
 30
0.0
 10
31.05108073653675
 20
-54.60628875555548
 30
0.0
 10
31.05108073653675
 20
-54.67322210972673
 30
0.0
 10
31.05108073653675
 20
-54.67322210972673
 30
0.0
 10
31.05108073653675
 20
-54.69709409724729
 30
0.0
 10
31.05108073653675
 20
-54.72330170893386
 30
0.0
 10
31.05108073653675
 20
-54.70752715774678
 30
0.0
 10
31.05108073653675
 20
-54.69229107244069
 30
0.0
 10
31.05108073653675
 20
-54.63788784210738
 30
0.0
 10
31.05108073653675
 20
-54.64526732392386
 30
0.0
  0
LWPOLYLINE
  5
111
330
79
100
AcDbEntity
  8
Camada 1
 62
   250
420
  1907995
370
    15
100
AcDbPolyline
 90
       31
 70
     0
 43
0.0
 10
31.05108073653675
 20
-54.64526732392386
 10
31.05108073653675
 20
-54.64628291147797
 10
31.05108073653675
 20
-54.65314210347715
 10
31.05108073653675
 20
-54.6613008840198
 10
31.05108073653675
 20
-54.66935742420484
 10
31.05108073653675
 20
-54.67745940455166
 10
31.05108073653675
 20
-54.69365427721092
 10
31.05108073653675
 20
-54.70996275026693
 10
31.05108073653675
 20
-54.71441134183289
 10
31.05108073653675
 20
-54.71883494130807
 10
31.05108073653675
 20
-54.72787071691856
 10
31.05108073653675
 20
-54.73235566061189
 10
31.05108073653675
 20
-54.73687241241155
 10
31.05108073653675
 20
-54.7458900119622
 10
31.05108073653675
 20
-54.75041130777906
 10
31.05108073653675
 20
-54.75492124355805
 10
31.05108073653675
 20
-54.75944253937491
 10
31.05108073653675
 20
-54.76396383519563
 10
31.05108073653675
 20
-54.77301324285645
 10
31.05108073653675
 20
-54.78206492252202
 10
31.05108073653675
 20
-54.79855288420761
 10
31.05108073653675
 20
-54.81506810998487
 10
31.05108073653675
 20
-54.84823033800756
 10
31.05108073653675
 20
-54.88156978264736
 10
31.05108073653675
 20
-54.91517959623261
 10
31.05108073653675
 20
-54.97940017291631
 10
31.05108073653675
 20
-55.04464996919803
 10
31.05108073653675
 20
-55.11102668142073
 10
31.05108073653675
 20
-55.17854166962745
 10
31.05108073653675
 20
-55.55529057171533
 10
31.05108073653675
 20
-55.65002194313949
  0
LINE
  5
112
330
79
100
AcDbEntity
  8
Camada 1
 62
   250
420
  1907995
370
    15
100
AcDbLine
 10
31.05108073653675
 20
-52.72722685350393
 30
0.0
 11
31.05108073653675
 21
-52.83137910589214
 31
0.0
  0
LINE
  5
113
330
79
100
AcDbEntity
  8
Camada 1
 62
   250
420
  1907995
370
    15
100
AcDbLine
 10
36.56370531090625
 20
-52.83137910589214
 30
0.0
 11
36.56370531090625
 21
-52.72722685350393
 31
0.0
  0
LINE
  5
114
330
79
100
AcDbEntity
  8
Camada 1
 62
   250
420
  1907995
370
    15
100
AcDbLine
 10
36.55073441752001
 20
-54.60628875555548
 30
0.0
 11
36.56370531090625
 21
-54.60628875555548
 31
0.0
  0
SPLINE
  5
115
330
79
100
AcDbEntity
  8
Camada 1
 62
   250
420
  1907995
370
    15
100
AcDbSpline
210
0.0
220
0.0
230
1.0
 70
     8
 71
     3
 72
    17
 73
    13
 74
     0
 42
0.0000000001
 43
0.0000000001
 40
0.0
 40
0.0
 40
0.0
 40
0.0
 40
1.0
 40
1.0
 40
1.0
 40
2.0
 40
2.0
 40
2.0
 40
3.0
 40
3.0
 40
3.0
 40
4.0
 40
4.0
 40
4.0
 40
4.0
 10
35.52603497652881
 20
-50.13133394756447
 30
0.0
 10
35.6567901699837
 20
-50.13128850740525
 30
0.0
 10
35.78752037135679
 20
-50.15655437180127
 30
0.0
 10
35.90735288660011
 20
-50.20387007333692
 30
0.0
 10
36.0470734234219
 20
-50.25903783434625
 30
0.0
 10
36.17197819641232
 20
-50.34418019622428
 30
0.0
 10
36.27247933202313
 20
-50.4481222878761
 30
0.0
 10
36.37536153196688
 20
-50.55452610013769
 30
0.0
 10
36.4526711464418
 20
-50.68063162932753
 30
0.0
 10
36.50146138113842
 20
-50.81503907555962
 30
0.0
 10
36.54284259791312
 20
-50.92903593838733
 30
0.0
 10
36.56370985491574
 20
-51.04900477410831
 30
0.0
 10
36.56370531090625
 20
-51.16900428193709
 30
0.0
  0
LINE
  5
116
330
79
100
AcDbEntity
  8
Camada 1
 62
   250
420
  1907995
370
    15
100
AcDbLine
 10
35.52603497652881
 20
-50.1388236217674
 30
0.0
 11
35.52603497652881
 21
-50.13133394756447
 31
0.0
  0
SPLINE
  5
117
330
79
100
AcDbEntity
  8
Camada 1
 62
   250
420
  1907995
370
    15
100
AcDbSpline
210
0.0
220
0.0
230
1.0
 70
     8
 71
     3
 72
    17
 73
    13
 74
     0
 42
0.0000000001
 43
0.0000000001
 40
0.0
 40
0.0
 40
0.0
 40
0.0
 40
1.0
 40
1.0
 40
1.0
 40
2.0
 40
2.0
 40
2.0
 40
3.0
 40
3.0
 40
3.0
 40
4.0
 40
4.0
 40
4.0
 40
4.0
 10
31.05108073653675
 20
-51.16900428193709
 30
0.0
 10
31.05110800063228
 20
-51.04901045413046
 30
0.0
 10
31.07194458553482
 20
-50.92903593838733
 30
0.0
 10
31.11331728227758
 20
-50.81503793955596
 30
0.0
 10
31.1620978609418
 20
-50.68062822131398
 30
0.0
 10
31.23942735548461
 20
-50.55452950814739
 30
0.0
 10
31.34231182743312
 20
-50.44812455988086
 30
0.0
 10
31.44281637105748
 20
-50.34418133222859
 30
0.0
 10
31.5677069439951
 20
-50.25903215432795
 30
0.0
 10
31.70742861682825
 20
-50.20386780133152
 30
0.0
 10
31.82726113206771
 20
-50.15655550780621
 30
0.0
 10
31.95800212547749
 20
-50.1312998674457
 30
0.0
 10
32.08875050291427
 20
-50.13133394756447
 30
0.0
  0
LWPOLYLINE
  5
118
330
79
100
AcDbEntity
  8
Camada 1
 62
   250
420
  1907995
370
    15
100
AcDbPolyline
 90
        1
 70
     0
 43
0.0
 10
36.56370871891593
 20
-54.60629329956883
  0
LINE
  5
119
330
79
100
AcDbEntity
  8
Camada 1
 62
   250
420
  1907995
370
    15
100
AcDbLine
 10
36.56370871891593
 20
-62.06454790488251
 30
0.0
 11
36.56370871891593
 21
-51.16900882595173
 31
0.0
  0
LWPOLYLINE
  5
11A
330
79
100
AcDbEntity
  8
Camada 1
 62
   250
420
  1907995
370
    15
100
AcDbPolyline
 90
        1
 70
     0
 43
0.0
 10
36.56370871891593
 20
-62.06454790488251
  0
LINE
  5
11B
330
79
100
AcDbEntity
  8
Camada 1
 62
   250
420
  1907995
370
    15
100
AcDbLine
 10
31.0510841445503
 20
-51.16900882595173
 30
0.0
 11
31.0510841445503
 21
-60.67492246377439
 31
0.0
  0
LWPOLYLINE
  5
11C
330
79
100
AcDbEntity
  8
Camada 1
 62
   250
420
  1907995
370
    15
100
AcDbPolyline
 90
        1
 70
     0
 43
0.0
 10
31.0510841445503
 20
-51.16900882595173
  0
LINE
  5
11D
330
79
100
AcDbEntity
  8
Camada 1
 62
   250
420
  1907995
370
    15
100
AcDbLine
 10
35.52603838454107
 20
-50.13133849157783
 30
0.0
 11
32.08875504692442
 21
-50.13133849157783
 31
0.0
  0
LWPOLYLINE
  5
11E
330
79
100
AcDbEntity
  8
Camada 1
 62
   250
420
  1907995
370
    15
100
AcDbPolyline
 90
        1
 70
     0
 43
0.0
 10
31.0510841445503
 20
-62.06454790488251
  0
LWPOLYLINE
  5
11F
330
79
100
AcDbEntity
  8
Camada 1
 62
   250
420
  1907995
370
    15
100
AcDbPolyline
 90
        1
 70
     0
 43
0.0
 10
32.08875504692442
 20
-63.10221937525718
  0
LINE
  5
120
330
79
100
AcDbEntity
  8
Camada 1
 62
   250
420
  1907995
370
    15
100
AcDbLine
 10
36.56370871891593
 20
-59.84250983026139
 30
0.0
 11
36.56370871891593
 21
-55.65002421514809
 31
0.0
  0
LINE
  5
121
330
79
100
AcDbEntity
  8
Camada 1
 62
   250
420
  1907995
370
    15
100
AcDbLine
 10
31.0510841445503
 20
-59.78437200748086
 30
0.0
 11
31.0510841445503
 21
-55.65002421514809
 31
0.0
  0
LWPOLYLINE
  5
122
330
79
100
AcDbEntity
  8
Camada 1
 62
   250
420
  1907995
370
    15
100
AcDbPolyline
 90
        1
 70
     0
 43
0.0
 10
36.56370871891593
 20
-51.16900882595173
  0
LWPOLYLINE
  5
123
330
79
100
AcDbEntity
  8
Camada 1
 62
   250
420
  1907995
370
    15
100
AcDbPolyline
 90
        1
 70
     0
 43
0.0
 10
35.52603838454107
 20
-50.13133849157783
  0
LWPOLYLINE
  5
124
330
79
100
AcDbEntity
  8
Camada 1
 62
   250
420
  1907995
370
    15
100
AcDbPolyline
 90
        1
 70
     0
 43
0.0
 10
32.08875504692442
 20
-50.13133849157783
  0
LWPOLYLINE
  5
125
330
79
100
AcDbEntity
  8
Camada 1
 62
   250
420
  1907995
370
    15
100
AcDbPolyline
 90
        1
 70
     0
 43
0.0
 10
31.0510841445503
 20
-54.60629329956883
  0
LINE
  5
126
330
79
100
AcDbEntity
  8
Camada 1
 62
   250
420
  1907995
370
    15
100
AcDbLine
 10
36.56370871891593
 20
-52.83138364990549
 30
0.0
 11
36.56370871891593
 21
-54.60629329956883
 31
0.0
  0
LINE
  5
127
330
79
100
AcDbEntity
  8
Camada 1
 62
   250
420
  1907995
370
    15
100
AcDbLine
 10
32.08875504692442
 20
-50.13133849157783
 30
0.0
 11
35.52603838454107
 21
-50.13133849157783
 31
0.0
  0
LINE
  5
128
330
79
100
AcDbEntity
  8
Camada 1
 62
   250
420
  1907995
370
    15
100
AcDbLine
 10
31.0510841445503
 20
-52.83138364990549
 30
0.0
 11
31.0510841445503
 21
-54.60629329956883
 31
0.0
  0
LINE
  5
129
330
79
100
AcDbEntity
  8
Camada 1
 62
   250
420
  1907995
370
    15
100
AcDbLine
 10
36.56370871891593
 20
-51.16900882595173
 30
0.0
 11
36.56370871891593
 21
-52.72723026151747
 31
0.0
  0
LINE
  5
12A
330
79
100
AcDbEntity
  8
Camada 1
 62
   250
420
  1907995
370
    15
100
AcDbLine
 10
31.0510841445503
 20
-52.72723026151747
 30
0.0
 11
31.0510841445503
 21
-51.16900882595173
 31
0.0
  0
SPLINE
  5
12B
330
79
100
AcDbEntity
  8
Camada 1
 62
   250
420
  1907995
370
    15
100
AcDbSpline
210
0.0
220
0.0
230
1.0
 70
     8
 71
     3
 72
     8
 73
     4
 74
     0
 42
0.0000000001
 43
0.0000000001
 40
0.0
 40
0.0
 40
0.0
 40
0.0
 40
1.0
 40
1.0
 40
1.0
 40
1.0
 10
36.56370871891593
 20
-59.84250983026139
 30
0.0
 10
36.56370871891593
 20
-59.84250983026139
 30
0.0
 10
36.56370871891593
 20
-60.30793078190725
 30
0.0
 10
36.56370839221797
 20
-60.81275918269628
 30
0.0
  0
LINE
  5
12C
330
79
100
AcDbEntity
  8
Camada 1
 62
   250
420
  1907995
370
    15
100
AcDbLine
 10
31.0835070403864
 20
-59.82328476763888
 30
0.0
 11
31.11593667781892
 21
-59.82328476763888
 31
0.0
  0
SPLINE
  5
12D
330
79
100
AcDbEntity
  8
Camada 1
 62
   250
420
  1907995
370
    15
100
AcDbSpline
210
0.0
220
0.0
230
1.0
 70
     8
 71
     3
 72
    62
 73
    58
 74
     0
 42
0.0000000001
 43
0.0000000001
 40
0.0
 40
0.0
 40
0.0
 40
0.0
 40
1.0
 40
1.0
 40
1.0
 40
2.0
 40
2.0
 40
2.0
 40
3.0
 40
3.0
 40
3.0
 40
4.0
 40
4.0
 40
4.0
 40
5.0
 40
5.0
 40
5.0
 40
6.0
 40
6.0
 40
6.0
 40
7.0
 40
7.0
 40
7.0
 40
8.0
 40
8.0
 40
8.0
 40
9.0
 40
9.0
 40
9.0
 40
10.0
 40
10.0
 40
10.0
 40
11.0
 40
11.0
 40
11.0
 40
12.0
 40
12.0
 40
12.0
 40
13.0
 40
13.0
 40
13.0
 40
14.0
 40
14.0
 40
14.0
 40
15.0
 40
15.0
 40
15.0
 40
16.0
 40
16.0
 40
16.0
 40
17.0
 40
17.0
 40
17.0
 40
18.0
 40
18.0
 40
18.0
 40
19.0
 40
19.0
 40
19.0
 40
19.0
 10
31.0510841445503
 20
-60.72376047604336
 30
0.0
 10
29.93785936776883
 20
-60.56954011565943
 30
0.0
 10
28.95941310270884
 20
-60.26843529631459
 30
0.0
 10
27.92250224144746
 20
-59.91812225023652
 30
0.0
 10
27.02525158213739
 20
-59.64789790307902
 30
0.0
 10
26.23475432685981
 20
-58.8328085810541
 30
0.0
 10
26.03015783131944
 20
-57.96690941405536
 30
0.0
 10
24.40563136195283
 20
-51.94416722555492
 30
0.0
 10
24.40563136195283
 20
-45.3553367523381
 30
0.0
 10
26.03015783131944
 20
-39.33259456383349
 30
0.0
 10
26.23475432685981
 20
-38.46669539683828
 30
0.0
 10
27.02525158213739
 20
-37.65160607481015
 30
0.0
 10
27.92250224144746
 20
-37.381381727652
 30
0.0
 10
31.62731561611822
 20
-36.12973656998411
 30
0.0
 10
36.0085543130917
 20
-36.12973656998411
 30
0.0
 10
39.71336839459139
 20
-37.381381727652
 30
0.0
 10
40.61061834707381
 20
-37.65160607481015
 30
0.0
 10
41.40111560235075
 20
-38.46669539683828
 30
0.0
 10
41.60571209789176
 20
-39.33259456383349
 30
0.0
 10
43.23023892067027
 20
-45.3553367523381
 30
0.0
 10
43.23023892067027
 20
-51.94416722555492
 30
0.0
 10
41.60571209789176
 20
-57.96690941405536
 30
0.0
 10
41.40111560235075
 20
-58.8328085810541
 30
0.0
 10
40.61061834707381
 20
-59.64789790307902
 30
0.0
 10
39.71336839459139
 20
-59.91812225023652
 30
0.0
 10
38.67645778953862
 20
-60.26843514292414
 30
0.0
 10
37.676932748213
 20
-60.52070177862273
 30
0.0
 10
36.56370839221797
 20
-60.67492215734128
 30
0.0
 10
36.56370839221797
 20
-60.67492215734128
 30
0.0
 10
36.56370839221797
 20
-60.66216548388418
 30
0.0
 10
36.56370839221797
 20
-60.66216548388418
 30
0.0
 10
36.56370800508351
 20
-61.26039054714858
 30
0.0
 10
36.56370715918942
 20
-62.06454686506313
 30
0.0
 10
36.56370531090625
 20
-62.06454563287007
 30
0.0
 10
36.61546960400272
 20
-62.57514988326
 30
0.0
 10
36.03663922691747
 20
-63.1539802603491
 30
0.0
 10
35.52603497652881
 20
-63.10221483123998
 30
0.0
 10
36.03663922691747
 20
-63.1539802603491
 30
0.0
 10
36.61546960400272
 20
-62.57514988326
 30
0.0
 10
36.56370531090625
 20
-62.06454563287007
 30
0.0
 10
36.61546960400272
 20
-62.57514988326
 30
0.0
 10
36.03663922691747
 20
-63.1539802603491
 30
0.0
 10
35.52603838454107
 20
-63.10221937525718
 30
0.0
 10
35.52603838454107
 20
-63.10221937525718
 30
0.0
 10
32.08875504692442
 20
-63.10221937525718
 30
0.0
 10
32.08875504692442
 20
-63.10221937525718
 30
0.0
 10
32.08875504692442
 20
-63.10221937525718
 30
0.0
 10
35.52603838454107
 20
-63.10221937525718
 30
0.0
 10
35.52603838454107
 20
-63.10221937525718
 30
0.0
 10
35.52603838454107
 20
-63.10221937525718
 30
0.0
 10
32.08875504692442
 20
-63.10221937525718
 30
0.0
 10
32.08875050291427
 20
-63.10221483123998
 30
0.0
 10
31.57814682052168
 20
-63.1539802603491
 30
0.0
 10
30.99931587543523
 20
-62.57514988326
 30
0.0
 10
31.0510841445503
 20
-62.06454790488251
 30
0.0
 10
31.0510841445503
 20
-62.06454790488251
 30
0.0
 10
31.0510841445503
 20
-60.67492246377439
 30
0.0
 10
31.0510841445503
 20
-60.67492246377439
 30
0.0
  0
SPLINE
  5
12E
330
79
100
AcDbEntity
  8
Camada 1
 62
   250
420
  1907995
370
    15
100
AcDbSpline
210
0.0
220
0.0
230
1.0
 70
     8
 71
     3
 72
     8
 73
     4
 74
     0
 42
0.0000000001
 43
0.0000000001
 40
0.0
 40
0.0
 40
0.0
 40
0.0
 40
1.0
 40
1.0
 40
1.0
 40
1.0
 10
31.0340271466327
 20
-52.03829296710856
 30
0.0
 10
30.69108252282678
 20
-52.81042100329725
 30
0.0
 10
30.67640449252516
 20
-53.7097240417401
 30
0.0
 10
31.03318053561011
 20
-54.51229245910425
 30
0.0
  0
SPLINE
  5
12F
330
79
100
AcDbEntity
  8
Camada 1
 62
   250
420
  1907995
370
    15
100
AcDbSpline
210
0.0
220
0.0
230
1.0
 70
     8
 71
     3
 72
     8
 73
     4
 74
     0
 42
0.0000000001
 43
0.0000000001
 40
0.0
 40
0.0
 40
0.0
 40
0.0
 40
1.0
 40
1.0
 40
1.0
 40
1.0
 10
36.56728390954214
 20
-54.54300064119307
 30
0.0
 10
36.92845657977188
 20
-53.7547220261334
 30
0.0
 10
36.92842186178245
 20
-52.86966508223327
 30
0.0
 10
36.60849553136072
 20
-52.10204972156403
 30
0.0
  0
CIRCLE
  5
130
330
79
100
AcDbEntity
  8
Camada 1
 62
   250
420
  1907995
370
    15
100
AcDbCircle
 10
31.04965363665287
 20
-45.46411931894089
 30
0.0
 40
1.744085448801604
  0
CIRCLE
  5
131
330
79
100
AcDbEntity
  8
Camada 1
 62
   250
420
  1907995
370
    15
100
AcDbCircle
 10
31.04965363665287
 20
-45.46411931893985
 30
0.0
 40
1.416801074913849
  0
CIRCLE
  5
132
330
79
100
AcDbEntity
  8
Camada 1
 62
   250
420
  1907995
370
    15
100
AcDbCircle
 10
36.58729699817356
 20
-45.46411931894089
 30
0.0
 40
1.744085448801283
  0
CIRCLE
  5
133
330
79
100
AcDbEntity
  8
Camada 1
 62
   250
420
  1907995
370
    15
100
AcDbCircle
 10
36.58729699817356
 20
-45.46411931893985
 30
0.0
 40
1.416801074913528
  0
LWPOLYLINE
  5
134
330
79
100
AcDbEntity
  8
Camada 1
  6
AI-Linetype-0
 62
   250
420
  1907995
370
    15
100
AcDbPolyline
 90
        6
 70
     0
 43
0.0
 10
36.49656304237353
 20
-57.54653052513163
 10
39.65147080911027
 20
-57.54653052513163
 10
39.65147080911027
 20
-39.34250794920912
 10
27.94888411609261
 20
-39.34250794920912
 10
27.94888411609261
 20
-57.54653052513163
 10
31.0510841445503
 20
-57.54653052513163
  0
CIRCLE
  5
136
330
79
100
AcDbEntity
  8
Camada 1
 62
   250
420
  1907995
370
    15
100
AcDbCircle
 10
33.79963262837469
 20
-42.70223194348273
 30
0.0
 40
1.744085448802246
  0
CIRCLE
  5
137
330
79
100
AcDbEntity
  8
Camada 1
 62
   250
420
  1907995
370
    15
100
AcDbCircle
 10
33.79963262837436
 20
-42.70223194348265
 30
0.0
 40
1.416801074914651
  0
ENDBLK
  5
7C
330
79
100
AcDbEntity
  8
0
100
AcDbBlockEnd
  0
ENDSEC
  0
SECTION
  2
ENTITIES
  0
INSERT
  5
7A
330
70
100
AcDbEntity
  8
Camada 1
100
AcDbBlockReference
  2
Block_0
 10
0.0
 20
0.0
 30
0.0
  0
ENDSEC
  0
SECTION
  2
OBJECTS
  0
DICTIONARY
  5
C
330
0
100
AcDbDictionary
281
     1
  3
ACAD_COLOR
350
63
  3
ACAD_DETAILVIEWSTYLE
350
6A
  3
ACAD_GROUP
350
D
  3
ACAD_LAYOUT
350
62
  3
ACAD_MATERIAL
350
10
  3
ACAD_MLEADERSTYLE
350
66
  3
ACAD_MLINESTYLE
350
5F
  3
ACAD_PLOTSETTINGS
350
61
  3
ACAD_PLOTSTYLENAME
350
E
  3
ACAD_SCALELIST
350
42
  3
ACAD_SECTIONVIEWSTYLE
350
68
  3
ACAD_TABLESTYLE
350
64
  3
ACAD_VISUALSTYLE
350
29
  3
ACDB_RECOMPOSE_DATA
350
140
  3
AcDbVariableDictionary
350
138
  0
DICTIONARY
  5
63
102
{ACAD_REACTORS
330
C
102
}
330
C
100
AcDbDictionary
281
     1
  0
DICTIONARY
  5
6A
102
{ACAD_REACTORS
330
C
102
}
330
C
100
AcDbDictionary
281
     1
  3
Imperial24
350
6B
  0
DICTIONARY
  5
D
102
{ACAD_REACTORS
330
C
102
}
330
C
100
AcDbDictionary
281
     1
  0
DICTIONARY
  5
62
102
{ACAD_REACTORS
330
C
102
}
330
C
100
AcDbDictionary
281
     1
  3
Layout1
350
6F
  3
Layout2
350
77
  3
Model
350
73
  0
DICTIONARY
  5
10
102
{ACAD_REACTORS
330
C
102
}
330
C
100
AcDbDictionary
281
     1
  3
ByBlock
350
19
  3
ByLayer
350
11
  3
Global
350
21
  0
DICTIONARY
  5
66
102
{ACAD_REACTORS
330
C
102
}
330
C
100
AcDbDictionary
281
     1
  3
Standard
350
67
  0
DICTIONARY
  5
5F
102
{ACAD_REACTORS
330
C
102
}
330
C
100
AcDbDictionary
281
     1
  3
Standard
350
60
  0
DICTIONARY
  5
61
102
{ACAD_REACTORS
330
C
102
}
330
C
100
AcDbDictionary
281
     1
  0
ACDBDICTIONARYWDFLT
  5
E
102
{ACAD_REACTORS
330
C
102
}
330
C
100
AcDbDictionary
281
     1
  3
Normal
350
F
100
AcDbDictionaryWithDefault
340
F
  0
DICTIONARY
  5
42
102
{ACAD_REACTORS
330
C
102
}
330
C
100
AcDbDictionary
281
     1
  3
A0
350
43
  3
A1
350
44
  3
A2
350
45
  3
A3
350
46
  3
A4
350
47
  3
A5
350
48
  3
A6
350
49
  3
A7
350
4A
  3
A8
350
4B
  3
A9
350
4C
  3
B0
350
4D
  3
B1
350
4E
  3
B2
350
4F
  3
B3
350
50
  3
B4
350
51
  3
B5
350
52
  3
B6
350
53
  0
DICTIONARY
  5
68
102
{ACAD_REACTORS
330
C
102
}
330
C
100
AcDbDictionary
281
     1
  3
Imperial24
350
69
  0
DICTIONARY
  5
64
102
{ACAD_REACTORS
330
C
102
}
330
C
100
AcDbDictionary
281
     1
  3
Standard
350
65
  0
DICTIONARY
  5
29
102
{ACAD_REACTORS
330
C
102
}
330
C
100
AcDbDictionary
281
     1
  3
2dWireframe
350
2F
  3
Basic
350
2E
  3
Brighten
350
35
  3
ColorChange
350
39
  3
Conceptual
350
32
  3
Dim
350
34
  3
EdgeColorOff
350
41
  3
Facepattern
350
38
  3
Flat
350
2A
  3
FlatWithEdges
350
2B
  3
Gouraud
350
2C
  3
GouraudWithEdges
350
2D
  3
Hidden
350
31
  3
JitterOff
350
3F
  3
Linepattern
350
37
  3
OverhangOff
350
40
  3
Realistic
350
33
  3
Shaded
350
3E
  3
Shaded with edges
350
3D
  3
Shades of Gray
350
3A
  3
Sketchy
350
3B
  3
Thicken
350
36
  3
Wireframe
350
30
  3
X-Ray
350
3C
  0
XRECORD
  5
140
102
{ACAD_REACTORS
330
C
102
}
330
C
100
AcDbXrecord
280
     1
 90
        1
330
65
  0
DICTIONARY
  5
138
102
{ACAD_REACTORS
330
C
102
}
330
C
100
AcDbDictionary
281
     1
  3
CANNOSCALE
350
13D
  3
CMLEADERSTYLE
350
13A
  3
CTABLESTYLE
350
139
  3
CVIEWDETAILSTYLE
350
13B
  3
CVIEWSECTIONSTYLE
350
13C
  0
ACDBDETAILVIEWSTYLE
  5
6B
102
{ACAD_REACTORS
330
6A
102
}
330
6A
100
AcDbModelDocViewStyle
 70
     0
  3
Imperial24
290
     1
300
Imperial24
 90
        0
100
AcDbDetailViewStyle
 70
     0
 71
     0
 90
        3
 71
     1
340
55
 62
   256
 40
0.24
340
0
 62
   256
 40
0.24
300

 40
0.36
280
     3
 71
     2
340
5D
 90
       25
 62
   256
 71
     3
340
55
 62
   256
 40
0.24
 90
        1
 40
0.75
 90
        1
300
%<\AcVar ViewType \f "%tc1">% %<\AcVar ViewDetailId>%\PSCALE %<\AcVar ViewScale \f "%sn">%
 71
     4
340
5D
 90
       25
 62
   256
340
5D
 90
       25
 62
   256
280
     0
  0
LAYOUT
  5
6F
102
{ACAD_REACTORS
330
62
102
}
330
62
100
AcDbPlotSettings
  1

  2

  4

  6

 40
0.0
 41
0.0
 42
0.0
 43
0.0
 44
0.0
 45
0.0
 46
0.0
 47
0.0
 48
0.0
 49
0.0
140
0.0
141
0.0
142
1.0
143
1.0
 70
   688
 72
     0
 73
     0
 74
     5
  7

 75
    16
147
1.0
 76
     0
 77
     2
 78
   300
148
0.0
149
0.0
100
AcDbLayout
  1
Layout1
 70
     1
 71
     1
 10
0.0
 20
0.0
 11
12.0
 21
9.0
 12
0.0
 22
0.0
 32
0.0
 14
0.0
 24
0.0
 34
0.0
 15
0.0
 25
0.0
 35
0.0
146
0.0
 13
0.0
 23
0.0
 33
0.0
 16
1.0
 26
0.0
 36
0.0
 17
0.0
 27
1.0
 37
0.0
 76
     0
330
6C
  0
LAYOUT
  5
77
102
{ACAD_REACTORS
330
62
102
}
330
62
100
AcDbPlotSettings
  1

  2

  4

  6

 40
0.0
 41
0.0
 42
0.0
 43
0.0
 44
0.0
 45
0.0
 46
0.0
 47
0.0
 48
0.0
 49
0.0
140
0.0
141
0.0
142
1.0
143
1.0
 70
   688
 72
     0
 73
     0
 74
     5
  7

 75
    16
147
1.0
 76
     0
 77
     2
 78
   300
148
0.0
149
0.0
100
AcDbLayout
  1
Layout2
 70
     1
 71
     2
 10
0.0
 20
0.0
 11
12.0
 21
9.0
 12
0.0
 22
0.0
 32
0.0
 14
0.0
 24
0.0
 34
0.0
 15
0.0
 25
0.0
 35
0.0
146
0.0
 13
0.0
 23
0.0
 33
0.0
 16
1.0
 26
0.0
 36
0.0
 17
0.0
 27
1.0
 37
0.0
 76
     0
330
74
  0
LAYOUT
  5
73
102
{ACAD_REACTORS
330
62
102
}
330
62
100
AcDbPlotSettings
  1

  2

  4

  6

 40
0.0
 41
0.0
 42
0.0
 43
0.0
 44
0.0
 45
0.0
 46
0.0
 47
0.0
 48
0.0
 49
0.0
140
0.0
141
0.0
142
1.0
143
1.0
 70
  1712
 72
     0
 73
     0
 74
     0
  7

 75
     0
147
1.0
 76
     0
 77
     2
 78
   300
148
0.0
149
0.0
100
AcDbLayout
  1
Model
 70
     1
 71
     0
 10
0.0
 20
0.0
 11
12.0
 21
9.0
 12
0.0
 22
0.0
 32
0.0
 14
0.0
 24
0.0
 34
0.0
 15
0.0
 25
0.0
 35
0.0
146
0.0
 13
0.0
 23
0.0
 33
0.0
 16
1.0
 26
0.0
 36
0.0
 17
0.0
 27
1.0
 37
0.0
 76
     0
330
70
  0
MATERIAL
  5
19
102
{ACAD_XDICTIONARY
360
1A
102
}
102
{ACAD_REACTORS
330
10
102
}
330
10
100
AcDbMaterial
  1
ByBlock
 72
     0
 43
0.0208333333333333
 43
0.0
 43
0.0
 43
0.0
 43
0.0
 43
0.0208333333333333
 43
0.0
 43
0.0
 43
0.0
 43
0.0
 43
1.0
 43
0.0
 43
0.0
 43
0.0
 43
0.0
 43
1.0
 77
     0
 47
0.0208333333333333
 47
0.0
 47
0.0
 47
0.0
 47
0.0
 47
0.0208333333333333
 47
0.0
 47
0.0
 47
0.0
 47
0.0
 47
1.0
 47
0.0
 47
0.0
 47
0.0
 47
0.0
 47
1.0
171
     0
 49
0.0208333333333333
 49
0.0
 49
0.0
 49
0.0
 49
0.0
 49
0.0208333333333333
 49
0.0
 49
0.0
 49
0.0
 49
0.0
 49
1.0
 49
0.0
 49
0.0
 49
0.0
 49
0.0
 49
1.0
175
     0
142
0.0208333333333333
142
0.0
142
0.0
142
0.0
142
0.0
142
0.0208333333333333
142
0.0
142
0.0
142
0.0
142
0.0
142
1.0
142
0.0
142
0.0
142
0.0
142
0.0
142
1.0
179
     0
144
0.0208333333333333
144
0.0
144
0.0
144
0.0
144
0.0
144
0.0208333333333333
144
0.0
144
0.0
144
0.0
144
0.0
144
1.0
144
0.0
144
0.0
144
0.0
144
0.0
144
1.0
147
0.0208333333333333
147
0.0
147
0.0
147
0.0
147
0.0
147
0.0208333333333333
147
0.0
147
0.0
147
0.0
147
0.0
147
1.0
147
0.0
147
0.0
147
0.0
147
0.0
147
1.0
  0
MATERIAL
  5
11
102
{ACAD_XDICTIONARY
360
12
102
}
102
{ACAD_REACTORS
330
10
102
}
330
10
100
AcDbMaterial
  1
ByLayer
 72
     0
 43
0.0208333333333333
 43
0.0
 43
0.0
 43
0.0
 43
0.0
 43
0.0208333333333333
 43
0.0
 43
0.0
 43
0.0
 43
0.0
 43
1.0
 43
0.0
 43
0.0
 43
0.0
 43
0.0
 43
1.0
 77
     0
 47
0.0208333333333333
 47
0.0
 47
0.0
 47
0.0
 47
0.0
 47
0.0208333333333333
 47
0.0
 47
0.0
 47
0.0
 47
0.0
 47
1.0
 47
0.0
 47
0.0
 47
0.0
 47
0.0
 47
1.0
171
     0
 49
0.0208333333333333
 49
0.0
 49
0.0
 49
0.0
 49
0.0
 49
0.0208333333333333
 49
0.0
 49
0.0
 49
0.0
 49
0.0
 49
1.0
 49
0.0
 49
0.0
 49
0.0
 49
0.0
 49
1.0
175
     0
142
0.0208333333333333
142
0.0
142
0.0
142
0.0
142
0.0
142
0.0208333333333333
142
0.0
142
0.0
142
0.0
142
0.0
142
1.0
142
0.0
142
0.0
142
0.0
142
0.0
142
1.0
179
     0
144
0.0208333333333333
144
0.0
144
0.0
144
0.0
144
0.0
144
0.0208333333333333
144
0.0
144
0.0
144
0.0
144
0.0
144
1.0
144
0.0
144
0.0
144
0.0
144
0.0
144
1.0
147
0.0208333333333333
147
0.0
147
0.0
147
0.0
147
0.0
147
0.0208333333333333
147
0.0
147
0.0
147
0.0
147
0.0
147
1.0
147
0.0
147
0.0
147
0.0
147
0.0
147
1.0
  0
MATERIAL
  5
21
102
{ACAD_XDICTIONARY
360
22
102
}
102
{ACAD_REACTORS
330
10
102
}
330
10
100
AcDbMaterial
  1
Global
 72
     0
 43
0.0208333333333333
 43
0.0
 43
0.0
 43
0.0
 43
0.0
 43
0.0208333333333333
 43
0.0
 43
0.0
 43
0.0
 43
0.0
 43
1.0
 43
0.0
 43
0.0
 43
0.0
 43
0.0
 43
1.0
 77
     0
 47
0.0208333333333333
 47
0.0
 47
0.0
 47
0.0
 47
0.0
 47
0.0208333333333333
 47
0.0
 47
0.0
 47
0.0
 47
0.0
 47
1.0
 47
0.0
 47
0.0
 47
0.0
 47
0.0
 47
1.0
171
     0
 49
0.0208333333333333
 49
0.0
 49
0.0
 49
0.0
 49
0.0
 49
0.0208333333333333
 49
0.0
 49
0.0
 49
0.0
 49
0.0
 49
1.0
 49
0.0
 49
0.0
 49
0.0
 49
0.0
 49
1.0
175
     0
142
0.0208333333333333
142
0.0
142
0.0
142
0.0
142
0.0
142
0.0208333333333333
142
0.0
142
0.0
142
0.0
142
0.0
142
1.0
142
0.0
142
0.0
142
0.0
142
0.0
142
1.0
179
     0
144
0.0208333333333333
144
0.0
144
0.0
144
0.0
144
0.0
144
0.0208333333333333
144
0.0
144
0.0
144
0.0
144
0.0
144
1.0
144
0.0
144
0.0
144
0.0
144
0.0
144
1.0
147
0.0208333333333333
147
0.0
147
0.0
147
0.0
147
0.0
147
0.0208333333333333
147
0.0
147
0.0
147
0.0
147
0.0
147
1.0
147
0.0
147
0.0
147
0.0
147
0.0
147
1.0
  0
MLEADERSTYLE
  5
67
102
{ACAD_REACTORS
330
66
102
}
330
66
100
AcDbMLeaderStyle
179
     2
170
     2
171
     1
172
     0
 90
        2
 40
0.0
 41
0.0
173
     1
 91
-1056964608
340
5B
 92
       -2
290
     1
 42
0.09
291
     1
 43
0.36
  3
Standard
 44
0.18
300

342
55
174
     1
178
     6
175
     1
176
     0
 93
-1056964608
 45
0.18
292
     0
297
     0
 46
0.18
 94
-1056964608
 47
1.0
 49
1.0
140
1.0
293
     1
141
0.0
294
     1
177
     0
142
1.0
295
     1
296
     0
143
0.125
271
     0
272
     9
273
     9
298
     1
  0
MLINESTYLE
  5
60
102
{ACAD_REACTORS
330
5F
102
}
330
5F
100
AcDbMlineStyle
  2
STANDARD
 70
     0
  3

 62
   256
 51
90.0
 52
90.0
 71
     2
 49
0.5
 62
   256
  6
BYLAYER
 49
-0.5
 62
   256
  6
BYLAYER
  0
ACDBPLACEHOLDER
  5
F
102
{ACAD_REACTORS
330
E
102
}
330
E
  0
SCALE
  5
43
102
{ACAD_REACTORS
330
42
102
}
330
42
100
AcDbScale
 70
     0
300
1:1
140
1.0
141
1.0
290
     1
  0
SCALE
  5
44
102
{ACAD_REACTORS
330
42
102
}
330
42
100
AcDbScale
 70
     0
300
1/128" = 1'-0"
140
0.0078125
141
12.0
290
     0
  0
SCALE
  5
45
102
{ACAD_REACTORS
330
42
102
}
330
42
100
AcDbScale
 70
     0
300
1/64" = 1'-0"
140
0.015625
141
12.0
290
     0
  0
SCALE
  5
46
102
{ACAD_REACTORS
330
42
102
}
330
42
100
AcDbScale
 70
     0
300
1/32" = 1'-0"
140
0.03125
141
12.0
290
     0
  0
SCALE
  5
47
102
{ACAD_REACTORS
330
42
102
}
330
42
100
AcDbScale
 70
     0
300
1/16" = 1'-0"
140
0.0625
141
12.0
290
     0
  0
SCALE
  5
48
102
{ACAD_REACTORS
330
42
102
}
330
42
100
AcDbScale
 70
     0
300
3/32" = 1'-0"
140
0.09375
141
12.0
290
     0
  0
SCALE
  5
49
102
{ACAD_REACTORS
330
42
102
}
330
42
100
AcDbScale
 70
     0
300
1/8" = 1'-0"
140
0.125
141
12.0
290
     0
  0
SCALE
  5
4A
102
{ACAD_REACTORS
330
42
102
}
330
42
100
AcDbScale
 70
     0
300
3/16" = 1'-0"
140
0.1875
141
12.0
290
     0
  0
SCALE
  5
4B
102
{ACAD_REACTORS
330
42
102
}
330
42
100
AcDbScale
 70
     0
300
1/4" = 1'-0"
140
0.25
141
12.0
290
     0
  0
SCALE
  5
4C
102
{ACAD_REACTORS
330
42
102
}
330
42
100
AcDbScale
 70
     0
300
3/8" = 1'-0"
140
0.375
141
12.0
290
     0
  0
SCALE
  5
4D
102
{ACAD_REACTORS
330
42
102
}
330
42
100
AcDbScale
 70
     0
300
1/2" = 1'-0"
140
0.5
141
12.0
290
     0
  0
SCALE
  5
4E
102
{ACAD_REACTORS
330
42
102
}
330
42
100
AcDbScale
 70
     0
300
3/4" = 1'-0"
140
0.75
141
12.0
290
     0
  0
SCALE
  5
4F
102
{ACAD_REACTORS
330
42
102
}
330
42
100
AcDbScale
 70
     0
300
1" = 1'-0"
140
1.0
141
12.0
290
     0
  0
SCALE
  5
50
102
{ACAD_REACTORS
330
42
102
}
330
42
100
AcDbScale
 70
     0
300
1-1/2" = 1'-0"
140
1.5
141
12.0
290
     0
  0
SCALE
  5
51
102
{ACAD_REACTORS
330
42
102
}
330
42
100
AcDbScale
 70
     0
300
3" = 1'-0"
140
3.0
141
12.0
290
     0
  0
SCALE
  5
52
102
{ACAD_REACTORS
330
42
102
}
330
42
100
AcDbScale
 70
     0
300
6" = 1'-0"
140
6.0
141
12.0
290
     0
  0
SCALE
  5
53
102
{ACAD_REACTORS
330
42
102
}
330
42
100
AcDbScale
 70
     0
300
1'-0" = 1'-0"
140
12.0
141
12.0
290
     0
  0
ACDBSECTIONVIEWSTYLE
  5
69
102
{ACAD_REACTORS
330
68
102
}
330
68
100
AcDbModelDocViewStyle
 70
     0
  3
Imperial24
290
     1
300
Imperial24
 90
        0
100
AcDbSectionViewStyle
 70
     0
 71
     0
 90
       78
 71
     1
340
55
 62
   256
 40
0.24
340
0
340
0
 62
   256
 40
0.24
300
I, O, Q, S, X, Z
 40
0.48
 90
        3
 40
0.18
 90
        1
 71
     2
340
5D
 90
       25
 62
   256
340
5D
 90
       50
 62
   256
 40
0.24
 40
0.0
 40
0.24
 71
     3
340
55
 62
   256
 40
0.24
 90
        1
 40
0.75
 90
        1
300
%<\AcVar ViewType \f "%tc1">% %<\AcVar ViewSectionStartId>%-%<\AcVar ViewSectionEndId>%\PSCALE %<\AcVar ViewScale \f "%sn">%
 71
     4
 62
   256
 62
   257
300
ANSI31
 40
1.0
 90
        0
290
     0
290
     0
 90
        6
 40
0.0
 40
1.570796326794896
 40
0.2617993877991494
 40
1.308996938995747
 40
-0.2617993877991494
 40
1.832595714594046
  0
TABLESTYLE
  5
65
102
{ACAD_XDICTIONARY
360
13E
102
}
102
{ACAD_REACTORS
330
64
102
}
330
64
100
AcDbTableStyle
280
     0
  3
Standard
 70
     0
 71
     0
 40
0.06
 41
0.06
280
     0
281
     0
  7
Standard
140
0.18
170
     2
 62
     0
 63
     7
283
     0
 90
      512
 91
        0
  1

274
    -2
284
     1
 64
     0
275
    -2
285
     1
 65
     0
276
    -2
286
     1
 66
     0
277
    -2
287
     1
 67
     0
278
    -2
288
     1
 68
     0
279
    -2
289
     1
 69
     0
  7
Standard
140
0.25
170
     5
 62
     0
 63
     7
283
     0
 90
      512
 91
        0
  1

274
    -2
284
     1
 64
     0
275
    -2
285
     1
 65
     0
276
    -2
286
     1
 66
     0
277
    -2
287
     1
 67
     0
278
    -2
288
     1
 68
     0
279
    -2
289
     1
 69
     0
  7
Standard
140
0.18
170
     5
 62
     0
 63
     7
283
     0
 90
      512
 91
        0
  1

274
    -2
284
     1
 64
     0
275
    -2
285
     1
 65
     0
276
    -2
286
     1
 66
     0
277
    -2
287
     1
 67
     0
278
    -2
288
     1
 68
     0
279
    -2
289
     1
 69
     0
  0
VISUALSTYLE
  5
2F
102
{ACAD_REACTORS
330
29
102
}
330
29
100
AcDbVisualStyle
  2
2dWireframe
 70
     4
177
     3
291
     0
 70
    58
 90
        0
176
     1
 90
        2
176
     1
 90
        0
176
     1
 90
        0
176
     1
 40
0.6
176
     1
 40
30.0
176
     1
 62
     7
420
 16777215
176
     1
 90
        1
176
     1
 90
        4
176
     1
 62
     7
176
     1
 62
   257
176
     1
 90
        1
176
     1
 90
        1
176
     1
 40
1.0
176
     1
 90
        0
176
     1
 62
   257
176
     1
 40
1.0
176
     1
 90
        1
176
     1
 90
        6
176
     1
 90
        2
176
     1
 62
     7
176
     1
 90
        5
176
     1
 90
        0
176
     1
 90
        0
176
     1
290
     0
176
     1
 90
        1
176
     1
 40
0.0
176
     1
 90
        0
176
     1
290
     1
176
     1
290
     1
176
     1
290
     0
176
     1
290
     0
176
     1
290
     0
176
     1
290
     0
176
     1
290
     0
176
     1
290
     0
176
     1
290
     0
176
     1
 90
       50
176
     1
 40
0.0
176
     1
 40
1.0
176
     1
 90
        0
176
     1
 62
    18
420
        0
176
     1
 90
       50
176
     1
 90
        3
176
     1
 62
     5
420
      255
176
     1
290
     0
176
     1
 90
       50
176
     1
 90
       50
176
     1
 90
       50
176
     1
290
     0
176
     1
 90
       50
176
     1
 62
   256
176
     0
 40
1.0
176
     0
 90
        2
176
     1
  1
strokes_ogs.tif
176
     1
290
     0
176
     1
 40
1.0
176
     1
 40
1.0
176
     1
  0
VISUALSTYLE
  5
2E
102
{ACAD_REACTORS
330
29
102
}
330
29
100
AcDbVisualStyle
  2
Basic
 70
     7
177
     3
291
     1
 70
    58
 90
        1
176
     1
 90
        0
176
     1
 90
        1
176
     1
 90
        0
176
     1
 40
0.6
176
     1
 40
30.0
176
     1
 62
     7
420
 16777215
176
     1
 90
        0
176
     1
 90
        4
176
     1
 62
     7
176
     1
 62
   257
176
     1
 90
        1
176
     1
 90
        1
176
     1
 40
1.0
176
     1
 90
        8
176
     1
 62
     7
176
     1
 40
1.0
176
     1
 90
        1
176
     1
 90
        6
176
     1
 90
        2
176
     1
 62
     7
176
     1
 90
        5
176
     1
 90
        0
176
     1
 90
        0
176
     1
290
     0
176
     1
 90
        1
176
     1
 40
0.0
176
     1
 90
        0
176
     1
290
     0
176
     1
290
     1
176
     1
290
     1
176
     1
290
     0
176
     1
290
     0
176
     1
290
     0
176
     1
290
     0
176
     1
290
     0
176
     1
290
     0
176
     1
 90
       50
176
     1
 40
0.0
176
     1
 40
1.0
176
     1
 90
        0
176
     1
 62
    18
420
        0
176
     1
 90
       50
176
     1
 90
        3
176
     1
 62
     5
420
      255
176
     1
290
     0
176
     1
 90
       50
176
     1
 90
       50
176
     1
 90
       50
176
     1
290
     0
176
     1
 90
       50
176
     1
 62
   256
176
     0
 40
1.0
176
     0
 90
        2
176
     1
  1
strokes_ogs.tif
176
     1
290
     0
176
     1
 40
1.0
176
     1
 40
1.0
176
     1
  0
VISUALSTYLE
  5
35
102
{ACAD_REACTORS
330
29
102
}
330
29
100
AcDbVisualStyle
  2
Brighten
 70
    12
177
     3
291
     1
 70
    58
 90
        2
176
     1
 90
        2
176
     1
 90
        0
176
     1
 90
        0
176
     1
 40
0.6
176
     1
 40
30.0
176
     1
 62
     7
420
 16777215
176
     1
 90
        1
176
     1
 90
        4
176
     1
 62
     7
176
     1
 62
   257
176
     1
 90
        1
176
     1
 90
        1
176
     1
 40
1.0
176
     1
 90
        8
176
     1
 62
     7
176
     1
 40
1.0
176
     1
 90
        1
176
     1
 90
        6
176
     1
 90
        2
176
     1
 62
     7
176
     1
 90
        5
176
     1
 90
        0
176
     1
 90
        0
176
     1
290
     0
176
     1
 90
        1
176
     1
 40
50.0
176
     1
 90
        0
176
     1
290
     0
176
     1
290
     1
176
     1
290
     1
176
     1
290
     0
176
     1
290
     0
176
     1
290
     0
176
     1
290
     0
176
     1
290
     0
176
     1
290
     0
176
     1
 90
       50
176
     1
 40
0.0
176
     1
 40
1.0
176
     1
 90
        0
176
     1
 62
    18
420
        0
176
     1
 90
       50
176
     1
 90
        3
176
     1
 62
     5
420
      255
176
     1
290
     0
176
     1
 90
       50
176
     1
 90
       50
176
     1
 90
       50
176
     1
290
     0
176
     1
 90
       50
176
     1
 62
   256
176
     0
 40
1.0
176
     0
 90
        2
176
     1
  1
strokes_ogs.tif
176
     1
290
     0
176
     1
 40
1.0
176
     1
 40
1.0
176
     1
  0
VISUALSTYLE
  5
39
102
{ACAD_REACTORS
330
29
102
}
330
29
100
AcDbVisualStyle
  2
ColorChange
 70
    16
177
     3
291
     1
 70
    58
 90
        2
176
     1
 90
        2
176
     1
 90
        3
176
     1
 90
        0
176
     1
 40
0.6
176
     1
 40
30.0
176
     1
 62
     8
420
  8421504
176
     1
 90
        1
176
     1
 90
        4
176
     1
 62
     7
176
     1
 62
   257
176
     1
 90
        1
176
     1
 90
        1
176
     1
 40
1.0
176
     1
 90
        8
176
     1
 62
     8
420
  8421504
176
     1
 40
1.0
176
     1
 90
        1
176
     1
 90
        6
176
     1
 90
        2
176
     1
 62
     7
176
     1
 90
        5
176
     1
 90
        0
176
     1
 90
        0
176
     1
290
     0
176
     1
 90
        1
176
     1
 40
0.0
176
     1
 90
        0
176
     1
290
     0
176
     1
290
     1
176
     1
290
     1
176
     1
290
     0
176
     1
290
     0
176
     1
290
     0
176
     1
290
     0
176
     1
290
     0
176
     1
290
     0
176
     1
 90
       50
176
     1
 40
0.0
176
     1
 40
1.0
176
     1
 90
        0
176
     1
 62
    18
420
        0
176
     1
 90
       50
176
     1
 90
        3
176
     1
 62
     5
420
      255
176
     1
290
     0
176
     1
 90
       50
176
     1
 90
       50
176
     1
 90
       50
176
     1
290
     0
176
     1
 90
       50
176
     1
 62
   256
176
     0
 40
1.0
176
     0
 90
        2
176
     1
  1
strokes_ogs.tif
176
     1
290
     0
176
     1
 40
1.0
176
     1
 40
1.0
176
     1
  0
VISUALSTYLE
  5
32
102
{ACAD_REACTORS
330
29
102
}
330
29
100
AcDbVisualStyle
  2
Conceptual
 70
     9
177
     3
291
     0
 70
    58
 90
        3
176
     1
 90
        2
176
     1
 90
        0
176
     1
 90
        0
176
     1
 40
0.6
176
     1
 40
30.0
176
     1
 62
     7
420
 16777215
176
     1
 90
        2
176
     1
 90
        2
176
     1
 62
     7
176
     1
 62
   257
176
     1
 90
        1
176
     1
 90
        1
176
     1
 40
179.0
176
     1
 90
        8
176
     1
 62
     7
176
     1
 40
1.0
176
     1
 90
        1
176
     1
 90
        6
176
     1
 90
        2
176
     1
 62
     7
176
     1
 90
        3
176
     1
 90
        0
176
     1
 90
        0
176
     1
290
     0
176
     1
 90
        1
176
     1
 40
0.0
176
     1
 90
        0
176
     1
290
     0
176
     1
290
     1
176
     1
290
     1
176
     1
290
     0
176
     1
290
     0
176
     1
290
     0
176
     1
290
     0
176
     1
290
     0
176
     1
290
     0
176
     1
 90
       50
176
     1
 40
0.0
176
     1
 40
1.0
176
     1
 90
        0
176
     1
 62
    18
420
        0
176
     1
 90
       50
176
     1
 90
        3
176
     1
 62
     5
420
      255
176
     1
290
     0
176
     1
 90
       50
176
     1
 90
       50
176
     1
 90
       50
176
     1
290
     0
176
     1
 90
       50
176
     1
 62
   256
176
     0
 40
1.0
176
     0
 90
        2
176
     1
  1
strokes_ogs.tif
176
     1
290
     0
176
     1
 40
1.0
176
     1
 40
1.0
176
     1
  0
VISUALSTYLE
  5
34
102
{ACAD_REACTORS
330
29
102
}
330
29
100
AcDbVisualStyle
  2
Dim
 70
    11
177
     3
291
     1
 70
    58
 90
        2
176
     1
 90
        2
176
     1
 90
        0
176
     1
 90
        0
176
     1
 40
0.6
176
     1
 40
30.0
176
     1
 62
     7
420
 16777215
176
     1
 90
        1
176
     1
 90
        4
176
     1
 62
     7
176
     1
 62
   257
176
     1
 90
        1
176
     1
 90
        1
176
     1
 40
1.0
176
     1
 90
        8
176
     1
 62
     7
176
     1
 40
1.0
176
     1
 90
        1
176
     1
 90
        6
176
     1
 90
        2
176
     1
 62
     7
176
     1
 90
        5
176
     1
 90
        0
176
     1
 90
        0
176
     1
290
     0
176
     1
 90
        1
176
     1
 40
-50.0
176
     1
 90
        0
176
     1
290
     0
176
     1
290
     1
176
     1
290
     1
176
     1
290
     0
176
     1
290
     0
176
     1
290
     0
176
     1
290
     0
176
     1
290
     0
176
     1
290
     0
176
     1
 90
       50
176
     1
 40
0.0
176
     1
 40
1.0
176
     1
 90
        0
176
     1
 62
    18
420
        0
176
     1
 90
       50
176
     1
 90
        3
176
     1
 62
     5
420
      255
176
     1
290
     0
176
     1
 90
       50
176
     1
 90
       50
176
     1
 90
       50
176
     1
290
     0
176
     1
 90
       50
176
     1
 62
   256
176
     0
 40
1.0
176
     0
 90
        2
176
     1
  1
strokes_ogs.tif
176
     1
290
     0
176
     1
 40
1.0
176
     1
 40
1.0
176
     1
  0
VISUALSTYLE
  5
41
102
{ACAD_REACTORS
330
29
102
}
330
29
100
AcDbVisualStyle
  2
EdgeColorOff
 70
    22
177
     3
291
     1
 70
    58
 90
        2
176
     0
 90
        2
176
     0
 90
        0
176
     0
 90
        0
176
     0
 40
0.6
176
     0
 40
30.0
176
     0
 62
     7
420
 16777215
176
     0
 90
        1
176
     0
 90
        4
176
     0
 62
     7
176
     0
 62
   257
176
     0
 90
        1
176
     0
 90
        1
176
     0
 40
1.0
176
     0
 90
        8
176
     2
 62
     7
176
     0
 40
1.0
176
     0
 90
        1
176
     0
 90
        6
176
     0
 90
        2
176
     0
 62
     7
176
     0
 90
        5
176
     0
 90
        0
176
     0
 90
        0
176
     0
290
     0
176
     0
 90
        1
176
     0
 40
0.0
176
     0
 90
        0
176
     0
290
     0
176
     0
290
     1
176
     0
290
     1
176
     0
290
     0
176
     0
290
     0
176
     0
290
     0
176
     0
290
     0
176
     0
290
     0
176
     0
290
     0
176
     0
 90
       50
176
     0
 40
0.0
176
     0
 40
1.0
176
     0
 90
        0
176
     0
 62
    18
420
        0
176
     0
 90
       50
176
     0
 90
        3
176
     0
 62
     5
420
      255
176
     0
290
     0
176
     0
 90
       50
176
     0
 90
       50
176
     0
 90
       50
176
     0
290
     0
176
     0
 90
       50
176
     0
 62
   256
176
     0
 40
1.0
176
     0
 90
        2
176
     0
  1
strokes_ogs.tif
176
     0
290
     0
176
     0
 40
1.0
176
     0
 40
1.0
176
     0
  0
VISUALSTYLE
  5
38
102
{ACAD_REACTORS
330
29
102
}
330
29
100
AcDbVisualStyle
  2
Facepattern
 70
    15
177
     3
291
     1
 70
    58
 90
        2
176
     1
 90
        2
176
     1
 90
        0
176
     1
 90
        0
176
     1
 40
0.6
176
     1
 40
30.0
176
     1
 62
     7
420
 16777215
176
     1
 90
        1
176
     1
 90
        4
176
     1
 62
     7
176
     1
 62
   257
176
     1
 90
        1
176
     1
 90
        1
176
     1
 40
1.0
176
     1
 90
        8
176
     1
 62
     7
176
     1
 40
1.0
176
     1
 90
        1
176
     1
 90
        6
176
     1
 90
        2
176
     1
 62
     7
176
     1
 90
        5
176
     1
 90
        0
176
     1
 90
        0
176
     1
290
     0
176
     1
 90
        1
176
     1
 40
0.0
176
     1
 90
        0
176
     1
290
     0
176
     1
290
     1
176
     1
290
     1
176
     1
290
     0
176
     1
290
     0
176
     1
290
     0
176
     1
290
     0
176
     1
290
     0
176
     1
290
     0
176
     1
 90
       50
176
     1
 40
0.0
176
     1
 40
1.0
176
     1
 90
        0
176
     1
 62
    18
420
        0
176
     1
 90
       50
176
     1
 90
        3
176
     1
 62
     5
420
      255
176
     1
290
     0
176
     1
 90
       50
176
     1
 90
       50
176
     1
 90
       50
176
     1
290
     0
176
     1
 90
       50
176
     1
 62
   256
176
     0
 40
1.0
176
     0
 90
        2
176
     1
  1
strokes_ogs.tif
176
     1
290
     0
176
     1
 40
1.0
176
     1
 40
1.0
176
     1
  0
VISUALSTYLE
  5
2A
102
{ACAD_REACTORS
330
29
102
}
330
29
100
AcDbVisualStyle
  2
Flat
 70
     0
177
     3
291
     1
 70
    58
 90
        2
176
     1
 90
        1
176
     1
 90
        1
176
     1
 90
        2
176
     1
 40
0.6
176
     1
 40
30.0
176
     1
 62
     7
420
 16777215
176
     1
 90
        0
176
     1
 90
        0
176
     1
 62
     7
176
     1
 62
   257
176
     1
 90
        1
176
     1
 90
        1
176
     1
 40
1.0
176
     1
 90
        8
176
     1
 62
     7
176
     1
 40
1.0
176
     1
 90
        1
176
     1
 90
        6
176
     1
 90
        2
176
     1
 62
     7
176
     1
 90
        5
176
     1
 90
        0
176
     1
 90
        0
176
     1
290
     0
176
     1
 90
       13
176
     1
 40
0.0
176
     1
 90
        0
176
     1
290
     0
176
     1
290
     1
176
     1
290
     1
176
     1
290
     0
176
     1
290
     0
176
     1
290
     0
176
     1
290
     0
176
     1
290
     0
176
     1
290
     0
176
     1
 90
       50
176
     1
 40
0.0
176
     1
 40
1.0
176
     1
 90
        0
176
     1
 62
    18
420
        0
176
     1
 90
       50
176
     1
 90
        3
176
     1
 62
     5
420
      255
176
     1
290
     0
176
     1
 90
       50
176
     1
 90
       50
176
     1
 90
       50
176
     1
290
     0
176
     1
 90
       50
176
     1
 62
   256
176
     0
 40
1.0
176
     0
 90
        2
176
     1
  1
strokes_ogs.tif
176
     1
290
     0
176
     1
 40
1.0
176
     1
 40
1.0
176
     1
  0
VISUALSTYLE
  5
2B
102
{ACAD_REACTORS
330
29
102
}
330
29
100
AcDbVisualStyle
  2
FlatWithEdges
 70
     1
177
     3
291
     1
 70
    58
 90
        2
176
     1
 90
        1
176
     1
 90
        1
176
     1
 90
        2
176
     1
 40
0.6
176
     1
 40
30.0
176
     1
 62
     7
420
 16777215
176
     1
 90
        1
176
     1
 90
        0
176
     1
 62
     7
176
     1
 62
   257
176
     1
 90
        1
176
     1
 90
        1
176
     1
 40
1.0
176
     1
 90
        0
176
     1
 62
   257
176
     1
 40
1.0
176
     1
 90
        1
176
     1
 90
        6
176
     1
 90
        2
176
     1
 62
     7
176
     1
 90
        5
176
     1
 90
        0
176
     1
 90
        0
176
     1
290
     0
176
     1
 90
       13
176
     1
 40
0.0
176
     1
 90
        0
176
     1
290
     0
176
     1
290
     1
176
     1
290
     1
176
     1
290
     0
176
     1
290
     0
176
     1
290
     0
176
     1
290
     0
176
     1
290
     0
176
     1
290
     0
176
     1
 90
       50
176
     1
 40
0.0
176
     1
 40
1.0
176
     1
 90
        0
176
     1
 62
    18
420
        0
176
     1
 90
       50
176
     1
 90
        3
176
     1
 62
     5
420
      255
176
     1
290
     0
176
     1
 90
       50
176
     1
 90
       50
176
     1
 90
       50
176
     1
290
     0
176
     1
 90
       50
176
     1
 62
   256
176
     0
 40
1.0
176
     0
 90
        2
176
     1
  1
strokes_ogs.tif
176
     1
290
     0
176
     1
 40
1.0
176
     1
 40
1.0
176
     1
  0
VISUALSTYLE
  5
2C
102
{ACAD_REACTORS
330
29
102
}
330
29
100
AcDbVisualStyle
  2
Gouraud
 70
     2
177
     3
291
     1
 70
    58
 90
        2
176
     1
 90
        2
176
     1
 90
        1
176
     1
 90
        2
176
     1
 40
0.6
176
     1
 40
30.0
176
     1
 62
     7
420
 16777215
176
     1
 90
        0
176
     1
 90
        0
176
     1
 62
     7
176
     1
 62
   257
176
     1
 90
        1
176
     1
 90
        1
176
     1
 40
1.0
176
     1
 90
        0
176
     1
 62
     7
176
     1
 40
1.0
176
     1
 90
        1
176
     1
 90
        6
176
     1
 90
        2
176
     1
 62
     7
176
     1
 90
        5
176
     1
 90
        0
176
     1
 90
        0
176
     1
290
     0
176
     1
 90
       13
176
     1
 40
0.0
176
     1
 90
        0
176
     1
290
     0
176
     1
290
     1
176
     1
290
     1
176
     1
290
     0
176
     1
290
     0
176
     1
290
     0
176
     1
290
     0
176
     1
290
     0
176
     1
290
     0
176
     1
 90
       50
176
     1
 40
0.0
176
     1
 40
1.0
176
     1
 90
        0
176
     1
 62
    18
420
        0
176
     1
 90
       50
176
     1
 90
        3
176
     1
 62
     5
420
      255
176
     1
290
     0
176
     1
 90
       50
176
     1
 90
       50
176
     1
 90
       50
176
     1
290
     0
176
     1
 90
       50
176
     1
 62
   256
176
     0
 40
1.0
176
     0
 90
        2
176
     1
  1
strokes_ogs.tif
176
     1
290
     0
176
     1
 40
1.0
176
     1
 40
1.0
176
     1
  0
VISUALSTYLE
  5
2D
102
{ACAD_REACTORS
330
29
102
}
330
29
100
AcDbVisualStyle
  2
GouraudWithEdges
 70
     3
177
     3
291
     1
 70
    58
 90
        2
176
     1
 90
        2
176
     1
 90
        1
176
     1
 90
        2
176
     1
 40
0.6
176
     1
 40
30.0
176
     1
 62
     7
420
 16777215
176
     1
 90
        1
176
     1
 90
        0
176
     1
 62
     7
176
     1
 62
   257
176
     1
 90
        1
176
     1
 90
        1
176
     1
 40
1.0
176
     1
 90
        0
176
     1
 62
   257
176
     1
 40
1.0
176
     1
 90
        1
176
     1
 90
        6
176
     1
 90
        2
176
     1
 62
     7
176
     1
 90
        5
176
     1
 90
        0
176
     1
 90
        0
176
     1
290
     0
176
     1
 90
       13
176
     1
 40
0.0
176
     1
 90
        0
176
     1
290
     0
176
     1
290
     1
176
     1
290
     1
176
     1
290
     0
176
     1
290
     0
176
     1
290
     0
176
     1
290
     0
176
     1
290
     0
176
     1
290
     0
176
     1
 90
       50
176
     1
 40
0.0
176
     1
 40
1.0
176
     1
 90
        0
176
     1
 62
    18
420
        0
176
     1
 90
       50
176
     1
 90
        3
176
     1
 62
     5
420
      255
176
     1
290
     0
176
     1
 90
       50
176
     1
 90
       50
176
     1
 90
       50
176
     1
290
     0
176
     1
 90
       50
176
     1
 62
   256
176
     0
 40
1.0
176
     0
 90
        2
176
     1
  1
strokes_ogs.tif
176
     1
290
     0
176
     1
 40
1.0
176
     1
 40
1.0
176
     1
  0
VISUALSTYLE
  5
31
102
{ACAD_REACTORS
330
29
102
}
330
29
100
AcDbVisualStyle
  2
Hidden
 70
     6
177
     3
291
     0
 70
    58
 90
        1
176
     1
 90
        2
176
     1
 90
        2
176
     1
 90
        0
176
     1
 40
0.6
176
     1
 40
30.0
176
     1
 62
     7
420
 16777215
176
     1
 90
        2
176
     1
 90
        2
176
     1
 62
     7
176
     1
 62
   257
176
     1
 90
        2
176
     1
 90
        1
176
     1
 40
40.0
176
     1
 90
        0
176
     1
 62
   257
176
     1
 40
1.0
176
     1
 90
        1
176
     1
 90
        6
176
     1
 90
        2
176
     1
 62
     7
176
     1
 90
        3
176
     1
 90
        0
176
     1
 90
        0
176
     1
290
     0
176
     1
 90
        1
176
     1
 40
0.0
176
     1
 90
        0
176
     1
290
     0
176
     1
290
     1
176
     1
290
     1
176
     1
290
     0
176
     1
290
     0
176
     1
290
     0
176
     1
290
     0
176
     1
290
     0
176
     1
290
     0
176
     1
 90
       50
176
     1
 40
0.0
176
     1
 40
1.0
176
     1
 90
        0
176
     1
 62
    18
420
        0
176
     1
 90
       50
176
     1
 90
        3
176
     1
 62
     5
420
      255
176
     1
290
     0
176
     1
 90
       50
176
     1
 90
       50
176
     1
 90
       50
176
     1
290
     0
176
     1
 90
       50
176
     1
 62
   256
176
     0
 40
1.0
176
     0
 90
        2
176
     1
  1
strokes_ogs.tif
176
     1
290
     0
176
     1
 40
1.0
176
     1
 40
1.0
176
     1
  0
VISUALSTYLE
  5
3F
102
{ACAD_REACTORS
330
29
102
}
330
29
100
AcDbVisualStyle
  2
JitterOff
 70
    20
177
     3
291
     1
 70
    58
 90
        2
176
     0
 90
        2
176
     0
 90
        0
176
     0
 90
        0
176
     0
 40
0.6
176
     0
 40
30.0
176
     0
 62
     7
420
 16777215
176
     0
 90
        1
176
     0
 90
        4
176
     0
 62
     7
176
     0
 62
   257
176
     0
 90
        1
176
     0
 90
        1
176
     0
 40
1.0
176
     0
 90
       10
176
     2
 62
     7
176
     0
 40
1.0
176
     0
 90
        1
176
     0
 90
        6
176
     0
 90
        2
176
     0
 62
     7
176
     0
 90
        5
176
     0
 90
        0
176
     0
 90
        0
176
     0
290
     0
176
     0
 90
        1
176
     0
 40
0.0
176
     0
 90
        0
176
     0
290
     0
176
     0
290
     1
176
     0
290
     1
176
     0
290
     0
176
     0
290
     0
176
     0
290
     0
176
     0
290
     0
176
     0
290
     0
176
     0
290
     0
176
     0
 90
       50
176
     0
 40
0.0
176
     0
 40
1.0
176
     0
 90
        0
176
     0
 62
    18
420
        0
176
     0
 90
       50
176
     0
 90
        3
176
     0
 62
     5
420
      255
176
     0
290
     0
176
     0
 90
       50
176
     0
 90
       50
176
     0
 90
       50
176
     0
290
     0
176
     0
 90
       50
176
     0
 62
   256
176
     0
 40
1.0
176
     0
 90
        2
176
     0
  1
strokes_ogs.tif
176
     0
290
     0
176
     0
 40
1.0
176
     0
 40
1.0
176
     0
  0
VISUALSTYLE
  5
37
102
{ACAD_REACTORS
330
29
102
}
330
29
100
AcDbVisualStyle
  2
Linepattern
 70
    14
177
     3
291
     1
 70
    58
 90
        2
176
     1
 90
        2
176
     1
 90
        0
176
     1
 90
        0
176
     1
 40
0.6
176
     1
 40
30.0
176
     1
 62
     7
420
 16777215
176
     1
 90
        1
176
     1
 90
        4
176
     1
 62
     7
176
     1
 62
   257
176
     1
 90
        7
176
     1
 90
        7
176
     1
 40
1.0
176
     1
 90
        8
176
     1
 62
     7
176
     1
 40
1.0
176
     1
 90
        1
176
     1
 90
        6
176
     1
 90
        2
176
     1
 62
     7
176
     1
 90
        5
176
     1
 90
        0
176
     1
 90
        0
176
     1
290
     0
176
     1
 90
        1
176
     1
 40
0.0
176
     1
 90
        0
176
     1
290
     0
176
     1
290
     1
176
     1
290
     1
176
     1
290
     0
176
     1
290
     0
176
     1
290
     0
176
     1
290
     0
176
     1
290
     0
176
     1
290
     0
176
     1
 90
       50
176
     1
 40
0.0
176
     1
 40
1.0
176
     1
 90
        0
176
     1
 62
    18
420
        0
176
     1
 90
       50
176
     1
 90
        3
176
     1
 62
     5
420
      255
176
     1
290
     0
176
     1
 90
       50
176
     1
 90
       50
176
     1
 90
       50
176
     1
290
     0
176
     1
 90
       50
176
     1
 62
   256
176
     0
 40
1.0
176
     0
 90
        2
176
     1
  1
strokes_ogs.tif
176
     1
290
     0
176
     1
 40
1.0
176
     1
 40
1.0
176
     1
  0
VISUALSTYLE
  5
40
102
{ACAD_REACTORS
330
29
102
}
330
29
100
AcDbVisualStyle
  2
OverhangOff
 70
    21
177
     3
291
     1
 70
    58
 90
        2
176
     0
 90
        2
176
     0
 90
        0
176
     0
 90
        0
176
     0
 40
0.6
176
     0
 40
30.0
176
     0
 62
     7
420
 16777215
176
     0
 90
        1
176
     0
 90
        4
176
     0
 62
     7
176
     0
 62
   257
176
     0
 90
        1
176
     0
 90
        1
176
     0
 40
1.0
176
     0
 90
        9
176
     2
 62
     7
176
     0
 40
1.0
176
     0
 90
        1
176
     0
 90
        6
176
     0
 90
        2
176
     0
 62
     7
176
     0
 90
        5
176
     0
 90
        0
176
     0
 90
        0
176
     0
290
     0
176
     0
 90
        1
176
     0
 40
0.0
176
     0
 90
        0
176
     0
290
     0
176
     0
290
     1
176
     0
290
     1
176
     0
290
     0
176
     0
290
     0
176
     0
290
     0
176
     0
290
     0
176
     0
290
     0
176
     0
290
     0
176
     0
 90
       50
176
     0
 40
0.0
176
     0
 40
1.0
176
     0
 90
        0
176
     0
 62
    18
420
        0
176
     0
 90
       50
176
     0
 90
        3
176
     0
 62
     5
420
      255
176
     0
290
     0
176
     0
 90
       50
176
     0
 90
       50
176
     0
 90
       50
176
     0
290
     0
176
     0
 90
       50
176
     0
 62
   256
176
     0
 40
1.0
176
     0
 90
        2
176
     0
  1
strokes_ogs.tif
176
     0
290
     0
176
     0
 40
1.0
176
     0
 40
1.0
176
     0
  0
VISUALSTYLE
  5
33
102
{ACAD_REACTORS
330
29
102
}
330
29
100
AcDbVisualStyle
  2
Realistic
 70
     8
177
     3
291
     0
 70
    58
 90
        2
176
     1
 90
        3
176
     1
 90
        0
176
     1
 90
        2
176
     1
 40
0.6
176
     1
 40
30.0
176
     1
 62
     7
420
 16777215
176
     1
 90
        0
176
     1
 90
        0
176
     1
 62
     7
176
     1
 62
   257
176
     1
 90
        1
176
     1
 90
        1
176
     1
 40
1.0
176
     1
 90
        8
176
     1
 62
   257
176
     1
 40
1.0
176
     1
 90
        1
176
     1
 90
        6
176
     1
 90
        2
176
     1
 62
     7
176
     1
 90
        3
176
     1
 90
        0
176
     1
 90
        0
176
     1
290
     0
176
     1
 90
       13
176
     1
 40
0.0
176
     1
 90
        0
176
     1
290
     0
176
     1
290
     1
176
     1
290
     1
176
     1
290
     0
176
     1
290
     0
176
     1
290
     0
176
     1
290
     0
176
     1
290
     0
176
     1
290
     0
176
     1
 90
       50
176
     1
 40
0.0
176
     1
 40
1.0
176
     1
 90
        0
176
     1
 62
    18
420
        0
176
     1
 90
       50
176
     1
 90
        3
176
     1
 62
     5
420
      255
176
     1
290
     0
176
     1
 90
       50
176
     1
 90
       50
176
     1
 90
       50
176
     1
290
     0
176
     1
 90
       50
176
     1
 62
   256
176
     0
 40
1.0
176
     0
 90
        2
176
     1
  1
strokes_ogs.tif
176
     1
290
     0
176
     1
 40
1.0
176
     1
 40
1.0
176
     1
  0
VISUALSTYLE
  5
3E
102
{ACAD_REACTORS
330
29
102
}
330
29
100
AcDbVisualStyle
  2
Shaded
 70
    27
177
     3
291
     0
 70
    58
 90
        2
176
     1
 90
        2
176
     1
 90
        1
176
     1
 90
        2
176
     1
 40
0.6
176
     1
 40
30.0
176
     1
 62
     7
420
 16777215
176
     1
 90
        0
176
     1
 90
        4
176
     1
 62
     7
176
     1
 62
   257
176
     1
 90
        1
176
     1
 90
        1
176
     1
 40
1.0
176
     1
 90
        8
176
     1
 62
   257
176
     1
 40
1.0
176
     1
 90
        1
176
     1
 90
        6
176
     1
 90
        2
176
     1
 62
     8
420
  7895160
176
     1
 90
        3
176
     1
 90
        0
176
     1
 90
        0
176
     1
290
     0
176
     1
 90
        5
176
     1
 40
0.0
176
     1
 90
        0
176
     1
290
     0
176
     1
290
     1
176
     1
290
     1
176
     1
290
     0
176
     1
290
     0
176
     1
290
     0
176
     1
290
     0
176
     1
290
     0
176
     1
290
     0
176
     1
 90
       50
176
     1
 40
0.0
176
     1
 40
1.0
176
     1
 90
        0
176
     1
 62
    18
420
        0
176
     1
 90
       50
176
     1
 90
        3
176
     1
 62
     5
420
      255
176
     1
290
     0
176
     1
 90
       50
176
     1
 90
       50
176
     1
 90
       50
176
     1
290
     0
176
     1
 90
       50
176
     1
 62
   256
176
     0
 40
1.0
176
     0
 90
        2
176
     1
  1
strokes_ogs.tif
176
     1
290
     0
176
     1
 40
1.0
176
     1
 40
1.0
176
     1
  0
VISUALSTYLE
  5
3D
102
{ACAD_REACTORS
330
29
102
}
330
29
100
AcDbVisualStyle
  2
Shaded with edges
 70
    26
177
     3
291
     0
 70
    58
 90
        2
176
     1
 90
        2
176
     1
 90
        1
176
     1
 90
        2
176
     1
 40
0.6
176
     1
 40
30.0
176
     1
 62
     7
420
 16777215
176
     1
 90
        1
176
     1
 90
        2
176
     1
 62
     7
176
     1
 62
   257
176
     1
 90
        2
176
     1
 90
        1
176
     1
 40
1.0
176
     1
 90
        8
176
     1
 62
   257
176
     1
 40
1.0
176
     1
 90
        1
176
     1
 90
        6
176
     1
 90
        2
176
     1
 62
     7
176
     1
 90
        3
176
     1
 90
        0
176
     1
 90
        0
176
     1
290
     0
176
     1
 90
        5
176
     1
 40
0.0
176
     1
 90
        0
176
     1
290
     0
176
     1
290
     1
176
     1
290
     1
176
     1
290
     0
176
     1
290
     0
176
     1
290
     0
176
     1
290
     0
176
     1
290
     0
176
     1
290
     0
176
     1
 90
       50
176
     1
 40
0.0
176
     1
 40
1.0
176
     1
 90
        0
176
     1
 62
    18
420
        0
176
     1
 90
       50
176
     1
 90
        3
176
     1
 62
     5
420
      255
176
     1
290
     0
176
     1
 90
       50
176
     1
 90
       50
176
     1
 90
       50
176
     1
290
     0
176
     1
 90
       50
176
     1
 62
   256
176
     0
 40
1.0
176
     0
 90
        2
176
     1
  1
strokes_ogs.tif
176
     1
290
     0
176
     1
 40
1.0
176
     1
 40
1.0
176
     1
  0
VISUALSTYLE
  5
3A
102
{ACAD_REACTORS
330
29
102
}
330
29
100
AcDbVisualStyle
  2
Shades of Gray
 70
    23
177
     3
291
     0
 70
    58
 90
        2
176
     1
 90
        2
176
     1
 90
        3
176
     1
 90
        0
176
     1
 40
0.6
176
     1
 40
30.0
176
     1
 62
     7
420
 16777215
176
     1
 90
        2
176
     1
 90
        2
176
     1
 62
     7
176
     1
 62
     7
176
     1
 90
        1
176
     1
 90
        1
176
     1
 40
40.0
176
     1
 90
        8
176
     1
 62
     7
176
     1
 40
1.0
176
     1
 90
        1
176
     1
 90
        6
176
     1
 90
        2
176
     1
 62
     7
176
     1
 90
        3
176
     1
 90
        0
176
     1
 90
        0
176
     1
290
     0
176
     1
 90
        1
176
     1
 40
0.0
176
     1
 90
        0
176
     1
290
     0
176
     1
290
     1
176
     1
290
     1
176
     1
290
     0
176
     1
290
     0
176
     1
290
     0
176
     1
290
     0
176
     1
290
     0
176
     1
290
     0
176
     1
 90
       50
176
     1
 40
0.0
176
     1
 40
1.0
176
     1
 90
        0
176
     1
 62
    18
420
        0
176
     1
 90
       50
176
     1
 90
        3
176
     1
 62
     5
420
      255
176
     1
290
     0
176
     1
 90
       50
176
     1
 90
       50
176
     1
 90
       50
176
     1
290
     0
176
     1
 90
       50
176
     1
 62
   256
176
     0
 40
1.0
176
     0
 90
        2
176
     1
  1
strokes_ogs.tif
176
     1
290
     0
176
     1
 40
1.0
176
     1
 40
1.0
176
     1
  0
VISUALSTYLE
  5
3B
102
{ACAD_REACTORS
330
29
102
}
330
29
100
AcDbVisualStyle
  2
Sketchy
 70
    24
177
     3
291
     0
 70
    58
 90
        1
176
     1
 90
        2
176
     1
 90
        2
176
     1
 90
        0
176
     1
 40
0.6
176
     1
 40
30.0
176
     1
 62
     7
420
 16777215
176
     1
 90
        2
176
     1
 90
        2
176
     1
 62
     7
176
     1
 62
     7
176
     1
 90
        1
176
     1
 90
        1
176
     1
 40
40.0
176
     1
 90
       11
176
     1
 62
     7
176
     1
 40
1.0
176
     1
 90
        1
176
     1
 90
        6
176
     1
 90
        2
176
     1
 62
     7
176
     1
 90
        6
176
     1
 90
        0
176
     1
 90
        0
176
     1
290
     0
176
     1
 90
        1
176
     1
 40
0.0
176
     1
 90
        0
176
     1
290
     0
176
     1
290
     1
176
     1
290
     1
176
     1
290
     0
176
     1
290
     0
176
     1
290
     0
176
     1
290
     0
176
     1
290
     0
176
     1
290
     0
176
     1
 90
       50
176
     1
 40
0.0
176
     1
 40
1.0
176
     1
 90
        0
176
     1
 62
    18
420
        0
176
     1
 90
       50
176
     1
 90
        3
176
     1
 62
     5
420
      255
176
     1
290
     0
176
     1
 90
       50
176
     1
 90
       50
176
     1
 90
       50
176
     1
290
     0
176
     1
 90
       50
176
     1
 62
   256
176
     0
 40
1.0
176
     0
 90
        2
176
     1
  1
strokes_ogs.tif
176
     1
290
     0
176
     1
 40
1.0
176
     1
 40
1.0
176
     1
  0
VISUALSTYLE
  5
36
102
{ACAD_REACTORS
330
29
102
}
330
29
100
AcDbVisualStyle
  2
Thicken
 70
    13
177
     3
291
     1
 70
    58
 90
        2
176
     1
 90
        2
176
     1
 90
        0
176
     1
 90
        0
176
     1
 40
0.6
176
     1
 40
30.0
176
     1
 62
     7
420
 16777215
176
     1
 90
        1
176
     1
 90
        4
176
     1
 62
     7
176
     1
 62
   257
176
     1
 90
        1
176
     1
 90
        1
176
     1
 40
1.0
176
     1
 90
       12
176
     1
 62
     7
176
     1
 40
1.0
176
     1
 90
        1
176
     1
 90
        6
176
     1
 90
        2
176
     1
 62
     7
176
     1
 90
        5
176
     1
 90
        0
176
     1
 90
        0
176
     1
290
     0
176
     1
 90
        1
176
     1
 40
0.0
176
     1
 90
        0
176
     1
290
     0
176
     1
290
     1
176
     1
290
     1
176
     1
290
     0
176
     1
290
     0
176
     1
290
     0
176
     1
290
     0
176
     1
290
     0
176
     1
290
     0
176
     1
 90
       50
176
     1
 40
0.0
176
     1
 40
1.0
176
     1
 90
        0
176
     1
 62
    18
420
        0
176
     1
 90
       50
176
     1
 90
        3
176
     1
 62
     5
420
      255
176
     1
290
     0
176
     1
 90
       50
176
     1
 90
       50
176
     1
 90
       50
176
     1
290
     0
176
     1
 90
       50
176
     1
 62
   256
176
     0
 40
1.0
176
     0
 90
        2
176
     1
  1
strokes_ogs.tif
176
     1
290
     0
176
     1
 40
1.0
176
     1
 40
1.0
176
     1
  0
VISUALSTYLE
  5
30
102
{ACAD_REACTORS
330
29
102
}
330
29
100
AcDbVisualStyle
  2
Wireframe
 70
     5
177
     3
291
     0
 70
    58
 90
        0
176
     1
 90
        2
176
     1
 90
        0
176
     1
 90
        0
176
     1
 40
0.6
176
     1
 40
30.0
176
     1
 62
     7
420
 16777215
176
     1
 90
        1
176
     1
 90
        4
176
     1
 62
     7
176
     1
 62
   257
176
     1
 90
        1
176
     1
 90
        1
176
     1
 40
1.0
176
     1
 90
        0
176
     1
 62
   257
176
     1
 40
1.0
176
     1
 90
        1
176
     1
 90
        6
176
     1
 90
        2
176
     1
 62
     7
176
     1
 90
        3
176
     1
 90
        0
176
     1
 90
        0
176
     1
290
     0
176
     1
 90
        1
176
     1
 40
0.0
176
     1
 90
        0
176
     1
290
     0
176
     1
290
     1
176
     1
290
     1
176
     1
290
     0
176
     1
290
     0
176
     1
290
     0
176
     1
290
     0
176
     1
290
     0
176
     1
290
     0
176
     1
 90
       50
176
     1
 40
0.0
176
     1
 40
1.0
176
     1
 90
        0
176
     1
 62
    18
420
        0
176
     1
 90
       50
176
     1
 90
        3
176
     1
 62
     5
420
      255
176
     1
290
     0
176
     1
 90
       50
176
     1
 90
       50
176
     1
 90
       50
176
     1
290
     0
176
     1
 90
       50
176
     1
 62
   256
176
     0
 40
1.0
176
     0
 90
        2
176
     1
  1
strokes_ogs.tif
176
     1
290
     0
176
     1
 40
1.0
176
     1
 40
1.0
176
     1
  0
VISUALSTYLE
  5
3C
102
{ACAD_REACTORS
330
29
102
}
330
29
100
AcDbVisualStyle
  2
X-Ray
 70
    25
177
     3
291
     0
 70
    58
 90
        2
176
     1
 90
        2
176
     1
 90
        1
176
     1
 90
        1
176
     1
 40
0.5
176
     1
 40
30.0
176
     1
 62
     7
420
 16777215
176
     1
 90
        1
176
     1
 90
        0
176
     1
 62
     7
176
     1
 62
   257
176
     1
 90
        1
176
     1
 90
        1
176
     1
 40
1.0
176
     1
 90
        8
176
     1
 62
     7
176
     1
 40
1.0
176
     1
 90
        1
176
     1
 90
        6
176
     1
 90
        2
176
     1
 62
     7
176
     1
 90
        3
176
     1
 90
        0
176
     1
 90
        0
176
     1
290
     0
176
     1
 90
       13
176
     1
 40
0.0
176
     1
 90
        0
176
     1
290
     0
176
     1
290
     1
176
     1
290
     1
176
     1
290
     0
176
     1
290
     0
176
     1
290
     0
176
     1
290
     0
176
     1
290
     0
176
     1
290
     0
176
     1
 90
       50
176
     1
 40
0.0
176
     1
 40
1.0
176
     1
 90
        0
176
     1
 62
    18
420
        0
176
     1
 90
       50
176
     1
 90
        3
176
     1
 62
     5
420
      255
176
     1
290
     0
176
     1
 90
       50
176
     1
 90
       50
176
     1
 90
       50
176
     1
290
     0
176
     1
 90
       50
176
     1
 62
   256
176
     0
 40
1.0
176
     0
 90
        2
176
     1
  1
strokes_ogs.tif
176
     1
290
     0
176
     1
 40
1.0
176
     1
 40
1.0
176
     1
  0
DICTIONARYVAR
  5
13D
102
{ACAD_REACTORS
330
138
102
}
330
138
100
DictionaryVariables
280
     0
  1
1:1
  0
DICTIONARYVAR
  5
13A
102
{ACAD_REACTORS
330
138
102
}
330
138
100
DictionaryVariables
280
     0
  1
STANDARD
  0
DICTIONARYVAR
  5
139
102
{ACAD_REACTORS
330
138
102
}
330
138
100
DictionaryVariables
280
     0
  1
STANDARD
  0
DICTIONARYVAR
  5
13B
102
{ACAD_REACTORS
330
138
102
}
330
138
100
DictionaryVariables
280
     0
  1
Imperial24
  0
DICTIONARYVAR
  5
13C
102
{ACAD_REACTORS
330
138
102
}
330
138
100
DictionaryVariables
280
     0
  1
Imperial24
  0
DICTIONARY
  5
1A
330
19
100
AcDbDictionary
280
     1
281
     1
  3
BUMPTILE
360
1C
  3
DIFFUSETILE
360
1B
  3
OPACITYTILE
360
1F
  3
REFLECTIONTILE
360
1E
  3
REFRACTIONTILE
360
20
  3
SPECULARTILE
360
1D
  0
DICTIONARY
  5
12
330
11
100
AcDbDictionary
280
     1
281
     1
  3
BUMPTILE
360
14
  3
DIFFUSETILE
360
13
  3
OPACITYTILE
360
17
  3
REFLECTIONTILE
360
16
  3
REFRACTIONTILE
360
18
  3
SPECULARTILE
360
15
  0
DICTIONARY
  5
22
330
21
100
AcDbDictionary
280
     1
281
     1
  3
BUMPTILE
360
24
  3
DIFFUSETILE
360
23
  3
OPACITYTILE
360
27
  3
REFLECTIONTILE
360
26
  3
REFRACTIONTILE
360
28
  3
SPECULARTILE
360
25
  0
DICTIONARY
  5
13E
330
65
100
AcDbDictionary
280
     1
281
     1
  3
ACAD_ROUNDTRIP_2008_TABLESTYLE_CELLSTYLEMAP
360
13F
  0
XRECORD
  5
1C
102
{ACAD_REACTORS
330
1A
102
}
330
1A
100
AcDbXrecord
280
     1
270
     1
271
     1
  0
XRECORD
  5
1B
102
{ACAD_REACTORS
330
1A
102
}
330
1A
100
AcDbXrecord
280
     1
270
     1
271
     1
  0
XRECORD
  5
1F
102
{ACAD_REACTORS
330
1A
102
}
330
1A
100
AcDbXrecord
280
     1
270
     1
271
     1
  0
XRECORD
  5
1E
102
{ACAD_REACTORS
330
1A
102
}
330
1A
100
AcDbXrecord
280
     1
270
     1
271
     1
  0
XRECORD
  5
20
102
{ACAD_REACTORS
330
1A
102
}
330
1A
100
AcDbXrecord
280
     1
270
     1
271
     1
  0
XRECORD
  5
1D
102
{ACAD_REACTORS
330
1A
102
}
330
1A
100
AcDbXrecord
280
     1
270
     1
271
     1
  0
XRECORD
  5
14
102
{ACAD_REACTORS
330
12
102
}
330
12
100
AcDbXrecord
280
     1
270
     1
271
     1
  0
XRECORD
  5
13
102
{ACAD_REACTORS
330
12
102
}
330
12
100
AcDbXrecord
280
     1
270
     1
271
     1
  0
XRECORD
  5
17
102
{ACAD_REACTORS
330
12
102
}
330
12
100
AcDbXrecord
280
     1
270
     1
271
     1
  0
XRECORD
  5
16
102
{ACAD_REACTORS
330
12
102
}
330
12
100
AcDbXrecord
280
     1
270
     1
271
     1
  0
XRECORD
  5
18
102
{ACAD_REACTORS
330
12
102
}
330
12
100
AcDbXrecord
280
     1
270
     1
271
     1
  0
XRECORD
  5
15
102
{ACAD_REACTORS
330
12
102
}
330
12
100
AcDbXrecord
280
     1
270
     1
271
     1
  0
XRECORD
  5
24
102
{ACAD_REACTORS
330
22
102
}
330
22
100
AcDbXrecord
280
     1
270
     1
271
     1
  0
XRECORD
  5
23
102
{ACAD_REACTORS
330
22
102
}
330
22
100
AcDbXrecord
280
     1
270
     1
271
     1
  0
XRECORD
  5
27
102
{ACAD_REACTORS
330
22
102
}
330
22
100
AcDbXrecord
280
     1
270
     1
271
     1
  0
XRECORD
  5
26
102
{ACAD_REACTORS
330
22
102
}
330
22
100
AcDbXrecord
280
     1
270
     1
271
     1
  0
XRECORD
  5
28
102
{ACAD_REACTORS
330
22
102
}
330
22
100
AcDbXrecord
280
     1
270
     1
271
     1
  0
XRECORD
  5
25
102
{ACAD_REACTORS
330
22
102
}
330
22
100
AcDbXrecord
280
     1
270
     1
271
     1
  0
CELLSTYLEMAP
  5
13F
102
{ACAD_REACTORS
330
13E
102
}
330
13E
100
AcDbCellStyleMap
 90
        3
300
CELLSTYLE
  1
TABLEFORMAT_BEGIN
 90
        5
170
     1
 91
        0
 92
    32768
 62
   257
 93
        1
300
CONTENTFORMAT
  1
CONTENTFORMAT_BEGIN
 90
        0
 91
        0
 92
      512
 93
        0
300

 40
0.0
140
1.0
 94
        5
 62
     0
340
55
144
0.25
309
CONTENTFORMAT_END
171
     0
 94
        0
309
TABLEFORMAT_END
  1
CELLSTYLE_BEGIN
 90
        1
 91
        1
300
_TITLE
309
CELLSTYLE_END
300
CELLSTYLE
  1
TABLEFORMAT_BEGIN
 90
        5
170
     1
 91
        0
 92
        0
 62
   257
 93
        1
300
CONTENTFORMAT
  1
CONTENTFORMAT_BEGIN
 90
        0
 91
        0
 92
      512
 93
        0
300

 40
0.0
140
1.0
 94
        5
 62
     0
340
55
144
0.18
309
CONTENTFORMAT_END
171
     0
 94
        0
309
TABLEFORMAT_END
  1
CELLSTYLE_BEGIN
 90
        2
 91
        1
300
_HEADER
309
CELLSTYLE_END
300
CELLSTYLE
  1
TABLEFORMAT_BEGIN
 90
        5
170
     1
 91
        0
 92
        0
 62
   257
 93
        1
300
CONTENTFORMAT
  1
CONTENTFORMAT_BEGIN
 90
        0
 91
        0
 92
      512
 93
        0
300

 40
0.0
140
1.0
 94
        2
 62
     0
340
55
144
0.18
309
CONTENTFORMAT_END
171
     0
 94
        0
309
TABLEFORMAT_END
  1
CELLSTYLE_BEGIN
 90
        3
 91
        2
300
_DATA
309
CELLSTYLE_END
  0
ENDSEC
  0
EOF
