  0
SECTION
  2
HEADER
  9
$ACADVER
  1
AC1032
  9
$ACADMAINTVER
 90
      228
  9
$DWGCODEPAGE
  3
ANSI_1252
  9
$REQUIREDVERSIONS
160
                 0
  9
$INSBASE
 10
0.0
 20
0.0
 30
0.0
  9
$EXTMIN
 10
1.000000000000000E+20
 20
1.000000000000000E+20
 30
1.000000000000000E+20
  9
$EXTMAX
 10
-1.000000000000000E+20
 20
-1.000000000000000E+20
 30
-1.000000000000000E+20
  9
$LIMMIN
 10
0.0
 20
0.0
  9
$LIMMAX
 10
12.0
 20
9.0
  9
$ORTHOMODE
 70
     0
  9
$REGENMODE
 70
     1
  9
$FILLMODE
 70
     1
  9
$QTEXTMODE
 70
     0
  9
$MIRRTEXT
 70
     0
  9
$LTSCALE
 40
1.0
  9
$ATTMODE
 70
     1
  9
$TEXTSIZE
 40
0.2
  9
$TRACEWID
 40
0.05
  9
$TEXTSTYLE
  7
Standard
  9
$CLAYER
  8
0
  9
$CELTYPE
  6
ByLayer
  9
$CECOLOR
 62
   256
  9
$CELTSCALE
 40
1.0
  9
$DISPSILH
 70
     0
  9
$DIMSCALE
 40
1.0
  9
$DIMASZ
 40
0.18
  9
$DIMEXO
 40
0.0625
  9
$DIMDLI
 40
0.38
  9
$DIMRND
 40
0.0
  9
$DIMDLE
 40
0.0
  9
$DIMEXE
 40
0.18
  9
$DIMTP
 40
0.0
  9
$DIMTM
 40
0.0
  9
$DIMTXT
 40
0.18
  9
$DIMCEN
 40
0.09
  9
$DIMTSZ
 40
0.0
  9
$DIMTOL
 70
     0
  9
$DIMLIM
 70
     0
  9
$DIMTIH
 70
     1
  9
$DIMTOH
 70
     1
  9
$DIMSE1
 70
     0
  9
$DIMSE2
 70
     0
  9
$DIMTAD
 70
     0
  9
$DIMZIN
 70
     0
  9
$DIMBLK
  1

  9
$DIMASO
 70
     1
  9
$DIMSHO
 70
     1
  9
$DIMPOST
  1

  9
$DIMAPOST
  1

  9
$DIMALT
 70
     0
  9
$DIMALTD
 70
     2
  9
$DIMALTF
 40
25.4
  9
$DIMLFAC
 40
1.0
  9
$DIMTOFL
 70
     0
  9
$DIMTVP
 40
0.0
  9
$DIMTIX
 70
     0
  9
$DIMSOXD
 70
     0
  9
$DIMSAH
 70
     0
  9
$DIMBLK1
  1

  9
$DIMBLK2
  1

  9
$DIMSTYLE
  2
Standard
  9
$DIMCLRD
 70
     0
  9
$DIMCLRE
 70
     0
  9
$DIMCLRT
 70
     0
  9
$DIMTFAC
 40
1.0
  9
$DIMGAP
 40
0.09
  9
$DIMJUST
 70
     0
  9
$DIMSD1
 70
     0
  9
$DIMSD2
 70
     0
  9
$DIMTOLJ
 70
     1
  9
$DIMTZIN
 70
     0
  9
$DIMALTZ
 70
     0
  9
$DIMALTTZ
 70
     0
  9
$DIMUPT
 70
     0
  9
$DIMDEC
 70
     4
  9
$DIMTDEC
 70
     4
  9
$DIMALTU
 70
     2
  9
$DIMALTTD
 70
     2
  9
$DIMTXSTY
  7
Standard
  9
$DIMAUNIT
 70
     0
  9
$DIMADEC
 70
     0
  9
$DIMALTRND
 40
0.0
  9
$DIMAZIN
 70
     0
  9
$DIMDSEP
 70
    46
  9
$DIMATFIT
 70
     3
  9
$DIMFRAC
 70
     0
  9
$DIMLDRBLK
  1

  9
$DIMLUNIT
 70
     2
  9
$DIMLWD
 70
    -2
  9
$DIMLWE
 70
    -2
  9
$DIMTMOVE
 70
     0
  9
$DIMFXL
 40
1.0
  9
$DIMFXLON
 70
     0
  9
$DIMJOGANG
 40
0.7853981633974483
  9
$DIMTFILL
 70
     0
  9
$DIMTFILLCLR
 70
     0
  9
$DIMARCSYM
 70
     0
  9
$DIMLTYPE
  6

  9
$DIMLTEX1
  6

  9
$DIMLTEX2
  6

  9
$DIMTXTDIRECTION
 70
     0
  9
$LUNITS
 70
     2
  9
$LUPREC
 70
     4
  9
$SKETCHINC
 40
0.1
  9
$FILLETRAD
 40
0.0
  9
$AUNITS
 70
     0
  9
$AUPREC
 70
     0
  9
$MENU
  1
.
  9
$ELEVATION
 40
0.0
  9
$PELEVATION
 40
0.0
  9
$THICKNESS
 40
0.0
  9
$LIMCHECK
 70
     0
  9
$CHAMFERA
 40
0.0
  9
$CHAMFERB
 40
0.0
  9
$CHAMFERC
 40
0.0
  9
$CHAMFERD
 40
0.0
  9
$SKPOLY
 70
     0
  9
$TDCREATE
 40
2460185.669317130
  9
$TDUCREATE
 40
2460185.627650463
  9
$TDUPDATE
 40
2460185.669317130
  9
$TDUUPDATE
 40
2460185.627650463
  9
$TDINDWG
 40
0.0000115741
  9
$TDUSRTIMER
 40
0.0000115741
  9
$USRTIMER
 70
     1
  9
$ANGBASE
 50
0.0
  9
$ANGDIR
 70
     0
  9
$PDMODE
 70
     0
  9
$PDSIZE
 40
0.0
  9
$PLINEWID
 40
0.0
  9
$SPLFRAME
 70
     0
  9
$SPLINETYPE
 70
     6
  9
$SPLINESEGS
 70
     8
  9
$HANDSEED
  5
285
  9
$SURFTAB1
 70
     6
  9
$SURFTAB2
 70
     6
  9
$SURFTYPE
 70
     6
  9
$SURFU
 70
     6
  9
$SURFV
 70
     6
  9
$UCSBASE
  2

  9
$UCSNAME
  2

  9
$UCSORG
 10
0.0
 20
0.0
 30
0.0
  9
$UCSXDIR
 10
1.0
 20
0.0
 30
0.0
  9
$UCSYDIR
 10
0.0
 20
1.0
 30
0.0
  9
$UCSORTHOREF
  2

  9
$UCSORTHOVIEW
 70
     0
  9
$UCSORGTOP
 10
0.0
 20
0.0
 30
0.0
  9
$UCSORGBOTTOM
 10
0.0
 20
0.0
 30
0.0
  9
$UCSORGLEFT
 10
0.0
 20
0.0
 30
0.0
  9
$UCSORGRIGHT
 10
0.0
 20
0.0
 30
0.0
  9
$UCSORGFRONT
 10
0.0
 20
0.0
 30
0.0
  9
$UCSORGBACK
 10
0.0
 20
0.0
 30
0.0
  9
$PUCSBASE
  2

  9
$PUCSNAME
  2

  9
$PUCSORG
 10
0.0
 20
0.0
 30
0.0
  9
$PUCSXDIR
 10
1.0
 20
0.0
 30
0.0
  9
$PUCSYDIR
 10
0.0
 20
1.0
 30
0.0
  9
$PUCSORTHOREF
  2

  9
$PUCSORTHOVIEW
 70
     0
  9
$PUCSORGTOP
 10
0.0
 20
0.0
 30
0.0
  9
$PUCSORGBOTTOM
 10
0.0
 20
0.0
 30
0.0
  9
$PUCSORGLEFT
 10
0.0
 20
0.0
 30
0.0
  9
$PUCSORGRIGHT
 10
0.0
 20
0.0
 30
0.0
  9
$PUCSORGFRONT
 10
0.0
 20
0.0
 30
0.0
  9
$PUCSORGBACK
 10
0.0
 20
0.0
 30
0.0
  9
$USERI1
 70
     0
  9
$USERI2
 70
     0
  9
$USERI3
 70
     0
  9
$USERI4
 70
     0
  9
$USERI5
 70
     0
  9
$USERR1
 40
0.0
  9
$USERR2
 40
0.0
  9
$USERR3
 40
0.0
  9
$USERR4
 40
0.0
  9
$USERR5
 40
0.0
  9
$WORLDVIEW
 70
     1
  9
$SHADEDGE
 70
     3
  9
$SHADEDIF
 70
    70
  9
$TILEMODE
 70
     1
  9
$MAXACTVP
 70
    64
  9
$PINSBASE
 10
0.0
 20
0.0
 30
0.0
  9
$PLIMCHECK
 70
     0
  9
$PEXTMIN
 10
1.000000000000000E+20
 20
1.000000000000000E+20
 30
1.000000000000000E+20
  9
$PEXTMAX
 10
-1.000000000000000E+20
 20
-1.000000000000000E+20
 30
-1.000000000000000E+20
  9
$PLIMMIN
 10
0.0
 20
0.0
  9
$PLIMMAX
 10
12.0
 20
9.0
  9
$UNITMODE
 70
     0
  9
$VISRETAIN
 70
     1
  9
$PLINEGEN
 70
     0
  9
$PSLTSCALE
 70
     1
  9
$TREEDEPTH
 70
  3020
  9
$CMLSTYLE
  2
Standard
  9
$CMLJUST
 70
     0
  9
$CMLSCALE
 40
1.0
  9
$PROXYGRAPHICS
 70
     1
  9
$MEASUREMENT
 70
     0
  9
$CELWEIGHT
370
    -1
  9
$ENDCAPS
280
     0
  9
$JOINSTYLE
280
     0
  9
$LWDISPLAY
290
     1
  9
$INSUNITS
 70
     4
  9
$HYPERLINKBASE
  1

  9
$STYLESHEET
  1

  9
$XEDIT
290
     1
  9
$CEPSNTYPE
380
     0
  9
$PSTYLEMODE
290
     1
  9
$FINGERPRINTGUID
  2
{D2C50DD4-B216-A344-A3E5-2D37F08E45A2}
  9
$VERSIONGUID
  2
{686F5DE7-7A69-9747-B605-1A33FA1372CE}
  9
$EXTNAMES
290
     1
  9
$PSVPSCALE
 40
0.0
  9
$OLESTARTUP
290
     0
  9
$SORTENTS
280
   127
  9
$INDEXCTL
280
     0
  9
$HIDETEXT
280
     1
  9
$XCLIPFRAME
280
     2
  9
$HALOGAP
280
     0
  9
$OBSCOLOR
 70
   257
  9
$OBSLTYPE
280
     0
  9
$INTERSECTIONDISPLAY
280
     0
  9
$INTERSECTIONCOLOR
 70
   257
  9
$DIMASSOC
280
     2
  9
$PROJECTNAME
  1

  9
$CAMERADISPLAY
290
     0
  9
$LENSLENGTH
 40
50.0
  9
$CAMERAHEIGHT
 40
0.0
  9
$STEPSPERSEC
 40
2.0
  9
$STEPSIZE
 40
6.0
  9
$3DDWFPREC
 40
2.0
  9
$PSOLWIDTH
 40
0.25
  9
$PSOLHEIGHT
 40
4.0
  9
$LOFTANG1
 40
1.570796326794896
  9
$LOFTANG2
 40
1.570796326794896
  9
$LOFTMAG1
 40
0.0
  9
$LOFTMAG2
 40
0.0
  9
$LOFTPARAM
 70
     7
  9
$LOFTNORMALS
280
     1
  9
$LATITUDE
 40
37.795
  9
$LONGITUDE
 40
-122.394
  9
$NORTHDIRECTION
 40
0.0
  9
$TIMEZONE
 70
 -8000
  9
$LIGHTGLYPHDISPLAY
280
     1
  9
$TILEMODELIGHTSYNCH
280
     1
  9
$CMATERIAL
347
11
  9
$SOLIDHIST
280
     0
  9
$SHOWHIST
280
     1
  9
$DWFFRAME
280
     2
  9
$DGNFRAME
280
     0
  9
$REALWORLDSCALE
290
     1
  9
$INTERFERECOLOR
 62
     1
  9
$INTERFEREOBJVS
345
33
  9
$INTERFEREVPVS
346
30
  9
$CSHADOW
280
     0
  9
$SHADOWPLANELOCATION
 40
0.0
  0
ENDSEC
  0
SECTION
  2
CLASSES
  0
CLASS
  1
ACDBDICTIONARYWDFLT
  2
AcDbDictionaryWithDefault
  3
ObjectDBX Classes
 90
        0
 91
        1
280
     0
281
     0
  0
CLASS
  1
MATERIAL
  2
AcDbMaterial
  3
ObjectDBX Classes
 90
     1153
 91
        3
280
     0
281
     0
  0
CLASS
  1
VISUALSTYLE
  2
AcDbVisualStyle
  3
ObjectDBX Classes
 90
     4095
 91
       24
280
     0
281
     0
  0
CLASS
  1
SCALE
  2
AcDbScale
  3
ObjectDBX Classes
 90
     1153
 91
       17
280
     0
281
     0
  0
CLASS
  1
TABLESTYLE
  2
AcDbTableStyle
  3
ObjectDBX Classes
 90
     4095
 91
        1
280
     0
281
     0
  0
CLASS
  1
MLEADERSTYLE
  2
AcDbMLeaderStyle
  3
ACDB_MLEADERSTYLE_CLASS
 90
     4095
 91
        1
280
     0
281
     0
  0
CLASS
  1
ACDBSECTIONVIEWSTYLE
  2
AcDbSectionViewStyle
  3
ObjectDBX Classes
 90
     1025
 91
        1
280
     0
281
     0
  0
CLASS
  1
ACDBDETAILVIEWSTYLE
  2
AcDbDetailViewStyle
  3
ObjectDBX Classes
 90
     1025
 91
        1
280
     0
281
     0
  0
CLASS
  1
DICTIONARYVAR
  2
AcDbDictionaryVar
  3
ObjectDBX Classes
 90
        0
 91
        5
280
     0
281
     0
  0
CLASS
  1
CELLSTYLEMAP
  2
AcDbCellStyleMap
  3
ObjectDBX Classes
 90
     1152
 91
        1
280
     0
281
     0
  0
ENDSEC
  0
SECTION
  2
TABLES
  0
TABLE
  2
VPORT
  5
8
330
0
100
AcDbSymbolTable
 70
     1
  0
VPORT
  5
57
330
8
100
AcDbSymbolTableRecord
100
AcDbViewportTableRecord
  2
*Active
 70
     0
 10
0.0
 20
0.0
 11
1.0
 21
1.0
 12
0.0
 22
0.0
 13
0.0
 23
0.0
 14
1.0
 24
1.0
 15
0.0
 25
0.0
 16
0.0
 26
0.0
 36
1.0
 17
49.99999998749409
 27
-49.99999998749409
 37
0.0
 40
101.9999999744879
 41
1.0
 42
50.0
 43
0.0
 44
0.0
 50
0.0
 51
0.0
 71
     0
 72
   100
 73
     1
 74
     1
 75
     0
 76
     0
 77
     0
 78
     0
281
     0
 65
     1
110
0.0
120
0.0
130
0.0
111
1.0
121
0.0
131
0.0
112
0.0
122
1.0
132
0.0
 79
     0
146
0.0
 60
     3
 61
     5
292
     1
282
     1
141
0.0
142
0.0
 63
   250
421
  3355443
  0
ENDTAB
  0
TABLE
  2
LTYPE
  5
5
330
0
100
AcDbSymbolTable
 70
     1
  0
LTYPE
  5
5B
330
5
100
AcDbSymbolTableRecord
100
AcDbLinetypeTableRecord
  2
ByBlock
 70
     0
  3

 72
    65
 73
     0
 40
0.0
  0
LTYPE
  5
5C
330
5
100
AcDbSymbolTableRecord
100
AcDbLinetypeTableRecord
  2
ByLayer
 70
     0
  3

 72
    65
 73
     0
 40
0.0
  0
LTYPE
  5
5D
330
5
100
AcDbSymbolTableRecord
100
AcDbLinetypeTableRecord
  2
Continuous
 70
     0
  3
Solid line
 72
    65
 73
     0
 40
0.0
  0
ENDTAB
  0
TABLE
  2
LAYER
  5
2
330
0
100
AcDbSymbolTable
 70
     2
  0
LAYER
  5
54
330
2
100
AcDbSymbolTableRecord
100
AcDbLayerTableRecord
  2
0
 70
     0
 62
     7
  6
Continuous
370
    -3
390
F
347
21
348
0
  0
LAYER
  5
78
330
2
100
AcDbSymbolTableRecord
100
AcDbLayerTableRecord
  2
Camada 1
 70
     0
 62
     7
  6
Continuous
370
     0
390
F
347
21
348
0
  0
ENDTAB
  0
TABLE
  2
STYLE
  5
3
330
0
100
AcDbSymbolTable
 70
     2
  0
STYLE
  5
55
330
3
100
AcDbSymbolTableRecord
100
AcDbTextStyleTableRecord
  2
Standard
 70
     0
 40
0.0
 41
1.0
 50
0.0
 71
     0
 42
0.2
  3
txt
  4

  0
STYLE
  5
5A
330
3
100
AcDbSymbolTableRecord
100
AcDbTextStyleTableRecord
  2
Annotative
 70
     0
 40
0.0
 41
1.0
 50
0.0
 71
     0
 42
0.2
  3
txt
  4

1001
AcadAnnotative
1000
AnnotativeData
1002
{
1070
     1
1070
     1
1002
}
  0
ENDTAB
  0
TABLE
  2
VIEW
  5
6
330
0
100
AcDbSymbolTable
 70
     0
  0
ENDTAB
  0
TABLE
  2
UCS
  5
7
330
0
100
AcDbSymbolTable
 70
     0
  0
ENDTAB
  0
TABLE
  2
APPID
  5
9
330
0
100
AcDbSymbolTable
 70
     2
  0
APPID
  5
56
330
9
100
AcDbSymbolTableRecord
100
AcDbRegAppTableRecord
  2
ACAD
 70
     0
  0
APPID
  5
5E
330
9
100
AcDbSymbolTableRecord
100
AcDbRegAppTableRecord
  2
AcadAnnotative
 70
     0
  0
ENDTAB
  0
TABLE
  2
DIMSTYLE
  5
A
330
0
100
AcDbSymbolTable
 70
     2
100
AcDbDimStyleTable
 71
     0
  0
DIMSTYLE
105
58
330
A
100
AcDbSymbolTableRecord
100
AcDbDimStyleTableRecord
  2
Standard
 70
     0
340
55
  0
DIMSTYLE
105
59
330
A
100
AcDbSymbolTableRecord
100
AcDbDimStyleTableRecord
  2
Annotative
 70
     0
340
55
1001
AcadAnnotative
1000
AnnotativeData
1002
{
1070
     1
1070
     1
1002
}
  0
ENDTAB
  0
TABLE
  2
BLOCK_RECORD
  5
1
330
0
100
AcDbSymbolTable
 70
     2
  0
BLOCK_RECORD
  5
70
330
1
100
AcDbSymbolTableRecord
100
AcDbBlockTableRecord
  2
*Model_Space
340
73
 70
     0
280
     1
281
     0
  0
BLOCK_RECORD
  5
6C
330
1
100
AcDbSymbolTableRecord
100
AcDbBlockTableRecord
  2
*Paper_Space
340
6F
 70
     0
280
     1
281
     0
  0
BLOCK_RECORD
  5
74
330
1
100
AcDbSymbolTableRecord
100
AcDbBlockTableRecord
  2
*Paper_Space0
340
77
 70
     0
280
     1
281
     0
  0
BLOCK_RECORD
  5
79
330
1
100
AcDbSymbolTableRecord
100
AcDbBlockTableRecord
  2
Block_0
340
0
102
{BLKREFS
331
7A
102
}
 70
     0
280
     1
281
     0
  0
ENDTAB
  0
ENDSEC
  0
SECTION
  2
BLOCKS
  0
BLOCK
  5
71
330
70
100
AcDbEntity
  8
0
100
AcDbBlockBegin
  2
*Model_Space
 70
     0
 10
0.0
 20
0.0
 30
0.0
  3
*Model_Space
  1

  0
ENDBLK
  5
72
330
70
100
AcDbEntity
  8
0
100
AcDbBlockEnd
  0
BLOCK
  5
6D
330
6C
100
AcDbEntity
 67
     1
  8
0
100
AcDbBlockBegin
  2
*Paper_Space
 70
     0
 10
0.0
 20
0.0
 30
0.0
  3
*Paper_Space
  1

  0
ENDBLK
  5
6E
330
6C
100
AcDbEntity
 67
     1
  8
0
100
AcDbBlockEnd
  0
BLOCK
  5
75
330
74
100
AcDbEntity
 67
     1
  8
0
100
AcDbBlockBegin
  2
*Paper_Space0
 70
     0
 10
0.0
 20
0.0
 30
0.0
  3
*Paper_Space0
  1

  0
ENDBLK
  5
76
330
74
100
AcDbEntity
 67
     1
  8
0
100
AcDbBlockEnd
  0
BLOCK
  5
7B
330
79
100
AcDbEntity
  8
0
100
AcDbBlockBegin
  2
Block_0
 70
     0
 10
0.0
 20
0.0
 30
0.0
  3
Block_0
  1

  0
LINE
  5
7D
330
79
100
AcDbEntity
  8
Camada 1
 62
   250
420
  1907995
370
    18
100
AcDbLine
 10
50.00673951163155
 20
-61.12663025916686
 30
0.0
 11
50.00673951163155
 21
-62.76775263170173
 31
0.0
  0
LINE
  5
7E
330
79
100
AcDbEntity
  8
Camada 1
 62
   250
420
  1907995
370
    18
100
AcDbLine
 10
50.00673951163155
 20
-49.58691688992754
 30
0.0
 11
50.00673951163155
 21
-59.47245420451992
 31
0.0
  0
LINE
  5
7F
330
79
100
AcDbEntity
  8
Camada 1
 62
   250
420
  1907995
370
    18
100
AcDbLine
 10
50.00673951163155
 20
-46.27856478063365
 30
0.0
 11
50.00673951163155
 21
-47.93274352676144
 31
0.0
  0
LINE
  5
80
330
79
100
AcDbEntity
  8
Camada 1
 62
   250
420
  1907995
370
    18
100
AcDbLine
 10
65.58777058649877
 20
-36.74354709129919
 30
0.0
 11
60.67638863310964
 21
-36.74354709129919
 31
0.0
  0
LWPOLYLINE
  5
81
330
79
100
AcDbEntity
  8
Camada 1
 62
   250
420
  1907995
370
    18
100
AcDbPolyline
 90
        3
 70
     0
 43
0.0
 10
39.23367831301731
 20
-71.21095765770101
 10
39.85174459195686
 20
-71.82831876865778
 10
40.53542917396574
 20
-72.51094290721325
  0
LWPOLYLINE
  5
82
330
79
100
AcDbEntity
  8
Camada 1
 62
   250
420
  1907995
370
    18
100
AcDbPolyline
 90
        3
 70
     0
 43
0.0
 10
39.23367831301731
 20
-70.04255621535938
 10
39.85174459195686
 20
-70.65956474232507
 10
40.53542917396574
 20
-71.34254415635247
  0
LWPOLYLINE
  5
83
330
79
100
AcDbEntity
  8
Camada 1
 62
   250
420
  1907995
370
    18
100
AcDbPolyline
 90
        3
 70
     0
 43
0.0
 10
39.23367831301731
 20
-68.87415746449859
 10
39.85174459195686
 20
-69.50421698209552
 10
40.53542917396574
 20
-70.17379013001977
  0
LWPOLYLINE
  5
84
330
79
100
AcDbEntity
  8
Camada 1
 62
   250
420
  1907995
370
    18
100
AcDbPolyline
 90
        3
 70
     0
 43
0.0
 10
39.23367831301731
 20
-67.70540343816588
 10
39.85174459195686
 20
-68.33581823123473
 10
40.53542917396574
 20
-69.00539137915898
  0
LWPOLYLINE
  5
85
330
79
100
AcDbEntity
  8
Camada 1
 62
   250
420
  1907995
370
    18
100
AcDbPolyline
 90
        3
 70
     0
 43
0.0
 10
40.53542917396574
 20
-67.83663735282627
 10
39.85174459195686
 20
-67.16706420490203
 10
39.23367831301731
 20
-66.55005567793633
  0
LINE
  5
86
330
79
100
AcDbEntity
  8
Camada 1
 62
   250
420
  1907995
370
    18
100
AcDbLine
 10
38.7076875938834
 20
-66.02477012678455
 30
0.0
 11
39.02342521214485
 21
-66.33980257706387
 31
0.0
  0
LINE
  5
87
330
79
100
AcDbEntity
  8
Camada 1
 62
   250
420
  1907995
370
    18
100
AcDbLine
 10
38.7076875938834
 20
-64.85637137592377
 30
0.0
 11
40.53542917396574
 21
-66.68128959259672
 31
0.0
  0
LINE
  5
88
330
79
100
AcDbEntity
  8
Camada 1
 62
   250
420
  1907995
370
    18
100
AcDbLine
 10
38.7076875938834
 20
-63.68761734959107
 30
0.0
 11
39.18111369205877
 21
-64.16034097126516
 31
0.0
  0
LINE
  5
89
330
79
100
AcDbEntity
  8
Camada 1
 62
   250
420
  1907995
370
    18
100
AcDbLine
 10
38.7076875938834
 20
-62.53226958936151
 30
0.0
 11
39.18111369205877
 21
-62.99193952892352
 31
0.0
  0
LINE
  5
8A
330
79
100
AcDbEntity
  8
Camada 1
 62
   250
420
  1907995
370
    18
100
AcDbLine
 10
38.7076875938834
 20
-61.36387083850073
 30
0.0
 11
39.18111369205877
 21
-61.83623918470289
 31
0.0
  0
LINE
  5
8B
330
79
100
AcDbEntity
  8
Camada 1
 62
   250
420
  1907995
370
    18
100
AcDbLine
 10
38.7076875938834
 20
-60.19511681216802
 30
0.0
 11
39.18111369205877
 21
-60.66784043384211
 31
0.0
  0
LINE
  5
8C
330
79
100
AcDbEntity
  8
Camada 1
 62
   250
420
  1907995
370
    18
100
AcDbLine
 10
38.7076875938834
 20
-59.02671806130723
 30
0.0
 11
39.18111369205877
 21
-59.49944168298132
 31
0.0
  0
LINE
  5
8D
330
79
100
AcDbEntity
  8
Camada 1
 62
   250
420
  1907995
370
    18
100
AcDbLine
 10
38.7076875938834
 20
-57.85796672645538
 30
0.0
 11
39.18111369205877
 21
-58.33068765664862
 31
0.0
  0
LINE
  5
8E
330
79
100
AcDbEntity
  8
Camada 1
 62
   250
420
  1907995
370
    18
100
AcDbLine
 10
38.7076875938834
 20
-56.70261896622583
 30
0.0
 11
39.18111369205877
 21
-57.16228890578783
 31
0.0
  0
LINE
  5
8F
330
79
100
AcDbEntity
  8
Camada 1
 62
   250
420
  1907995
370
    18
100
AcDbLine
 10
38.7076875938834
 20
-55.5342175238842
 30
0.0
 11
39.18111369205877
 21
-56.00694383703912
 31
0.0
  0
LINE
  5
90
330
79
100
AcDbEntity
  8
Camada 1
 62
   250
420
  1907995
370
    18
100
AcDbLine
 10
38.7076875938834
 20
-54.36546888051318
 30
0.0
 11
39.18111369205877
 21
-54.83818981070641
 31
0.0
  0
LINE
  5
91
330
79
100
AcDbEntity
  8
Camada 1
 62
   250
420
  1907995
370
    18
100
AcDbLine
 10
38.7076875938834
 20
-53.19706474669071
 30
0.0
 11
39.18111369205877
 21
-53.66979105984563
 31
0.0
  0
LINE
  5
92
330
79
100
AcDbEntity
  8
Camada 1
 62
   250
420
  1907995
370
    18
100
AcDbLine
 10
38.7076875938834
 20
-52.04171967794199
 30
0.0
 11
39.18111369205877
 21
-52.50103703351292
 31
0.0
  0
LINE
  5
93
330
79
100
AcDbEntity
  8
Camada 1
 62
   250
420
  1907995
370
    18
100
AcDbLine
 10
38.7076875938834
 20
-50.87296565160929
 30
0.0
 11
39.18111369205877
 21
-51.33263828265214
 31
0.0
  0
LINE
  5
94
330
79
100
AcDbEntity
  8
Camada 1
 62
   250
420
  1907995
370
    18
100
AcDbLine
 10
38.7076875938834
 20
-49.70456690074882
 30
0.0
 11
39.18111369205877
 21
-50.17728783094206
 31
0.0
  0
LINE
  5
95
330
79
100
AcDbEntity
  8
Camada 1
 62
   250
420
  1907995
370
    18
100
AcDbLine
 10
38.7076875938834
 20
-48.53616814988804
 30
0.0
 11
39.18111369205877
 21
-49.00853918757105
 31
0.0
  0
LINE
  5
96
330
79
100
AcDbEntity
  8
Camada 1
 62
   250
420
  1907995
370
    18
100
AcDbLine
 10
38.7076875938834
 20
-47.36741412355534
 30
0.0
 11
39.18111369205877
 21
-47.84013505374857
 31
0.0
  0
LINE
  5
97
330
79
100
AcDbEntity
  8
Camada 1
 62
   250
420
  1907995
370
    18
100
AcDbLine
 10
38.7076875938834
 20
-46.21206905480663
 30
0.0
 11
39.18111369205877
 21
-46.67138641037756
 31
0.0
  0
LINE
  5
98
330
79
100
AcDbEntity
  8
Camada 1
 62
   250
420
  1907995
370
    18
100
AcDbLine
 10
38.7076875938834
 20
-45.04331502847392
 30
0.0
 11
39.18111369205877
 21
-45.50298227655508
 31
0.0
  0
LINE
  5
99
330
79
100
AcDbEntity
  8
Camada 1
 62
   250
420
  1907995
370
    18
100
AcDbLine
 10
38.7076875938834
 20
-43.87491627761313
 30
0.0
 11
39.18111369205877
 21
-44.34763720780605
 31
0.0
  0
LINE
  5
9A
330
79
100
AcDbEntity
  8
Camada 1
 62
   250
420
  1907995
370
    18
100
AcDbLine
 10
38.7076875938834
 20
-42.70651752675235
 30
0.0
 11
39.18111369205877
 21
-43.17888318147367
 31
0.0
  0
LINE
  5
9B
330
79
100
AcDbEntity
  8
Camada 1
 62
   250
420
  1907995
370
    18
100
AcDbLine
 10
36.84043507495459
 20
-40.8420856797521
 30
0.0
 11
37.41899041504768
 21
-41.41958057639049
 31
0.0
  0
LINE
  5
9C
330
79
100
AcDbEntity
  8
Camada 1
 62
   250
420
  1907995
370
    18
100
AcDbLine
 10
36.84043507495459
 20
-39.67333165341908
 30
0.0
 11
38.57610109523194
 21
-41.41958057639049
 31
0.0
  0
LINE
  5
9D
330
79
100
AcDbEntity
  8
Camada 1
 62
   250
420
  1907995
370
    18
100
AcDbLine
 10
38.7076875938834
 20
-41.53776350041964
 30
0.0
 11
39.18111369205877
 21
-42.01048443061256
 31
0.0
  0
LINE
  5
9E
330
79
100
AcDbEntity
  8
Camada 1
 62
   250
420
  1907995
370
    18
100
AcDbLine
 10
34.4207345801575
 20
-37.25750689104321
 30
0.0
 11
35.15697840016386
 21
-37.99270103351891
 31
0.0
  0
LWPOLYLINE
  5
9F
330
79
100
AcDbEntity
  8
Camada 1
 62
   250
420
  1907995
370
    18
100
AcDbPolyline
 90
        3
 70
     0
 43
0.0
 10
39.62808791646145
 20
-41.28834935321095
 10
39.10209181436649
 20
-40.76306380205918
 10
36.84043507495459
 20
-38.50493290255861
  0
LINE
  5
A0
330
79
100
AcDbEntity
  8
Camada 1
 62
   250
420
  1907995
370
    18
100
AcDbLine
 10
35.06525811583079
 20
-36.74527502200352
 30
0.0
 11
36.44603085447214
 21
-38.11087857458638
 31
0.0
  0
LWPOLYLINE
  5
A1
330
79
100
AcDbEntity
  8
Camada 1
 62
   250
420
  1907995
370
    18
100
AcDbPolyline
 90
        3
 70
     0
 43
0.0
 10
39.74662073300083
 20
-40.2511818255297
 10
39.10209181436649
 20
-39.5946596682367
 10
36.76141319726168
 20
-37.25750689104321
  0
LINE
  5
A2
330
79
100
AcDbEntity
  8
Camada 1
 62
   250
420
  1907995
370
    18
100
AcDbLine
 10
36.26187973486214
 20
-36.75868397958751
 30
0.0
 11
36.60371933438606
 21
-37.11322198575159
 31
0.0
  0
LWPOLYLINE
  5
A3
330
79
100
AcDbEntity
  8
Camada 1
 62
   250
420
  1907995
370
    18
100
AcDbPolyline
 90
        3
 70
     0
 43
0.0
 10
37.91887915291848
 20
-37.25750689104321
 10
39.10209181436649
 20
-38.439314599488
 10
39.74662073300083
 20
-39.08242779919701
  0
LWPOLYLINE
  5
A4
330
79
100
AcDbEntity
  8
Camada 1
 62
   250
420
  1907995
370
    18
100
AcDbPolyline
 90
        3
 70
     0
 43
0.0
 10
39.08904351521547
 20
-37.25750689104321
 10
39.10209181436649
 20
-37.27056057315529
 10
39.74662073300083
 20
-37.91402904833622
  0
LINE
  5
A5
330
79
100
AcDbEntity
  8
Camada 1
 62
   250
420
  1907995
370
    18
100
AcDbLine
 10
60.16175596315367
 20
-66.34537663389977
 30
0.0
 11
61.30476328369582
 21
-66.34537663389977
 31
0.0
  0
LWPOLYLINE
  5
A6
330
79
100
AcDbEntity
  8
Camada 1
 62
   250
420
  1907995
370
    18
100
AcDbPolyline
 90
        3
 70
     0
 43
0.0
 10
60.16175596315367
 20
-72.58495593904832
 10
60.77947234958235
 20
-71.95454383746032
 10
60.77947234958235
 20
-66.34537663389977
  0
LWPOLYLINE
  5
A7
330
79
100
AcDbEntity
  8
Camada 1
 62
   250
420
  1907995
370
    18
100
AcDbPolyline
 90
        6
 70
     0
 43
0.0
 10
65.58783518203911
 20
-36.73673764475413
 10
65.58783518203911
 20
-37.93230420329313
 10
63.17059470073696
 20
-38.14255730416558
 10
63.17059470073696
 20
-41.41316408604921
 10
61.30476328369582
 20
-41.41316408604921
 10
61.30476328369582
 20
-66.34537663389977
  0
LINE
  5
A8
330
79
100
AcDbEntity
  8
Camada 1
 62
   250
420
  1907995
370
    18
100
AcDbLine
 10
39.83787808262873
 20
-66.34537663389977
 30
0.0
 11
38.69488152800996
 21
-66.34537663389977
 31
0.0
  0
LWPOLYLINE
  5
A9
330
79
100
AcDbEntity
  8
Camada 1
 62
   250
420
  1907995
370
    18
100
AcDbPolyline
 90
        4
 70
     0
 43
0.0
 10
39.22051697167196
 20
-66.34537663389977
 10
39.22051697167196
 20
-71.95454383746032
 10
39.83787808262873
 20
-72.58495593904832
 10
60.16175596315367
 20
-72.58495593904832
  0
LWPOLYLINE
  5
AA
330
79
100
AcDbEntity
  8
Camada 1
 62
   250
420
  1907995
370
    18
100
AcDbPolyline
 90
        3
 70
     0
 43
0.0
 10
39.73274884071101
 20
-41.15034098125653
 10
39.16795235071278
 20
-41.7680573676852
 10
39.16795235071278
 20
-64.48023961891738
  0
LINE
  5
AB
330
79
100
AcDbEntity
  8
Camada 1
 62
   250
420
  1907995
370
    18
100
AcDbLine
 10
38.69488152800996
 20
-41.41316408604921
 30
0.0
 11
38.69488152800996
 21
-66.34537663389977
 31
0.0
  0
LWPOLYLINE
  5
AC
330
79
100
AcDbEntity
  8
Camada 1
 62
   250
420
  1907995
370
    18
100
AcDbPolyline
 90
        4
 70
     0
 43
0.0
 10
34.41215952217625
 20
-36.73673764475413
 10
34.41215952217625
 20
-37.93230420329313
 10
36.82938923755501
 20
-38.14255730416558
 10
36.82938923755501
 20
-41.41316408604921
  0
LINE
  5
AD
330
79
100
AcDbEntity
  8
Camada 1
 62
   250
420
  1907995
370
    18
100
AcDbLine
 10
39.84144160327064
 20
-72.57652352955201
 30
0.0
 11
39.84144160327064
 21
-66.33059502108337
 31
0.0
  0
LINE
  5
AE
330
79
100
AcDbEntity
  8
Camada 1
 62
   250
420
  1907995
370
    18
100
AcDbLine
 10
60.15826780397485
 20
-72.57652352955201
 30
0.0
 11
60.15826780397485
 21
-66.33059502108337
 31
0.0
  0
SPLINE
  5
AF
330
79
100
AcDbEntity
  8
Camada 1
 62
   250
420
  1907995
370
    18
100
AcDbSpline
210
0.0
220
0.0
230
1.0
 70
     8
 71
     3
 72
     8
 73
     4
 74
     0
 42
0.0000000001
 43
0.0000000001
 40
0.0
 40
0.0
 40
0.0
 40
0.0
 40
1.0
 40
1.0
 40
1.0
 40
1.0
 10
36.63006893188653
 20
-37.27052289242342
 30
0.0
 10
36.63006893188653
 20
-36.96854950721788
 30
0.0
 10
36.39653452168015
 20
-36.72372164337392
 30
0.0
 10
36.10866449611736
 20
-36.72372164337392
 30
0.0
  0
LWPOLYLINE
  5
B0
330
79
100
AcDbEntity
  8
Camada 1
 62
   250
420
  1907995
370
    18
100
AcDbPolyline
 90
        3
 70
     0
 43
0.0
 10
36.63006893188653
 20
-37.27723006269626
 10
36.63006893188653
 20
-37.27723006269626
 10
39.32353070964198
 20
-37.27723006269626
  0
LINE
  5
B1
330
79
100
AcDbEntity
  8
Camada 1
 62
   250
420
  1907995
370
    18
100
AcDbLine
 10
34.41215952217625
 20
-36.73747511050645
 30
0.0
 11
39.32353070964198
 21
-36.73747511050645
 31
0.0
  0
LINE
  5
B2
330
79
100
AcDbEntity
  8
Camada 1
 62
   250
420
  1907995
370
    18
100
AcDbLine
 10
39.09641817273858
 20
-37.25732925330725
 30
0.0
 11
39.09641817273858
 21
-41.78417395500214
 31
0.0
  0
LINE
  5
B3
330
79
100
AcDbEntity
  8
Camada 1
 62
   250
420
  1907995
370
    18
100
AcDbLine
 10
39.16862522092474
 20
-64.47999200267938
 30
0.0
 11
40.52364587081384
 21
-65.81984077502915
 31
0.0
  0
LWPOLYLINE
  5
B4
330
79
100
AcDbEntity
  8
Camada 1
 62
   250
420
  1907995
370
    18
100
AcDbPolyline
 90
        3
 70
     0
 43
0.0
 10
50.02077289277225
 20
-65.81984077502915
 10
40.52364587081384
 20
-65.81984077502915
 10
40.52364587081384
 20
-72.58506090680139
  0
LINE
  5
B5
330
79
100
AcDbEntity
  8
Camada 1
 62
   250
420
  1907995
370
    18
100
AcDbLine
 10
39.16862522092474
 20
-41.76745447597529
 30
0.0
 11
39.08960334323246
 21
-41.76745447597529
 31
0.0
  0
LWPOLYLINE
  5
B6
330
79
100
AcDbEntity
  8
Camada 1
 62
   250
420
  1907995
370
    18
100
AcDbPolyline
 90
        3
 70
     0
 43
0.0
 10
39.1160605999662
 20
-37.24872728051752
 10
39.73412687890511
 20
-37.87913669062467
 10
39.73412687890511
 20
-41.15009336501851
  0
LINE
  5
B7
330
79
100
AcDbEntity
  8
Camada 1
 62
   250
420
  1907995
370
    18
100
AcDbLine
 10
36.82724143583842
 20
-41.41291108684952
 30
0.0
 11
38.69519912274937
 21
-41.41291108684952
 31
0.0
  0
LINE
  5
B8
330
79
100
AcDbEntity
  8
Camada 1
 62
   250
420
  1907995
370
    18
100
AcDbLine
 10
50.00673951163155
 20
-35.68560133147253
 30
0.0
 11
50.00673951163155
 21
-28.29420279748596
 31
0.0
  0
LINE
  5
B9
330
79
100
AcDbEntity
  8
Camada 1
 62
   250
420
  1907995
370
    18
100
AcDbLine
 10
50.00673951163155
 20
-38.98089975865435
 30
0.0
 11
50.00673951163155
 21
-37.33977469463864
 31
0.0
  0
LINE
  5
BA
330
79
100
AcDbEntity
  8
Camada 1
 62
   250
420
  1907995
370
    18
100
AcDbLine
 10
50.00673951163155
 20
-53.81626144758571
 30
0.0
 11
50.00673951163155
 21
-52.17514176653168
 31
0.0
  0
LINE
  5
BB
330
79
100
AcDbEntity
  8
Camada 1
 62
   250
420
  1907995
370
    18
100
AcDbLine
 10
59.12388865045198
 20
-30.95227698505387
 30
0.0
 11
65.90286763231843
 21
-30.95227698505387
 31
0.0
  0
LINE
  5
BC
330
79
100
AcDbEntity
  8
Camada 1
 62
   250
420
  1907995
370
    18
100
AcDbLine
 10
34.09713245485863
 20
-30.95227698505387
 30
0.0
 11
40.87610605376339
 21
-30.95227698505387
 31
0.0
  0
LWPOLYLINE
  5
BD
330
79
100
AcDbEntity
  8
Camada 1
 62
   250
420
  1907995
370
    18
100
AcDbPolyline
 90
        1
 70
     0
 43
0.0
 10
40.31991691951658
 20
-31.49541243718859
  0
LINE
  5
BE
330
79
100
AcDbEntity
  8
Camada 1
 62
   250
420
  1907995
370
    18
100
AcDbLine
 10
40.31991691951658
 20
-32.6641664635213
 30
0.0
 11
39.03228018413428
 21
-31.37722951315944
 31
0.0
  0
LINE
  5
BF
330
79
100
AcDbEntity
  8
Camada 1
 62
   250
420
  1907995
370
    18
100
AcDbLine
 10
38.61212387489958
 20
-32.12582723025744
 30
0.0
 11
37.75804702337428
 21
-31.27210565420405
 31
0.0
  0
LINE
  5
C0
330
79
100
AcDbEntity
  8
Camada 1
 62
   250
420
  1907995
370
    18
100
AcDbLine
 10
40.31991691951658
 20
-33.83256521438209
 30
0.0
 11
39.30815158807736
 21
-32.80845136881292
 31
0.0
  0
LINE
  5
C1
330
79
100
AcDbEntity
  8
Camada 1
 62
   250
420
  1907995
370
    18
100
AcDbLine
 10
37.33753543866767
 20
-32.02069798834037
 30
0.0
 11
36.48381386261428
 21
-31.1539227301749
 31
0.0
  0
LINE
  5
C2
330
79
100
AcDbEntity
  8
Camada 1
 62
   250
420
  1907995
370
    18
100
AcDbLine
 10
40.31991691951658
 20
-34.98826555860271
 30
0.0
 11
39.30815158807736
 21
-33.97720539514562
 31
0.0
  0
LINE
  5
C3
330
79
100
AcDbEntity
  8
Camada 1
 62
   250
420
  1907995
370
    18
100
AcDbLine
 10
36.06330227790767
 20
-31.90251506431121
 30
0.0
 11
35.20922542638236
 21
-31.0487934882575
 31
0.0
  0
LINE
  5
C4
330
79
100
AcDbEntity
  8
Camada 1
 62
   250
420
  1907995
370
    18
100
AcDbLine
 10
40.31991691951658
 20
-36.15666430946318
 30
0.0
 11
39.30815158807736
 21
-35.14560414600641
 31
0.0
  0
LINE
  5
C5
330
79
100
AcDbEntity
  8
Camada 1
 62
   250
420
  1907995
370
    18
100
AcDbLine
 10
34.78906911714766
 20
-31.79739120535583
 30
0.0
 11
34.01366425080506
 21
-31.03574518910744
 31
0.0
  0
LINE
  5
C6
330
79
100
AcDbEntity
  8
Camada 1
 62
   250
420
  1907995
370
    18
100
AcDbLine
 10
40.31991691951658
 20
-37.32541833579619
 30
0.0
 11
39.30815158807736
 21
-36.31435817233911
 31
0.0
  0
LINE
  5
C7
330
79
100
AcDbEntity
  8
Camada 1
 62
   250
420
  1907995
370
    18
100
AcDbLine
 10
40.31991691951658
 20
-38.4941723621289
 30
0.0
 11
39.30815158807736
 21
-37.48310681571012
 31
0.0
  0
LINE
  5
C8
330
79
100
AcDbEntity
  8
Camada 1
 62
   250
420
  1907995
370
    18
100
AcDbLine
 10
40.31991691951658
 20
-39.66257111298969
 30
0.0
 11
39.30815158807736
 21
-38.63845726742052
 31
0.0
  0
LINE
  5
C9
330
79
100
AcDbEntity
  8
Camada 1
 62
   250
420
  1907995
370
    18
100
AcDbLine
 10
40.03099183346142
 20
-40.54240005326724
 30
0.0
 11
39.30815158807736
 21
-39.80721129375322
 31
0.0
  0
LWPOLYLINE
  5
CA
330
79
100
AcDbEntity
  8
Camada 1
 62
   250
420
  1907995
370
    18
100
AcDbPolyline
 90
        3
 70
     0
 43
0.0
 10
46.53409941138479
 20
-49.36607550339964
 10
45.85077010484719
 20
-48.68345136484417
 10
45.79820548388865
 20
-48.63088674388563
  0
LWPOLYLINE
  5
CB
330
79
100
AcDbEntity
  8
Camada 1
 62
   250
420
  1907995
370
    18
100
AcDbPolyline
 90
        4
 70
     0
 43
0.0
 10
46.53409941138479
 20
-50.52177584761994
 10
45.85077010484719
 20
-49.85220539117687
 10
44.81289740918381
 20
-48.81468258802371
 10
44.62910156504572
 20
-48.63088674388563
  0
LINE
  5
CC
330
79
100
AcDbEntity
  8
Camada 1
 62
   250
420
  1907995
370
    18
100
AcDbLine
 10
44.81289740918381
 20
-49.9834366143564
 30
0.0
 11
43.45964237073089
 21
-48.63088674388563
 31
0.0
  0
LINE
  5
CD
330
79
100
AcDbEntity
  8
Camada 1
 62
   250
420
  1907995
370
    18
100
AcDbLine
 10
40.31991691951658
 20
-45.49257701159729
 30
0.0
 11
40.3068686203662
 21
-45.47952332948489
 31
0.0
  0
LINE
  5
CE
330
79
100
AcDbEntity
  8
Camada 1
 62
   250
420
  1907995
370
    18
100
AcDbLine
 10
45.79820548388865
 20
-50.9680395210788
 30
0.0
 11
44.81289740918381
 21
-49.9834366143564
 31
0.0
  0
LINE
  5
CF
330
79
100
AcDbEntity
  8
Camada 1
 62
   250
420
  1907995
370
    18
100
AcDbLine
 10
40.31991691951658
 20
-46.6482773558179
 30
0.0
 11
39.30815158807736
 21
-45.63721719236082
 31
0.0
  0
LINE
  5
D0
330
79
100
AcDbEntity
  8
Camada 1
 62
   250
420
  1907995
370
    18
100
AcDbLine
 10
43.85404659121333
 20
-50.19333982271865
 30
0.0
 11
42.30358675103835
 21
-48.63088674388563
 31
0.0
  0
LINE
  5
D1
330
79
100
AcDbEntity
  8
Camada 1
 62
   250
420
  1907995
370
    18
100
AcDbLine
 10
40.31991691951658
 20
-47.81667610667837
 30
0.0
 11
39.30815158807736
 21
-46.80561594322161
 31
0.0
  0
LINE
  5
D2
330
79
100
AcDbEntity
  8
Camada 1
 62
   250
420
  1907995
370
    18
100
AcDbLine
 10
42.69764107901058
 20
-50.19333982271865
 30
0.0
 11
41.13448283219542
 21
-48.63088674388563
 31
0.0
  0
LINE
  5
D3
330
79
100
AcDbEntity
  8
Camada 1
 62
   250
420
  1907995
370
    18
100
AcDbLine
 10
41.52853716016766
 20
-50.19333982271865
 30
0.0
 11
39.30815158807736
 21
-47.97436996955432
 31
0.0
  0
LINE
  5
D4
330
79
100
AcDbEntity
  8
Camada 1
 62
   250
420
  1907995
370
    18
100
AcDbLine
 10
40.35942785836303
 20
-50.19333982271865
 30
0.0
 11
39.30815158807736
 21
-49.1427687204151
 31
0.0
  0
LINE
  5
D5
330
79
100
AcDbEntity
  8
Camada 1
 62
   250
420
  1907995
370
    18
100
AcDbLine
 10
40.26735768151974
 20
-51.27001828924603
 30
0.0
 11
39.30815158807736
 21
-50.29846906463572
 31
0.0
  0
LINE
  5
D6
330
79
100
AcDbEntity
  8
Camada 1
 62
   250
420
  1907995
370
    18
100
AcDbLine
 10
40.26735768151974
 20
-52.42571863346666
 30
0.0
 11
39.30815158807736
 21
-51.4672230909681
 31
0.0
  0
LINE
  5
D7
330
79
100
AcDbEntity
  8
Camada 1
 62
   250
420
  1907995
370
    18
100
AcDbLine
 10
40.26735768151974
 20
-53.59411738432743
 30
0.0
 11
39.30815158807736
 21
-52.63562184182889
 31
0.0
  0
LINE
  5
D8
330
79
100
AcDbEntity
  8
Camada 1
 62
   250
420
  1907995
370
    18
100
AcDbLine
 10
40.26735768151974
 20
-54.76287141066014
 30
0.0
 11
39.30815158807736
 21
-53.8043758681616
 31
0.0
  0
LINE
  5
D9
330
79
100
AcDbEntity
  8
Camada 1
 62
   250
420
  1907995
370
    18
100
AcDbLine
 10
40.26735768151974
 20
-55.93162543699285
 30
0.0
 11
39.30815158807736
 21
-54.9731245115326
 31
0.0
  0
LINE
  5
DA
330
79
100
AcDbEntity
  8
Camada 1
 62
   250
420
  1907995
370
    18
100
AcDbLine
 10
40.26735768151974
 20
-57.10002418785363
 30
0.0
 11
39.30815158807736
 21
-56.12847227176215
 31
0.0
  0
LINE
  5
DB
330
79
100
AcDbEntity
  8
Camada 1
 62
   250
420
  1907995
370
    18
100
AcDbLine
 10
40.26735768151974
 20
-58.25572184059341
 30
0.0
 11
39.30815158807736
 21
-57.29722629809486
 31
0.0
  0
LINE
  5
DC
330
79
100
AcDbEntity
  8
Camada 1
 62
   250
420
  1907995
370
    18
100
AcDbLine
 10
40.26735768151974
 20
-59.42412328293504
 30
0.0
 11
39.30815158807736
 21
-58.46562504895565
 31
0.0
  0
LINE
  5
DD
330
79
100
AcDbEntity
  8
Camada 1
 62
   250
420
  1907995
370
    18
100
AcDbLine
 10
40.26735768151974
 20
-60.59287461778691
 30
0.0
 11
39.30815158807736
 21
-59.63437907528835
 31
0.0
  0
LWPOLYLINE
  5
DE
330
79
100
AcDbEntity
  8
Camada 1
 62
   250
420
  1907995
370
    18
100
AcDbPolyline
 90
        3
 70
     1
 43
0.0
 10
40.88358837052041
 20
-31.34396280988
 10
41.30480512320916
 20
-31.34396280988
 10
40.88358837052041
 20
-30.92275144015294
  0
LWPOLYLINE
  5
DF
330
79
100
AcDbEntity
  8
Camada 1
 62
   250
420
  1907995
370
    18
100
AcDbPolyline
 90
        3
 70
     1
 43
0.0
 10
41.30480512320916
 20
-31.34396280988
 10
40.88358837052041
 20
-30.92275144015294
 10
41.30480512320916
 20
-30.92275144015294
  0
LWPOLYLINE
  5
E0
330
79
100
AcDbEntity
  8
Camada 1
 62
   250
420
  1907995
370
    18
100
AcDbPolyline
 90
        3
 70
     1
 43
0.0
 10
40.88358837052041
 20
-31.34396280988
 10
41.30480512320916
 20
-31.34396280988
 10
40.88358837052041
 20
-30.92275144015294
  0
LWPOLYLINE
  5
E1
330
79
100
AcDbEntity
  8
Camada 1
 62
   250
420
  1907995
370
    18
100
AcDbPolyline
 90
        3
 70
     1
 43
0.0
 10
41.30480512320916
 20
-31.34396280988
 10
40.88358837052041
 20
-30.92275144015294
 10
41.30480512320916
 20
-30.92275144015294
  0
LWPOLYLINE
  5
E2
330
79
100
AcDbEntity
  8
Camada 1
 62
   250
420
  1907995
370
    18
100
AcDbPolyline
 90
        3
 70
     1
 43
0.0
 10
40.88358837052041
 20
-31.34396280988
 10
41.30480512320916
 20
-31.34396280988
 10
40.88358837052041
 20
-30.92275144015294
  0
LWPOLYLINE
  5
E3
330
79
100
AcDbEntity
  8
Camada 1
 62
   250
420
  1907995
370
    18
100
AcDbPolyline
 90
        3
 70
     1
 43
0.0
 10
41.30480512320916
 20
-31.34396280988
 10
40.88358837052041
 20
-30.92275144015294
 10
41.30480512320916
 20
-30.92275144015294
  0
LWPOLYLINE
  5
E4
330
79
100
AcDbEntity
  8
Camada 1
 62
   250
420
  1907995
370
    18
100
AcDbPolyline
 90
        3
 70
     1
 43
0.0
 10
59.35136184578899
 20
-31.50123680174334
 10
59.69355672078482
 20
-31.50123680174334
 10
59.44344278855568
 20
-31.18514390800998
  0
LWPOLYLINE
  5
E5
330
79
100
AcDbEntity
  8
Camada 1
 62
   250
420
  1907995
370
    18
100
AcDbPolyline
 90
        3
 70
     1
 43
0.0
 10
59.44344278855568
 20
-31.18514390800998
 10
59.69355672078482
 20
-31.50123680174334
 10
59.78562689762813
 20
-31.18514390800998
  0
LWPOLYLINE
  5
E6
330
79
100
AcDbEntity
  8
Camada 1
 62
   250
420
  1907995
370
    18
100
AcDbPolyline
 90
        3
 70
     1
 43
0.0
 10
59.35132954801882
 20
-31.50140905651761
 10
59.69352442301465
 20
-31.50140905651761
 10
59.44339972486211
 20
-31.18532154574594
  0
LWPOLYLINE
  5
E7
330
79
100
AcDbEntity
  8
Camada 1
 62
   250
420
  1907995
370
    18
100
AcDbPolyline
 90
        3
 70
     1
 43
0.0
 10
59.69352442301465
 20
-31.50140905651761
 10
59.44339972486211
 20
-31.18532154574594
 10
59.78559459985795
 20
-31.18532154574594
  0
LWPOLYLINE
  5
E8
330
79
100
AcDbEntity
  8
Camada 1
 62
   250
420
  1907995
370
    18
100
AcDbPolyline
 90
        3
 70
     1
 43
0.0
 10
59.35132954801882
 20
-31.50140905651761
 10
59.69352442301465
 20
-31.50140905651761
 10
59.44339972486211
 20
-31.18532154574594
  0
LWPOLYLINE
  5
E9
330
79
100
AcDbEntity
  8
Camada 1
 62
   250
420
  1907995
370
    18
100
AcDbPolyline
 90
        3
 70
     1
 43
0.0
 10
59.69352442301465
 20
-31.50140905651761
 10
59.44339972486211
 20
-31.18532154574594
 10
59.78559459985795
 20
-31.18532154574594
  0
LWPOLYLINE
  5
EA
330
79
100
AcDbEntity
  8
Camada 1
 62
   250
420
  1907995
370
    18
100
AcDbPolyline
 90
        3
 70
     1
 43
0.0
 10
40.30643798343054
 20
-31.50123680174334
 10
40.64828296591615
 20
-31.50123680174334
 10
40.21436780658723
 20
-31.18514390800998
  0
LWPOLYLINE
  5
EB
330
79
100
AcDbEntity
  8
Camada 1
 62
   250
420
  1907995
370
    18
100
AcDbPolyline
 90
        3
 70
     1
 43
0.0
 10
40.21436780658723
 20
-31.18514390800998
 10
40.64828296591615
 20
-31.50123680174334
 10
40.55620740611115
 20
-31.18514390800998
  0
LWPOLYLINE
  5
EC
330
79
100
AcDbEntity
  8
Camada 1
 62
   250
420
  1907995
370
    18
100
AcDbPolyline
 90
        3
 70
     1
 43
0.0
 10
40.30633570715832
 20
-31.50140905651761
 10
40.64853058215414
 20
-31.50140905651761
 10
40.21426014735332
 20
-31.18532154574594
  0
LWPOLYLINE
  5
ED
330
79
100
AcDbEntity
  8
Camada 1
 62
   250
420
  1907995
370
    18
100
AcDbPolyline
 90
        3
 70
     1
 43
0.0
 10
40.64853058215414
 20
-31.50140905651761
 10
40.21426014735332
 20
-31.18532154574594
 10
40.55645502234916
 20
-31.18532154574594
  0
LWPOLYLINE
  5
EE
330
79
100
AcDbEntity
  8
Camada 1
 62
   250
420
  1907995
370
    18
100
AcDbPolyline
 90
        3
 70
     1
 43
0.0
 10
40.30633570715832
 20
-31.50140905651761
 10
40.64853058215414
 20
-31.50140905651761
 10
40.21426014735332
 20
-31.18532154574594
  0
LWPOLYLINE
  5
EF
330
79
100
AcDbEntity
  8
Camada 1
 62
   250
420
  1907995
370
    18
100
AcDbPolyline
 90
        3
 70
     1
 43
0.0
 10
40.64853058215414
 20
-31.50140905651761
 10
40.21426014735332
 20
-31.18532154574594
 10
40.55645502234916
 20
-31.18532154574594
  0
SPLINE
  5
F0
330
79
100
AcDbEntity
  8
Camada 1
 62
   250
420
  1907995
370
    18
100
AcDbSpline
210
0.0
220
0.0
230
1.0
 70
    27
 71
     3
 72
    11
 73
     7
 74
     0
 42
0.0000000001
 43
0.0000000001
 40
0.0
 40
0.0
 40
0.0
 40
0.0
 40
1.0
 40
1.0
 40
1.0
 40
2.0
 40
2.0
 40
2.0
 40
2.0
 10
59.35136184578899
 20
-31.5004185915656
 30
0.0
 10
59.35136184578899
 20
-31.5004185915656
 30
0.0
 10
59.68049765571105
 20
-31.5004185915656
 30
0.0
 10
59.68049765571105
 20
-31.5004185915656
 30
0.0
 10
59.68049765571105
 20
-31.5004185915656
 30
0.0
 10
59.35136184578899
 20
-31.5004185915656
 30
0.0
 10
59.35136184578899
 20
-31.5004185915656
 30
0.0
  0
LWPOLYLINE
  5
F1
330
79
100
AcDbEntity
  8
Camada 1
 62
   250
420
  1907995
370
    18
100
AcDbPolyline
 90
        3
 70
     1
 43
0.0
 10
59.35136184578899
 20
-31.5004185915656
 10
59.68049765571105
 20
-31.5004185915656
 10
59.69354595486143
 20
-31.5004185915656
  0
LWPOLYLINE
  5
F2
330
79
100
AcDbEntity
  8
Camada 1
 62
   250
420
  1907995
370
    18
100
AcDbPolyline
 90
        3
 70
     1
 43
0.0
 10
59.68057301717479
 20
-31.50045627229747
 10
59.68057301717479
 20
-31.50045627229747
 10
59.35142644132934
 20
-31.50045627229747
  0
LWPOLYLINE
  5
F3
330
79
100
AcDbEntity
  8
Camada 1
 62
   250
420
  1907995
370
    18
100
AcDbPolyline
 90
        3
 70
     1
 43
0.0
 10
59.68057301717479
 20
-31.50045627229747
 10
59.35142644132934
 20
-31.50045627229747
 10
59.69362131632517
 20
-31.50045627229747
  0
LWPOLYLINE
  5
F4
330
79
100
AcDbEntity
  8
Camada 1
 62
   250
420
  1907995
370
    18
100
AcDbPolyline
 90
        3
 70
     1
 43
0.0
 10
59.68057301717479
 20
-31.50045627229747
 10
59.68057301717479
 20
-31.50045627229747
 10
59.35142644132934
 20
-31.50045627229747
  0
LWPOLYLINE
  5
F5
330
79
100
AcDbEntity
  8
Camada 1
 62
   250
420
  1907995
370
    18
100
AcDbPolyline
 90
        3
 70
     1
 43
0.0
 10
59.68057301717479
 20
-31.50045627229747
 10
59.35142644132934
 20
-31.50045627229747
 10
59.69362131632517
 20
-31.50045627229747
  0
SPLINE
  5
F6
330
79
100
AcDbEntity
  8
Camada 1
 62
   250
420
  1907995
370
    18
100
AcDbSpline
210
0.0
220
0.0
230
1.0
 70
    27
 71
     3
 72
    11
 73
     7
 74
     0
 42
0.0000000001
 43
0.0000000001
 40
0.0
 40
0.0
 40
0.0
 40
0.0
 40
1.0
 40
1.0
 40
1.0
 40
2.0
 40
2.0
 40
2.0
 40
2.0
 10
40.30605041018844
 20
-31.5004185915656
 30
0.0
 10
40.30605041018844
 20
-31.5004185915656
 30
0.0
 10
40.64824528518427
 20
-31.5004185915656
 30
0.0
 10
40.64824528518427
 20
-31.5004185915656
 30
0.0
 10
40.64824528518427
 20
-31.5004185915656
 30
0.0
 10
40.30605041018844
 20
-31.5004185915656
 30
0.0
 10
40.30605041018844
 20
-31.5004185915656
 30
0.0
  0
LWPOLYLINE
  5
F7
330
79
100
AcDbEntity
  8
Camada 1
 62
   250
420
  1907995
370
    18
100
AcDbPolyline
 90
        3
 70
     1
 43
0.0
 10
40.31945936777244
 20
-31.5004185915656
 10
40.30605041018844
 20
-31.5004185915656
 10
40.64824528518427
 20
-31.5004185915656
  0
LWPOLYLINE
  5
F8
330
79
100
AcDbEntity
  8
Camada 1
 62
   250
420
  1907995
370
    18
100
AcDbPolyline
 90
        3
 70
     1
 43
0.0
 10
40.3193840063087
 20
-31.50045627229747
 10
40.64853058215414
 20
-31.50045627229747
 10
40.30598043168704
 20
-31.50045627229747
  0
SPLINE
  5
F9
330
79
100
AcDbEntity
  8
Camada 1
 62
   250
420
  1907995
370
    18
100
AcDbSpline
210
0.0
220
0.0
230
1.0
 70
    27
 71
     3
 72
    11
 73
     7
 74
     0
 42
0.0000000001
 43
0.0000000001
 40
0.0
 40
0.0
 40
0.0
 40
0.0
 40
1.0
 40
1.0
 40
1.0
 40
2.0
 40
2.0
 40
2.0
 40
2.0
 10
40.64853058215414
 20
-31.50045627229747
 30
0.0
 10
40.64853058215414
 20
-31.50045627229747
 30
0.0
 10
40.30598043168704
 20
-31.50045627229747
 30
0.0
 10
40.30598043168704
 20
-31.50045627229747
 30
0.0
 10
40.30598043168704
 20
-31.50045627229747
 30
0.0
 10
40.64853058215414
 20
-31.50045627229747
 30
0.0
 10
40.64853058215414
 20
-31.50045627229747
 30
0.0
  0
LWPOLYLINE
  5
FA
330
79
100
AcDbEntity
  8
Camada 1
 62
   250
420
  1907995
370
    18
100
AcDbPolyline
 90
        3
 70
     1
 43
0.0
 10
40.3193840063087
 20
-31.50045627229747
 10
40.64853058215414
 20
-31.50045627229747
 10
40.30598043168704
 20
-31.50045627229747
  0
SPLINE
  5
FB
330
79
100
AcDbEntity
  8
Camada 1
 62
   250
420
  1907995
370
    18
100
AcDbSpline
210
0.0
220
0.0
230
1.0
 70
    27
 71
     3
 72
    11
 73
     7
 74
     0
 42
0.0000000001
 43
0.0000000001
 40
0.0
 40
0.0
 40
0.0
 40
0.0
 40
1.0
 40
1.0
 40
1.0
 40
2.0
 40
2.0
 40
2.0
 40
2.0
 10
40.64853058215414
 20
-31.50045627229747
 30
0.0
 10
40.64853058215414
 20
-31.50045627229747
 30
0.0
 10
40.30598043168704
 20
-31.50045627229747
 30
0.0
 10
40.30598043168704
 20
-31.50045627229747
 30
0.0
 10
40.30598043168704
 20
-31.50045627229747
 30
0.0
 10
40.64853058215414
 20
-31.50045627229747
 30
0.0
 10
40.64853058215414
 20
-31.50045627229747
 30
0.0
  0
LWPOLYLINE
  5
FC
330
79
100
AcDbEntity
  8
Camada 1
 62
   250
420
  1907995
370
    18
100
AcDbPolyline
 90
        3
 70
     1
 43
0.0
 10
59.33830278071521
 20
-31.52758639924381
 10
59.68049765571105
 20
-31.52758639924381
 10
59.35136184578899
 20
-31.5004185915656
  0
LWPOLYLINE
  5
FD
330
79
100
AcDbEntity
  8
Camada 1
 62
   250
420
  1907995
370
    18
100
AcDbPolyline
 90
        3
 70
     1
 43
0.0
 10
59.35136184578899
 20
-31.5004185915656
 10
59.68049765571105
 20
-31.52758639924381
 10
59.68049765571105
 20
-31.5004185915656
  0
LWPOLYLINE
  5
FE
330
79
100
AcDbEntity
  8
Camada 1
 62
   250
420
  1907995
370
    18
100
AcDbPolyline
 90
        3
 70
     1
 43
0.0
 10
59.33806593040061
 20
-31.52768867551603
 10
59.68061608086835
 20
-31.52768867551603
 10
59.3514695050229
 20
-31.50017635828929
  0
LWPOLYLINE
  5
FF
330
79
100
AcDbEntity
  8
Camada 1
 62
   250
420
  1907995
370
    18
100
AcDbPolyline
 90
        3
 70
     1
 43
0.0
 10
59.68061608086835
 20
-31.52768867551603
 10
59.3514695050229
 20
-31.50017635828929
 10
59.68061608086835
 20
-31.50017635828929
  0
LWPOLYLINE
  5
100
330
79
100
AcDbEntity
  8
Camada 1
 62
   250
420
  1907995
370
    18
100
AcDbPolyline
 90
        3
 70
     1
 43
0.0
 10
59.33806593040061
 20
-31.52768867551603
 10
59.68061608086835
 20
-31.52768867551603
 10
59.3514695050229
 20
-31.50017635828929
  0
LWPOLYLINE
  5
101
330
79
100
AcDbEntity
  8
Camada 1
 62
   250
420
  1907995
370
    18
100
AcDbPolyline
 90
        3
 70
     1
 43
0.0
 10
59.68061608086835
 20
-31.52768867551603
 10
59.3514695050229
 20
-31.50017635828929
 10
59.68061608086835
 20
-31.50017635828929
  0
LWPOLYLINE
  5
102
330
79
100
AcDbEntity
  8
Camada 1
 62
   250
420
  1907995
370
    18
100
AcDbPolyline
 90
        3
 70
     1
 43
0.0
 10
40.3191417730324
 20
-31.52758639924381
 10
40.66168654053909
 20
-31.52758639924381
 10
40.3191417730324
 20
-31.5004185915656
  0
LWPOLYLINE
  5
103
330
79
100
AcDbEntity
  8
Camada 1
 62
   250
420
  1907995
370
    18
100
AcDbPolyline
 90
        3
 70
     1
 43
0.0
 10
40.3191417730324
 20
-31.5004185915656
 10
40.66168654053909
 20
-31.52758639924381
 10
40.64828296591615
 20
-31.5004185915656
  0
LWPOLYLINE
  5
104
330
79
100
AcDbEntity
  8
Camada 1
 62
   250
420
  1907995
370
    18
100
AcDbPolyline
 90
        3
 70
     1
 43
0.0
 10
40.3191417730324
 20
-31.52768867551603
 10
40.66169192350015
 20
-31.52768867551603
 10
40.3191417730324
 20
-31.50017635828929
  0
LWPOLYLINE
  5
105
330
79
100
AcDbEntity
  8
Camada 1
 62
   250
420
  1907995
370
    18
100
AcDbPolyline
 90
        3
 70
     1
 43
0.0
 10
40.66169192350015
 20
-31.52768867551603
 10
40.3191417730324
 20
-31.50017635828929
 10
40.64863824138806
 20
-31.50017635828929
  0
LWPOLYLINE
  5
106
330
79
100
AcDbEntity
  8
Camada 1
 62
   250
420
  1907995
370
    18
100
AcDbPolyline
 90
        3
 70
     1
 43
0.0
 10
40.3191417730324
 20
-31.52768867551603
 10
40.66169192350015
 20
-31.52768867551603
 10
40.3191417730324
 20
-31.50017635828929
  0
LWPOLYLINE
  5
107
330
79
100
AcDbEntity
  8
Camada 1
 62
   250
420
  1907995
370
    18
100
AcDbPolyline
 90
        3
 70
     1
 43
0.0
 10
40.66169192350015
 20
-31.52768867551603
 10
40.3191417730324
 20
-31.50017635828929
 10
40.64863824138806
 20
-31.50017635828929
  0
LWPOLYLINE
  5
108
330
79
100
AcDbEntity
  8
Camada 1
 62
   250
420
  1907995
370
    18
100
AcDbPolyline
 90
        3
 70
     1
 43
0.0
 10
59.29882413963893
 20
-31.69861385823968
 10
59.62797071548438
 20
-31.69861385823968
 10
59.33834584440878
 20
-31.52645597728739
  0
LWPOLYLINE
  5
109
330
79
100
AcDbEntity
  8
Camada 1
 62
   250
420
  1907995
370
    18
100
AcDbPolyline
 90
        3
 70
     1
 43
0.0
 10
59.33834584440878
 20
-31.52645597728739
 10
59.62797071548438
 20
-31.69861385823968
 10
59.68052995348123
 20
-31.52645597728739
  0
LWPOLYLINE
  5
10A
330
79
100
AcDbEntity
  8
Camada 1
 62
   250
420
  1907995
370
    18
100
AcDbPolyline
 90
        3
 70
     1
 43
0.0
 10
59.29883260016098
 20
-31.69839853977185
 10
59.62798148140777
 20
-31.69839853977185
 10
59.33834584440878
 20
-31.5265959342918
  0
LWPOLYLINE
  5
10B
330
79
100
AcDbEntity
  8
Camada 1
 62
   250
420
  1907995
370
    18
100
AcDbPolyline
 90
        3
 70
     1
 43
0.0
 10
59.62798148140777
 20
-31.69839853977185
 10
59.33834584440878
 20
-31.5265959342918
 10
59.68054071940462
 20
-31.5265959342918
  0
LWPOLYLINE
  5
10C
330
79
100
AcDbEntity
  8
Camada 1
 62
   250
420
  1907995
370
    18
100
AcDbPolyline
 90
        3
 70
     1
 43
0.0
 10
59.29883260016098
 20
-31.69839853977185
 10
59.62798148140777
 20
-31.69839853977185
 10
59.33834584440878
 20
-31.5265959342918
  0
LWPOLYLINE
  5
10D
330
79
100
AcDbEntity
  8
Camada 1
 62
   250
420
  1907995
370
    18
100
AcDbPolyline
 90
        3
 70
     1
 43
0.0
 10
59.62798148140777
 20
-31.69839853977185
 10
59.33834584440878
 20
-31.5265959342918
 10
59.68054071940462
 20
-31.5265959342918
  0
LWPOLYLINE
  5
10E
330
79
100
AcDbEntity
  8
Camada 1
 62
   250
420
  1907995
370
    18
100
AcDbPolyline
 90
        3
 70
     1
 43
0.0
 10
58.69498502846177
 20
-31.69839853977185
 10
59.11620178115051
 20
-31.69839853977185
 10
58.69498502846177
 20
-30.92299367342925
  0
LWPOLYLINE
  5
10F
330
79
100
AcDbEntity
  8
Camada 1
 62
   250
420
  1907995
370
    18
100
AcDbPolyline
 90
        3
 70
     1
 43
0.0
 10
59.11620178115051
 20
-31.69839853977185
 10
58.69498502846177
 20
-30.92299367342925
 10
59.11620178115051
 20
-30.92299367342925
  0
LWPOLYLINE
  5
110
330
79
100
AcDbEntity
  8
Camada 1
 62
   250
420
  1907995
370
    18
100
AcDbPolyline
 90
        3
 70
     1
 43
0.0
 10
58.69498502846177
 20
-31.69839853977185
 10
59.11620178115051
 20
-31.69839853977185
 10
58.69498502846177
 20
-30.92299367342925
  0
LWPOLYLINE
  5
111
330
79
100
AcDbEntity
  8
Camada 1
 62
   250
420
  1907995
370
    18
100
AcDbPolyline
 90
        3
 70
     1
 43
0.0
 10
59.11620178115051
 20
-31.69839853977185
 10
58.69498502846177
 20
-30.92299367342925
 10
59.11620178115051
 20
-30.92299367342925
  0
LWPOLYLINE
  5
112
330
79
100
AcDbEntity
  8
Camada 1
 62
   250
420
  1907995
370
    18
100
AcDbPolyline
 90
        3
 70
     1
 43
0.0
 10
58.69498502846177
 20
-31.69839853977185
 10
59.11620178115051
 20
-31.69839853977185
 10
58.69498502846177
 20
-30.92299367342925
  0
LWPOLYLINE
  5
113
330
79
100
AcDbEntity
  8
Camada 1
 62
   250
420
  1907995
370
    18
100
AcDbPolyline
 90
        3
 70
     1
 43
0.0
 10
59.11620178115051
 20
-31.69839853977185
 10
58.69498502846177
 20
-30.92299367342925
 10
59.11620178115051
 20
-30.92299367342925
  0
LWPOLYLINE
  5
114
330
79
100
AcDbEntity
  8
Camada 1
 62
   250
420
  1907995
370
    18
100
AcDbPolyline
 90
        3
 70
     1
 43
0.0
 10
40.88358837052041
 20
-31.69839853977185
 10
41.30480512320916
 20
-31.69839853977185
 10
40.88358837052041
 20
-31.34280009015372
  0
LWPOLYLINE
  5
115
330
79
100
AcDbEntity
  8
Camada 1
 62
   250
420
  1907995
370
    18
100
AcDbPolyline
 90
        3
 70
     1
 43
0.0
 10
41.30480512320916
 20
-31.69839853977185
 10
40.88358837052041
 20
-31.34280009015372
 10
41.30480512320916
 20
-31.34280009015372
  0
LWPOLYLINE
  5
116
330
79
100
AcDbEntity
  8
Camada 1
 62
   250
420
  1907995
370
    18
100
AcDbPolyline
 90
        3
 70
     1
 43
0.0
 10
40.88358837052041
 20
-31.69839853977185
 10
41.30480512320916
 20
-31.69839853977185
 10
40.88358837052041
 20
-31.34280009015372
  0
LWPOLYLINE
  5
117
330
79
100
AcDbEntity
  8
Camada 1
 62
   250
420
  1907995
370
    18
100
AcDbPolyline
 90
        3
 70
     1
 43
0.0
 10
41.30480512320916
 20
-31.69839853977185
 10
40.88358837052041
 20
-31.34280009015372
 10
41.30480512320916
 20
-31.34280009015372
  0
LWPOLYLINE
  5
118
330
79
100
AcDbEntity
  8
Camada 1
 62
   250
420
  1907995
370
    18
100
AcDbPolyline
 90
        3
 70
     1
 43
0.0
 10
40.88358837052041
 20
-31.69839853977185
 10
41.30480512320916
 20
-31.69839853977185
 10
40.88358837052041
 20
-31.34280009015372
  0
LWPOLYLINE
  5
119
330
79
100
AcDbEntity
  8
Camada 1
 62
   250
420
  1907995
370
    18
100
AcDbPolyline
 90
        3
 70
     1
 43
0.0
 10
41.30480512320916
 20
-31.69839853977185
 10
40.88358837052041
 20
-31.34280009015372
 10
41.30480512320916
 20
-31.34280009015372
  0
LWPOLYLINE
  5
11A
330
79
100
AcDbEntity
  8
Camada 1
 62
   250
420
  1907995
370
    18
100
AcDbPolyline
 90
        3
 70
     1
 43
0.0
 10
40.37170101102924
 20
-31.69861385823968
 10
40.71425116149699
 20
-31.69861385823968
 10
40.3191417730324
 20
-31.52645597728739
  0
LWPOLYLINE
  5
11B
330
79
100
AcDbEntity
  8
Camada 1
 62
   250
420
  1907995
370
    18
100
AcDbPolyline
 90
        3
 70
     1
 43
0.0
 10
40.3191417730324
 20
-31.52645597728739
 10
40.71425116149699
 20
-31.69861385823968
 10
40.66133126506653
 20
-31.52645597728739
  0
LWPOLYLINE
  5
11C
330
79
100
AcDbEntity
  8
Camada 1
 62
   250
420
  1907995
370
    18
100
AcDbPolyline
 90
        3
 70
     1
 43
0.0
 10
40.37199169096081
 20
-31.69839853977185
 10
40.71418656595664
 20
-31.69839853977185
 10
40.31942707000227
 20
-31.5265959342918
  0
LWPOLYLINE
  5
11D
330
79
100
AcDbEntity
  8
Camada 1
 62
   250
420
  1907995
370
    18
100
AcDbPolyline
 90
        3
 70
     1
 43
0.0
 10
40.71418656595664
 20
-31.69839853977185
 10
40.31942707000227
 20
-31.5265959342918
 10
40.6616219449981
 20
-31.5265959342918
  0
LWPOLYLINE
  5
11E
330
79
100
AcDbEntity
  8
Camada 1
 62
   250
420
  1907995
370
    18
100
AcDbPolyline
 90
        3
 70
     1
 43
0.0
 10
40.37199169096081
 20
-31.69839853977185
 10
40.71418656595664
 20
-31.69839853977185
 10
40.31942707000227
 20
-31.5265959342918
  0
LWPOLYLINE
  5
11F
330
79
100
AcDbEntity
  8
Camada 1
 62
   250
420
  1907995
370
    18
100
AcDbPolyline
 90
        3
 70
     1
 43
0.0
 10
40.71418656595664
 20
-31.69839853977185
 10
40.31942707000227
 20
-31.5265959342918
 10
40.6616219449981
 20
-31.5265959342918
  0
LWPOLYLINE
  5
120
330
79
100
AcDbEntity
  8
Camada 1
 62
   250
420
  1907995
370
    18
100
AcDbPolyline
 90
        3
 70
     1
 43
0.0
 10
58.69500656030854
 20
-32.22340417691545
 10
59.47042219257455
 20
-32.22340417691545
 10
58.69500656030854
 20
-31.69741345778154
  0
LWPOLYLINE
  5
121
330
79
100
AcDbEntity
  8
Camada 1
 62
   250
420
  1907995
370
    18
100
AcDbPolyline
 90
        3
 70
     1
 43
0.0
 10
59.47042219257455
 20
-32.22340417691545
 10
58.69500656030854
 20
-31.69741345778154
 10
59.62811067248846
 20
-31.69741345778154
  0
LWPOLYLINE
  5
122
330
79
100
AcDbEntity
  8
Camada 1
 62
   250
420
  1907995
370
    18
100
AcDbPolyline
 90
        3
 70
     1
 43
0.0
 10
58.69500656030854
 20
-32.22340417691545
 10
59.47042219257455
 20
-32.22340417691545
 10
58.69500656030854
 20
-31.69741345778154
  0
LWPOLYLINE
  5
123
330
79
100
AcDbEntity
  8
Camada 1
 62
   250
420
  1907995
370
    18
100
AcDbPolyline
 90
        3
 70
     1
 43
0.0
 10
59.47042219257455
 20
-32.22340417691545
 10
58.69500656030854
 20
-31.69741345778154
 10
59.62811067248846
 20
-31.69741345778154
  0
LWPOLYLINE
  5
124
330
79
100
AcDbEntity
  8
Camada 1
 62
   250
420
  1907995
370
    18
100
AcDbPolyline
 90
        3
 70
     1
 43
0.0
 10
58.69500656030854
 20
-32.22340417691545
 10
59.47042219257455
 20
-32.22340417691545
 10
58.69500656030854
 20
-31.69741345778154
  0
LWPOLYLINE
  5
125
330
79
100
AcDbEntity
  8
Camada 1
 62
   250
420
  1907995
370
    18
100
AcDbPolyline
 90
        3
 70
     1
 43
0.0
 10
59.47042219257455
 20
-32.22340417691545
 10
58.69500656030854
 20
-31.69741345778154
 10
59.62811067248846
 20
-31.69741345778154
  0
LWPOLYLINE
  5
126
330
79
100
AcDbEntity
  8
Camada 1
 62
   250
420
  1907995
370
    18
100
AcDbPolyline
 90
        3
 70
     1
 43
0.0
 10
40.5293948739055
 20
-32.22340417691545
 10
41.30480512320916
 20
-32.22340417691545
 10
40.37170639399094
 20
-31.69741345778154
  0
LWPOLYLINE
  5
127
330
79
100
AcDbEntity
  8
Camada 1
 62
   250
420
  1907995
370
    18
100
AcDbPolyline
 90
        3
 70
     1
 43
0.0
 10
41.30480512320916
 20
-32.22340417691545
 10
40.37170639399094
 20
-31.69741345778154
 10
41.30480512320916
 20
-31.69741345778154
  0
LWPOLYLINE
  5
128
330
79
100
AcDbEntity
  8
Camada 1
 62
   250
420
  1907995
370
    18
100
AcDbPolyline
 90
        3
 70
     1
 43
0.0
 10
40.5293948739055
 20
-32.22340417691545
 10
41.30480512320916
 20
-32.22340417691545
 10
40.37170639399094
 20
-31.69741345778154
  0
LWPOLYLINE
  5
129
330
79
100
AcDbEntity
  8
Camada 1
 62
   250
420
  1907995
370
    18
100
AcDbPolyline
 90
        3
 70
     1
 43
0.0
 10
41.30480512320916
 20
-32.22340417691545
 10
40.37170639399094
 20
-31.69741345778154
 10
41.30480512320916
 20
-31.69741345778154
  0
LWPOLYLINE
  5
12A
330
79
100
AcDbEntity
  8
Camada 1
 62
   250
420
  1907995
370
    18
100
AcDbPolyline
 90
        3
 70
     1
 43
0.0
 10
40.5293948739055
 20
-32.22340417691545
 10
41.30480512320916
 20
-32.22340417691545
 10
40.37170639399094
 20
-31.69741345778154
  0
LWPOLYLINE
  5
12B
330
79
100
AcDbEntity
  8
Camada 1
 62
   250
420
  1907995
370
    18
100
AcDbPolyline
 90
        3
 70
     1
 43
0.0
 10
41.30480512320916
 20
-32.22340417691545
 10
40.37170639399094
 20
-31.69741345778154
 10
41.30480512320916
 20
-31.69741345778154
  0
LINE
  5
12C
330
79
100
AcDbEntity
  8
Camada 1
 62
   250
420
  1907995
370
    18
100
AcDbLine
 10
50.00638423615964
 20
-50.97100553297313
 30
0.0
 11
44.80396707573063
 21
-50.97100553297313
 31
0.0
  0
LWPOLYLINE
  5
12D
330
79
100
AcDbEntity
  8
Camada 1
 62
   250
420
  1907995
370
    18
100
AcDbPolyline
 90
        3
 70
     0
 43
0.0
 10
59.74128205917892
 20
-61.06080202059011
 10
60.187895625148
 20
-61.06080202059011
 10
60.70048276965962
 20
-60.54856746006957
  0
LINE
  5
12E
330
79
100
AcDbEntity
  8
Camada 1
 62
   250
420
  1907995
370
    18
100
AcDbLine
 10
60.70048276965962
 20
-45.46590981935677
 30
0.0
 11
60.70048276965962
 21
-60.54856746006957
 31
0.0
  0
LWPOLYLINE
  5
12F
330
79
100
AcDbEntity
  8
Camada 1
 62
   250
420
  1907995
370
    18
100
AcDbPolyline
 90
        4
 70
     0
 43
0.0
 10
65.91594822923899
 20
-31.72345084350366
 10
61.22577370377308
 20
-32.13090874609819
 10
60.70048276965962
 20
-32.69570523609643
 10
60.70048276965962
 20
-40.52596048824855
  0
LINE
  5
130
330
79
100
AcDbEntity
  8
Camada 1
 62
   250
420
  1907995
370
    18
100
AcDbLine
 10
44.80396707573063
 20
-50.19560066663053
 30
0.0
 11
44.80396707573063
 21
-50.97100553297313
 31
0.0
  0
LINE
  5
131
330
79
100
AcDbEntity
  8
Camada 1
 62
   250
420
  1907995
370
    18
100
AcDbLine
 10
46.52516907793162
 20
-49.15772797096746
 30
0.0
 11
45.99953363426964
 21
-48.63244241981568
 31
0.0
  0
LWPOLYLINE
  5
132
330
79
100
AcDbEntity
  8
Camada 1
 62
   250
420
  1907995
370
    18
100
AcDbPolyline
 90
        3
 70
     0
 43
0.0
 10
40.3109919690251
 20
-45.47931339397908
 10
40.3109919690251
 20
-48.63244241981568
 10
50.00638423615964
 20
-48.63244241981568
  0
LINE
  5
133
330
79
100
AcDbEntity
  8
Camada 1
 62
   250
420
  1907995
370
    18
100
AcDbLine
 10
40.3109919690251
 20
-31.48709037840704
 30
0.0
 11
40.3109919690251
 21
-40.53936944583255
 31
0.0
  0
LINE
  5
134
330
79
100
AcDbEntity
  8
Camada 1
 62
   250
420
  1907995
370
    18
100
AcDbLine
 10
40.25842734806657
 20
-61.06080202059011
 30
0.0
 11
40.25842734806657
 21
-50.19560066663053
 31
0.0
  0
LWPOLYLINE
  5
135
330
79
100
AcDbEntity
  8
Camada 1
 62
   250
420
  1907995
370
    18
100
AcDbPolyline
 90
        4
 70
     0
 43
0.0
 10
39.29957653009611
 20
-45.47931339397908
 10
39.29957653009611
 20
-60.54856746006957
 10
39.81180839913579
 20
-61.06080202059011
 10
60.22740656399446
 20
-61.06080202059011
  0
LINE
  5
136
330
79
100
AcDbEntity
  8
Camada 1
 62
   250
420
  1907995
370
    18
100
AcDbLine
 10
39.29957653009611
 20
-32.69570523609643
 30
0.0
 11
39.29957653009611
 21
-40.53936944583255
 31
0.0
  0
LINE
  5
137
330
79
100
AcDbEntity
  8
Camada 1
 62
   250
420
  1907995
370
    18
100
AcDbLine
 10
39.57544793403982
 20
-32.69570523609643
 30
0.0
 11
39.04980710741549
 21
-32.13090874609819
 31
0.0
  0
LINE
  5
138
330
79
100
AcDbEntity
  8
Camada 1
 62
   250
420
  1907995
370
    18
100
AcDbLine
 10
34.08411107051672
 20
-31.72345084350366
 30
0.0
 11
38.77393570347241
 21
-32.13090874609819
 31
0.0
  0
LINE
  5
139
330
79
100
AcDbEntity
  8
Camada 1
 62
   250
420
  1907995
370
    18
100
AcDbLine
 10
34.0971647526288
 20
-30.94839586967127
 30
0.0
 11
40.3109919690251
 21
-31.48709037840704
 31
0.0
  0
LINE
  5
13A
330
79
100
AcDbEntity
  8
Camada 1
 62
   250
420
  1907995
370
    18
100
AcDbLine
 10
45.84487576179039
 20
-50.97185065795936
 30
0.0
 11
45.84487576179039
 21
-48.62411497807244
 31
0.0
  0
LWPOLYLINE
  5
13B
330
79
100
AcDbEntity
  8
Camada 1
 62
   250
420
  1907995
370
    18
100
AcDbPolyline
 90
        4
 70
     0
 43
0.0
 10
39.29954423232593
 20
-45.48630047826009
 10
42.46572694027461
 20
-45.48630047826009
 10
42.46572694027461
 20
-40.54388036773355
 10
39.29954423232593
 20
-40.54388036773355
  0
SPLINE
  5
13C
330
79
100
AcDbEntity
  8
Camada 1
 62
   250
420
  1907995
370
    18
100
AcDbSpline
210
0.0
220
0.0
230
1.0
 70
     8
 71
     3
 72
    11
 73
     7
 74
     0
 42
0.0000000001
 43
0.0000000001
 40
0.0
 40
0.0
 40
0.0
 40
0.0
 40
1.0
 40
1.0
 40
1.0
 40
2.0
 40
2.0
 40
2.0
 40
2.0
 10
65.91309525954027
 20
-31.73255343173109
 30
0.0
 10
66.03974558231676
 20
-31.6387122604899
 30
0.0
 10
66.11382590117303
 20
-31.49019096434376
 30
0.0
 10
66.11277084068067
 20
-31.33285237694007
 30
0.0
 10
66.11171578018832
 20
-31.17516389702614
 30
0.0
 10
66.03551457442394
 20
-31.02770304433406
 30
0.0
 10
65.90745391568318
 20
-30.93562748452906
 30
0.0
  0
SPLINE
  5
13D
330
79
100
AcDbEntity
  8
Camada 1
 62
   250
420
  1907995
370
    18
100
AcDbSpline
210
0.0
220
0.0
230
1.0
 70
     8
 71
     3
 72
    11
 73
     7
 74
     0
 42
0.0000000001
 43
0.0000000001
 40
0.0
 40
0.0
 40
0.0
 40
0.0
 40
1.0
 40
1.0
 40
1.0
 40
2.0
 40
2.0
 40
2.0
 40
2.0
 10
34.09254617149389
 20
-30.93562748452906
 30
0.0
 10
33.96448551275311
 20
-31.02770304433406
 30
0.0
 10
33.88828968995044
 20
-31.17516389702614
 30
0.0
 10
33.88722924649639
 20
-31.33285237694007
 30
0.0
 10
33.88616880304234
 20
-31.49019096434376
 30
0.0
 10
33.9602545048603
 20
-31.6387122604899
 30
0.0
 10
34.0868994446751
 20
-31.73255343173109
 30
0.0
  0
LINE
  5
13E
330
79
100
AcDbEntity
  8
Camada 1
 62
   250
420
  1907995
370
    18
100
AcDbLine
 10
46.52514216312314
 20
-50.98045801371078
 30
0.0
 11
46.52514216312314
 21
-49.16647528372298
 31
0.0
  0
LINE
  5
13F
330
79
100
AcDbEntity
  8
Camada 1
 62
   250
420
  1907995
370
    18
100
AcDbLine
 10
60.18204972874647
 20
-40.52839358693502
 30
0.0
 11
60.18204972874647
 21
-33.75294044497925
 31
0.0
  0
LINE
  5
140
330
79
100
AcDbEntity
  8
Camada 1
 62
   250
420
  1907995
370
    18
100
AcDbLine
 10
60.18204972874647
 20
-61.0522969411109
 30
0.0
 11
60.18204972874647
 21
-45.4658721386249
 31
0.0
  0
LINE
  5
141
330
79
100
AcDbEntity
  8
Camada 1
 62
   250
420
  1907995
370
    18
100
AcDbLine
 10
60.16451203954186
 20
-33.74948458357061
 30
0.0
 11
60.70496139379043
 21
-33.74948458357061
 31
0.0
  0
SPLINE
  5
142
330
79
100
AcDbEntity
  8
Camada 1
 62
   250
420
  1907995
370
    18
100
AcDbSpline
210
0.0
220
0.0
230
1.0
 70
     8
 71
     3
 72
     8
 73
     4
 74
     0
 42
0.0000000001
 43
0.0000000001
 40
0.0
 40
0.0
 40
0.0
 40
0.0
 40
1.0
 40
1.0
 40
1.0
 40
1.0
 10
60.68655166479113
 20
-32.86538695466837
 30
0.0
 10
60.40467825855735
 20
-33.09010945657887
 30
0.0
 10
60.21558558011069
 20
-33.40901763927909
 30
0.0
 10
60.15455356040482
 20
-33.76250596791251
 30
0.0
  0
LINE
  5
143
330
79
100
AcDbEntity
  8
Camada 1
 62
   250
420
  1907995
370
    18
100
AcDbLine
 10
40.25288289751999
 20
-50.20607591009068
 30
0.0
 11
44.80089340460239
 21
-50.20607591009068
 31
0.0
  0
LWPOLYLINE
  5
144
330
79
100
AcDbEntity
  8
Camada 1
 62
   250
420
  1907995
370
    18
100
AcDbPolyline
 90
        4
 70
     0
 43
0.0
 10
60.73128407648242
 20
-45.46685722061521
 10
57.56369103256946
 20
-45.46685722061521
 10
57.55028207498547
 20
-40.51703553775676
 10
60.71822501140864
 20
-40.51703553775676
  0
LINE
  5
145
330
79
100
AcDbEntity
  8
Camada 1
 62
   250
420
  1907995
370
    18
100
AcDbLine
 10
39.81851556940864
 20
-40.52839358693502
 30
0.0
 11
39.81851556940864
 21
-33.75294044497925
 31
0.0
  0
LINE
  5
146
330
79
100
AcDbEntity
  8
Camada 1
 62
   250
420
  1907995
370
    18
100
AcDbLine
 10
39.81851556940864
 20
-61.0522969411109
 30
0.0
 11
39.81851556940864
 21
-45.4658721386249
 31
0.0
  0
LINE
  5
147
330
79
100
AcDbEntity
  8
Camada 1
 62
   250
420
  1907995
370
    18
100
AcDbLine
 10
39.83541268617145
 20
-33.74948458357061
 30
0.0
 11
39.29495256599949
 21
-33.74948458357061
 31
0.0
  0
SPLINE
  5
148
330
79
100
AcDbEntity
  8
Camada 1
 62
   250
420
  1907995
370
    18
100
AcDbSpline
210
0.0
220
0.0
230
1.0
 70
     8
 71
     3
 72
     8
 73
     4
 74
     0
 42
0.0000000001
 43
0.0000000001
 40
0.0
 40
0.0
 40
0.0
 40
0.0
 40
1.0
 40
1.0
 40
1.0
 40
1.0
 10
39.83224212173269
 20
-33.76243060644877
 30
0.0
 10
39.77121010202681
 20
-33.40894766077705
 30
0.0
 10
39.58211742358015
 20
-33.09003947807684
 30
0.0
 10
39.30024940030806
 20
-32.86531697616632
 30
0.0
  0
LINE
  5
149
330
79
100
AcDbEntity
  8
Camada 1
 62
   250
420
  1907995
370
    18
100
AcDbLine
 10
46.51388639021743
 20
-49.15352387788312
 30
0.0
 11
50.02084825423598
 21
-49.15352387788312
 31
0.0
  0
LINE
  5
14A
330
79
100
AcDbEntity
  8
Camada 1
 62
   250
420
  1907995
370
    18
100
AcDbLine
 10
58.48204582970315
 20
-32.84627205768661
 30
0.0
 11
59.11281051528223
 21
-32.22644016731183
 31
0.0
  0
LINE
  5
14B
330
79
100
AcDbEntity
  8
Camada 1
 62
   250
420
  1907995
370
    18
100
AcDbLine
 10
59.53332748295053
 20
-30.86824357002225
 30
0.0
 11
59.63844595894421
 21
-30.76276443559463
 31
0.0
  0
LINE
  5
14C
330
79
100
AcDbEntity
  8
Camada 1
 62
   250
420
  1907995
370
    18
100
AcDbLine
 10
57.930303021817
 20
-32.4772646504848
 30
0.0
 11
58.70535261268769
 21
-31.69903911221364
 31
0.0
  0
LINE
  5
14D
330
79
100
AcDbEntity
  8
Camada 1
 62
   250
420
  1907995
370
    18
100
AcDbLine
 10
57.930303021817
 20
-31.54099535682781
 30
0.0
 11
59.32306899911638
 21
-30.14328782069177
 31
0.0
  0
LINE
  5
14E
330
79
100
AcDbEntity
  8
Camada 1
 62
   250
420
  1907995
370
    18
100
AcDbLine
 10
57.930303021817
 20
-30.6047206802088
 30
0.0
 11
58.56106770739607
 21
-29.97148521521172
 31
0.0
  0
LINE
  5
14F
330
79
100
AcDbEntity
  8
Camada 1
 62
   250
420
  1907995
370
    18
100
AcDbLine
 10
57.08927985240378
 20
-30.49924154578182
 30
0.0
 11
57.78566284105346
 21
-29.81344145982588
 31
0.0
  0
LINE
  5
150
330
79
100
AcDbEntity
  8
Camada 1
 62
   250
420
  1907995
370
    18
100
AcDbLine
 10
56.15618112318555
 20
-30.49924154578182
 30
0.0
 11
56.99720429259878
 21
-29.66844600359043
 31
0.0
  0
LINE
  5
151
330
79
100
AcDbEntity
  8
Camada 1
 62
   250
420
  1907995
370
    18
100
AcDbLine
 10
52.04350149435803
 20
-33.703519473651
 30
0.0
 11
52.80550278607834
 21
-32.92529393537984
 31
0.0
  0
LINE
  5
152
330
79
100
AcDbEntity
  8
Camada 1
 62
   250
420
  1907995
370
    18
100
AcDbLine
 10
55.22343766943925
 20
-30.49924154578182
 30
0.0
 11
56.19569206203201
 21
-29.52345593031667
 31
0.0
  0
LINE
  5
153
330
79
100
AcDbEntity
  8
Camada 1
 62
   250
420
  1907995
370
    18
100
AcDbLine
 10
51.96447961666511
 20
-33.78254135134392
 30
0.0
 11
52.04350149435803
 21
-33.703519473651
 31
0.0
  0
LINE
  5
154
330
79
100
AcDbEntity
  8
Camada 1
 62
   250
420
  1907995
370
    18
100
AcDbLine
 10
52.04350149435803
 20
-32.76725017999401
 30
0.0
 11
52.80550278607834
 21
-31.98901925876115
 31
0.0
  0
LINE
  5
155
330
79
100
AcDbEntity
  8
Camada 1
 62
   250
420
  1907995
370
    18
100
AcDbLine
 10
54.29034432318272
 20
-30.49924154578182
 30
0.0
 11
55.38113153231486
 21
-29.40456783830538
 31
0.0
  0
LINE
  5
156
330
79
100
AcDbEntity
  8
Camada 1
 62
   250
420
  1907995
370
    18
100
AcDbLine
 10
51.81983943590158
 20
-32.99126213096069
 30
0.0
 11
52.04350149435803
 21
-32.76725017999401
 31
0.0
  0
LINE
  5
157
330
79
100
AcDbEntity
  8
Camada 1
 62
   250
420
  1907995
370
    18
100
AcDbLine
 10
52.04350149435803
 20
-31.83097550337532
 30
0.0
 11
52.80550278607834
 21
-31.05309985761407
 31
0.0
  0
LINE
  5
158
330
79
100
AcDbEntity
  8
Camada 1
 62
   250
420
  1907995
370
    18
100
AcDbLine
 10
53.35724559396449
 20
-30.49924154578182
 30
0.0
 11
54.55316204501372
 21
-29.29908870387808
 31
0.0
  0
LINE
  5
159
330
79
100
AcDbEntity
  8
Camada 1
 62
   250
420
  1907995
370
    18
100
AcDbLine
 10
51.81983943590158
 20
-32.04193915519161
 30
0.0
 11
52.04350149435803
 21
-31.83097550337532
 31
0.0
  0
LWPOLYLINE
  5
15A
330
79
100
AcDbEntity
  8
Camada 1
 62
   250
420
  1907995
370
    18
100
AcDbPolyline
 90
        3
 70
     0
 43
0.0
 10
51.81983943590158
 20
-31.10566447857292
 10
52.04350149435803
 20
-30.89470620971833
 10
53.71213887560049
 20
-29.22006682618516
  0
LINE
  5
15B
330
79
100
AcDbEntity
  8
Camada 1
 62
   250
420
  1907995
370
    18
100
AcDbLine
 10
51.55702171407058
 20
-30.43326796723929
 30
0.0
 11
52.8450137249248
 21
-29.14104494849225
 31
0.0
  0
LINE
  5
15C
330
79
100
AcDbEntity
  8
Camada 1
 62
   250
420
  1907995
370
    18
100
AcDbLine
 10
47.95656857132107
 20
-33.11015022297198
 30
0.0
 11
48.1798753543056
 21
-32.88578299653339
 31
0.0
  0
LINE
  5
15D
330
79
100
AcDbEntity
  8
Camada 1
 62
   250
420
  1907995
370
    18
100
AcDbLine
 10
50.80807410446236
 20
-30.24876695511907
 30
0.0
 11
51.96447961666511
 21
-29.08813043502349
 31
0.0
  0
LINE
  5
15E
330
79
100
AcDbEntity
  8
Camada 1
 62
   250
420
  1907995
370
    18
100
AcDbLine
 10
47.31275020362992
 20
-33.75608409460954
 30
0.0
 11
47.95656857132107
 21
-33.11015022297198
 31
0.0
  0
LINE
  5
15F
330
79
100
AcDbEntity
  8
Camada 1
 62
   250
420
  1907995
370
    18
100
AcDbLine
 10
47.95656857132107
 20
-32.17387554635297
 30
0.0
 11
48.1798753543056
 21
-31.9495083199147
 31
0.0
  0
LINE
  5
160
330
79
100
AcDbEntity
  8
Camada 1
 62
   250
420
  1907995
370
    18
100
AcDbLine
 10
50.05912649485413
 20
-30.06391066752694
 30
0.0
 11
51.07089182629335
 21
-29.06202307079933
 31
0.0
  0
LINE
  5
161
330
79
100
AcDbEntity
  8
Camada 1
 62
   250
420
  1907995
370
    18
100
AcDbLine
 10
47.19456727960076
 20
-32.93869751000214
 30
0.0
 11
47.95656857132107
 21
-32.17387554635297
 31
0.0
  0
LINE
  5
162
330
79
100
AcDbEntity
  8
Camada 1
 62
   250
420
  1907995
370
    18
100
AcDbLine
 10
48.86321004380491
 20
-30.34084251492407
 30
0.0
 11
50.00656187389559
 21
-29.19360956945046
 31
0.0
  0
LINE
  5
163
330
79
100
AcDbEntity
  8
Camada 1
 62
   250
420
  1907995
370
    18
100
AcDbLine
 10
47.95656857132107
 20
-31.2376062526963
 30
0.0
 11
48.1798753543056
 21
-31.01358891876793
 31
0.0
  0
LINE
  5
164
330
79
100
AcDbEntity
  8
Camada 1
 62
   250
420
  1907995
370
    18
100
AcDbLine
 10
50.00656187389559
 20
-29.19360956945046
 30
0.0
 11
50.15120205465913
 21
-29.04861949617703
 31
0.0
  0
LINE
  5
165
330
79
100
AcDbEntity
  8
Camada 1
 62
   250
420
  1907995
370
    18
100
AcDbLine
 10
47.19456727960076
 20
-32.00242821634515
 30
0.0
 11
47.95656857132107
 21
-31.2376062526963
 31
0.0
  0
LINE
  5
166
330
79
100
AcDbEntity
  8
Camada 1
 62
   250
420
  1907995
370
    18
100
AcDbLine
 10
47.19456727960076
 20
-31.06615353972646
 30
0.0
 11
49.20504964332883
 21
-29.04861949617703
 31
0.0
  0
LINE
  5
167
330
79
100
AcDbEntity
  8
Camada 1
 62
   250
420
  1907995
370
    18
100
AcDbLine
 10
46.82662031585269
 20
-30.49924154578182
 30
0.0
 11
48.24584893284814
 21
-29.08813043502349
 31
0.0
  0
LINE
  5
168
330
79
100
AcDbEntity
  8
Camada 1
 62
   250
420
  1907995
370
    18
100
AcDbLine
 10
45.89352696959616
 20
-30.49924154578182
 30
0.0
 11
47.24713190055929
 21
-29.14104494849225
 31
0.0
  0
LINE
  5
169
330
79
100
AcDbEntity
  8
Camada 1
 62
   250
420
  1907995
370
    18
100
AcDbLine
 10
44.96077813288816
 20
-30.49924154578182
 30
0.0
 11
46.23536656912007
 21
-29.22006682618516
 31
0.0
  0
LINE
  5
16A
330
79
100
AcDbEntity
  8
Camada 1
 62
   250
420
  1907995
370
    18
100
AcDbLine
 10
42.87127927442887
 20
-31.65952817336718
 30
0.0
 11
43.10798963203571
 21
-31.42210726481651
 31
0.0
  0
LINE
  5
16B
330
79
100
AcDbEntity
  8
Camada 1
 62
   250
420
  1907995
370
    18
100
AcDbLine
 10
44.02768478663163
 20
-30.49924154578182
 30
0.0
 11
45.18409029883438
 21
-29.33859964272454
 31
0.0
  0
LINE
  5
16C
330
79
100
AcDbEntity
  8
Camada 1
 62
   250
420
  1907995
370
    18
100
AcDbLine
 10
41.68876639800195
 20
-32.84627205768661
 30
0.0
 11
42.0697670438621
 21
-32.4638610758625
 31
0.0
  0
LINE
  5
16D
330
79
100
AcDbEntity
  8
Camada 1
 62
   250
420
  1907995
370
    18
100
AcDbLine
 10
40.75566766878373
 20
-32.84627205768661
 30
0.0
 11
44.10670666432454
 21
-29.48394499146989
 31
0.0
  0
LINE
  5
16E
330
79
100
AcDbEntity
  8
Camada 1
 62
   250
420
  1907995
370
    18
100
AcDbLine
 10
41.29436217751949
 20
-31.36954264385797
 30
0.0
 11
42.98945681549633
 21
-29.66844600359043
 31
0.0
  0
LINE
  5
16F
330
79
100
AcDbEntity
  8
Camada 1
 62
   250
420
  1907995
370
    18
100
AcDbLine
 10
40.8607969107008
 20
-30.86824357002225
 30
0.0
 11
41.83305130329357
 21
-29.8924633375188
 31
0.0
  0
LINE
  5
170
330
79
100
AcDbEntity
  8
Camada 1
 62
   250
420
  1907995
370
    18
100
AcDbLine
 10
40.32210778492673
 20
-30.47277890608575
 30
0.0
 11
40.63749012771626
 21
-30.15634150280353
 31
0.0
  0
LWPOLYLINE
  5
171
330
79
100
AcDbEntity
  8
Camada 1
 62
   250
420
  1907995
370
    18
100
AcDbPolyline
 90
        5
 70
     0
 43
0.0
 10
59.72067608180777
 20
-30.24668913190421
 10
59.62860590496447
 20
-30.86722619026176
 10
58.70856085785833
 20
-30.86722619026176
 10
58.70856085785833
 20
-32.22718301602583
 10
59.40529912197994
 20
-32.22718301602583
  0
LWPOLYLINE
  5
172
330
79
100
AcDbEntity
  8
Camada 1
 62
   250
420
  1907995
370
    18
100
AcDbPolyline
 90
        4
 70
     0
 43
0.0
 10
40.27909792097807
 20
-30.24668913190421
 10
40.38422716289514
 20
-30.86722619026176
 10
41.29156842039942
 20
-30.86722619026176
 10
41.29156842039942
 20
-32.22718301602583
  0
LINE
  5
173
330
79
100
AcDbEntity
  8
Camada 1
 62
   250
420
  1907995
370
    18
100
AcDbLine
 10
40.59483553923952
 20
-32.22718301602583
 30
0.0
 11
41.29156842039942
 21
-32.22718301602583
 31
0.0
  0
LINE
  5
174
330
79
100
AcDbEntity
  8
Camada 1
 62
   250
420
  1907995
370
    18
100
AcDbLine
 10
48.17920248409365
 20
-30.49786350758772
 30
0.0
 11
52.04388368463843
 21
-30.49786350758772
 31
0.0
  0
LINE
  5
175
330
79
100
AcDbEntity
  8
Camada 1
 62
   250
420
  1907995
370
    18
100
AcDbLine
 10
52.80623486886896
 20
-30.49786350758772
 30
0.0
 11
57.9328060990055
 21
-30.49786350758772
 31
0.0
  0
LINE
  5
176
330
79
100
AcDbEntity
  8
Camada 1
 62
   250
420
  1907995
370
    18
100
AcDbLine
 10
52.80623486886896
 20
-32.84772007438307
 30
0.0
 11
59.31321817921324
 21
-32.84772007438307
 31
0.0
  0
LINE
  5
177
330
79
100
AcDbEntity
  8
Camada 1
 62
   250
420
  1907995
370
    18
100
AcDbLine
 10
51.8205769016539
 20
-33.64005973822036
 30
0.0
 11
51.8205769016539
 21
-30.49786350758772
 31
0.0
  0
LINE
  5
178
330
79
100
AcDbEntity
  8
Camada 1
 62
   250
420
  1907995
370
    18
100
AcDbLine
 10
48.17920248409365
 20
-33.64005973822036
 30
0.0
 11
48.17920248409365
 21
-30.49786350758772
 31
0.0
  0
LWPOLYLINE
  5
179
330
79
100
AcDbEntity
  8
Camada 1
 62
   250
420
  1907995
370
    18
100
AcDbPolyline
 90
        6
 70
     0
 43
0.0
 10
47.19354451687857
 20
-30.49786350758772
 10
47.19354451687857
 20
-33.64005973822036
 10
47.45636223870957
 20
-33.90428779601563
 10
52.54341714703796
 20
-33.90428779601563
 10
52.80623486886896
 20
-33.64005973822036
 10
52.80623486886896
 20
-30.49786350758772
  0
SPLINE
  5
17A
330
79
100
AcDbEntity
  8
Camada 1
 62
   250
420
  1907995
370
    18
100
AcDbSpline
210
0.0
220
0.0
230
1.0
 70
     8
 71
     3
 72
     8
 73
     4
 74
     0
 42
0.0000000001
 43
0.0000000001
 40
0.0
 40
0.0
 40
0.0
 40
0.0
 40
1.0
 40
1.0
 40
1.0
 40
1.0
 10
59.71962102131541
 20
-30.2325750063384
 30
0.0
 10
53.33646197885738
 20
-28.63167143211297
 30
0.0
 10
46.65943629150755
 20
-28.63202670758489
 30
0.0
 10
40.27662714155973
 20
-30.23328017432053
 30
0.0
  0
LINE
  5
17B
330
79
100
AcDbEntity
  8
Camada 1
 62
   250
420
  1907995
370
    18
100
AcDbLine
 10
57.9328060990055
 20
-30.49786350758772
 30
0.0
 11
57.9328060990055
 21
-32.5968955912101
 31
0.0
  0
LINE
  5
17C
330
79
100
AcDbEntity
  8
Camada 1
 62
   250
420
  1907995
370
    18
100
AcDbLine
 10
42.06697866970372
 20
-32.5968955912101
 30
0.0
 11
42.06697866970372
 21
-31.65956047113736
 31
0.0
  0
LINE
  5
17D
330
79
100
AcDbEntity
  8
Camada 1
 62
   250
420
  1907995
370
    18
100
AcDbLine
 10
59.31321817921324
 20
-32.84772007438307
 30
0.0
 11
59.40529912197994
 21
-32.22718301602583
 31
0.0
  0
LWPOLYLINE
  5
17E
330
79
100
AcDbEntity
  8
Camada 1
 62
   250
420
  1907995
370
    18
100
AcDbPolyline
 90
        3
 70
     0
 43
0.0
 10
40.59483553923952
 20
-32.22718301602583
 10
40.69996478115659
 20
-32.84772007438307
 10
47.19354451687857
 20
-32.84772007438307
  0
LINE
  5
17F
330
79
100
AcDbEntity
  8
Camada 1
 62
   250
420
  1907995
370
    18
100
AcDbLine
 10
42.06697866970372
 20
-31.65956047113736
 30
0.0
 11
43.10555115038755
 21
-31.65956047113736
 31
0.0
  0
LINE
  5
180
330
79
100
AcDbEntity
  8
Camada 1
 62
   250
420
  1907995
370
    18
100
AcDbLine
 10
47.9586517774973
 20
-33.89553510029842
 30
0.0
 11
47.9586517774973
 21
-30.49758359357955
 31
0.0
  0
LINE
  5
181
330
79
100
AcDbEntity
  8
Camada 1
 62
   250
420
  1907995
370
    18
100
AcDbLine
 10
47.94457533266304
 20
-30.49271201324494
 30
0.0
 11
48.19645487632836
 21
-30.49271201324494
 31
0.0
  0
LINE
  5
182
330
79
100
AcDbEntity
  8
Camada 1
 62
   250
420
  1907995
370
    18
100
AcDbLine
 10
52.0419135206578
 20
-33.89553510029842
 30
0.0
 11
52.0419135206578
 21
-30.49758359357955
 31
0.0
  0
SPLINE
  5
183
330
79
100
AcDbEntity
  8
Camada 1
 62
   250
420
  1907995
370
    18
100
AcDbSpline
210
0.0
220
0.0
230
1.0
 70
     8
 71
     3
 72
     8
 73
     4
 74
     0
 42
0.0000000001
 43
0.0000000001
 40
0.0
 40
0.0
 40
0.0
 40
0.0
 40
1.0
 40
1.0
 40
1.0
 40
1.0
 10
57.9219056015717
 20
-32.56937250805965
 30
0.0
 10
57.9219056015717
 20
-32.7140126888235
 30
0.0
 10
58.03691257820039
 20
-32.83113516939861
 30
0.0
 10
58.17837142860177
 20
-32.83113516939861
 30
0.0
  0
SPLINE
  5
184
330
79
100
AcDbEntity
  8
Camada 1
 62
   250
420
  1907995
370
    18
100
AcDbSpline
210
0.0
220
0.0
230
1.0
 70
     8
 71
     3
 72
     8
 73
     4
 74
     0
 42
0.0000000001
 43
0.0000000001
 40
0.0
 40
0.0
 40
0.0
 40
0.0
 40
1.0
 40
1.0
 40
1.0
 40
1.0
 10
41.80842425353572
 20
-32.83113516939861
 30
0.0
 10
41.9498884868988
 20
-32.83113516939861
 30
0.0
 10
42.06489546352749
 20
-32.7140126888235
 30
0.0
 10
42.06489546352749
 20
-32.56937250805965
 30
0.0
  0
LWPOLYLINE
  5
185
330
79
100
AcDbEntity
  8
Camada 1
 62
   250
420
  1907995
370
    18
100
AcDbPolyline
 90
        3
 70
     0
 43
0.0
 10
48.1788902723153
 20
-33.63581796440414
 10
51.82096447489598
 20
-33.63581796440414
 10
52.08413747219889
 20
-33.90428241305393
  0
LINE
  5
186
330
79
100
AcDbEntity
  8
Camada 1
 62
   250
420
  1907995
370
    18
100
AcDbLine
 10
48.1788902723153
 20
-33.63581796440414
 30
0.0
 11
47.9160671675226
 21
-33.90428241305393
 31
0.0
  0
LINE
  5
187
330
79
100
AcDbEntity
  8
Camada 1
 62
   250
420
  1907995
370
    18
100
AcDbLine
 10
50.00673951163155
 20
-34.58937733102774
 30
0.0
 11
50.00673951163155
 21
-27.75607349972825
 31
0.0
  0
LWPOLYLINE
  5
188
330
79
100
AcDbEntity
  8
Camada 1
 62
   250
420
  1907995
370
    18
100
AcDbPolyline
 90
        4
 70
     0
 43
0.0
 10
42.06433563551114
 20
-31.67275411025352
 10
43.10714450704948
 20
-31.67275411025352
 10
43.10714450704948
 20
-30.48918617333425
 10
47.21206728807349
 20
-30.48918617333425
  0
LWPOLYLINE
  5
189
330
79
100
AcDbEntity
  8
Camada 1
 62
   250
420
  1907995
370
    18
100
AcDbPolyline
 90
        3
 70
     0
 43
0.0
 10
40.88686659419309
 20
-30.91251842996941
 10
41.31514040966491
 20
-30.91251842996941
 10
41.31514040966491
 20
-31.69992191793174
  0
LINE
  5
18A
330
79
100
AcDbEntity
  8
Camada 1
 62
   250
420
  1907995
370
    18
100
AcDbLine
 10
40.52526614228425
 20
-32.23367486783085
 30
0.0
 11
41.31514040966491
 21
-32.23367486783085
 31
0.0
  0
LWPOLYLINE
  5
18B
330
79
100
AcDbEntity
  8
Camada 1
 62
   250
420
  1907995
370
    18
100
AcDbPolyline
 90
        4
 70
     0
 43
0.0
 10
40.55207867449055
 20
-31.1792226501447
 10
40.71259320929471
 20
-31.69992191793174
 10
40.88686659419309
 20
-31.69992191793174
 10
40.71259320929471
 20
-31.69992191793174
  0
LINE
  5
18C
330
79
100
AcDbEntity
  8
Camada 1
 62
   250
420
  1907995
370
    18
100
AcDbLine
 10
40.88686659419309
 20
-30.91251842996941
 30
0.0
 11
40.88686659419309
 21
-31.69992191793174
 31
0.0
  0
LINE
  5
18D
330
79
100
AcDbEntity
  8
Camada 1
 62
   250
420
  1907995
370
    18
100
AcDbLine
 10
40.20388718016571
 20
-31.1792226501447
 30
0.0
 11
40.52526614228425
 21
-32.23367486783085
 31
0.0
  0
LINE
  5
18E
330
79
100
AcDbEntity
  8
Camada 1
 62
   250
420
  1907995
370
    18
100
AcDbLine
 10
41.31514040966491
 20
-30.91251842996941
 30
0.0
 11
41.31514040966491
 21
-32.23367486783085
 31
0.0
  0
LWPOLYLINE
  5
18F
330
79
100
AcDbEntity
  8
Camada 1
 62
   250
420
  1907995
370
    18
100
AcDbPolyline
 90
        3
 70
     0
 43
0.0
 10
40.88270556480231
 20
-31.34741867128863
 10
40.88270556480231
 20
-30.91950013128874
 10
40.88270556480231
 20
-31.13328445503325
  0
LINE
  5
190
330
79
100
AcDbEntity
  8
Camada 1
 62
   250
420
  1907995
370
    18
100
AcDbLine
 10
59.12571885742853
 20
-30.9126583869735
 30
0.0
 11
58.7052126556836
 21
-30.9126583869735
 31
0.0
  0
LINE
  5
191
330
79
100
AcDbEntity
  8
Camada 1
 62
   250
420
  1907995
370
    18
100
AcDbLine
 10
59.48061752202621
 20
-32.23381482483494
 30
0.0
 11
58.7052126556836
 21
-32.23381482483494
 31
0.0
  0
LWPOLYLINE
  5
192
330
79
100
AcDbEntity
  8
Camada 1
 62
   250
420
  1907995
370
    18
100
AcDbPolyline
 90
        4
 70
     0
 43
0.0
 10
59.45415488233013
 20
-31.17935722418709
 10
59.30986997703851
 20
-31.70006187493583
 10
59.12571885742853
 20
-31.70006187493583
 10
59.30986997703851
 20
-31.70006187493583
  0
LINE
  5
193
330
79
100
AcDbEntity
  8
Camada 1
 62
   250
420
  1907995
370
    18
100
AcDbLine
 10
59.12571885742853
 20
-30.9126583869735
 30
0.0
 11
59.12571885742853
 21
-31.70006187493583
 31
0.0
  0
LINE
  5
194
330
79
100
AcDbEntity
  8
Camada 1
 62
   250
420
  1907995
370
    18
100
AcDbLine
 10
59.79599448185405
 20
-31.17935722418709
 30
0.0
 11
59.48061752202621
 21
-32.23381482483494
 31
0.0
  0
LINE
  5
195
330
79
100
AcDbEntity
  8
Camada 1
 62
   250
420
  1907995
370
    18
100
AcDbLine
 10
40.5456245034174
 20
-31.17935722418709
 30
0.0
 11
40.2041347964037
 21
-31.17935722418709
 31
0.0
  0
LWPOLYLINE
  5
196
330
79
100
AcDbEntity
  8
Camada 1
 62
   250
420
  1907995
370
    18
100
AcDbPolyline
 90
        3
 70
     0
 43
0.0
 10
59.11768747857853
 20
-31.34741867128863
 10
59.11768747857853
 20
-30.91950013128874
 10
59.11768747857853
 20
-31.13328445503325
  0
LINE
  5
197
330
79
100
AcDbEntity
  8
Camada 1
 62
   250
420
  1907995
370
    18
100
AcDbLine
 10
59.43289218363211
 20
-31.17801686672486
 30
0.0
 11
59.79589758854352
 21
-31.17801686672486
 31
0.0
  0
LINE
  5
198
330
79
100
AcDbEntity
  8
Camada 1
 62
   250
420
  1907995
370
    18
100
AcDbLine
 10
66.03853979889693
 20
-31.57418669864351
 30
0.0
 11
65.46033435131469
 21
-30.98328284442112
 31
0.0
  0
LINE
  5
199
330
79
100
AcDbEntity
  8
Camada 1
 62
   250
420
  1907995
370
    18
100
AcDbLine
 10
65.31604944602309
 20
-31.78408990700575
 30
0.0
 11
64.60661815822302
 21
-31.06195482960382
 31
0.0
  0
LINE
  5
19A
330
79
100
AcDbEntity
  8
Camada 1
 62
   250
420
  1907995
370
    18
100
AcDbLine
 10
64.46197797745947
 20
-31.86311178469867
 30
0.0
 11
63.73948762458563
 21
-31.14097670729674
 31
0.0
  0
LINE
  5
19B
330
79
100
AcDbEntity
  8
Camada 1
 62
   250
420
  1907995
370
    18
100
AcDbLine
 10
63.60825101844439
 20
-31.92873008776928
 30
0.0
 11
62.88541615602202
 21
-31.21964330951774
 31
0.0
  0
LINE
  5
19C
330
79
100
AcDbEntity
  8
Camada 1
 62
   250
420
  1907995
370
    18
100
AcDbLine
 10
62.74113125073039
 20
-32.00739668999029
 30
0.0
 11
62.03168919700694
 21
-31.28526161258835
 31
0.0
  0
LINE
  5
19D
330
79
100
AcDbEntity
  8
Camada 1
 62
   250
420
  1907995
370
    18
100
AcDbLine
 10
61.8870490162434
 20
-32.08606867517298
 30
0.0
 11
61.16455866336955
 21
-31.36393359777073
 31
0.0
  0
LINE
  5
19E
330
79
100
AcDbEntity
  8
Camada 1
 62
   250
420
  1907995
370
    18
100
AcDbLine
 10
61.11199942537271
 20
-32.24375715508691
 30
0.0
 11
60.31048719480594
 21
-31.44295547546397
 31
0.0
  0
LINE
  5
19F
330
79
100
AcDbEntity
  8
Camada 1
 62
   250
420
  1907995
370
    18
100
AcDbLine
 10
60.69149322362779
 20
-32.7559944070883
 30
0.0
 11
59.68007778469878
 21
-31.74493424363121
 31
0.0
  0
LINE
  5
1A0
330
79
100
AcDbEntity
  8
Camada 1
 62
   250
420
  1907995
370
    18
100
AcDbLine
 10
60.69149322362779
 20
-33.68803269285246
 30
0.0
 11
59.68007778469878
 21
-32.6773224219056
 31
0.0
  0
LINE
  5
1A1
330
79
100
AcDbEntity
  8
Camada 1
 62
   250
420
  1907995
370
    18
100
AcDbLine
 10
60.69149322362779
 20
-34.62042087112685
 30
0.0
 11
59.68007778469878
 21
-33.60936070766945
 31
0.0
  0
LINE
  5
1A2
330
79
100
AcDbEntity
  8
Camada 1
 62
   250
420
  1907995
370
    18
100
AcDbLine
 10
60.69149322362779
 20
-35.55281443236294
 30
0.0
 11
59.68007778469878
 21
-34.54175426890585
 31
0.0
  0
LINE
  5
1A3
330
79
100
AcDbEntity
  8
Camada 1
 62
   250
420
  1907995
370
    18
100
AcDbLine
 10
60.69149322362779
 20
-36.48485271812711
 30
0.0
 11
59.68007778469878
 21
-35.47379255467002
 31
0.0
  0
LINE
  5
1A4
330
79
100
AcDbEntity
  8
Camada 1
 62
   250
420
  1907995
370
    18
100
AcDbLine
 10
60.69149322362779
 20
-37.41724627936319
 30
0.0
 11
59.68007778469878
 21
-36.4061861159061
 31
0.0
  0
LINE
  5
1A5
330
79
100
AcDbEntity
  8
Camada 1
 62
   250
420
  1907995
370
    18
100
AcDbLine
 10
60.69149322362779
 20
-38.34963984059895
 30
0.0
 11
59.68007778469878
 21
-37.3385742941805
 31
0.0
  0
LINE
  5
1A6
330
79
100
AcDbEntity
  8
Camada 1
 62
   250
420
  1907995
370
    18
100
AcDbLine
 10
60.69149322362779
 20
-39.28167812636345
 30
0.0
 11
59.68007778469878
 21
-38.27096785541658
 31
0.0
  0
LINE
  5
1A7
330
79
100
AcDbEntity
  8
Camada 1
 62
   250
420
  1907995
370
    18
100
AcDbLine
 10
60.69149322362779
 20
-40.21406630463784
 30
0.0
 11
59.68007778469878
 21
-39.20300614118075
 31
0.0
  0
LINE
  5
1A8
330
79
100
AcDbEntity
  8
Camada 1
 62
   250
420
  1907995
370
    18
100
AcDbLine
 10
60.0871804118214
 20
-40.54250232953945
 30
0.0
 11
59.68007778469878
 21
-40.13539970241683
 31
0.0
  0
LINE
  5
1A9
330
79
100
AcDbEntity
  8
Camada 1
 62
   250
420
  1907995
370
    18
100
AcDbLine
 10
60.69149322362779
 20
-45.8207654202609
 30
0.0
 11
60.3499981336524
 21
-45.47963098871912
 31
0.0
  0
LINE
  5
1AA
330
79
100
AcDbEntity
  8
Camada 1
 62
   250
420
  1907995
370
    18
100
AcDbLine
 10
60.69149322362779
 20
-46.75315898149698
 30
0.0
 11
59.68007778469878
 21
-45.7420988180399
 31
0.0
  0
LINE
  5
1AB
330
79
100
AcDbEntity
  8
Camada 1
 62
   250
420
  1907995
370
    18
100
AcDbLine
 10
60.69149322362779
 20
-47.68554715977137
 30
0.0
 11
59.68007778469878
 21
-46.67448699631429
 31
0.0
  0
LINE
  5
1AC
330
79
100
AcDbEntity
  8
Camada 1
 62
   250
420
  1907995
370
    18
100
AcDbLine
 10
60.69149322362779
 20
-48.61758544553555
 30
0.0
 11
59.68007778469878
 21
-47.60652528207813
 31
0.0
  0
LINE
  5
1AD
330
79
100
AcDbEntity
  8
Camada 1
 62
   250
420
  1907995
370
    18
100
AcDbLine
 10
60.69149322362779
 20
-49.54997900677163
 30
0.0
 11
59.68007778469878
 21
-48.53891884331455
 31
0.0
  0
LINE
  5
1AE
330
79
100
AcDbEntity
  8
Camada 1
 62
   250
420
  1907995
370
    18
100
AcDbLine
 10
60.69149322362779
 20
-50.48201729253548
 30
0.0
 11
58.85245818990785
 21
-48.63063912764762
 31
0.0
  0
LINE
  5
1AF
330
79
100
AcDbEntity
  8
Camada 1
 62
   250
420
  1907995
370
    18
100
AcDbLine
 10
59.46981930086463
 20
-50.19344748195224
 30
0.0
 11
57.91971473616155
 21
-48.63063912764762
 31
0.0
  0
LINE
  5
1B0
330
79
100
AcDbEntity
  8
Camada 1
 62
   250
420
  1907995
370
    18
100
AcDbLine
 10
60.69149322362779
 20
-51.41441085377156
 30
0.0
 11
59.73263702269562
 21
-50.45591531127302
 31
0.0
  0
LINE
  5
1B1
330
79
100
AcDbEntity
  8
Camada 1
 62
   250
420
  1907995
370
    18
100
AcDbLine
 10
58.53707046415663
 20
-50.19344748195224
 30
0.0
 11
56.98661600694332
 21
-48.63063912764762
 31
0.0
  0
LINE
  5
1B2
330
79
100
AcDbEntity
  8
Camada 1
 62
   250
420
  1907995
370
    18
100
AcDbLine
 10
60.69149322362779
 20
-52.34680441500765
 30
0.0
 11
59.73263702269562
 21
-51.38830348954741
 31
0.0
  0
LINE
  5
1B3
330
79
100
AcDbEntity
  8
Camada 1
 62
   250
420
  1907995
370
    18
100
AcDbLine
 10
57.60433239337202
 20
-50.19344748195224
 30
0.0
 11
56.04081887108494
 21
-48.63063912764762
 31
0.0
  0
LINE
  5
1B4
330
79
100
AcDbEntity
  8
Camada 1
 62
   250
420
  1907995
370
    18
100
AcDbLine
 10
60.69149322362779
 20
-53.27884270077182
 30
0.0
 11
59.73263702269562
 21
-52.32034177531158
 31
0.0
  0
LWPOLYLINE
  5
1B5
330
79
100
AcDbEntity
  8
Camada 1
 62
   250
420
  1907995
370
    18
100
AcDbPolyline
 90
        3
 70
     0
 43
0.0
 10
55.10807541733864
 20
-48.63063912764762
 10
55.18709729503155
 20
-48.70966100534054
 10
56.67158893962572
 20
-50.19344748195224
  0
LINE
  5
1B6
330
79
100
AcDbEntity
  8
Camada 1
 62
   250
420
  1907995
370
    18
100
AcDbLine
 10
60.69149322362779
 20
-54.21123087904621
 30
0.0
 11
59.73263702269562
 21
-53.25273533654766
 31
0.0
  0
LWPOLYLINE
  5
1B7
330
79
100
AcDbEntity
  8
Camada 1
 62
   250
420
  1907995
370
    18
100
AcDbPolyline
 90
        3
 70
     0
 43
0.0
 10
54.17533196359233
 20
-48.63063912764762
 10
55.18709729503155
 20
-49.64169929110472
 10
55.7388454858794
 20
-50.19344748195224
  0
LINE
  5
1B8
330
79
100
AcDbEntity
  8
Camada 1
 62
   250
420
  1907995
370
    18
100
AcDbLine
 10
60.69149322362779
 20
-55.14362444028229
 30
0.0
 11
59.73263702269562
 21
-54.18512889778375
 31
0.0
  0
LWPOLYLINE
  5
1B9
330
79
100
AcDbEntity
  8
Camada 1
 62
   250
420
  1907995
370
    18
100
AcDbPolyline
 90
        3
 70
     0
 43
0.0
 10
53.46589529283057
 20
-48.85395129359386
 10
54.14922459936818
 20
-49.53692532465955
 10
55.18709729503155
 20
-50.57409285234047
  0
LINE
  5
1BA
330
79
100
AcDbEntity
  8
Camada 1
 62
   250
420
  1907995
370
    18
100
AcDbLine
 10
60.69149322362779
 20
-56.07566272604646
 30
0.0
 11
59.73263702269562
 21
-55.11716718354792
 31
0.0
  0
LWPOLYLINE
  5
1BB
330
79
100
AcDbEntity
  8
Camada 1
 62
   250
420
  1907995
370
    18
100
AcDbPolyline
 90
        3
 70
     0
 43
0.0
 10
53.46589529283057
 20
-49.78633947186825
 10
54.14922459936818
 20
-50.4689636104234
 10
54.64840816925748
 20
-50.96814718031271
  0
LINE
  5
1BC
330
79
100
AcDbEntity
  8
Camada 1
 62
   250
420
  1907995
370
    18
100
AcDbLine
 10
60.69149322362779
 20
-57.0080535958017
 30
0.0
 11
59.73263702269562
 21
-56.04955536182231
 31
0.0
  0
LINE
  5
1BD
330
79
100
AcDbEntity
  8
Camada 1
 62
   250
420
  1907995
370
    18
100
AcDbLine
 10
53.71566471551117
 20
-50.96814718031271
 30
0.0
 11
53.46589529283057
 21
-50.7183777576321
 31
0.0
  0
LINE
  5
1BE
330
79
100
AcDbEntity
  8
Camada 1
 62
   250
420
  1907995
370
    18
100
AcDbLine
 10
60.69149322362779
 20
-57.94044446555695
 30
0.0
 11
59.73263702269562
 21
-56.98194892305838
 31
0.0
  0
LINE
  5
1BF
330
79
100
AcDbEntity
  8
Camada 1
 62
   250
420
  1907995
370
    18
100
AcDbLine
 10
60.69149322362779
 20
-58.87248544280196
 30
0.0
 11
59.73263702269562
 21
-57.91398720882256
 31
0.0
  0
LINE
  5
1C0
330
79
100
AcDbEntity
  8
Camada 1
 62
   250
420
  1907995
370
    18
100
AcDbLine
 10
60.69149322362779
 20
-59.80487631255719
 30
0.0
 11
59.73263702269562
 21
-58.8463780785778
 31
0.0
  0
LINE
  5
1C1
330
79
100
AcDbEntity
  8
Camada 1
 62
   250
420
  1907995
370
    18
100
AcDbLine
 10
60.59976755633301
 20
-60.6321406318762
 30
0.0
 11
59.73263702269562
 21
-59.77877163981388
 31
0.0
  0
LINE
  5
1C2
330
79
100
AcDbEntity
  8
Camada 1
 62
   250
420
  1907995
370
    18
100
AcDbLine
 10
60.07413211267102
 20
-61.0522969411109
 30
0.0
 11
59.73263702269562
 21
-60.71080992557805
 31
0.0
  0
LWPOLYLINE
  5
1C3
330
79
100
AcDbEntity
  8
Camada 1
 62
   250
420
  1907995
370
    18
100
AcDbPolyline
 90
        3
 70
     0
 43
0.0
 10
55.18607453230938
 20
-50.19560066663053
 10
55.18607453230938
 20
-50.97100553297313
 10
49.99212477062772
 20
-50.97100553297313
  0
LINE
  5
1C4
330
79
100
AcDbEntity
  8
Camada 1
 62
   250
420
  1907995
370
    18
100
AcDbLine
 10
53.4634621941441
 20
-49.15772797096746
 30
0.0
 11
53.98945291327802
 21
-48.63244241981568
 31
0.0
  0
LWPOLYLINE
  5
1C5
330
79
100
AcDbEntity
  8
Camada 1
 62
   250
420
  1907995
370
    18
100
AcDbPolyline
 90
        3
 70
     0
 43
0.0
 10
59.68328602986942
 20
-45.47931339397908
 10
59.68328602986942
 20
-48.63244241981568
 10
49.99212477062772
 20
-48.63244241981568
  0
LINE
  5
1C6
330
79
100
AcDbEntity
  8
Camada 1
 62
   250
420
  1907995
370
    18
100
AcDbLine
 10
59.68328602986942
 20
-31.48709037840704
 30
0.0
 11
59.68328602986942
 21
-40.53936944583255
 31
0.0
  0
LINE
  5
1C7
330
79
100
AcDbEntity
  8
Camada 1
 62
   250
420
  1907995
370
    18
100
AcDbLine
 10
59.73584526786627
 20
-61.06080202059011
 30
0.0
 11
59.73584526786627
 21
-50.19560066663053
 31
0.0
  0
LINE
  5
1C8
330
79
100
AcDbEntity
  8
Camada 1
 62
   250
420
  1907995
370
    18
100
AcDbLine
 10
65.90275997308451
 20
-30.94839586967127
 30
0.0
 11
59.68328602986942
 21
-31.48709037840704
 31
0.0
  0
LINE
  5
1C9
330
79
100
AcDbEntity
  8
Camada 1
 62
   250
420
  1907995
370
    18
100
AcDbLine
 10
54.15572183413488
 20
-50.97185065795936
 30
0.0
 11
54.15572183413488
 21
-48.62411497807244
 31
0.0
  0
LINE
  5
1CA
330
79
100
AcDbEntity
  8
Camada 1
 62
   250
420
  1907995
370
    18
100
AcDbLine
 10
39.16361906654773
 20
-64.48669378999053
 30
0.0
 11
51.33480228934858
 21
-64.48669378999053
 31
0.0
  0
LINE
  5
1CB
330
79
100
AcDbEntity
  8
Camada 1
 62
   250
420
  1907995
370
    18
100
AcDbLine
 10
53.47722642720001
 20
-49.14050787650291
 30
0.0
 11
50.0072993396479
 21
-49.14050787650291
 31
0.0
  0
LINE
  5
1CC
330
79
100
AcDbEntity
  8
Camada 1
 62
   250
420
  1907995
370
    18
100
AcDbLine
 10
59.74678344603193
 20
-50.17944101562034
 30
0.0
 11
55.19913359738314
 21
-50.17944101562034
 31
0.0
  0
LINE
  5
1CD
330
79
100
AcDbEntity
  8
Camada 1
 62
   250
420
  1907995
370
    18
100
AcDbLine
 10
53.47722642720001
 20
-50.95519577447285
 30
0.0
 11
53.47722642720001
 21
-49.14050787650291
 31
0.0
  0
LWPOLYLINE
  5
1CE
330
79
100
AcDbEntity
  8
Camada 1
 62
   250
420
  1907995
370
    18
100
AcDbPolyline
 90
        3
 70
     0
 43
0.0
 10
59.46417795700753
 20
-71.64424031903067
 10
60.14821243152728
 20
-72.31381077547407
 10
60.26638997259475
 20
-72.44539727412552
  0
LWPOLYLINE
  5
1CF
330
79
100
AcDbEntity
  8
Camada 1
 62
   250
420
  1907995
370
    18
100
AcDbPolyline
 90
        3
 70
     0
 43
0.0
 10
59.46417795700753
 20
-70.71219934178566
 10
60.14821243152728
 20
-71.3817724897099
 10
60.73982145373181
 20
-71.97267634393229
  0
LWPOLYLINE
  5
1D0
330
79
100
AcDbEntity
  8
Camada 1
 62
   250
420
  1907995
370
    18
100
AcDbPolyline
 90
        3
 70
     0
 43
0.0
 10
59.46417795700753
 20
-69.77980847203042
 10
60.14821243152728
 20
-70.44938161995466
 10
60.76628409342788
 20
-71.07979372154267
  0
LWPOLYLINE
  5
1D1
330
79
100
AcDbEntity
  8
Camada 1
 62
   250
420
  1907995
370
    18
100
AcDbPolyline
 90
        3
 70
     0
 43
0.0
 10
59.46417795700753
 20
-68.84777018626626
 10
60.14821243152728
 20
-69.5173433341905
 10
60.76628409342788
 20
-70.14740285178743
  0
LWPOLYLINE
  5
1D2
330
79
100
AcDbEntity
  8
Camada 1
 62
   250
420
  1907995
370
    18
100
AcDbPolyline
 90
        3
 70
     0
 43
0.0
 10
59.46417795700753
 20
-67.91537931651102
 10
60.14821243152728
 20
-68.58494977295442
 10
60.76628409342788
 20
-69.21536456602325
  0
LWPOLYLINE
  5
1D3
330
79
100
AcDbEntity
  8
Camada 1
 62
   250
420
  1907995
370
    18
100
AcDbPolyline
 90
        3
 70
     0
 43
0.0
 10
59.46417795700753
 20
-66.983338339266
 10
60.14821243152728
 20
-67.65291148719024
 10
60.76628409342788
 20
-68.26992001415594
  0
LWPOLYLINE
  5
1D4
330
79
100
AcDbEntity
  8
Camada 1
 62
   250
420
  1907995
370
    18
100
AcDbPolyline
 90
        3
 70
     0
 43
0.0
 10
59.46417795700753
 20
-66.05094746951076
 10
60.14821243152728
 20
-66.72052061743499
 10
60.76628409342788
 20
-67.33788172839178
  0
LWPOLYLINE
  5
1D5
330
79
100
AcDbEntity
  8
Camada 1
 62
   250
420
  1907995
370
    18
100
AcDbPolyline
 90
        3
 70
     0
 43
0.0
 10
59.81942113115375
 20
-65.46039889076029
 10
60.70031051488535
 20
-66.33987255556592
 10
60.76628409342788
 20
-66.40548816715568
  0
LINE
  5
1D6
330
79
100
AcDbEntity
  8
Camada 1
 62
   250
420
  1907995
370
    18
100
AcDbLine
 10
60.29285261229081
 20
-65.00072895119828
 30
0.0
 11
61.29227481256179
 21
-65.99838284855223
 31
0.0
  0
LINE
  5
1D7
330
79
100
AcDbEntity
  8
Camada 1
 62
   250
420
  1907995
370
    18
100
AcDbLine
 10
60.75286975288219
 20
-64.5280053295242
 30
0.0
 11
61.29227481256179
 21
-65.06634456278806
 31
0.0
  0
LINE
  5
1D8
330
79
100
AcDbEntity
  8
Camada 1
 62
   250
420
  1907995
370
    18
100
AcDbLine
 10
60.81884333142473
 20
-63.66158265534981
 30
0.0
 11
61.29227481256179
 21
-64.13395369303282
 31
0.0
  0
LINE
  5
1D9
330
79
100
AcDbEntity
  8
Camada 1
 62
   250
420
  1907995
370
    18
100
AcDbLine
 10
60.81884333142473
 20
-62.72919178559456
 30
0.0
 11
61.29227481256179
 21
-63.20191540726865
 31
0.0
  0
LINE
  5
1DA
330
79
100
AcDbEntity
  8
Camada 1
 62
   250
420
  1907995
370
    18
100
AcDbLine
 10
60.81884333142473
 20
-61.79715349983039
 30
0.0
 11
61.29227481256179
 21
-62.26952184603256
 31
0.0
  0
LINE
  5
1DB
330
79
100
AcDbEntity
  8
Camada 1
 62
   250
420
  1907995
370
    18
100
AcDbLine
 10
60.81884333142473
 20
-60.86476263007515
 30
0.0
 11
61.29227481256179
 21
-61.33748356026838
 31
0.0
  0
LINE
  5
1DC
330
79
100
AcDbEntity
  8
Camada 1
 62
   250
420
  1907995
370
    18
100
AcDbLine
 10
60.81884333142473
 20
-59.93272165283014
 30
0.0
 11
61.29227481256179
 21
-60.40509269051316
 31
0.0
  0
LINE
  5
1DD
330
79
100
AcDbEntity
  8
Camada 1
 62
   250
420
  1907995
370
    18
100
AcDbLine
 10
60.81884333142473
 20
-59.0003307830749
 30
0.0
 11
61.29227481256179
 21
-59.47305440474899
 31
0.0
  0
LINE
  5
1DE
330
79
100
AcDbEntity
  8
Camada 1
 62
   250
420
  1907995
370
    18
100
AcDbLine
 10
60.81884333142473
 20
-58.06829249731073
 30
0.0
 11
61.29227481256179
 21
-58.54101611898482
 31
0.0
  0
LINE
  5
1DF
330
79
100
AcDbEntity
  8
Camada 1
 62
   250
420
  1907995
370
    18
100
AcDbLine
 10
60.81884333142473
 20
-57.1359016275555
 30
0.0
 11
61.29227481256179
 21
-57.60862255774873
 31
0.0
  0
LINE
  5
1E0
330
79
100
AcDbEntity
  8
Camada 1
 62
   250
420
  1907995
370
    18
100
AcDbLine
 10
60.81884333142473
 20
-56.20386334179133
 30
0.0
 11
61.29227481256179
 21
-56.67658427198456
 31
0.0
  0
LINE
  5
1E1
330
79
100
AcDbEntity
  8
Camada 1
 62
   250
420
  1907995
370
    18
100
AcDbLine
 10
60.81884333142473
 20
-55.27146978055524
 30
0.0
 11
61.29227481256179
 21
-55.74419609371017
 31
0.0
  0
LINE
  5
1E2
330
79
100
AcDbEntity
  8
Camada 1
 62
   250
420
  1907995
370
    18
100
AcDbLine
 10
60.81884333142473
 20
-54.33943149479107
 30
0.0
 11
61.29227481256179
 21
-54.798748850362
 31
0.0
  0
LINE
  5
1E3
330
79
100
AcDbEntity
  8
Camada 1
 62
   250
420
  1907995
370
    18
100
AcDbLine
 10
60.81884333142473
 20
-53.40704331651668
 30
0.0
 11
61.29227481256179
 21
-53.86671056459784
 31
0.0
  0
LINE
  5
1E4
330
79
100
AcDbEntity
  8
Camada 1
 62
   250
420
  1907995
370
    18
100
AcDbLine
 10
60.81884333142473
 20
-52.47500503075251
 30
0.0
 11
61.29227481256179
 21
-52.93431700336174
 31
0.0
  0
LINE
  5
1E5
330
79
100
AcDbEntity
  8
Camada 1
 62
   250
420
  1907995
370
    18
100
AcDbLine
 10
60.81884333142473
 20
-51.54261146951642
 30
0.0
 11
61.29227481256179
 21
-52.00227871759758
 31
0.0
  0
LINE
  5
1E6
330
79
100
AcDbEntity
  8
Camada 1
 62
   250
420
  1907995
370
    18
100
AcDbLine
 10
60.81884333142473
 20
-50.61057318375226
 30
0.0
 11
61.29227481256179
 21
-51.06989053932319
 31
0.0
  0
LINE
  5
1E7
330
79
100
AcDbEntity
  8
Camada 1
 62
   250
420
  1907995
370
    18
100
AcDbLine
 10
60.81884333142473
 20
-49.6781796225165
 30
0.0
 11
61.29227481256179
 21
-50.13785225355935
 31
0.0
  0
LINE
  5
1E8
330
79
100
AcDbEntity
  8
Camada 1
 62
   250
420
  1907995
370
    18
100
AcDbLine
 10
60.81884333142473
 20
-48.74614133675232
 30
0.0
 11
61.29227481256179
 21
-49.20545869232325
 31
0.0
  0
LINE
  5
1E9
330
79
100
AcDbEntity
  8
Camada 1
 62
   250
420
  1907995
370
    18
100
AcDbLine
 10
60.81884333142473
 20
-47.81374777551591
 30
0.0
 11
61.29227481256179
 21
-48.27342040655909
 31
0.0
  0
LINE
  5
1EA
330
79
100
AcDbEntity
  8
Camada 1
 62
   250
420
  1907995
370
    18
100
AcDbLine
 10
60.81884333142473
 20
-46.88170948975207
 30
0.0
 11
61.29227481256179
 21
-47.341026845323
 31
0.0
  0
LINE
  5
1EB
330
79
100
AcDbEntity
  8
Camada 1
 62
   250
420
  1907995
370
    18
100
AcDbLine
 10
60.81884333142473
 20
-45.94932131147767
 30
0.0
 11
61.29227481256179
 21
-46.40898855955883
 31
0.0
  0
LINE
  5
1EC
330
79
100
AcDbEntity
  8
Camada 1
 62
   250
420
  1907995
370
    18
100
AcDbLine
 10
60.81884333142473
 20
-45.00387406812951
 30
0.0
 11
61.29227481256179
 21
-45.47659499832242
 31
0.0
  0
LINE
  5
1ED
330
79
100
AcDbEntity
  8
Camada 1
 62
   250
420
  1907995
370
    18
100
AcDbLine
 10
60.81884333142473
 20
-44.07183578236534
 30
0.0
 11
61.29227481256179
 21
-44.54455671255858
 31
0.0
  0
LINE
  5
1EE
330
79
100
AcDbEntity
  8
Camada 1
 62
   250
420
  1907995
370
    18
100
AcDbLine
 10
60.81884333142473
 20
-43.13944222112893
 30
0.0
 11
61.29227481256179
 21
-43.61216853428419
 31
0.0
  0
LINE
  5
1EF
330
79
100
AcDbEntity
  8
Camada 1
 62
   250
420
  1907995
370
    18
100
AcDbLine
 10
60.81884333142473
 20
-42.20740393536508
 30
0.0
 11
61.29227481256179
 21
-42.68013024852002
 31
0.0
  0
LWPOLYLINE
  5
1F0
330
79
100
AcDbEntity
  8
Camada 1
 62
   250
420
  1907995
370
    18
100
AcDbPolyline
 90
        3
 70
     0
 43
0.0
 10
60.25334167344436
 20
-40.71056915960268
 10
60.89786520911765
 20
-41.35403763478361
 10
61.29227481256179
 20
-41.74773668728393
  0
LWPOLYLINE
  5
1F1
330
79
100
AcDbEntity
  8
Camada 1
 62
   250
420
  1907995
370
    18
100
AcDbPolyline
 90
        3
 70
     0
 43
0.0
 10
60.25334167344436
 20
-39.77853087383852
 10
60.89786520911765
 20
-40.42164407354753
 10
61.88388383476632
 20
-41.41965055489222
  0
LWPOLYLINE
  5
1F2
330
79
100
AcDbEntity
  8
Camada 1
 62
   250
420
  1907995
370
    18
100
AcDbPolyline
 90
        3
 70
     0
 43
0.0
 10
60.25334167344436
 20
-38.84613731260243
 10
60.89786520911765
 20
-39.48960578778336
 10
62.8176769660433
 20
-41.41965055489222
  0
LWPOLYLINE
  5
1F3
330
79
100
AcDbEntity
  8
Camada 1
 62
   250
420
  1907995
370
    18
100
AcDbPolyline
 90
        3
 70
     0
 43
0.0
 10
60.25334167344436
 20
-37.91409902683827
 10
60.89786520911765
 20
-38.55721222654728
 10
63.1595273314906
 20
-40.81569840151976
  0
LWPOLYLINE
  5
1F4
330
79
100
AcDbEntity
  8
Camada 1
 62
   250
420
  1907995
370
    18
100
AcDbPolyline
 90
        3
 70
     0
 43
0.0
 10
60.70031051488535
 20
-37.42797452202273
 10
60.89786520911765
 20
-37.62517394078311
 10
63.1595273314906
 20
-39.88330484028368
  0
LINE
  5
1F5
330
79
100
AcDbEntity
  8
Camada 1
 62
   250
420
  1907995
370
    18
100
AcDbLine
 10
61.4630115916261
 20
-37.25758225250695
 30
0.0
 11
63.1595273314906
 21
-38.95126655451951
 31
0.0
  0
LINE
  5
1F6
330
79
100
AcDbEntity
  8
Camada 1
 62
   250
420
  1907995
370
    18
100
AcDbLine
 10
62.39681548882646
 20
-37.25758225250695
 30
0.0
 11
63.27770487255806
 21
-38.13705591731258
 31
0.0
  0
LINE
  5
1F7
330
79
100
AcDbEntity
  8
Camada 1
 62
   250
420
  1907995
370
    18
100
AcDbLine
 10
63.33061938602682
 20
-37.25758225250695
 30
0.0
 11
64.1324868920655
 21
-38.05838393212989
 31
0.0
  0
LINE
  5
1F8
330
79
100
AcDbEntity
  8
Camada 1
 62
   250
420
  1907995
370
    18
100
AcDbLine
 10
63.76453992831742
 20
-36.75839868261764
 30
0.0
 11
65.00067248619524
 21
-37.97971732990888
 31
0.0
  0
LINE
  5
1F9
330
79
100
AcDbEntity
  8
Camada 1
 62
   250
420
  1907995
370
    18
100
AcDbLine
 10
64.68494025089547
 20
-36.74534500050524
 30
0.0
 11
65.57922244332599
 21
-37.63822762289487
 31
0.0
  0
SPLINE
  5
1FA
330
79
100
AcDbEntity
  8
Camada 1
 62
   250
420
  1907995
370
    18
100
AcDbSpline
210
0.0
220
0.0
230
1.0
 70
     8
 71
     3
 72
     8
 73
     4
 74
     0
 42
0.0000000001
 43
0.0000000001
 40
0.0
 40
0.0
 40
0.0
 40
0.0
 40
1.0
 40
1.0
 40
1.0
 40
1.0
 10
63.90117026207775
 20
-36.72382391964614
 30
0.0
 10
63.61260045149451
 20
-36.72382391964614
 30
0.0
 10
63.37869999989283
 20
-36.95595337684994
 30
0.0
 10
63.37869999989283
 20
-37.24276295895868
 30
0.0
  0
LWPOLYLINE
  5
1FB
330
79
100
AcDbEntity
  8
Camada 1
 62
   250
420
  1907995
370
    18
100
AcDbPolyline
 90
        3
 70
     0
 43
0.0
 10
63.37869999989283
 20
-37.24910947079791
 10
63.37869999989283
 20
-37.24910947079791
 10
60.67960764420368
 20
-37.24910947079791
  0
LWPOLYLINE
  5
1FC
330
79
100
AcDbEntity
  8
Camada 1
 62
   250
420
  1907995
370
    18
100
AcDbPolyline
 90
        3
 70
     0
 43
0.0
 10
60.24322170545644
 20
-41.15153599875265
 10
60.8122438203858
 20
-41.76925238518165
 10
60.8122438203858
 20
-64.48672877924154
  0
LINE
  5
1FD
330
79
100
AcDbEntity
  8
Camada 1
 62
   250
420
  1907995
370
    18
100
AcDbLine
 10
60.9041848061484
 20
-37.25732925330725
 30
0.0
 11
60.9041848061484
 21
-41.78417395500214
 31
0.0
  0
LWPOLYLINE
  5
1FE
330
79
100
AcDbEntity
  8
Camada 1
 62
   250
420
  1907995
370
    18
100
AcDbPolyline
 90
        3
 70
     0
 43
0.0
 10
48.65334451617454
 20
-64.47999200267938
 10
60.8361657021615
 20
-64.47999200267938
 10
59.48114505227239
 20
-65.81984077502915
  0
LWPOLYLINE
  5
1FF
330
79
100
AcDbEntity
  8
Camada 1
 62
   250
420
  1907995
370
    18
100
AcDbPolyline
 90
        3
 70
     0
 43
0.0
 10
49.99530610098988
 20
-65.81984077502915
 10
59.48114505227239
 20
-65.81984077502915
 10
59.48114505227239
 20
-72.58506090680139
  0
LINE
  5
200
330
79
100
AcDbEntity
  8
Camada 1
 62
   250
420
  1907995
370
    18
100
AcDbLine
 10
60.8361657021615
 20
-41.76745447597529
 30
0.0
 11
60.91518757985442
 21
-41.76745447597529
 31
0.0
  0
LWPOLYLINE
  5
201
330
79
100
AcDbEntity
  8
Camada 1
 62
   250
420
  1907995
370
    18
100
AcDbPolyline
 90
        3
 70
     0
 43
0.0
 10
60.88873570608173
 20
-37.24872189755583
 10
60.27030876870921
 20
-37.87913669062467
 10
60.27030876870921
 20
-41.15009336501851
  0
LINE
  5
202
330
79
100
AcDbEntity
  8
Camada 1
 62
   250
420
  1907995
370
    18
100
AcDbLine
 10
50.00673951163155
 20
-27.41493906818647
 30
0.0
 11
50.00673951163155
 21
-28.36003103606272
 31
0.0
  0
LINE
  5
203
330
79
100
AcDbEntity
  8
Camada 1
 62
   250
420
  1907995
370
    18
100
AcDbLine
 10
50.00673951163155
 20
-53.42206716260939
 30
0.0
 11
50.00673951163155
 21
-55.07624590873718
 31
0.0
  0
LINE
  5
204
330
79
100
AcDbEntity
  8
Camada 1
 62
   250
420
  1907995
370
    18
100
AcDbLine
 10
50.00673951163155
 20
-38.58705536618825
 30
0.0
 11
50.00673951163155
 21
-40.24123411231605
 31
0.0
  0
LINE
  5
205
330
79
100
AcDbEntity
  8
Camada 1
 62
   250
420
  1907995
370
    18
100
AcDbLine
 10
44.79793815863145
 20
-50.44699036078186
 30
0.0
 11
45.32392887776536
 21
-50.97686219529805
 31
0.0
  0
LWPOLYLINE
  5
206
330
79
100
AcDbEntity
  8
Camada 1
 62
   250
420
  1907995
370
    18
100
AcDbPolyline
 90
        3
 70
     0
 43
0.0
 10
44.79793815863145
 20
-49.50648467627035
 10
45.83686591478719
 20
-50.55317466319098
 10
46.25773277496572
 20
-50.97686219529805
  0
LWPOLYLINE
  5
207
330
79
100
AcDbEntity
  8
Camada 1
 62
   250
420
  1907995
370
    18
100
AcDbPolyline
 90
        3
 70
     0
 43
0.0
 10
44.85050277958999
 20
-48.6188935052276
 10
45.83686591478719
 20
-49.61231908616957
 10
46.46834115131009
 20
-50.24837522309551
  0
LWPOLYLINE
  5
208
330
79
100
AcDbEntity
  8
Camada 1
 62
   250
420
  1907995
370
    18
100
AcDbPolyline
 90
        3
 70
     0
 43
0.0
 10
45.78430667679035
 20
-48.6188935052276
 10
45.83686591478719
 20
-48.67181340165806
 10
46.46834115131009
 20
-49.30786953858401
  0
LINE
  5
209
330
79
100
AcDbEntity
  8
Camada 1
 62
   250
420
  1907995
370
    18
100
AcDbLine
 10
53.55776091712943
 20
-50.80470969730778
 30
0.0
 11
53.72885835462734
 21
-50.97686219529805
 31
0.0
  0
LWPOLYLINE
  5
20A
330
79
100
AcDbEntity
  8
Camada 1
 62
   250
420
  1907995
370
    18
100
AcDbPolyline
 90
        3
 70
     0
 43
0.0
 10
53.55776091712943
 20
-49.86420401279659
 10
54.16277889691795
 20
-50.47344761751592
 10
54.66266225182771
 20
-50.97686219529805
  0
LWPOLYLINE
  5
20B
330
79
100
AcDbEntity
  8
Camada 1
 62
   250
420
  1907995
370
    18
100
AcDbPolyline
 90
        3
 70
     0
 43
0.0
 10
53.55776091712943
 20
-48.92369832828508
 10
54.16277889691795
 20
-49.53294193300473
 10
55.20206192854561
 20
-50.57963730288705
  0
LINE
  5
20C
330
79
100
AcDbEntity
  8
Camada 1
 62
   250
420
  1907995
370
    18
100
AcDbLine
 10
54.18923615365233
 20
-48.6188935052276
 30
0.0
 11
55.20206192854561
 21
-49.63913161837554
 31
0.0
  0
LINE
  5
20D
330
79
100
AcDbEntity
  8
Camada 1
 62
   250
420
  1907995
370
    18
100
AcDbLine
 10
55.12304005085269
 20
-48.6188935052276
 30
0.0
 11
55.20206192854561
 21
-48.69827065839244
 31
0.0
  0
LWPOLYLINE
  5
20E
330
79
100
AcDbEntity
  8
Camada 1
 62
   250
420
  1907995
370
    18
100
AcDbPolyline
 90
        4
 70
     0
 43
0.0
 10
55.20544781145221
 20
-48.61546994158914
 10
55.20544781145221
 20
-50.98049569444265
 10
44.79462225422689
 20
-50.98049569444265
 10
44.79462225422689
 20
-48.61546994158914
  0
LINE
  5
20F
330
79
100
AcDbEntity
  8
Camada 1
 62
   250
420
  1907995
370
    18
100
AcDbLine
 10
45.84000956441747
 20
-48.62403961660869
 30
0.0
 11
45.84000956441747
 21
-50.97178067945731
 31
0.0
  0
LINE
  5
210
330
79
100
AcDbEntity
  8
Camada 1
 62
   250
420
  1907995
370
    18
100
AcDbLine
 10
54.15992054425753
 20
-48.62403961660869
 30
0.0
 11
54.15992054425753
 21
-50.97178067945731
 31
0.0
  0
LINE
  5
211
330
79
100
AcDbEntity
  8
Camada 1
 62
   250
420
  1907995
370
    18
100
AcDbLine
 10
53.58668895328213
 20
-51.34438390507217
 30
0.0
 11
46.54489224958468
 21
-51.34438390507217
 31
0.0
  0
LINE
  5
212
330
79
100
AcDbEntity
  8
Camada 1
 62
   250
420
  1907995
370
    18
100
AcDbLine
 10
53.58668895328213
 20
-49.03933511143217
 30
0.0
 11
46.54489224958468
 21
-49.03933511143217
 31
0.0
  0
LINE
  5
213
330
79
100
AcDbEntity
  8
Camada 1
 62
   250
420
  1907995
370
    18
100
AcDbLine
 10
46.54489224958468
 20
-51.34438390507217
 30
0.0
 11
46.12367549689593
 21
-51.75501775506717
 31
0.0
  0
LINE
  5
214
330
79
100
AcDbEntity
  8
Camada 1
 62
   250
420
  1907995
370
    18
100
AcDbLine
 10
46.12367549689593
 20
-48.61564757932509
 30
0.0
 11
46.54489224958468
 21
-49.03933511143217
 31
0.0
  0
LINE
  5
215
330
79
100
AcDbEntity
  8
Camada 1
 62
   250
420
  1907995
370
    18
100
AcDbLine
 10
53.58668895328213
 20
-51.34438390507217
 30
0.0
 11
54.00790570597088
 21
-51.75501775506717
 31
0.0
  0
LINE
  5
216
330
79
100
AcDbEntity
  8
Camada 1
 62
   250
420
  1907995
370
    18
100
AcDbLine
 10
53.58668895328213
 20
-49.03933511143217
 30
0.0
 11
54.00790570597088
 21
-48.61564757932509
 31
0.0
  0
LINE
  5
217
330
79
100
AcDbEntity
  8
Camada 1
 62
   250
420
  1907995
370
    18
100
AcDbLine
 10
46.54489224958468
 20
-49.03933511143217
 30
0.0
 11
46.54489224958468
 21
-51.34438390507217
 31
0.0
  0
LINE
  5
218
330
79
100
AcDbEntity
  8
Camada 1
 62
   250
420
  1907995
370
    18
100
AcDbLine
 10
53.58668895328213
 20
-49.03933511143217
 30
0.0
 11
53.58668895328213
 21
-51.34438390507217
 31
0.0
  0
LWPOLYLINE
  5
219
330
79
100
AcDbEntity
  8
Camada 1
 62
   250
420
  1907995
370
    18
100
AcDbPolyline
 90
        4
 70
     0
 43
0.0
 10
54.1655941858848
 20
-48.61564757932509
 10
53.56023169654775
 20
-48.98641521500171
 10
46.46587037189177
 20
-48.98641521500171
 10
45.83439513536887
 20
-48.61564757932509
  0
LINE
  5
21A
330
79
100
AcDbEntity
  8
Camada 1
 62
   250
420
  1907995
370
    18
100
AcDbLine
 10
47.91366636660631
 20
-50.97326099392363
 30
0.0
 11
52.08597306213714
 21
-50.97326099392363
 31
0.0
  0
LINE
  5
21B
330
79
100
AcDbEntity
  8
Camada 1
 62
   250
420
  1907995
370
    18
100
AcDbLine
 10
55.2055823854946
 20
-48.61564757932509
 30
0.0
 11
44.79440693575907
 21
-48.61564757932509
 31
0.0
  0
LINE
  5
21C
330
79
100
AcDbEntity
  8
Camada 1
 62
   250
420
  1907995
370
    18
100
AcDbLine
 10
46.46587037189177
 20
-48.98641521500171
 30
0.0
 11
46.46587037189177
 21
-50.97326099392363
 31
0.0
  0
LINE
  5
21D
330
79
100
AcDbEntity
  8
Camada 1
 62
   250
420
  1907995
370
    18
100
AcDbLine
 10
53.56023169654775
 20
-48.98641521500171
 30
0.0
 11
53.56023169654775
 21
-50.97326099392363
 31
0.0
  0
LINE
  5
21E
330
79
100
AcDbEntity
  8
Camada 1
 62
   250
420
  1907995
370
    18
100
AcDbLine
 10
52.30268571704443
 20
-33.88191620720828
 30
0.0
 11
47.98256827631131
 21
-33.88191620720828
 31
0.0
  0
LINE
  5
21F
330
79
100
AcDbEntity
  8
Camada 1
 62
   250
420
  1907995
370
    18
100
AcDbLine
 10
45.92245500574886
 20
-48.61546994158914
 30
0.0
 11
45.92245500574886
 21
-52.89678161145761
 31
0.0
  0
LINE
  5
220
330
79
100
AcDbEntity
  8
Camada 1
 62
   250
420
  1907995
370
    18
100
AcDbLine
 10
53.90888074261674
 20
-48.62577293027471
 30
0.0
 11
53.90888074261674
 21
-53.1490917920586
 31
0.0
  0
LINE
  5
221
330
79
100
AcDbEntity
  8
Camada 1
 62
   250
420
  1907995
370
    18
100
AcDbLine
 10
46.26172154958223
 20
-48.62577293027471
 30
0.0
 11
46.26172154958223
 21
-53.1490917920586
 31
0.0
  0
LWPOLYLINE
  5
222
330
79
100
AcDbEntity
  8
Camada 1
 62
   250
420
  1907995
370
    18
100
AcDbPolyline
 90
        3
 70
     0
 43
0.0
 10
48.2244678089928
 20
-30.43690684934558
 10
48.47529229216578
 20
-30.18713742666497
 10
50.09948255868682
 20
-30.18713742666497
  0
LWPOLYLINE
  5
223
330
79
100
AcDbEntity
  8
Camada 1
 62
   250
420
  1907995
370
    18
100
AcDbPolyline
 90
        4
 70
     0
 43
0.0
 10
48.62028236543953
 20
-33.88142635769398
 10
48.62028236543953
 20
-33.50007581932361
 10
48.2244678089928
 20
-33.50007581932361
 10
48.2244678089928
 20
-30.43690684934558
  0
LINE
  5
224
330
79
100
AcDbEntity
  8
Camada 1
 62
   250
420
  1907995
370
    18
100
AcDbLine
 10
47.15449112977625
 20
-35.24844024624112
 30
0.0
 11
47.15449112977625
 21
-33.88142635769398
 31
0.0
  0
LWPOLYLINE
  5
225
330
79
100
AcDbEntity
  8
Camada 1
 62
   250
420
  1907995
370
    18
100
AcDbPolyline
 90
        3
 70
     0
 43
0.0
 10
46.24326875688936
 20
-47.43515331353406
 10
46.24326875688936
 20
-35.24844024624112
 10
50.09948255868682
 20
-35.24844024624112
  0
LWPOLYLINE
  5
226
330
79
100
AcDbEntity
  8
Camada 1
 62
   250
420
  1907995
370
    18
100
AcDbPolyline
 90
        3
 70
     0
 43
0.0
 10
45.4244718363177
 20
-48.39470391652497
 10
45.4244718363177
 20
-47.43515331353406
 10
50.09948255868682
 20
-47.43515331353406
  0
LINE
  5
227
330
79
100
AcDbEntity
  8
Camada 1
 62
   250
420
  1907995
370
    18
100
AcDbLine
 10
48.47078137026478
 20
-30.19743503238885
 30
0.0
 11
48.47078137026478
 21
-33.51319409697603
 31
0.0
  0
LINE
  5
228
330
79
100
AcDbEntity
  8
Camada 1
 62
   250
420
  1907995
370
    18
100
AcDbLine
 10
50.42626063138616
 20
-55.35123450696216
 30
0.0
 11
52.94191780137085
 21
-53.15695629909602
 31
0.0
  0
LINE
  5
229
330
79
100
AcDbEntity
  8
Camada 1
 62
   250
420
  1907995
370
    18
100
AcDbLine
 10
46.1728219371777
 20
-53.15695629909602
 30
0.0
 11
53.96920759434047
 21
-53.15695629909602
 31
0.0
  0
LINE
  5
22A
330
79
100
AcDbEntity
  8
Camada 1
 62
   250
420
  1907995
370
    18
100
AcDbLine
 10
51.69061605743454
 20
-30.18723970293719
 30
0.0
 11
50.08406575639032
 21
-30.18723970293719
 31
0.0
  0
LWPOLYLINE
  5
22B
330
79
100
AcDbEntity
  8
Camada 1
 62
   250
420
  1907995
370
    18
100
AcDbPolyline
 90
        4
 70
     0
 43
0.0
 10
51.545975876671
 20
-33.87976302253001
 10
51.545975876671
 20
-33.49841248415963
 10
51.95414433020936
 20
-33.49841248415963
 10
51.95414433020936
 20
-30.43665385014588
  0
LINE
  5
22C
330
79
100
AcDbEntity
  8
Camada 1
 62
   250
420
  1907995
370
    18
100
AcDbLine
 10
53.02093967906376
 20
-35.246071743095
 30
0.0
 11
53.02093967906376
 21
-33.87976302253001
 31
0.0
  0
LWPOLYLINE
  5
22D
330
79
100
AcDbEntity
  8
Camada 1
 62
   250
420
  1907995
370
    18
100
AcDbPolyline
 90
        3
 70
     0
 43
0.0
 10
53.91629308087171
 20
-47.42749335904107
 10
53.91629308087171
 20
-35.246071743095
 10
50.08406575639032
 20
-35.246071743095
  0
LWPOLYLINE
  5
22E
330
79
100
AcDbEntity
  8
Camada 1
 62
   250
420
  1907995
370
    18
100
AcDbPolyline
 90
        3
 70
     0
 43
0.0
 10
54.74602817960906
 20
-48.63645810924068
 10
54.74602817960906
 20
-47.42749335904107
 10
50.08406575639032
 20
-47.42749335904107
  0
LINE
  5
22F
330
79
100
AcDbEntity
  8
Camada 1
 62
   250
420
  1907995
370
    18
100
AcDbLine
 10
54.23685921577422
 20
-48.62563297327062
 30
0.0
 11
54.23685921577422
 21
-52.88647862277204
 31
0.0
  0
LINE
  5
230
330
79
100
AcDbEntity
  8
Camada 1
 62
   250
420
  1907995
370
    18
100
AcDbLine
 10
45.92047945880654
 20
-52.88647862277204
 30
0.0
 11
54.22380553366213
 21
-52.88647862277204
 31
0.0
  0
LINE
  5
231
330
79
100
AcDbEntity
  8
Camada 1
 62
   250
420
  1907995
370
    18
100
AcDbLine
 10
53.77303093830228
 20
-48.62845364519917
 30
0.0
 11
46.22675921336864
 21
-48.62845364519917
 31
0.0
  0
LINE
  5
232
330
79
100
AcDbEntity
  8
Camada 1
 62
   250
420
  1907995
370
    18
100
AcDbLine
 10
49.5693631079323
 20
-55.33743797613608
 30
0.0
 11
50.43049163927897
 21
-55.33743797613608
 31
0.0
  0
LINE
  5
233
330
79
100
AcDbEntity
  8
Camada 1
 62
   250
420
  1907995
370
    18
100
AcDbLine
 10
45.92245500574886
 20
-48.61546994158914
 30
0.0
 11
45.92245500574886
 21
-52.89678161145761
 31
0.0
  0
LINE
  5
234
330
79
100
AcDbEntity
  8
Camada 1
 62
   250
420
  1907995
370
    18
100
AcDbLine
 10
53.90888074261674
 20
-48.62577293027471
 30
0.0
 11
53.90888074261674
 21
-53.1490917920586
 31
0.0
  0
LINE
  5
235
330
79
100
AcDbEntity
  8
Camada 1
 62
   250
420
  1907995
370
    18
100
AcDbLine
 10
46.26172154958223
 20
-48.62577293027471
 30
0.0
 11
46.26172154958223
 21
-53.1490917920586
 31
0.0
  0
LWPOLYLINE
  5
236
330
79
100
AcDbEntity
  8
Camada 1
 62
   250
420
  1907995
370
    18
100
AcDbPolyline
 90
        3
 70
     0
 43
0.0
 10
48.2244678089928
 20
-30.43690146638389
 10
48.47529229216578
 20
-30.18713204370327
 10
50.09948255868682
 20
-30.18713204370327
  0
LWPOLYLINE
  5
237
330
79
100
AcDbEntity
  8
Camada 1
 62
   250
420
  1907995
370
    18
100
AcDbPolyline
 90
        4
 70
     0
 43
0.0
 10
48.62028236543953
 20
-33.88107108222206
 10
48.62028236543953
 20
-33.50007043636191
 10
48.2244678089928
 20
-33.50007043636191
 10
48.2244678089928
 20
-30.43690146638389
  0
LINE
  5
238
330
79
100
AcDbEntity
  8
Camada 1
 62
   250
420
  1907995
370
    18
100
AcDbLine
 10
47.15449112977625
 20
-35.24843486327942
 30
0.0
 11
47.15449112977625
 21
-33.88107108222206
 31
0.0
  0
LWPOLYLINE
  5
239
330
79
100
AcDbEntity
  8
Camada 1
 62
   250
420
  1907995
370
    18
100
AcDbPolyline
 90
        3
 70
     0
 43
0.0
 10
46.24326875688936
 20
-47.43479265510045
 10
46.24326875688936
 20
-35.24843486327942
 10
50.09948255868682
 20
-35.24843486327942
  0
LWPOLYLINE
  5
23A
330
79
100
AcDbEntity
  8
Camada 1
 62
   250
420
  1907995
370
    18
100
AcDbPolyline
 90
        3
 70
     0
 43
0.0
 10
45.4244718363177
 20
-48.64411268077197
 10
45.4244718363177
 20
-47.43479265510045
 10
50.09948255868682
 20
-47.43479265510045
  0
LINE
  5
23B
330
79
100
AcDbEntity
  8
Camada 1
 62
   250
420
  1907995
370
    18
100
AcDbLine
 10
48.47078137026478
 20
-30.19743503238885
 30
0.0
 11
48.47078137026478
 21
-33.51319409697603
 31
0.0
  0
LWPOLYLINE
  5
23C
330
79
100
AcDbEntity
  8
Camada 1
 62
   250
420
  1907995
370
    18
100
AcDbPolyline
 90
        3
 70
     0
 43
0.0
 10
51.94638209944416
 20
-30.43690684934558
 10
51.68214865868719
 20
-30.18713742666497
 10
50.07101207427824
 20
-30.18713742666497
  0
LWPOLYLINE
  5
23D
330
79
100
AcDbEntity
  8
Camada 1
 62
   250
420
  1907995
370
    18
100
AcDbPolyline
 90
        4
 70
     0
 43
0.0
 10
51.53680869290322
 20
-33.88178163316557
 10
51.53680869290322
 20
-33.50042571183383
 10
51.94638209944416
 20
-33.50042571183383
 10
51.94638209944416
 20
-30.43690684934558
  0
LINE
  5
23E
330
79
100
AcDbEntity
  8
Camada 1
 62
   250
420
  1907995
370
    18
100
AcDbLine
 10
53.01600350318881
 20
-35.24879552171271
 30
0.0
 11
53.01600350318881
 21
-33.88178163316557
 31
0.0
  0
LWPOLYLINE
  5
23F
330
79
100
AcDbEntity
  8
Camada 1
 62
   250
420
  1907995
370
    18
100
AcDbPolyline
 90
        3
 70
     0
 43
0.0
 10
53.9141775769253
 20
-47.43655826653664
 10
53.9141775769253
 20
-35.24879552171271
 10
50.07101207427824
 20
-35.24879552171271
  0
LINE
  5
240
330
79
100
AcDbEntity
  8
Camada 1
 62
   250
420
  1907995
370
    18
100
AcDbLine
 10
54.74602817960906
 20
-47.43655826653664
 30
0.0
 11
50.07101207427824
 21
-47.43655826653664
 31
0.0
  0
LINE
  5
241
330
79
100
AcDbEntity
  8
Camada 1
 62
   250
420
  1907995
370
    18
100
AcDbLine
 10
51.6871601960259
 20
-30.19743503238885
 30
0.0
 11
51.6871601960259
 21
-33.51319409697603
 31
0.0
  0
LINE
  5
242
330
79
100
AcDbEntity
  8
Camada 1
 62
   250
420
  1907995
370
    18
100
AcDbLine
 10
50.42784860508639
 20
-55.35137984692795
 30
0.0
 11
52.94421094305321
 21
-53.13063899936572
 31
0.0
  0
LINE
  5
243
330
79
100
AcDbEntity
  8
Camada 1
 62
   250
420
  1907995
370
    18
100
AcDbLine
 10
46.69969007906801
 20
-53.13063899936572
 30
0.0
 11
49.57165624961467
 21
-55.35137984692795
 31
0.0
  0
LINE
  5
244
330
79
100
AcDbEntity
  8
Camada 1
 62
   250
420
  1907995
370
    18
100
AcDbLine
 10
46.17264429944174
 20
-53.13063899936572
 30
0.0
 11
53.97150073602285
 21
-53.13063899936572
 31
0.0
  0
LINE
  5
245
330
79
100
AcDbEntity
  8
Camada 1
 62
   250
420
  1907995
370
    18
100
AcDbLine
 10
54.23685921577422
 20
-48.62563297327062
 30
0.0
 11
54.23685921577422
 21
-52.88647862277204
 31
0.0
  0
LINE
  5
246
330
79
100
AcDbEntity
  8
Camada 1
 62
   250
420
  1907995
370
    18
100
AcDbLine
 10
45.92047945880654
 20
-52.88647862277204
 30
0.0
 11
54.22380553366213
 21
-52.88647862277204
 31
0.0
  0
LINE
  5
247
330
79
100
AcDbEntity
  8
Camada 1
 62
   250
420
  1907995
370
    18
100
AcDbLine
 10
53.77303093830228
 20
-48.62845364519917
 30
0.0
 11
46.22675921336864
 21
-48.62845364519917
 31
0.0
  0
LINE
  5
248
330
79
100
AcDbEntity
  8
Camada 1
 62
   250
420
  1907995
370
    18
100
AcDbLine
 10
49.5693631079323
 20
-55.33743797613608
 30
0.0
 11
50.43049163927897
 21
-55.33743797613608
 31
0.0
  0
LINE
  5
249
330
79
100
AcDbEntity
  8
Camada 1
 62
   250
420
  1907995
370
    18
100
AcDbLine
 10
45.42789539995616
 20
-48.62862589997344
 30
0.0
 11
54.74263691374076
 21
-48.62862589997344
 31
0.0
  0
SPLINE
  5
24A
330
79
100
AcDbEntity
  8
Camada 1
 62
   250
420
  1907995
370
    18
100
AcDbSpline
210
0.0
220
0.0
230
1.0
 70
     8
 71
     3
 72
     8
 73
     4
 74
     0
 42
0.0000000001
 43
0.0000000001
 40
0.0
 40
0.0
 40
0.0
 40
0.0
 40
1.0
 40
1.0
 40
1.0
 40
1.0
 10
62.10874091071922
 20
-35.3931504055067
 30
0.0
 10
62.20575264639919
 20
-35.49051741665857
 30
0.0
 10
62.35144788765508
 20
-35.51909556030106
 30
0.0
 10
62.47738765948774
 20
-35.46547049588846
 30
0.0
  0
LINE
  5
24B
330
79
100
AcDbEntity
  8
Camada 1
 62
   250
420
  1907995
370
    18
100
AcDbLine
 10
62.48550516572485
 20
-35.47887407051077
 30
0.0
 11
65.45483296446168
 21
-34.21839975984498
 31
0.0
  0
SPLINE
  5
24C
330
79
100
AcDbEntity
  8
Camada 1
 62
   250
420
  1907995
370
    18
100
AcDbSpline
210
0.0
220
0.0
230
1.0
 70
     8
 71
     3
 72
     8
 73
     4
 74
     0
 42
0.0000000001
 43
0.0000000001
 40
0.0
 40
0.0
 40
0.0
 40
0.0
 40
1.0
 40
1.0
 40
1.0
 40
1.0
 10
63.11239411888302
 20
-36.56684060771436
 30
0.0
 10
64.40602747359434
 20
-36.56684060771436
 30
0.0
 10
65.45483296446168
 20
-35.51238839002821
 30
0.0
 10
65.45483296446168
 20
-34.21169797253383
 30
0.0
  0
LINE
  5
24D
330
79
100
AcDbEntity
  8
Camada 1
 62
   250
420
  1907995
370
    18
100
AcDbLine
 10
60.82251451130119
 20
-36.56684060771436
 30
0.0
 11
63.11873524776056
 21
-36.56684060771436
 31
0.0
  0
LINE
  5
24E
330
79
100
AcDbEntity
  8
Camada 1
 62
   250
420
  1907995
370
    18
100
AcDbLine
 10
61.76333779055275
 20
-36.5599988633988
 30
0.0
 11
64.90835469311393
 21
-35.71579974658543
 31
0.0
  0
LINE
  5
24F
330
79
100
AcDbEntity
  8
Camada 1
 62
   250
420
  1907995
370
    18
100
AcDbLine
 10
60.94735615894794
 20
-36.23015250253323
 30
0.0
 11
65.29006050695622
 21
-35.06916070696573
 31
0.0
  0
LINE
  5
250
330
79
100
AcDbEntity
  8
Camada 1
 62
   250
420
  1907995
370
    18
100
AcDbLine
 10
63.80309269998205
 20
-34.91076167610798
 30
0.0
 11
65.43468992179637
 21
-34.47543618081479
 31
0.0
  0
LINE
  5
251
330
79
100
AcDbEntity
  8
Camada 1
 62
   250
420
  1907995
370
    18
100
AcDbLine
 10
60.94735615894794
 20
-35.68934248985105
 30
0.0
 11
62.09247360047481
 21
-35.37254981109724
 31
0.0
  0
LINE
  5
252
330
79
100
AcDbEntity
  8
Camada 1
 62
   250
420
  1907995
370
    18
100
AcDbLine
 10
60.94735615894794
 20
-35.13512890254657
 30
0.0
 11
61.67125684778606
 21
-34.95062789042636
 31
0.0
  0
LINE
  5
253
330
79
100
AcDbEntity
  8
Camada 1
 62
   250
420
  1907995
370
    18
100
AcDbLine
 10
60.94735615894794
 20
-34.59431888986439
 30
0.0
 11
61.23699179594693
 21
-34.51529701217147
 31
0.0
  0
LINE
  5
254
330
79
100
AcDbEntity
  8
Camada 1
 62
   250
420
  1907995
370
    18
100
AcDbLine
 10
60.94735615894794
 20
-36.4675734110839
 30
0.0
 11
60.97381879864401
 21
-36.5599988633988
 31
0.0
  0
LINE
  5
255
330
79
100
AcDbEntity
  8
Camada 1
 62
   250
420
  1907995
370
    18
100
AcDbLine
 10
60.94735615894794
 20
-34.40981787774417
 30
0.0
 11
61.52661666702252
 21
-36.5599988633988
 31
0.0
  0
LINE
  5
256
330
79
100
AcDbEntity
  8
Camada 1
 62
   250
420
  1907995
370
    18
100
AcDbLine
 10
61.6317459089396
 20
-34.91076167610798
 30
0.0
 11
62.06602172670212
 21
-36.5599988633988
 31
0.0
  0
LINE
  5
257
330
79
100
AcDbEntity
  8
Camada 1
 62
   250
420
  1907995
370
    18
100
AcDbLine
 10
62.32919472400504
 20
-35.50448620225892
 30
0.0
 11
62.61881959508063
 21
-36.5599988633988
 31
0.0
  0
LINE
  5
258
330
79
100
AcDbEntity
  8
Camada 1
 62
   250
420
  1907995
370
    18
100
AcDbLine
 10
62.84248165353709
 20
-35.33303887225078
 30
0.0
 11
63.17127295391062
 21
-36.5599988633988
 31
0.0
  0
LINE
  5
259
330
79
100
AcDbEntity
  8
Camada 1
 62
   250
420
  1907995
370
    18
100
AcDbLine
 10
63.32931670929646
 20
-35.12207522043449
 30
0.0
 11
63.69761894851645
 21
-36.49403066781828
 31
0.0
  0
LINE
  5
25A
330
79
100
AcDbEntity
  8
Camada 1
 62
   250
420
  1907995
370
    18
100
AcDbLine
 10
63.81615176505583
 20
-34.91076167610798
 30
0.0
 11
64.18479851382435
 21
-36.29612069811407
 31
0.0
  0
LINE
  5
25B
330
79
100
AcDbEntity
  8
Camada 1
 62
   250
420
  1907995
370
    18
100
AcDbLine
 10
64.3163903954375
 20
-34.69980340725339
 30
0.0
 11
64.6582299949614
 21
-35.97967791187048
 31
0.0
  0
LINE
  5
25C
330
79
100
AcDbEntity
  8
Camada 1
 62
   250
420
  1907995
370
    18
100
AcDbLine
 10
64.80322545119687
 20
-34.50189343754917
 30
0.0
 11
65.06639844849977
 21
-35.49143790310854
 31
0.0
  0
LINE
  5
25D
330
79
100
AcDbEntity
  8
Camada 1
 62
   250
420
  1907995
370
    18
100
AcDbLine
 10
65.29006050695622
 20
-34.29092978573288
 30
0.0
 11
65.39517898294992
 21
-34.68674972514131
 31
0.0
  0
LINE
  5
25E
330
79
100
AcDbEntity
  8
Camada 1
 62
   250
420
  1907995
370
    18
100
AcDbLine
 10
60.78325118869273
 20
-33.59645236552347
 30
0.0
 11
62.46282136513916
 21
-32.76143119840095
 31
0.0
  0
LWPOLYLINE
  5
25F
330
79
100
AcDbEntity
  8
Camada 1
 62
   250
420
  1907995
370
    18
100
AcDbPolyline
 90
        4
 70
     0
 43
0.0
 10
61.78831473282081
 20
-33.92771444531533
 10
64.12899873288669
 20
-33.09268789523112
 10
64.12899873288669
 20
-32.76143119840095
 10
60.8227621275392
 20
-32.76143119840095
  0
LINE
  5
260
330
79
100
AcDbEntity
  8
Camada 1
 62
   250
420
  1907995
370
    18
100
AcDbLine
 10
61.78831473282081
 20
-33.92771444531533
 30
0.0
 11
60.8227621275392
 21
-33.92771444531533
 31
0.0
  0
LINE
  5
261
330
79
100
AcDbEntity
  8
Camada 1
 62
   250
420
  1907995
370
    18
100
AcDbLine
 10
62.11887164463053
 20
-35.41184543147587
 30
0.0
 11
60.94199472909902
 21
-34.23251388541111
 31
0.0
  0
LINE
  5
262
330
79
100
AcDbEntity
  8
Camada 1
 62
   250
420
  1907995
370
    18
100
AcDbLine
 10
35.89534310707835
 20
-36.74354709129919
 30
0.0
 11
39.04776158197112
 21
-36.74354709129919
 31
0.0
  0
LINE
  5
263
330
79
100
AcDbEntity
  8
Camada 1
 62
   250
420
  1907995
370
    18
100
AcDbLine
 10
37.02536134104877
 20
-36.6458301876371
 30
0.0
 11
39.32159284343152
 21
-36.6458301876371
 31
0.0
  0
SPLINE
  5
264
330
79
100
AcDbEntity
  8
Camada 1
 62
   250
420
  1907995
370
    18
100
AcDbSpline
210
0.0
220
0.0
230
1.0
 70
     8
 71
     3
 72
     8
 73
     4
 74
     0
 42
0.0000000001
 43
0.0000000001
 40
0.0
 40
0.0
 40
0.0
 40
0.0
 40
1.0
 40
1.0
 40
1.0
 40
1.0
 10
34.67621532519725
 20
-34.29068755245658
 30
0.0
 10
34.67621532519725
 20
-35.59102269447904
 30
0.0
 10
35.72502081606461
 20
-36.6458301876371
 30
0.0
 10
37.01900944624784
 20
-36.6458301876371
 30
0.0
  0
LINE
  5
265
330
79
100
AcDbEntity
  8
Camada 1
 62
   250
420
  1907995
370
    18
100
AcDbLine
 10
37.65895208151809
 20
-35.54445469284952
 30
0.0
 11
34.68961889981956
 21
-34.29738933976772
 31
0.0
  0
LINE
  5
266
330
79
100
AcDbEntity
  8
Camada 1
 62
   250
420
  1907995
370
    18
100
AcDbLine
 10
39.19681579132514
 20
-34.66000717143705
 30
0.0
 11
38.90718015432614
 21
-34.58063540123391
 31
0.0
  0
LINE
  5
267
330
79
100
AcDbEntity
  8
Camada 1
 62
   250
420
  1907995
370
    18
100
AcDbLine
 10
39.19681579132514
 20
-35.21387086623131
 30
0.0
 11
38.47291510248701
 21
-35.0159608965271
 31
0.0
  0
LINE
  5
268
330
79
100
AcDbEntity
  8
Camada 1
 62
   250
420
  1907995
370
    18
100
AcDbLine
 10
36.32802556817895
 20
-34.98985353230294
 30
0.0
 11
34.7094820284767
 21
-34.55452803700975
 31
0.0
  0
LINE
  5
269
330
79
100
AcDbEntity
  8
Camada 1
 62
   250
420
  1907995
370
    18
100
AcDbLine
 10
39.19681579132514
 20
-35.75503077142371
 30
0.0
 11
38.03864466768619
 21
-35.45129177478198
 31
0.0
  0
LINE
  5
26A
330
79
100
AcDbEntity
  8
Camada 1
 62
   250
420
  1907995
370
    18
100
AcDbLine
 10
39.19681579132514
 20
-36.30889446621797
 30
0.0
 11
34.85411682627918
 21
-35.14790267065047
 31
0.0
  0
LINE
  5
26B
330
79
100
AcDbEntity
  8
Camada 1
 62
   250
420
  1907995
370
    18
100
AcDbLine
 10
38.38083954268201
 20
-36.63874082708386
 30
0.0
 11
35.23582264012083
 21
-35.79454171027017
 31
0.0
  0
LINE
  5
26C
330
79
100
AcDbEntity
  8
Camada 1
 62
   250
420
  1907995
370
    18
100
AcDbLine
 10
34.84106852712815
 20
-34.36967174941762
 30
0.0
 11
34.73593928521108
 21
-34.75243800671397
 31
0.0
  0
LINE
  5
26D
330
79
100
AcDbEntity
  8
Camada 1
 62
   250
420
  1907995
370
    18
100
AcDbLine
 10
35.34130715750983
 20
-34.56758171912183
 30
0.0
 11
35.06472520262291
 21
-35.57017448383158
 31
0.0
  0
LINE
  5
26E
330
79
100
AcDbEntity
  8
Camada 1
 62
   250
420
  1907995
370
    18
100
AcDbLine
 10
35.82813683030749
 20
-34.7785399879761
 30
0.0
 11
35.48594195531166
 21
-36.05841987555522
 31
0.0
  0
LINE
  5
26F
330
79
100
AcDbEntity
  8
Camada 1
 62
   250
420
  1907995
370
    18
100
AcDbLine
 10
36.31497188606687
 20
-34.98985353230294
 30
0.0
 11
35.94631975433665
 21
-36.37486266179881
 31
0.0
  0
LINE
  5
270
330
79
100
AcDbEntity
  8
Camada 1
 62
   250
420
  1907995
370
    18
100
AcDbLine
 10
36.81485524097662
 20
-35.20081718411923
 30
0.0
 11
36.44655838471832
 21
-36.55971894939094
 31
0.0
  0
LINE
  5
271
330
79
100
AcDbEntity
  8
Camada 1
 62
   250
420
  1907995
370
    18
100
AcDbLine
 10
37.30169029673599
 20
-35.39872715382344
 30
0.0
 11
36.97290437932414
 21
-36.63874082708386
 31
0.0
  0
LINE
  5
272
330
79
100
AcDbEntity
  8
Camada 1
 62
   250
420
  1907995
370
    18
100
AcDbLine
 10
37.80192892711765
 20
-35.57017448383158
 30
0.0
 11
37.5257022477033
 21
-36.63874082708386
 31
0.0
  0
LINE
  5
273
330
79
100
AcDbEntity
  8
Camada 1
 62
   250
420
  1907995
370
    18
100
AcDbLine
 10
38.51242604133347
 20
-34.97644995768064
 30
0.0
 11
38.06510192442056
 21
-36.63874082708386
 31
0.0
  0
LINE
  5
274
330
79
100
AcDbEntity
  8
Camada 1
 62
   250
420
  1907995
370
    18
100
AcDbLine
 10
39.19681579132514
 20
-34.48855984142892
 30
0.0
 11
38.61790517576077
 21
-36.63874082708386
 31
0.0
  0
LINE
  5
275
330
79
100
AcDbEntity
  8
Camada 1
 62
   250
420
  1907995
370
    18
100
AcDbLine
 10
39.19681579132514
 20
-36.53325630969487
 30
0.0
 11
39.15729946951762
 21
-36.63874082708386
 31
0.0
  0
LINE
  5
276
330
79
100
AcDbEntity
  8
Camada 1
 62
   250
420
  1907995
370
    18
100
AcDbLine
 10
39.36131371778412
 20
-33.68542195643005
 30
0.0
 11
37.68173815837599
 21
-32.82711409701192
 31
0.0
  0
LINE
  5
277
330
79
100
AcDbEntity
  8
Camada 1
 62
   250
420
  1907995
370
    18
100
AcDbLine
 10
38.35589489818413
 20
-34.02055976864281
 30
0.0
 11
36.00216259896787
 21
-33.17566086680868
 31
0.0
  0
LINE
  5
278
330
79
100
AcDbEntity
  8
Camada 1
 62
   250
420
  1907995
370
    18
100
AcDbLine
 10
39.32145288642744
 20
-32.82711409701192
 30
0.0
 11
36.00216259896787
 21
-32.82711409701192
 31
0.0
  0
LINE
  5
279
330
79
100
AcDbEntity
  8
Camada 1
 62
   250
420
  1907995
370
    18
100
AcDbLine
 10
39.32145288642744
 20
-34.02055976864281
 30
0.0
 11
38.35589489818413
 21
-34.02055976864281
 31
0.0
  0
LINE
  5
27A
330
79
100
AcDbEntity
  8
Camada 1
 62
   250
420
  1907995
370
    18
100
AcDbLine
 10
36.00385823190201
 20
-32.82898198472033
 30
0.0
 11
36.00385823190201
 21
-33.17294247115235
 31
0.0
  0
LINE
  5
27B
330
79
100
AcDbEntity
  8
Camada 1
 62
   250
420
  1907995
370
    18
100
AcDbLine
 10
37.65450575515744
 20
-35.55454236306726
 30
0.0
 11
39.5958385929425
 21
-34.33711021412032
 31
0.0
  0
ENDBLK
  5
7C
330
79
100
AcDbEntity
  8
0
100
AcDbBlockEnd
  0
ENDSEC
  0
SECTION
  2
ENTITIES
  0
INSERT
  5
7A
330
70
100
AcDbEntity
  8
Camada 1
100
AcDbBlockReference
  2
Block_0
 10
0.0
 20
0.0
 30
0.0
  0
ENDSEC
  0
SECTION
  2
OBJECTS
  0
DICTIONARY
  5
C
330
0
100
AcDbDictionary
281
     1
  3
ACAD_COLOR
350
63
  3
ACAD_DETAILVIEWSTYLE
350
6A
  3
ACAD_GROUP
350
D
  3
ACAD_LAYOUT
350
62
  3
ACAD_MATERIAL
350
10
  3
ACAD_MLEADERSTYLE
350
66
  3
ACAD_MLINESTYLE
350
5F
  3
ACAD_PLOTSETTINGS
350
61
  3
ACAD_PLOTSTYLENAME
350
E
  3
ACAD_SCALELIST
350
42
  3
ACAD_SECTIONVIEWSTYLE
350
68
  3
ACAD_TABLESTYLE
350
64
  3
ACAD_VISUALSTYLE
350
29
  3
ACDB_RECOMPOSE_DATA
350
284
  3
AcDbVariableDictionary
350
27C
  0
DICTIONARY
  5
63
102
{ACAD_REACTORS
330
C
102
}
330
C
100
AcDbDictionary
281
     1
  0
DICTIONARY
  5
6A
102
{ACAD_REACTORS
330
C
102
}
330
C
100
AcDbDictionary
281
     1
  3
Imperial24
350
6B
  0
DICTIONARY
  5
D
102
{ACAD_REACTORS
330
C
102
}
330
C
100
AcDbDictionary
281
     1
  0
DICTIONARY
  5
62
102
{ACAD_REACTORS
330
C
102
}
330
C
100
AcDbDictionary
281
     1
  3
Layout1
350
6F
  3
Layout2
350
77
  3
Model
350
73
  0
DICTIONARY
  5
10
102
{ACAD_REACTORS
330
C
102
}
330
C
100
AcDbDictionary
281
     1
  3
ByBlock
350
19
  3
ByLayer
350
11
  3
Global
350
21
  0
DICTIONARY
  5
66
102
{ACAD_REACTORS
330
C
102
}
330
C
100
AcDbDictionary
281
     1
  3
Standard
350
67
  0
DICTIONARY
  5
5F
102
{ACAD_REACTORS
330
C
102
}
330
C
100
AcDbDictionary
281
     1
  3
Standard
350
60
  0
DICTIONARY
  5
61
102
{ACAD_REACTORS
330
C
102
}
330
C
100
AcDbDictionary
281
     1
  0
ACDBDICTIONARYWDFLT
  5
E
102
{ACAD_REACTORS
330
C
102
}
330
C
100
AcDbDictionary
281
     1
  3
Normal
350
F
100
AcDbDictionaryWithDefault
340
F
  0
DICTIONARY
  5
42
102
{ACAD_REACTORS
330
C
102
}
330
C
100
AcDbDictionary
281
     1
  3
A0
350
43
  3
A1
350
44
  3
A2
350
45
  3
A3
350
46
  3
A4
350
47
  3
A5
350
48
  3
A6
350
49
  3
A7
350
4A
  3
A8
350
4B
  3
A9
350
4C
  3
B0
350
4D
  3
B1
350
4E
  3
B2
350
4F
  3
B3
350
50
  3
B4
350
51
  3
B5
350
52
  3
B6
350
53
  0
DICTIONARY
  5
68
102
{ACAD_REACTORS
330
C
102
}
330
C
100
AcDbDictionary
281
     1
  3
Imperial24
350
69
  0
DICTIONARY
  5
64
102
{ACAD_REACTORS
330
C
102
}
330
C
100
AcDbDictionary
281
     1
  3
Standard
350
65
  0
DICTIONARY
  5
29
102
{ACAD_REACTORS
330
C
102
}
330
C
100
AcDbDictionary
281
     1
  3
2dWireframe
350
2F
  3
Basic
350
2E
  3
Brighten
350
35
  3
ColorChange
350
39
  3
Conceptual
350
32
  3
Dim
350
34
  3
EdgeColorOff
350
41
  3
Facepattern
350
38
  3
Flat
350
2A
  3
FlatWithEdges
350
2B
  3
Gouraud
350
2C
  3
GouraudWithEdges
350
2D
  3
Hidden
350
31
  3
JitterOff
350
3F
  3
Linepattern
350
37
  3
OverhangOff
350
40
  3
Realistic
350
33
  3
Shaded
350
3E
  3
Shaded with edges
350
3D
  3
Shades of Gray
350
3A
  3
Sketchy
350
3B
  3
Thicken
350
36
  3
Wireframe
350
30
  3
X-Ray
350
3C
  0
XRECORD
  5
284
102
{ACAD_REACTORS
330
C
102
}
330
C
100
AcDbXrecord
280
     1
 90
        1
330
65
  0
DICTIONARY
  5
27C
102
{ACAD_REACTORS
330
C
102
}
330
C
100
AcDbDictionary
281
     1
  3
CANNOSCALE
350
281
  3
CMLEADERSTYLE
350
27E
  3
CTABLESTYLE
350
27D
  3
CVIEWDETAILSTYLE
350
27F
  3
CVIEWSECTIONSTYLE
350
280
  0
ACDBDETAILVIEWSTYLE
  5
6B
102
{ACAD_REACTORS
330
6A
102
}
330
6A
100
AcDbModelDocViewStyle
 70
     0
  3
Imperial24
290
     1
300
Imperial24
 90
        0
100
AcDbDetailViewStyle
 70
     0
 71
     0
 90
        3
 71
     1
340
55
 62
   256
 40
0.24
340
0
 62
   256
 40
0.24
300

 40
0.36
280
     3
 71
     2
340
5D
 90
       25
 62
   256
 71
     3
340
55
 62
   256
 40
0.24
 90
        1
 40
0.75
 90
        1
300
%<\AcVar ViewType \f "%tc1">% %<\AcVar ViewDetailId>%\PSCALE %<\AcVar ViewScale \f "%sn">%
 71
     4
340
5D
 90
       25
 62
   256
340
5D
 90
       25
 62
   256
280
     0
  0
LAYOUT
  5
6F
102
{ACAD_REACTORS
330
62
102
}
330
62
100
AcDbPlotSettings
  1

  2

  4

  6

 40
0.0
 41
0.0
 42
0.0
 43
0.0
 44
0.0
 45
0.0
 46
0.0
 47
0.0
 48
0.0
 49
0.0
140
0.0
141
0.0
142
1.0
143
1.0
 70
   688
 72
     0
 73
     0
 74
     5
  7

 75
    16
147
1.0
 76
     0
 77
     2
 78
   300
148
0.0
149
0.0
100
AcDbLayout
  1
Layout1
 70
     1
 71
     1
 10
0.0
 20
0.0
 11
12.0
 21
9.0
 12
0.0
 22
0.0
 32
0.0
 14
0.0
 24
0.0
 34
0.0
 15
0.0
 25
0.0
 35
0.0
146
0.0
 13
0.0
 23
0.0
 33
0.0
 16
1.0
 26
0.0
 36
0.0
 17
0.0
 27
1.0
 37
0.0
 76
     0
330
6C
  0
LAYOUT
  5
77
102
{ACAD_REACTORS
330
62
102
}
330
62
100
AcDbPlotSettings
  1

  2

  4

  6

 40
0.0
 41
0.0
 42
0.0
 43
0.0
 44
0.0
 45
0.0
 46
0.0
 47
0.0
 48
0.0
 49
0.0
140
0.0
141
0.0
142
1.0
143
1.0
 70
   688
 72
     0
 73
     0
 74
     5
  7

 75
    16
147
1.0
 76
     0
 77
     2
 78
   300
148
0.0
149
0.0
100
AcDbLayout
  1
Layout2
 70
     1
 71
     2
 10
0.0
 20
0.0
 11
12.0
 21
9.0
 12
0.0
 22
0.0
 32
0.0
 14
0.0
 24
0.0
 34
0.0
 15
0.0
 25
0.0
 35
0.0
146
0.0
 13
0.0
 23
0.0
 33
0.0
 16
1.0
 26
0.0
 36
0.0
 17
0.0
 27
1.0
 37
0.0
 76
     0
330
74
  0
LAYOUT
  5
73
102
{ACAD_REACTORS
330
62
102
}
330
62
100
AcDbPlotSettings
  1

  2

  4

  6

 40
0.0
 41
0.0
 42
0.0
 43
0.0
 44
0.0
 45
0.0
 46
0.0
 47
0.0
 48
0.0
 49
0.0
140
0.0
141
0.0
142
1.0
143
1.0
 70
  1712
 72
     0
 73
     0
 74
     0
  7

 75
     0
147
1.0
 76
     0
 77
     2
 78
   300
148
0.0
149
0.0
100
AcDbLayout
  1
Model
 70
     1
 71
     0
 10
0.0
 20
0.0
 11
12.0
 21
9.0
 12
0.0
 22
0.0
 32
0.0
 14
0.0
 24
0.0
 34
0.0
 15
0.0
 25
0.0
 35
0.0
146
0.0
 13
0.0
 23
0.0
 33
0.0
 16
1.0
 26
0.0
 36
0.0
 17
0.0
 27
1.0
 37
0.0
 76
     0
330
70
  0
MATERIAL
  5
19
102
{ACAD_XDICTIONARY
360
1A
102
}
102
{ACAD_REACTORS
330
10
102
}
330
10
100
AcDbMaterial
  1
ByBlock
 72
     0
 43
0.0208333333333333
 43
0.0
 43
0.0
 43
0.0
 43
0.0
 43
0.0208333333333333
 43
0.0
 43
0.0
 43
0.0
 43
0.0
 43
1.0
 43
0.0
 43
0.0
 43
0.0
 43
0.0
 43
1.0
 77
     0
 47
0.0208333333333333
 47
0.0
 47
0.0
 47
0.0
 47
0.0
 47
0.0208333333333333
 47
0.0
 47
0.0
 47
0.0
 47
0.0
 47
1.0
 47
0.0
 47
0.0
 47
0.0
 47
0.0
 47
1.0
171
     0
 49
0.0208333333333333
 49
0.0
 49
0.0
 49
0.0
 49
0.0
 49
0.0208333333333333
 49
0.0
 49
0.0
 49
0.0
 49
0.0
 49
1.0
 49
0.0
 49
0.0
 49
0.0
 49
0.0
 49
1.0
175
     0
142
0.0208333333333333
142
0.0
142
0.0
142
0.0
142
0.0
142
0.0208333333333333
142
0.0
142
0.0
142
0.0
142
0.0
142
1.0
142
0.0
142
0.0
142
0.0
142
0.0
142
1.0
179
     0
144
0.0208333333333333
144
0.0
144
0.0
144
0.0
144
0.0
144
0.0208333333333333
144
0.0
144
0.0
144
0.0
144
0.0
144
1.0
144
0.0
144
0.0
144
0.0
144
0.0
144
1.0
147
0.0208333333333333
147
0.0
147
0.0
147
0.0
147
0.0
147
0.0208333333333333
147
0.0
147
0.0
147
0.0
147
0.0
147
1.0
147
0.0
147
0.0
147
0.0
147
0.0
147
1.0
  0
MATERIAL
  5
11
102
{ACAD_XDICTIONARY
360
12
102
}
102
{ACAD_REACTORS
330
10
102
}
330
10
100
AcDbMaterial
  1
ByLayer
 72
     0
 43
0.0208333333333333
 43
0.0
 43
0.0
 43
0.0
 43
0.0
 43
0.0208333333333333
 43
0.0
 43
0.0
 43
0.0
 43
0.0
 43
1.0
 43
0.0
 43
0.0
 43
0.0
 43
0.0
 43
1.0
 77
     0
 47
0.0208333333333333
 47
0.0
 47
0.0
 47
0.0
 47
0.0
 47
0.0208333333333333
 47
0.0
 47
0.0
 47
0.0
 47
0.0
 47
1.0
 47
0.0
 47
0.0
 47
0.0
 47
0.0
 47
1.0
171
     0
 49
0.0208333333333333
 49
0.0
 49
0.0
 49
0.0
 49
0.0
 49
0.0208333333333333
 49
0.0
 49
0.0
 49
0.0
 49
0.0
 49
1.0
 49
0.0
 49
0.0
 49
0.0
 49
0.0
 49
1.0
175
     0
142
0.0208333333333333
142
0.0
142
0.0
142
0.0
142
0.0
142
0.0208333333333333
142
0.0
142
0.0
142
0.0
142
0.0
142
1.0
142
0.0
142
0.0
142
0.0
142
0.0
142
1.0
179
     0
144
0.0208333333333333
144
0.0
144
0.0
144
0.0
144
0.0
144
0.0208333333333333
144
0.0
144
0.0
144
0.0
144
0.0
144
1.0
144
0.0
144
0.0
144
0.0
144
0.0
144
1.0
147
0.0208333333333333
147
0.0
147
0.0
147
0.0
147
0.0
147
0.0208333333333333
147
0.0
147
0.0
147
0.0
147
0.0
147
1.0
147
0.0
147
0.0
147
0.0
147
0.0
147
1.0
  0
MATERIAL
  5
21
102
{ACAD_XDICTIONARY
360
22
102
}
102
{ACAD_REACTORS
330
10
102
}
330
10
100
AcDbMaterial
  1
Global
 72
     0
 43
0.0208333333333333
 43
0.0
 43
0.0
 43
0.0
 43
0.0
 43
0.0208333333333333
 43
0.0
 43
0.0
 43
0.0
 43
0.0
 43
1.0
 43
0.0
 43
0.0
 43
0.0
 43
0.0
 43
1.0
 77
     0
 47
0.0208333333333333
 47
0.0
 47
0.0
 47
0.0
 47
0.0
 47
0.0208333333333333
 47
0.0
 47
0.0
 47
0.0
 47
0.0
 47
1.0
 47
0.0
 47
0.0
 47
0.0
 47
0.0
 47
1.0
171
     0
 49
0.0208333333333333
 49
0.0
 49
0.0
 49
0.0
 49
0.0
 49
0.0208333333333333
 49
0.0
 49
0.0
 49
0.0
 49
0.0
 49
1.0
 49
0.0
 49
0.0
 49
0.0
 49
0.0
 49
1.0
175
     0
142
0.0208333333333333
142
0.0
142
0.0
142
0.0
142
0.0
142
0.0208333333333333
142
0.0
142
0.0
142
0.0
142
0.0
142
1.0
142
0.0
142
0.0
142
0.0
142
0.0
142
1.0
179
     0
144
0.0208333333333333
144
0.0
144
0.0
144
0.0
144
0.0
144
0.0208333333333333
144
0.0
144
0.0
144
0.0
144
0.0
144
1.0
144
0.0
144
0.0
144
0.0
144
0.0
144
1.0
147
0.0208333333333333
147
0.0
147
0.0
147
0.0
147
0.0
147
0.0208333333333333
147
0.0
147
0.0
147
0.0
147
0.0
147
1.0
147
0.0
147
0.0
147
0.0
147
0.0
147
1.0
  0
MLEADERSTYLE
  5
67
102
{ACAD_REACTORS
330
66
102
}
330
66
100
AcDbMLeaderStyle
179
     2
170
     2
171
     1
172
     0
 90
        2
 40
0.0
 41
0.0
173
     1
 91
-1056964608
340
5B
 92
       -2
290
     1
 42
0.09
291
     1
 43
0.36
  3
Standard
 44
0.18
300

342
55
174
     1
178
     6
175
     1
176
     0
 93
-1056964608
 45
0.18
292
     0
297
     0
 46
0.18
 94
-1056964608
 47
1.0
 49
1.0
140
1.0
293
     1
141
0.0
294
     1
177
     0
142
1.0
295
     1
296
     0
143
0.125
271
     0
272
     9
273
     9
298
     1
  0
MLINESTYLE
  5
60
102
{ACAD_REACTORS
330
5F
102
}
330
5F
100
AcDbMlineStyle
  2
STANDARD
 70
     0
  3

 62
   256
 51
90.0
 52
90.0
 71
     2
 49
0.5
 62
   256
  6
BYLAYER
 49
-0.5
 62
   256
  6
BYLAYER
  0
ACDBPLACEHOLDER
  5
F
102
{ACAD_REACTORS
330
E
102
}
330
E
  0
SCALE
  5
43
102
{ACAD_REACTORS
330
42
102
}
330
42
100
AcDbScale
 70
     0
300
1:1
140
1.0
141
1.0
290
     1
  0
SCALE
  5
44
102
{ACAD_REACTORS
330
42
102
}
330
42
100
AcDbScale
 70
     0
300
1/128" = 1'-0"
140
0.0078125
141
12.0
290
     0
  0
SCALE
  5
45
102
{ACAD_REACTORS
330
42
102
}
330
42
100
AcDbScale
 70
     0
300
1/64" = 1'-0"
140
0.015625
141
12.0
290
     0
  0
SCALE
  5
46
102
{ACAD_REACTORS
330
42
102
}
330
42
100
AcDbScale
 70
     0
300
1/32" = 1'-0"
140
0.03125
141
12.0
290
     0
  0
SCALE
  5
47
102
{ACAD_REACTORS
330
42
102
}
330
42
100
AcDbScale
 70
     0
300
1/16" = 1'-0"
140
0.0625
141
12.0
290
     0
  0
SCALE
  5
48
102
{ACAD_REACTORS
330
42
102
}
330
42
100
AcDbScale
 70
     0
300
3/32" = 1'-0"
140
0.09375
141
12.0
290
     0
  0
SCALE
  5
49
102
{ACAD_REACTORS
330
42
102
}
330
42
100
AcDbScale
 70
     0
300
1/8" = 1'-0"
140
0.125
141
12.0
290
     0
  0
SCALE
  5
4A
102
{ACAD_REACTORS
330
42
102
}
330
42
100
AcDbScale
 70
     0
300
3/16" = 1'-0"
140
0.1875
141
12.0
290
     0
  0
SCALE
  5
4B
102
{ACAD_REACTORS
330
42
102
}
330
42
100
AcDbScale
 70
     0
300
1/4" = 1'-0"
140
0.25
141
12.0
290
     0
  0
SCALE
  5
4C
102
{ACAD_REACTORS
330
42
102
}
330
42
100
AcDbScale
 70
     0
300
3/8" = 1'-0"
140
0.375
141
12.0
290
     0
  0
SCALE
  5
4D
102
{ACAD_REACTORS
330
42
102
}
330
42
100
AcDbScale
 70
     0
300
1/2" = 1'-0"
140
0.5
141
12.0
290
     0
  0
SCALE
  5
4E
102
{ACAD_REACTORS
330
42
102
}
330
42
100
AcDbScale
 70
     0
300
3/4" = 1'-0"
140
0.75
141
12.0
290
     0
  0
SCALE
  5
4F
102
{ACAD_REACTORS
330
42
102
}
330
42
100
AcDbScale
 70
     0
300
1" = 1'-0"
140
1.0
141
12.0
290
     0
  0
SCALE
  5
50
102
{ACAD_REACTORS
330
42
102
}
330
42
100
AcDbScale
 70
     0
300
1-1/2" = 1'-0"
140
1.5
141
12.0
290
     0
  0
SCALE
  5
51
102
{ACAD_REACTORS
330
42
102
}
330
42
100
AcDbScale
 70
     0
300
3" = 1'-0"
140
3.0
141
12.0
290
     0
  0
SCALE
  5
52
102
{ACAD_REACTORS
330
42
102
}
330
42
100
AcDbScale
 70
     0
300
6" = 1'-0"
140
6.0
141
12.0
290
     0
  0
SCALE
  5
53
102
{ACAD_REACTORS
330
42
102
}
330
42
100
AcDbScale
 70
     0
300
1'-0" = 1'-0"
140
12.0
141
12.0
290
     0
  0
ACDBSECTIONVIEWSTYLE
  5
69
102
{ACAD_REACTORS
330
68
102
}
330
68
100
AcDbModelDocViewStyle
 70
     0
  3
Imperial24
290
     1
300
Imperial24
 90
        0
100
AcDbSectionViewStyle
 70
     0
 71
     0
 90
       78
 71
     1
340
55
 62
   256
 40
0.24
340
0
340
0
 62
   256
 40
0.24
300
I, O, Q, S, X, Z
 40
0.48
 90
        3
 40
0.18
 90
        1
 71
     2
340
5D
 90
       25
 62
   256
340
5D
 90
       50
 62
   256
 40
0.24
 40
0.0
 40
0.24
 71
     3
340
55
 62
   256
 40
0.24
 90
        1
 40
0.75
 90
        1
300
%<\AcVar ViewType \f "%tc1">% %<\AcVar ViewSectionStartId>%-%<\AcVar ViewSectionEndId>%\PSCALE %<\AcVar ViewScale \f "%sn">%
 71
     4
 62
   256
 62
   257
300
ANSI31
 40
1.0
 90
        0
290
     0
290
     0
 90
        6
 40
0.0
 40
1.570796326794896
 40
0.2617993877991494
 40
1.308996938995747
 40
-0.2617993877991494
 40
1.832595714594046
  0
TABLESTYLE
  5
65
102
{ACAD_XDICTIONARY
360
282
102
}
102
{ACAD_REACTORS
330
64
102
}
330
64
100
AcDbTableStyle
280
     0
  3
Standard
 70
     0
 71
     0
 40
0.06
 41
0.06
280
     0
281
     0
  7
Standard
140
0.18
170
     2
 62
     0
 63
     7
283
     0
 90
      512
 91
        0
  1

274
    -2
284
     1
 64
     0
275
    -2
285
     1
 65
     0
276
    -2
286
     1
 66
     0
277
    -2
287
     1
 67
     0
278
    -2
288
     1
 68
     0
279
    -2
289
     1
 69
     0
  7
Standard
140
0.25
170
     5
 62
     0
 63
     7
283
     0
 90
      512
 91
        0
  1

274
    -2
284
     1
 64
     0
275
    -2
285
     1
 65
     0
276
    -2
286
     1
 66
     0
277
    -2
287
     1
 67
     0
278
    -2
288
     1
 68
     0
279
    -2
289
     1
 69
     0
  7
Standard
140
0.18
170
     5
 62
     0
 63
     7
283
     0
 90
      512
 91
        0
  1

274
    -2
284
     1
 64
     0
275
    -2
285
     1
 65
     0
276
    -2
286
     1
 66
     0
277
    -2
287
     1
 67
     0
278
    -2
288
     1
 68
     0
279
    -2
289
     1
 69
     0
  0
VISUALSTYLE
  5
2F
102
{ACAD_REACTORS
330
29
102
}
330
29
100
AcDbVisualStyle
  2
2dWireframe
 70
     4
177
     3
291
     0
 70
    58
 90
        0
176
     1
 90
        2
176
     1
 90
        0
176
     1
 90
        0
176
     1
 40
0.6
176
     1
 40
30.0
176
     1
 62
     7
420
 16777215
176
     1
 90
        1
176
     1
 90
        4
176
     1
 62
     7
176
     1
 62
   257
176
     1
 90
        1
176
     1
 90
        1
176
     1
 40
1.0
176
     1
 90
        0
176
     1
 62
   257
176
     1
 40
1.0
176
     1
 90
        1
176
     1
 90
        6
176
     1
 90
        2
176
     1
 62
     7
176
     1
 90
        5
176
     1
 90
        0
176
     1
 90
        0
176
     1
290
     0
176
     1
 90
        1
176
     1
 40
0.0
176
     1
 90
        0
176
     1
290
     1
176
     1
290
     1
176
     1
290
     0
176
     1
290
     0
176
     1
290
     0
176
     1
290
     0
176
     1
290
     0
176
     1
290
     0
176
     1
290
     0
176
     1
 90
       50
176
     1
 40
0.0
176
     1
 40
1.0
176
     1
 90
        0
176
     1
 62
    18
420
        0
176
     1
 90
       50
176
     1
 90
        3
176
     1
 62
     5
420
      255
176
     1
290
     0
176
     1
 90
       50
176
     1
 90
       50
176
     1
 90
       50
176
     1
290
     0
176
     1
 90
       50
176
     1
 62
   256
176
     0
 40
1.0
176
     0
 90
        2
176
     1
  1
strokes_ogs.tif
176
     1
290
     0
176
     1
 40
1.0
176
     1
 40
1.0
176
     1
  0
VISUALSTYLE
  5
2E
102
{ACAD_REACTORS
330
29
102
}
330
29
100
AcDbVisualStyle
  2
Basic
 70
     7
177
     3
291
     1
 70
    58
 90
        1
176
     1
 90
        0
176
     1
 90
        1
176
     1
 90
        0
176
     1
 40
0.6
176
     1
 40
30.0
176
     1
 62
     7
420
 16777215
176
     1
 90
        0
176
     1
 90
        4
176
     1
 62
     7
176
     1
 62
   257
176
     1
 90
        1
176
     1
 90
        1
176
     1
 40
1.0
176
     1
 90
        8
176
     1
 62
     7
176
     1
 40
1.0
176
     1
 90
        1
176
     1
 90
        6
176
     1
 90
        2
176
     1
 62
     7
176
     1
 90
        5
176
     1
 90
        0
176
     1
 90
        0
176
     1
290
     0
176
     1
 90
        1
176
     1
 40
0.0
176
     1
 90
        0
176
     1
290
     0
176
     1
290
     1
176
     1
290
     1
176
     1
290
     0
176
     1
290
     0
176
     1
290
     0
176
     1
290
     0
176
     1
290
     0
176
     1
290
     0
176
     1
 90
       50
176
     1
 40
0.0
176
     1
 40
1.0
176
     1
 90
        0
176
     1
 62
    18
420
        0
176
     1
 90
       50
176
     1
 90
        3
176
     1
 62
     5
420
      255
176
     1
290
     0
176
     1
 90
       50
176
     1
 90
       50
176
     1
 90
       50
176
     1
290
     0
176
     1
 90
       50
176
     1
 62
   256
176
     0
 40
1.0
176
     0
 90
        2
176
     1
  1
strokes_ogs.tif
176
     1
290
     0
176
     1
 40
1.0
176
     1
 40
1.0
176
     1
  0
VISUALSTYLE
  5
35
102
{ACAD_REACTORS
330
29
102
}
330
29
100
AcDbVisualStyle
  2
Brighten
 70
    12
177
     3
291
     1
 70
    58
 90
        2
176
     1
 90
        2
176
     1
 90
        0
176
     1
 90
        0
176
     1
 40
0.6
176
     1
 40
30.0
176
     1
 62
     7
420
 16777215
176
     1
 90
        1
176
     1
 90
        4
176
     1
 62
     7
176
     1
 62
   257
176
     1
 90
        1
176
     1
 90
        1
176
     1
 40
1.0
176
     1
 90
        8
176
     1
 62
     7
176
     1
 40
1.0
176
     1
 90
        1
176
     1
 90
        6
176
     1
 90
        2
176
     1
 62
     7
176
     1
 90
        5
176
     1
 90
        0
176
     1
 90
        0
176
     1
290
     0
176
     1
 90
        1
176
     1
 40
50.0
176
     1
 90
        0
176
     1
290
     0
176
     1
290
     1
176
     1
290
     1
176
     1
290
     0
176
     1
290
     0
176
     1
290
     0
176
     1
290
     0
176
     1
290
     0
176
     1
290
     0
176
     1
 90
       50
176
     1
 40
0.0
176
     1
 40
1.0
176
     1
 90
        0
176
     1
 62
    18
420
        0
176
     1
 90
       50
176
     1
 90
        3
176
     1
 62
     5
420
      255
176
     1
290
     0
176
     1
 90
       50
176
     1
 90
       50
176
     1
 90
       50
176
     1
290
     0
176
     1
 90
       50
176
     1
 62
   256
176
     0
 40
1.0
176
     0
 90
        2
176
     1
  1
strokes_ogs.tif
176
     1
290
     0
176
     1
 40
1.0
176
     1
 40
1.0
176
     1
  0
VISUALSTYLE
  5
39
102
{ACAD_REACTORS
330
29
102
}
330
29
100
AcDbVisualStyle
  2
ColorChange
 70
    16
177
     3
291
     1
 70
    58
 90
        2
176
     1
 90
        2
176
     1
 90
        3
176
     1
 90
        0
176
     1
 40
0.6
176
     1
 40
30.0
176
     1
 62
     8
420
  8421504
176
     1
 90
        1
176
     1
 90
        4
176
     1
 62
     7
176
     1
 62
   257
176
     1
 90
        1
176
     1
 90
        1
176
     1
 40
1.0
176
     1
 90
        8
176
     1
 62
     8
420
  8421504
176
     1
 40
1.0
176
     1
 90
        1
176
     1
 90
        6
176
     1
 90
        2
176
     1
 62
     7
176
     1
 90
        5
176
     1
 90
        0
176
     1
 90
        0
176
     1
290
     0
176
     1
 90
        1
176
     1
 40
0.0
176
     1
 90
        0
176
     1
290
     0
176
     1
290
     1
176
     1
290
     1
176
     1
290
     0
176
     1
290
     0
176
     1
290
     0
176
     1
290
     0
176
     1
290
     0
176
     1
290
     0
176
     1
 90
       50
176
     1
 40
0.0
176
     1
 40
1.0
176
     1
 90
        0
176
     1
 62
    18
420
        0
176
     1
 90
       50
176
     1
 90
        3
176
     1
 62
     5
420
      255
176
     1
290
     0
176
     1
 90
       50
176
     1
 90
       50
176
     1
 90
       50
176
     1
290
     0
176
     1
 90
       50
176
     1
 62
   256
176
     0
 40
1.0
176
     0
 90
        2
176
     1
  1
strokes_ogs.tif
176
     1
290
     0
176
     1
 40
1.0
176
     1
 40
1.0
176
     1
  0
VISUALSTYLE
  5
32
102
{ACAD_REACTORS
330
29
102
}
330
29
100
AcDbVisualStyle
  2
Conceptual
 70
     9
177
     3
291
     0
 70
    58
 90
        3
176
     1
 90
        2
176
     1
 90
        0
176
     1
 90
        0
176
     1
 40
0.6
176
     1
 40
30.0
176
     1
 62
     7
420
 16777215
176
     1
 90
        2
176
     1
 90
        2
176
     1
 62
     7
176
     1
 62
   257
176
     1
 90
        1
176
     1
 90
        1
176
     1
 40
179.0
176
     1
 90
        8
176
     1
 62
     7
176
     1
 40
1.0
176
     1
 90
        1
176
     1
 90
        6
176
     1
 90
        2
176
     1
 62
     7
176
     1
 90
        3
176
     1
 90
        0
176
     1
 90
        0
176
     1
290
     0
176
     1
 90
        1
176
     1
 40
0.0
176
     1
 90
        0
176
     1
290
     0
176
     1
290
     1
176
     1
290
     1
176
     1
290
     0
176
     1
290
     0
176
     1
290
     0
176
     1
290
     0
176
     1
290
     0
176
     1
290
     0
176
     1
 90
       50
176
     1
 40
0.0
176
     1
 40
1.0
176
     1
 90
        0
176
     1
 62
    18
420
        0
176
     1
 90
       50
176
     1
 90
        3
176
     1
 62
     5
420
      255
176
     1
290
     0
176
     1
 90
       50
176
     1
 90
       50
176
     1
 90
       50
176
     1
290
     0
176
     1
 90
       50
176
     1
 62
   256
176
     0
 40
1.0
176
     0
 90
        2
176
     1
  1
strokes_ogs.tif
176
     1
290
     0
176
     1
 40
1.0
176
     1
 40
1.0
176
     1
  0
VISUALSTYLE
  5
34
102
{ACAD_REACTORS
330
29
102
}
330
29
100
AcDbVisualStyle
  2
Dim
 70
    11
177
     3
291
     1
 70
    58
 90
        2
176
     1
 90
        2
176
     1
 90
        0
176
     1
 90
        0
176
     1
 40
0.6
176
     1
 40
30.0
176
     1
 62
     7
420
 16777215
176
     1
 90
        1
176
     1
 90
        4
176
     1
 62
     7
176
     1
 62
   257
176
     1
 90
        1
176
     1
 90
        1
176
     1
 40
1.0
176
     1
 90
        8
176
     1
 62
     7
176
     1
 40
1.0
176
     1
 90
        1
176
     1
 90
        6
176
     1
 90
        2
176
     1
 62
     7
176
     1
 90
        5
176
     1
 90
        0
176
     1
 90
        0
176
     1
290
     0
176
     1
 90
        1
176
     1
 40
-50.0
176
     1
 90
        0
176
     1
290
     0
176
     1
290
     1
176
     1
290
     1
176
     1
290
     0
176
     1
290
     0
176
     1
290
     0
176
     1
290
     0
176
     1
290
     0
176
     1
290
     0
176
     1
 90
       50
176
     1
 40
0.0
176
     1
 40
1.0
176
     1
 90
        0
176
     1
 62
    18
420
        0
176
     1
 90
       50
176
     1
 90
        3
176
     1
 62
     5
420
      255
176
     1
290
     0
176
     1
 90
       50
176
     1
 90
       50
176
     1
 90
       50
176
     1
290
     0
176
     1
 90
       50
176
     1
 62
   256
176
     0
 40
1.0
176
     0
 90
        2
176
     1
  1
strokes_ogs.tif
176
     1
290
     0
176
     1
 40
1.0
176
     1
 40
1.0
176
     1
  0
VISUALSTYLE
  5
41
102
{ACAD_REACTORS
330
29
102
}
330
29
100
AcDbVisualStyle
  2
EdgeColorOff
 70
    22
177
     3
291
     1
 70
    58
 90
        2
176
     0
 90
        2
176
     0
 90
        0
176
     0
 90
        0
176
     0
 40
0.6
176
     0
 40
30.0
176
     0
 62
     7
420
 16777215
176
     0
 90
        1
176
     0
 90
        4
176
     0
 62
     7
176
     0
 62
   257
176
     0
 90
        1
176
     0
 90
        1
176
     0
 40
1.0
176
     0
 90
        8
176
     2
 62
     7
176
     0
 40
1.0
176
     0
 90
        1
176
     0
 90
        6
176
     0
 90
        2
176
     0
 62
     7
176
     0
 90
        5
176
     0
 90
        0
176
     0
 90
        0
176
     0
290
     0
176
     0
 90
        1
176
     0
 40
0.0
176
     0
 90
        0
176
     0
290
     0
176
     0
290
     1
176
     0
290
     1
176
     0
290
     0
176
     0
290
     0
176
     0
290
     0
176
     0
290
     0
176
     0
290
     0
176
     0
290
     0
176
     0
 90
       50
176
     0
 40
0.0
176
     0
 40
1.0
176
     0
 90
        0
176
     0
 62
    18
420
        0
176
     0
 90
       50
176
     0
 90
        3
176
     0
 62
     5
420
      255
176
     0
290
     0
176
     0
 90
       50
176
     0
 90
       50
176
     0
 90
       50
176
     0
290
     0
176
     0
 90
       50
176
     0
 62
   256
176
     0
 40
1.0
176
     0
 90
        2
176
     0
  1
strokes_ogs.tif
176
     0
290
     0
176
     0
 40
1.0
176
     0
 40
1.0
176
     0
  0
VISUALSTYLE
  5
38
102
{ACAD_REACTORS
330
29
102
}
330
29
100
AcDbVisualStyle
  2
Facepattern
 70
    15
177
     3
291
     1
 70
    58
 90
        2
176
     1
 90
        2
176
     1
 90
        0
176
     1
 90
        0
176
     1
 40
0.6
176
     1
 40
30.0
176
     1
 62
     7
420
 16777215
176
     1
 90
        1
176
     1
 90
        4
176
     1
 62
     7
176
     1
 62
   257
176
     1
 90
        1
176
     1
 90
        1
176
     1
 40
1.0
176
     1
 90
        8
176
     1
 62
     7
176
     1
 40
1.0
176
     1
 90
        1
176
     1
 90
        6
176
     1
 90
        2
176
     1
 62
     7
176
     1
 90
        5
176
     1
 90
        0
176
     1
 90
        0
176
     1
290
     0
176
     1
 90
        1
176
     1
 40
0.0
176
     1
 90
        0
176
     1
290
     0
176
     1
290
     1
176
     1
290
     1
176
     1
290
     0
176
     1
290
     0
176
     1
290
     0
176
     1
290
     0
176
     1
290
     0
176
     1
290
     0
176
     1
 90
       50
176
     1
 40
0.0
176
     1
 40
1.0
176
     1
 90
        0
176
     1
 62
    18
420
        0
176
     1
 90
       50
176
     1
 90
        3
176
     1
 62
     5
420
      255
176
     1
290
     0
176
     1
 90
       50
176
     1
 90
       50
176
     1
 90
       50
176
     1
290
     0
176
     1
 90
       50
176
     1
 62
   256
176
     0
 40
1.0
176
     0
 90
        2
176
     1
  1
strokes_ogs.tif
176
     1
290
     0
176
     1
 40
1.0
176
     1
 40
1.0
176
     1
  0
VISUALSTYLE
  5
2A
102
{ACAD_REACTORS
330
29
102
}
330
29
100
AcDbVisualStyle
  2
Flat
 70
     0
177
     3
291
     1
 70
    58
 90
        2
176
     1
 90
        1
176
     1
 90
        1
176
     1
 90
        2
176
     1
 40
0.6
176
     1
 40
30.0
176
     1
 62
     7
420
 16777215
176
     1
 90
        0
176
     1
 90
        0
176
     1
 62
     7
176
     1
 62
   257
176
     1
 90
        1
176
     1
 90
        1
176
     1
 40
1.0
176
     1
 90
        8
176
     1
 62
     7
176
     1
 40
1.0
176
     1
 90
        1
176
     1
 90
        6
176
     1
 90
        2
176
     1
 62
     7
176
     1
 90
        5
176
     1
 90
        0
176
     1
 90
        0
176
     1
290
     0
176
     1
 90
       13
176
     1
 40
0.0
176
     1
 90
        0
176
     1
290
     0
176
     1
290
     1
176
     1
290
     1
176
     1
290
     0
176
     1
290
     0
176
     1
290
     0
176
     1
290
     0
176
     1
290
     0
176
     1
290
     0
176
     1
 90
       50
176
     1
 40
0.0
176
     1
 40
1.0
176
     1
 90
        0
176
     1
 62
    18
420
        0
176
     1
 90
       50
176
     1
 90
        3
176
     1
 62
     5
420
      255
176
     1
290
     0
176
     1
 90
       50
176
     1
 90
       50
176
     1
 90
       50
176
     1
290
     0
176
     1
 90
       50
176
     1
 62
   256
176
     0
 40
1.0
176
     0
 90
        2
176
     1
  1
strokes_ogs.tif
176
     1
290
     0
176
     1
 40
1.0
176
     1
 40
1.0
176
     1
  0
VISUALSTYLE
  5
2B
102
{ACAD_REACTORS
330
29
102
}
330
29
100
AcDbVisualStyle
  2
FlatWithEdges
 70
     1
177
     3
291
     1
 70
    58
 90
        2
176
     1
 90
        1
176
     1
 90
        1
176
     1
 90
        2
176
     1
 40
0.6
176
     1
 40
30.0
176
     1
 62
     7
420
 16777215
176
     1
 90
        1
176
     1
 90
        0
176
     1
 62
     7
176
     1
 62
   257
176
     1
 90
        1
176
     1
 90
        1
176
     1
 40
1.0
176
     1
 90
        0
176
     1
 62
   257
176
     1
 40
1.0
176
     1
 90
        1
176
     1
 90
        6
176
     1
 90
        2
176
     1
 62
     7
176
     1
 90
        5
176
     1
 90
        0
176
     1
 90
        0
176
     1
290
     0
176
     1
 90
       13
176
     1
 40
0.0
176
     1
 90
        0
176
     1
290
     0
176
     1
290
     1
176
     1
290
     1
176
     1
290
     0
176
     1
290
     0
176
     1
290
     0
176
     1
290
     0
176
     1
290
     0
176
     1
290
     0
176
     1
 90
       50
176
     1
 40
0.0
176
     1
 40
1.0
176
     1
 90
        0
176
     1
 62
    18
420
        0
176
     1
 90
       50
176
     1
 90
        3
176
     1
 62
     5
420
      255
176
     1
290
     0
176
     1
 90
       50
176
     1
 90
       50
176
     1
 90
       50
176
     1
290
     0
176
     1
 90
       50
176
     1
 62
   256
176
     0
 40
1.0
176
     0
 90
        2
176
     1
  1
strokes_ogs.tif
176
     1
290
     0
176
     1
 40
1.0
176
     1
 40
1.0
176
     1
  0
VISUALSTYLE
  5
2C
102
{ACAD_REACTORS
330
29
102
}
330
29
100
AcDbVisualStyle
  2
Gouraud
 70
     2
177
     3
291
     1
 70
    58
 90
        2
176
     1
 90
        2
176
     1
 90
        1
176
     1
 90
        2
176
     1
 40
0.6
176
     1
 40
30.0
176
     1
 62
     7
420
 16777215
176
     1
 90
        0
176
     1
 90
        0
176
     1
 62
     7
176
     1
 62
   257
176
     1
 90
        1
176
     1
 90
        1
176
     1
 40
1.0
176
     1
 90
        0
176
     1
 62
     7
176
     1
 40
1.0
176
     1
 90
        1
176
     1
 90
        6
176
     1
 90
        2
176
     1
 62
     7
176
     1
 90
        5
176
     1
 90
        0
176
     1
 90
        0
176
     1
290
     0
176
     1
 90
       13
176
     1
 40
0.0
176
     1
 90
        0
176
     1
290
     0
176
     1
290
     1
176
     1
290
     1
176
     1
290
     0
176
     1
290
     0
176
     1
290
     0
176
     1
290
     0
176
     1
290
     0
176
     1
290
     0
176
     1
 90
       50
176
     1
 40
0.0
176
     1
 40
1.0
176
     1
 90
        0
176
     1
 62
    18
420
        0
176
     1
 90
       50
176
     1
 90
        3
176
     1
 62
     5
420
      255
176
     1
290
     0
176
     1
 90
       50
176
     1
 90
       50
176
     1
 90
       50
176
     1
290
     0
176
     1
 90
       50
176
     1
 62
   256
176
     0
 40
1.0
176
     0
 90
        2
176
     1
  1
strokes_ogs.tif
176
     1
290
     0
176
     1
 40
1.0
176
     1
 40
1.0
176
     1
  0
VISUALSTYLE
  5
2D
102
{ACAD_REACTORS
330
29
102
}
330
29
100
AcDbVisualStyle
  2
GouraudWithEdges
 70
     3
177
     3
291
     1
 70
    58
 90
        2
176
     1
 90
        2
176
     1
 90
        1
176
     1
 90
        2
176
     1
 40
0.6
176
     1
 40
30.0
176
     1
 62
     7
420
 16777215
176
     1
 90
        1
176
     1
 90
        0
176
     1
 62
     7
176
     1
 62
   257
176
     1
 90
        1
176
     1
 90
        1
176
     1
 40
1.0
176
     1
 90
        0
176
     1
 62
   257
176
     1
 40
1.0
176
     1
 90
        1
176
     1
 90
        6
176
     1
 90
        2
176
     1
 62
     7
176
     1
 90
        5
176
     1
 90
        0
176
     1
 90
        0
176
     1
290
     0
176
     1
 90
       13
176
     1
 40
0.0
176
     1
 90
        0
176
     1
290
     0
176
     1
290
     1
176
     1
290
     1
176
     1
290
     0
176
     1
290
     0
176
     1
290
     0
176
     1
290
     0
176
     1
290
     0
176
     1
290
     0
176
     1
 90
       50
176
     1
 40
0.0
176
     1
 40
1.0
176
     1
 90
        0
176
     1
 62
    18
420
        0
176
     1
 90
       50
176
     1
 90
        3
176
     1
 62
     5
420
      255
176
     1
290
     0
176
     1
 90
       50
176
     1
 90
       50
176
     1
 90
       50
176
     1
290
     0
176
     1
 90
       50
176
     1
 62
   256
176
     0
 40
1.0
176
     0
 90
        2
176
     1
  1
strokes_ogs.tif
176
     1
290
     0
176
     1
 40
1.0
176
     1
 40
1.0
176
     1
  0
VISUALSTYLE
  5
31
102
{ACAD_REACTORS
330
29
102
}
330
29
100
AcDbVisualStyle
  2
Hidden
 70
     6
177
     3
291
     0
 70
    58
 90
        1
176
     1
 90
        2
176
     1
 90
        2
176
     1
 90
        0
176
     1
 40
0.6
176
     1
 40
30.0
176
     1
 62
     7
420
 16777215
176
     1
 90
        2
176
     1
 90
        2
176
     1
 62
     7
176
     1
 62
   257
176
     1
 90
        2
176
     1
 90
        1
176
     1
 40
40.0
176
     1
 90
        0
176
     1
 62
   257
176
     1
 40
1.0
176
     1
 90
        1
176
     1
 90
        6
176
     1
 90
        2
176
     1
 62
     7
176
     1
 90
        3
176
     1
 90
        0
176
     1
 90
        0
176
     1
290
     0
176
     1
 90
        1
176
     1
 40
0.0
176
     1
 90
        0
176
     1
290
     0
176
     1
290
     1
176
     1
290
     1
176
     1
290
     0
176
     1
290
     0
176
     1
290
     0
176
     1
290
     0
176
     1
290
     0
176
     1
290
     0
176
     1
 90
       50
176
     1
 40
0.0
176
     1
 40
1.0
176
     1
 90
        0
176
     1
 62
    18
420
        0
176
     1
 90
       50
176
     1
 90
        3
176
     1
 62
     5
420
      255
176
     1
290
     0
176
     1
 90
       50
176
     1
 90
       50
176
     1
 90
       50
176
     1
290
     0
176
     1
 90
       50
176
     1
 62
   256
176
     0
 40
1.0
176
     0
 90
        2
176
     1
  1
strokes_ogs.tif
176
     1
290
     0
176
     1
 40
1.0
176
     1
 40
1.0
176
     1
  0
VISUALSTYLE
  5
3F
102
{ACAD_REACTORS
330
29
102
}
330
29
100
AcDbVisualStyle
  2
JitterOff
 70
    20
177
     3
291
     1
 70
    58
 90
        2
176
     0
 90
        2
176
     0
 90
        0
176
     0
 90
        0
176
     0
 40
0.6
176
     0
 40
30.0
176
     0
 62
     7
420
 16777215
176
     0
 90
        1
176
     0
 90
        4
176
     0
 62
     7
176
     0
 62
   257
176
     0
 90
        1
176
     0
 90
        1
176
     0
 40
1.0
176
     0
 90
       10
176
     2
 62
     7
176
     0
 40
1.0
176
     0
 90
        1
176
     0
 90
        6
176
     0
 90
        2
176
     0
 62
     7
176
     0
 90
        5
176
     0
 90
        0
176
     0
 90
        0
176
     0
290
     0
176
     0
 90
        1
176
     0
 40
0.0
176
     0
 90
        0
176
     0
290
     0
176
     0
290
     1
176
     0
290
     1
176
     0
290
     0
176
     0
290
     0
176
     0
290
     0
176
     0
290
     0
176
     0
290
     0
176
     0
290
     0
176
     0
 90
       50
176
     0
 40
0.0
176
     0
 40
1.0
176
     0
 90
        0
176
     0
 62
    18
420
        0
176
     0
 90
       50
176
     0
 90
        3
176
     0
 62
     5
420
      255
176
     0
290
     0
176
     0
 90
       50
176
     0
 90
       50
176
     0
 90
       50
176
     0
290
     0
176
     0
 90
       50
176
     0
 62
   256
176
     0
 40
1.0
176
     0
 90
        2
176
     0
  1
strokes_ogs.tif
176
     0
290
     0
176
     0
 40
1.0
176
     0
 40
1.0
176
     0
  0
VISUALSTYLE
  5
37
102
{ACAD_REACTORS
330
29
102
}
330
29
100
AcDbVisualStyle
  2
Linepattern
 70
    14
177
     3
291
     1
 70
    58
 90
        2
176
     1
 90
        2
176
     1
 90
        0
176
     1
 90
        0
176
     1
 40
0.6
176
     1
 40
30.0
176
     1
 62
     7
420
 16777215
176
     1
 90
        1
176
     1
 90
        4
176
     1
 62
     7
176
     1
 62
   257
176
     1
 90
        7
176
     1
 90
        7
176
     1
 40
1.0
176
     1
 90
        8
176
     1
 62
     7
176
     1
 40
1.0
176
     1
 90
        1
176
     1
 90
        6
176
     1
 90
        2
176
     1
 62
     7
176
     1
 90
        5
176
     1
 90
        0
176
     1
 90
        0
176
     1
290
     0
176
     1
 90
        1
176
     1
 40
0.0
176
     1
 90
        0
176
     1
290
     0
176
     1
290
     1
176
     1
290
     1
176
     1
290
     0
176
     1
290
     0
176
     1
290
     0
176
     1
290
     0
176
     1
290
     0
176
     1
290
     0
176
     1
 90
       50
176
     1
 40
0.0
176
     1
 40
1.0
176
     1
 90
        0
176
     1
 62
    18
420
        0
176
     1
 90
       50
176
     1
 90
        3
176
     1
 62
     5
420
      255
176
     1
290
     0
176
     1
 90
       50
176
     1
 90
       50
176
     1
 90
       50
176
     1
290
     0
176
     1
 90
       50
176
     1
 62
   256
176
     0
 40
1.0
176
     0
 90
        2
176
     1
  1
strokes_ogs.tif
176
     1
290
     0
176
     1
 40
1.0
176
     1
 40
1.0
176
     1
  0
VISUALSTYLE
  5
40
102
{ACAD_REACTORS
330
29
102
}
330
29
100
AcDbVisualStyle
  2
OverhangOff
 70
    21
177
     3
291
     1
 70
    58
 90
        2
176
     0
 90
        2
176
     0
 90
        0
176
     0
 90
        0
176
     0
 40
0.6
176
     0
 40
30.0
176
     0
 62
     7
420
 16777215
176
     0
 90
        1
176
     0
 90
        4
176
     0
 62
     7
176
     0
 62
   257
176
     0
 90
        1
176
     0
 90
        1
176
     0
 40
1.0
176
     0
 90
        9
176
     2
 62
     7
176
     0
 40
1.0
176
     0
 90
        1
176
     0
 90
        6
176
     0
 90
        2
176
     0
 62
     7
176
     0
 90
        5
176
     0
 90
        0
176
     0
 90
        0
176
     0
290
     0
176
     0
 90
        1
176
     0
 40
0.0
176
     0
 90
        0
176
     0
290
     0
176
     0
290
     1
176
     0
290
     1
176
     0
290
     0
176
     0
290
     0
176
     0
290
     0
176
     0
290
     0
176
     0
290
     0
176
     0
290
     0
176
     0
 90
       50
176
     0
 40
0.0
176
     0
 40
1.0
176
     0
 90
        0
176
     0
 62
    18
420
        0
176
     0
 90
       50
176
     0
 90
        3
176
     0
 62
     5
420
      255
176
     0
290
     0
176
     0
 90
       50
176
     0
 90
       50
176
     0
 90
       50
176
     0
290
     0
176
     0
 90
       50
176
     0
 62
   256
176
     0
 40
1.0
176
     0
 90
        2
176
     0
  1
strokes_ogs.tif
176
     0
290
     0
176
     0
 40
1.0
176
     0
 40
1.0
176
     0
  0
VISUALSTYLE
  5
33
102
{ACAD_REACTORS
330
29
102
}
330
29
100
AcDbVisualStyle
  2
Realistic
 70
     8
177
     3
291
     0
 70
    58
 90
        2
176
     1
 90
        3
176
     1
 90
        0
176
     1
 90
        2
176
     1
 40
0.6
176
     1
 40
30.0
176
     1
 62
     7
420
 16777215
176
     1
 90
        0
176
     1
 90
        0
176
     1
 62
     7
176
     1
 62
   257
176
     1
 90
        1
176
     1
 90
        1
176
     1
 40
1.0
176
     1
 90
        8
176
     1
 62
   257
176
     1
 40
1.0
176
     1
 90
        1
176
     1
 90
        6
176
     1
 90
        2
176
     1
 62
     7
176
     1
 90
        3
176
     1
 90
        0
176
     1
 90
        0
176
     1
290
     0
176
     1
 90
       13
176
     1
 40
0.0
176
     1
 90
        0
176
     1
290
     0
176
     1
290
     1
176
     1
290
     1
176
     1
290
     0
176
     1
290
     0
176
     1
290
     0
176
     1
290
     0
176
     1
290
     0
176
     1
290
     0
176
     1
 90
       50
176
     1
 40
0.0
176
     1
 40
1.0
176
     1
 90
        0
176
     1
 62
    18
420
        0
176
     1
 90
       50
176
     1
 90
        3
176
     1
 62
     5
420
      255
176
     1
290
     0
176
     1
 90
       50
176
     1
 90
       50
176
     1
 90
       50
176
     1
290
     0
176
     1
 90
       50
176
     1
 62
   256
176
     0
 40
1.0
176
     0
 90
        2
176
     1
  1
strokes_ogs.tif
176
     1
290
     0
176
     1
 40
1.0
176
     1
 40
1.0
176
     1
  0
VISUALSTYLE
  5
3E
102
{ACAD_REACTORS
330
29
102
}
330
29
100
AcDbVisualStyle
  2
Shaded
 70
    27
177
     3
291
     0
 70
    58
 90
        2
176
     1
 90
        2
176
     1
 90
        1
176
     1
 90
        2
176
     1
 40
0.6
176
     1
 40
30.0
176
     1
 62
     7
420
 16777215
176
     1
 90
        0
176
     1
 90
        4
176
     1
 62
     7
176
     1
 62
   257
176
     1
 90
        1
176
     1
 90
        1
176
     1
 40
1.0
176
     1
 90
        8
176
     1
 62
   257
176
     1
 40
1.0
176
     1
 90
        1
176
     1
 90
        6
176
     1
 90
        2
176
     1
 62
     8
420
  7895160
176
     1
 90
        3
176
     1
 90
        0
176
     1
 90
        0
176
     1
290
     0
176
     1
 90
        5
176
     1
 40
0.0
176
     1
 90
        0
176
     1
290
     0
176
     1
290
     1
176
     1
290
     1
176
     1
290
     0
176
     1
290
     0
176
     1
290
     0
176
     1
290
     0
176
     1
290
     0
176
     1
290
     0
176
     1
 90
       50
176
     1
 40
0.0
176
     1
 40
1.0
176
     1
 90
        0
176
     1
 62
    18
420
        0
176
     1
 90
       50
176
     1
 90
        3
176
     1
 62
     5
420
      255
176
     1
290
     0
176
     1
 90
       50
176
     1
 90
       50
176
     1
 90
       50
176
     1
290
     0
176
     1
 90
       50
176
     1
 62
   256
176
     0
 40
1.0
176
     0
 90
        2
176
     1
  1
strokes_ogs.tif
176
     1
290
     0
176
     1
 40
1.0
176
     1
 40
1.0
176
     1
  0
VISUALSTYLE
  5
3D
102
{ACAD_REACTORS
330
29
102
}
330
29
100
AcDbVisualStyle
  2
Shaded with edges
 70
    26
177
     3
291
     0
 70
    58
 90
        2
176
     1
 90
        2
176
     1
 90
        1
176
     1
 90
        2
176
     1
 40
0.6
176
     1
 40
30.0
176
     1
 62
     7
420
 16777215
176
     1
 90
        1
176
     1
 90
        2
176
     1
 62
     7
176
     1
 62
   257
176
     1
 90
        2
176
     1
 90
        1
176
     1
 40
1.0
176
     1
 90
        8
176
     1
 62
   257
176
     1
 40
1.0
176
     1
 90
        1
176
     1
 90
        6
176
     1
 90
        2
176
     1
 62
     7
176
     1
 90
        3
176
     1
 90
        0
176
     1
 90
        0
176
     1
290
     0
176
     1
 90
        5
176
     1
 40
0.0
176
     1
 90
        0
176
     1
290
     0
176
     1
290
     1
176
     1
290
     1
176
     1
290
     0
176
     1
290
     0
176
     1
290
     0
176
     1
290
     0
176
     1
290
     0
176
     1
290
     0
176
     1
 90
       50
176
     1
 40
0.0
176
     1
 40
1.0
176
     1
 90
        0
176
     1
 62
    18
420
        0
176
     1
 90
       50
176
     1
 90
        3
176
     1
 62
     5
420
      255
176
     1
290
     0
176
     1
 90
       50
176
     1
 90
       50
176
     1
 90
       50
176
     1
290
     0
176
     1
 90
       50
176
     1
 62
   256
176
     0
 40
1.0
176
     0
 90
        2
176
     1
  1
strokes_ogs.tif
176
     1
290
     0
176
     1
 40
1.0
176
     1
 40
1.0
176
     1
  0
VISUALSTYLE
  5
3A
102
{ACAD_REACTORS
330
29
102
}
330
29
100
AcDbVisualStyle
  2
Shades of Gray
 70
    23
177
     3
291
     0
 70
    58
 90
        2
176
     1
 90
        2
176
     1
 90
        3
176
     1
 90
        0
176
     1
 40
0.6
176
     1
 40
30.0
176
     1
 62
     7
420
 16777215
176
     1
 90
        2
176
     1
 90
        2
176
     1
 62
     7
176
     1
 62
     7
176
     1
 90
        1
176
     1
 90
        1
176
     1
 40
40.0
176
     1
 90
        8
176
     1
 62
     7
176
     1
 40
1.0
176
     1
 90
        1
176
     1
 90
        6
176
     1
 90
        2
176
     1
 62
     7
176
     1
 90
        3
176
     1
 90
        0
176
     1
 90
        0
176
     1
290
     0
176
     1
 90
        1
176
     1
 40
0.0
176
     1
 90
        0
176
     1
290
     0
176
     1
290
     1
176
     1
290
     1
176
     1
290
     0
176
     1
290
     0
176
     1
290
     0
176
     1
290
     0
176
     1
290
     0
176
     1
290
     0
176
     1
 90
       50
176
     1
 40
0.0
176
     1
 40
1.0
176
     1
 90
        0
176
     1
 62
    18
420
        0
176
     1
 90
       50
176
     1
 90
        3
176
     1
 62
     5
420
      255
176
     1
290
     0
176
     1
 90
       50
176
     1
 90
       50
176
     1
 90
       50
176
     1
290
     0
176
     1
 90
       50
176
     1
 62
   256
176
     0
 40
1.0
176
     0
 90
        2
176
     1
  1
strokes_ogs.tif
176
     1
290
     0
176
     1
 40
1.0
176
     1
 40
1.0
176
     1
  0
VISUALSTYLE
  5
3B
102
{ACAD_REACTORS
330
29
102
}
330
29
100
AcDbVisualStyle
  2
Sketchy
 70
    24
177
     3
291
     0
 70
    58
 90
        1
176
     1
 90
        2
176
     1
 90
        2
176
     1
 90
        0
176
     1
 40
0.6
176
     1
 40
30.0
176
     1
 62
     7
420
 16777215
176
     1
 90
        2
176
     1
 90
        2
176
     1
 62
     7
176
     1
 62
     7
176
     1
 90
        1
176
     1
 90
        1
176
     1
 40
40.0
176
     1
 90
       11
176
     1
 62
     7
176
     1
 40
1.0
176
     1
 90
        1
176
     1
 90
        6
176
     1
 90
        2
176
     1
 62
     7
176
     1
 90
        6
176
     1
 90
        0
176
     1
 90
        0
176
     1
290
     0
176
     1
 90
        1
176
     1
 40
0.0
176
     1
 90
        0
176
     1
290
     0
176
     1
290
     1
176
     1
290
     1
176
     1
290
     0
176
     1
290
     0
176
     1
290
     0
176
     1
290
     0
176
     1
290
     0
176
     1
290
     0
176
     1
 90
       50
176
     1
 40
0.0
176
     1
 40
1.0
176
     1
 90
        0
176
     1
 62
    18
420
        0
176
     1
 90
       50
176
     1
 90
        3
176
     1
 62
     5
420
      255
176
     1
290
     0
176
     1
 90
       50
176
     1
 90
       50
176
     1
 90
       50
176
     1
290
     0
176
     1
 90
       50
176
     1
 62
   256
176
     0
 40
1.0
176
     0
 90
        2
176
     1
  1
strokes_ogs.tif
176
     1
290
     0
176
     1
 40
1.0
176
     1
 40
1.0
176
     1
  0
VISUALSTYLE
  5
36
102
{ACAD_REACTORS
330
29
102
}
330
29
100
AcDbVisualStyle
  2
Thicken
 70
    13
177
     3
291
     1
 70
    58
 90
        2
176
     1
 90
        2
176
     1
 90
        0
176
     1
 90
        0
176
     1
 40
0.6
176
     1
 40
30.0
176
     1
 62
     7
420
 16777215
176
     1
 90
        1
176
     1
 90
        4
176
     1
 62
     7
176
     1
 62
   257
176
     1
 90
        1
176
     1
 90
        1
176
     1
 40
1.0
176
     1
 90
       12
176
     1
 62
     7
176
     1
 40
1.0
176
     1
 90
        1
176
     1
 90
        6
176
     1
 90
        2
176
     1
 62
     7
176
     1
 90
        5
176
     1
 90
        0
176
     1
 90
        0
176
     1
290
     0
176
     1
 90
        1
176
     1
 40
0.0
176
     1
 90
        0
176
     1
290
     0
176
     1
290
     1
176
     1
290
     1
176
     1
290
     0
176
     1
290
     0
176
     1
290
     0
176
     1
290
     0
176
     1
290
     0
176
     1
290
     0
176
     1
 90
       50
176
     1
 40
0.0
176
     1
 40
1.0
176
     1
 90
        0
176
     1
 62
    18
420
        0
176
     1
 90
       50
176
     1
 90
        3
176
     1
 62
     5
420
      255
176
     1
290
     0
176
     1
 90
       50
176
     1
 90
       50
176
     1
 90
       50
176
     1
290
     0
176
     1
 90
       50
176
     1
 62
   256
176
     0
 40
1.0
176
     0
 90
        2
176
     1
  1
strokes_ogs.tif
176
     1
290
     0
176
     1
 40
1.0
176
     1
 40
1.0
176
     1
  0
VISUALSTYLE
  5
30
102
{ACAD_REACTORS
330
29
102
}
330
29
100
AcDbVisualStyle
  2
Wireframe
 70
     5
177
     3
291
     0
 70
    58
 90
        0
176
     1
 90
        2
176
     1
 90
        0
176
     1
 90
        0
176
     1
 40
0.6
176
     1
 40
30.0
176
     1
 62
     7
420
 16777215
176
     1
 90
        1
176
     1
 90
        4
176
     1
 62
     7
176
     1
 62
   257
176
     1
 90
        1
176
     1
 90
        1
176
     1
 40
1.0
176
     1
 90
        0
176
     1
 62
   257
176
     1
 40
1.0
176
     1
 90
        1
176
     1
 90
        6
176
     1
 90
        2
176
     1
 62
     7
176
     1
 90
        3
176
     1
 90
        0
176
     1
 90
        0
176
     1
290
     0
176
     1
 90
        1
176
     1
 40
0.0
176
     1
 90
        0
176
     1
290
     0
176
     1
290
     1
176
     1
290
     1
176
     1
290
     0
176
     1
290
     0
176
     1
290
     0
176
     1
290
     0
176
     1
290
     0
176
     1
290
     0
176
     1
 90
       50
176
     1
 40
0.0
176
     1
 40
1.0
176
     1
 90
        0
176
     1
 62
    18
420
        0
176
     1
 90
       50
176
     1
 90
        3
176
     1
 62
     5
420
      255
176
     1
290
     0
176
     1
 90
       50
176
     1
 90
       50
176
     1
 90
       50
176
     1
290
     0
176
     1
 90
       50
176
     1
 62
   256
176
     0
 40
1.0
176
     0
 90
        2
176
     1
  1
strokes_ogs.tif
176
     1
290
     0
176
     1
 40
1.0
176
     1
 40
1.0
176
     1
  0
VISUALSTYLE
  5
3C
102
{ACAD_REACTORS
330
29
102
}
330
29
100
AcDbVisualStyle
  2
X-Ray
 70
    25
177
     3
291
     0
 70
    58
 90
        2
176
     1
 90
        2
176
     1
 90
        1
176
     1
 90
        1
176
     1
 40
0.5
176
     1
 40
30.0
176
     1
 62
     7
420
 16777215
176
     1
 90
        1
176
     1
 90
        0
176
     1
 62
     7
176
     1
 62
   257
176
     1
 90
        1
176
     1
 90
        1
176
     1
 40
1.0
176
     1
 90
        8
176
     1
 62
     7
176
     1
 40
1.0
176
     1
 90
        1
176
     1
 90
        6
176
     1
 90
        2
176
     1
 62
     7
176
     1
 90
        3
176
     1
 90
        0
176
     1
 90
        0
176
     1
290
     0
176
     1
 90
       13
176
     1
 40
0.0
176
     1
 90
        0
176
     1
290
     0
176
     1
290
     1
176
     1
290
     1
176
     1
290
     0
176
     1
290
     0
176
     1
290
     0
176
     1
290
     0
176
     1
290
     0
176
     1
290
     0
176
     1
 90
       50
176
     1
 40
0.0
176
     1
 40
1.0
176
     1
 90
        0
176
     1
 62
    18
420
        0
176
     1
 90
       50
176
     1
 90
        3
176
     1
 62
     5
420
      255
176
     1
290
     0
176
     1
 90
       50
176
     1
 90
       50
176
     1
 90
       50
176
     1
290
     0
176
     1
 90
       50
176
     1
 62
   256
176
     0
 40
1.0
176
     0
 90
        2
176
     1
  1
strokes_ogs.tif
176
     1
290
     0
176
     1
 40
1.0
176
     1
 40
1.0
176
     1
  0
DICTIONARYVAR
  5
281
102
{ACAD_REACTORS
330
27C
102
}
330
27C
100
DictionaryVariables
280
     0
  1
1:1
  0
DICTIONARYVAR
  5
27E
102
{ACAD_REACTORS
330
27C
102
}
330
27C
100
DictionaryVariables
280
     0
  1
STANDARD
  0
DICTIONARYVAR
  5
27D
102
{ACAD_REACTORS
330
27C
102
}
330
27C
100
DictionaryVariables
280
     0
  1
STANDARD
  0
DICTIONARYVAR
  5
27F
102
{ACAD_REACTORS
330
27C
102
}
330
27C
100
DictionaryVariables
280
     0
  1
Imperial24
  0
DICTIONARYVAR
  5
280
102
{ACAD_REACTORS
330
27C
102
}
330
27C
100
DictionaryVariables
280
     0
  1
Imperial24
  0
DICTIONARY
  5
1A
330
19
100
AcDbDictionary
280
     1
281
     1
  3
BUMPTILE
360
1C
  3
DIFFUSETILE
360
1B
  3
OPACITYTILE
360
1F
  3
REFLECTIONTILE
360
1E
  3
REFRACTIONTILE
360
20
  3
SPECULARTILE
360
1D
  0
DICTIONARY
  5
12
330
11
100
AcDbDictionary
280
     1
281
     1
  3
BUMPTILE
360
14
  3
DIFFUSETILE
360
13
  3
OPACITYTILE
360
17
  3
REFLECTIONTILE
360
16
  3
REFRACTIONTILE
360
18
  3
SPECULARTILE
360
15
  0
DICTIONARY
  5
22
330
21
100
AcDbDictionary
280
     1
281
     1
  3
BUMPTILE
360
24
  3
DIFFUSETILE
360
23
  3
OPACITYTILE
360
27
  3
REFLECTIONTILE
360
26
  3
REFRACTIONTILE
360
28
  3
SPECULARTILE
360
25
  0
DICTIONARY
  5
282
330
65
100
AcDbDictionary
280
     1
281
     1
  3
ACAD_ROUNDTRIP_2008_TABLESTYLE_CELLSTYLEMAP
360
283
  0
XRECORD
  5
1C
102
{ACAD_REACTORS
330
1A
102
}
330
1A
100
AcDbXrecord
280
     1
270
     1
271
     1
  0
XRECORD
  5
1B
102
{ACAD_REACTORS
330
1A
102
}
330
1A
100
AcDbXrecord
280
     1
270
     1
271
     1
  0
XRECORD
  5
1F
102
{ACAD_REACTORS
330
1A
102
}
330
1A
100
AcDbXrecord
280
     1
270
     1
271
     1
  0
XRECORD
  5
1E
102
{ACAD_REACTORS
330
1A
102
}
330
1A
100
AcDbXrecord
280
     1
270
     1
271
     1
  0
XRECORD
  5
20
102
{ACAD_REACTORS
330
1A
102
}
330
1A
100
AcDbXrecord
280
     1
270
     1
271
     1
  0
XRECORD
  5
1D
102
{ACAD_REACTORS
330
1A
102
}
330
1A
100
AcDbXrecord
280
     1
270
     1
271
     1
  0
XRECORD
  5
14
102
{ACAD_REACTORS
330
12
102
}
330
12
100
AcDbXrecord
280
     1
270
     1
271
     1
  0
XRECORD
  5
13
102
{ACAD_REACTORS
330
12
102
}
330
12
100
AcDbXrecord
280
     1
270
     1
271
     1
  0
XRECORD
  5
17
102
{ACAD_REACTORS
330
12
102
}
330
12
100
AcDbXrecord
280
     1
270
     1
271
     1
  0
XRECORD
  5
16
102
{ACAD_REACTORS
330
12
102
}
330
12
100
AcDbXrecord
280
     1
270
     1
271
     1
  0
XRECORD
  5
18
102
{ACAD_REACTORS
330
12
102
}
330
12
100
AcDbXrecord
280
     1
270
     1
271
     1
  0
XRECORD
  5
15
102
{ACAD_REACTORS
330
12
102
}
330
12
100
AcDbXrecord
280
     1
270
     1
271
     1
  0
XRECORD
  5
24
102
{ACAD_REACTORS
330
22
102
}
330
22
100
AcDbXrecord
280
     1
270
     1
271
     1
  0
XRECORD
  5
23
102
{ACAD_REACTORS
330
22
102
}
330
22
100
AcDbXrecord
280
     1
270
     1
271
     1
  0
XRECORD
  5
27
102
{ACAD_REACTORS
330
22
102
}
330
22
100
AcDbXrecord
280
     1
270
     1
271
     1
  0
XRECORD
  5
26
102
{ACAD_REACTORS
330
22
102
}
330
22
100
AcDbXrecord
280
     1
270
     1
271
     1
  0
XRECORD
  5
28
102
{ACAD_REACTORS
330
22
102
}
330
22
100
AcDbXrecord
280
     1
270
     1
271
     1
  0
XRECORD
  5
25
102
{ACAD_REACTORS
330
22
102
}
330
22
100
AcDbXrecord
280
     1
270
     1
271
     1
  0
CELLSTYLEMAP
  5
283
102
{ACAD_REACTORS
330
282
102
}
330
282
100
AcDbCellStyleMap
 90
        3
300
CELLSTYLE
  1
TABLEFORMAT_BEGIN
 90
        5
170
     1
 91
        0
 92
    32768
 62
   257
 93
        1
300
CONTENTFORMAT
  1
CONTENTFORMAT_BEGIN
 90
        0
 91
        0
 92
      512
 93
        0
300

 40
0.0
140
1.0
 94
        5
 62
     0
340
55
144
0.25
309
CONTENTFORMAT_END
171
     0
 94
        0
309
TABLEFORMAT_END
  1
CELLSTYLE_BEGIN
 90
        1
 91
        1
300
_TITLE
309
CELLSTYLE_END
300
CELLSTYLE
  1
TABLEFORMAT_BEGIN
 90
        5
170
     1
 91
        0
 92
        0
 62
   257
 93
        1
300
CONTENTFORMAT
  1
CONTENTFORMAT_BEGIN
 90
        0
 91
        0
 92
      512
 93
        0
300

 40
0.0
140
1.0
 94
        5
 62
     0
340
55
144
0.18
309
CONTENTFORMAT_END
171
     0
 94
        0
309
TABLEFORMAT_END
  1
CELLSTYLE_BEGIN
 90
        2
 91
        1
300
_HEADER
309
CELLSTYLE_END
300
CELLSTYLE
  1
TABLEFORMAT_BEGIN
 90
        5
170
     1
 91
        0
 92
        0
 62
   257
 93
        1
300
CONTENTFORMAT
  1
CONTENTFORMAT_BEGIN
 90
        0
 91
        0
 92
      512
 93
        0
300

 40
0.0
140
1.0
 94
        2
 62
     0
340
55
144
0.18
309
CONTENTFORMAT_END
171
     0
 94
        0
309
TABLEFORMAT_END
  1
CELLSTYLE_BEGIN
 90
        3
 91
        2
300
_DATA
309
CELLSTYLE_END
  0
ENDSEC
  0
EOF
