  0
SECTION
  2
HEADER
  9
$ACADVER
  1
AC1032
  9
$ACADMAINTVER
 90
      228
  9
$DWGCODEPAGE
  3
ANSI_1252
  9
$REQUIREDVERSIONS
160
                 0
  9
$INSBASE
 10
0.0
 20
0.0
 30
0.0
  9
$EXTMIN
 10
1.000000000000000E+20
 20
1.000000000000000E+20
 30
1.000000000000000E+20
  9
$EXTMAX
 10
-1.000000000000000E+20
 20
-1.000000000000000E+20
 30
-1.000000000000000E+20
  9
$LIMMIN
 10
0.0
 20
0.0
  9
$LIMMAX
 10
12.0
 20
9.0
  9
$ORTHOMODE
 70
     0
  9
$REGENMODE
 70
     1
  9
$FILLMODE
 70
     1
  9
$QTEXTMODE
 70
     0
  9
$MIRRTEXT
 70
     0
  9
$LTSCALE
 40
1.0
  9
$ATTMODE
 70
     1
  9
$TEXTSIZE
 40
0.2
  9
$TRACEWID
 40
0.05
  9
$TEXTSTYLE
  7
Standard
  9
$CLAYER
  8
0
  9
$CELTYPE
  6
ByLayer
  9
$CECOLOR
 62
   256
  9
$CELTSCALE
 40
1.0
  9
$DISPSILH
 70
     0
  9
$DIMSCALE
 40
1.0
  9
$DIMASZ
 40
0.18
  9
$DIMEXO
 40
0.0625
  9
$DIMDLI
 40
0.38
  9
$DIMRND
 40
0.0
  9
$DIMDLE
 40
0.0
  9
$DIMEXE
 40
0.18
  9
$DIMTP
 40
0.0
  9
$DIMTM
 40
0.0
  9
$DIMTXT
 40
0.18
  9
$DIMCEN
 40
0.09
  9
$DIMTSZ
 40
0.0
  9
$DIMTOL
 70
     0
  9
$DIMLIM
 70
     0
  9
$DIMTIH
 70
     1
  9
$DIMTOH
 70
     1
  9
$DIMSE1
 70
     0
  9
$DIMSE2
 70
     0
  9
$DIMTAD
 70
     0
  9
$DIMZIN
 70
     0
  9
$DIMBLK
  1

  9
$DIMASO
 70
     1
  9
$DIMSHO
 70
     1
  9
$DIMPOST
  1

  9
$DIMAPOST
  1

  9
$DIMALT
 70
     0
  9
$DIMALTD
 70
     2
  9
$DIMALTF
 40
25.4
  9
$DIMLFAC
 40
1.0
  9
$DIMTOFL
 70
     0
  9
$DIMTVP
 40
0.0
  9
$DIMTIX
 70
     0
  9
$DIMSOXD
 70
     0
  9
$DIMSAH
 70
     0
  9
$DIMBLK1
  1

  9
$DIMBLK2
  1

  9
$DIMSTYLE
  2
Standard
  9
$DIMCLRD
 70
     0
  9
$DIMCLRE
 70
     0
  9
$DIMCLRT
 70
     0
  9
$DIMTFAC
 40
1.0
  9
$DIMGAP
 40
0.09
  9
$DIMJUST
 70
     0
  9
$DIMSD1
 70
     0
  9
$DIMSD2
 70
     0
  9
$DIMTOLJ
 70
     1
  9
$DIMTZIN
 70
     0
  9
$DIMALTZ
 70
     0
  9
$DIMALTTZ
 70
     0
  9
$DIMUPT
 70
     0
  9
$DIMDEC
 70
     4
  9
$DIMTDEC
 70
     4
  9
$DIMALTU
 70
     2
  9
$DIMALTTD
 70
     2
  9
$DIMTXSTY
  7
Standard
  9
$DIMAUNIT
 70
     0
  9
$DIMADEC
 70
     0
  9
$DIMALTRND
 40
0.0
  9
$DIMAZIN
 70
     0
  9
$DIMDSEP
 70
    46
  9
$DIMATFIT
 70
     3
  9
$DIMFRAC
 70
     0
  9
$DIMLDRBLK
  1

  9
$DIMLUNIT
 70
     2
  9
$DIMLWD
 70
    -2
  9
$DIMLWE
 70
    -2
  9
$DIMTMOVE
 70
     0
  9
$DIMFXL
 40
1.0
  9
$DIMFXLON
 70
     0
  9
$DIMJOGANG
 40
0.7853981633974483
  9
$DIMTFILL
 70
     0
  9
$DIMTFILLCLR
 70
     0
  9
$DIMARCSYM
 70
     0
  9
$DIMLTYPE
  6

  9
$DIMLTEX1
  6

  9
$DIMLTEX2
  6

  9
$DIMTXTDIRECTION
 70
     0
  9
$LUNITS
 70
     2
  9
$LUPREC
 70
     4
  9
$SKETCHINC
 40
0.1
  9
$FILLETRAD
 40
0.0
  9
$AUNITS
 70
     0
  9
$AUPREC
 70
     0
  9
$MENU
  1
.
  9
$ELEVATION
 40
0.0
  9
$PELEVATION
 40
0.0
  9
$THICKNESS
 40
0.0
  9
$LIMCHECK
 70
     0
  9
$CHAMFERA
 40
0.0
  9
$CHAMFERB
 40
0.0
  9
$CHAMFERC
 40
0.0
  9
$CHAMFERD
 40
0.0
  9
$SKPOLY
 70
     0
  9
$TDCREATE
 40
2460458.542476852
  9
$TDUCREATE
 40
2460458.500810185
  9
$TDUPDATE
 40
2460458.542476852
  9
$TDUUPDATE
 40
2460458.500810185
  9
$TDINDWG
 40
0.0000000000
  9
$TDUSRTIMER
 40
0.0000000000
  9
$USRTIMER
 70
     1
  9
$ANGBASE
 50
0.0
  9
$ANGDIR
 70
     0
  9
$PDMODE
 70
     0
  9
$PDSIZE
 40
0.0
  9
$PLINEWID
 40
0.0
  9
$SPLFRAME
 70
     0
  9
$SPLINETYPE
 70
     6
  9
$SPLINESEGS
 70
     8
  9
$HANDSEED
  5
26B
  9
$SURFTAB1
 70
     6
  9
$SURFTAB2
 70
     6
  9
$SURFTYPE
 70
     6
  9
$SURFU
 70
     6
  9
$SURFV
 70
     6
  9
$UCSBASE
  2

  9
$UCSNAME
  2

  9
$UCSORG
 10
0.0
 20
0.0
 30
0.0
  9
$UCSXDIR
 10
1.0
 20
0.0
 30
0.0
  9
$UCSYDIR
 10
0.0
 20
1.0
 30
0.0
  9
$UCSORTHOREF
  2

  9
$UCSORTHOVIEW
 70
     0
  9
$UCSORGTOP
 10
0.0
 20
0.0
 30
0.0
  9
$UCSORGBOTTOM
 10
0.0
 20
0.0
 30
0.0
  9
$UCSORGLEFT
 10
0.0
 20
0.0
 30
0.0
  9
$UCSORGRIGHT
 10
0.0
 20
0.0
 30
0.0
  9
$UCSORGFRONT
 10
0.0
 20
0.0
 30
0.0
  9
$UCSORGBACK
 10
0.0
 20
0.0
 30
0.0
  9
$PUCSBASE
  2

  9
$PUCSNAME
  2

  9
$PUCSORG
 10
0.0
 20
0.0
 30
0.0
  9
$PUCSXDIR
 10
1.0
 20
0.0
 30
0.0
  9
$PUCSYDIR
 10
0.0
 20
1.0
 30
0.0
  9
$PUCSORTHOREF
  2

  9
$PUCSORTHOVIEW
 70
     0
  9
$PUCSORGTOP
 10
0.0
 20
0.0
 30
0.0
  9
$PUCSORGBOTTOM
 10
0.0
 20
0.0
 30
0.0
  9
$PUCSORGLEFT
 10
0.0
 20
0.0
 30
0.0
  9
$PUCSORGRIGHT
 10
0.0
 20
0.0
 30
0.0
  9
$PUCSORGFRONT
 10
0.0
 20
0.0
 30
0.0
  9
$PUCSORGBACK
 10
0.0
 20
0.0
 30
0.0
  9
$USERI1
 70
     0
  9
$USERI2
 70
     0
  9
$USERI3
 70
     0
  9
$USERI4
 70
     0
  9
$USERI5
 70
     0
  9
$USERR1
 40
0.0
  9
$USERR2
 40
0.0
  9
$USERR3
 40
0.0
  9
$USERR4
 40
0.0
  9
$USERR5
 40
0.0
  9
$WORLDVIEW
 70
     1
  9
$SHADEDGE
 70
     3
  9
$SHADEDIF
 70
    70
  9
$TILEMODE
 70
     1
  9
$MAXACTVP
 70
    64
  9
$PINSBASE
 10
0.0
 20
0.0
 30
0.0
  9
$PLIMCHECK
 70
     0
  9
$PEXTMIN
 10
1.000000000000000E+20
 20
1.000000000000000E+20
 30
1.000000000000000E+20
  9
$PEXTMAX
 10
-1.000000000000000E+20
 20
-1.000000000000000E+20
 30
-1.000000000000000E+20
  9
$PLIMMIN
 10
0.0
 20
0.0
  9
$PLIMMAX
 10
12.0
 20
9.0
  9
$UNITMODE
 70
     0
  9
$VISRETAIN
 70
     1
  9
$PLINEGEN
 70
     0
  9
$PSLTSCALE
 70
     1
  9
$TREEDEPTH
 70
  3020
  9
$CMLSTYLE
  2
Standard
  9
$CMLJUST
 70
     0
  9
$CMLSCALE
 40
1.0
  9
$PROXYGRAPHICS
 70
     1
  9
$MEASUREMENT
 70
     0
  9
$CELWEIGHT
370
    -1
  9
$ENDCAPS
280
     0
  9
$JOINSTYLE
280
     0
  9
$LWDISPLAY
290
     1
  9
$INSUNITS
 70
     4
  9
$HYPERLINKBASE
  1

  9
$STYLESHEET
  1

  9
$XEDIT
290
     1
  9
$CEPSNTYPE
380
     0
  9
$PSTYLEMODE
290
     1
  9
$FINGERPRINTGUID
  2
{FB2B2324-4425-094E-A032-EC9CBA08F34E}
  9
$VERSIONGUID
  2
{924FD16E-9D80-0142-A239-08956B89EA38}
  9
$EXTNAMES
290
     1
  9
$PSVPSCALE
 40
0.0
  9
$OLESTARTUP
290
     0
  9
$SORTENTS
280
   127
  9
$INDEXCTL
280
     0
  9
$HIDETEXT
280
     1
  9
$XCLIPFRAME
280
     2
  9
$HALOGAP
280
     0
  9
$OBSCOLOR
 70
   257
  9
$OBSLTYPE
280
     0
  9
$INTERSECTIONDISPLAY
280
     0
  9
$INTERSECTIONCOLOR
 70
   257
  9
$DIMASSOC
280
     2
  9
$PROJECTNAME
  1

  9
$CAMERADISPLAY
290
     0
  9
$LENSLENGTH
 40
50.0
  9
$CAMERAHEIGHT
 40
0.0
  9
$STEPSPERSEC
 40
2.0
  9
$STEPSIZE
 40
6.0
  9
$3DDWFPREC
 40
2.0
  9
$PSOLWIDTH
 40
0.25
  9
$PSOLHEIGHT
 40
4.0
  9
$LOFTANG1
 40
1.570796326794896
  9
$LOFTANG2
 40
1.570796326794896
  9
$LOFTMAG1
 40
0.0
  9
$LOFTMAG2
 40
0.0
  9
$LOFTPARAM
 70
     7
  9
$LOFTNORMALS
280
     1
  9
$LATITUDE
 40
37.795
  9
$LONGITUDE
 40
-122.394
  9
$NORTHDIRECTION
 40
0.0
  9
$TIMEZONE
 70
 -8000
  9
$LIGHTGLYPHDISPLAY
280
     1
  9
$TILEMODELIGHTSYNCH
280
     1
  9
$CMATERIAL
347
11
  9
$SOLIDHIST
280
     0
  9
$SHOWHIST
280
     1
  9
$DWFFRAME
280
     2
  9
$DGNFRAME
280
     0
  9
$REALWORLDSCALE
290
     1
  9
$INTERFERECOLOR
 62
     1
  9
$INTERFEREOBJVS
345
33
  9
$INTERFEREVPVS
346
30
  9
$CSHADOW
280
     0
  9
$SHADOWPLANELOCATION
 40
0.0
  0
ENDSEC
  0
SECTION
  2
CLASSES
  0
CLASS
  1
ACDBDICTIONARYWDFLT
  2
AcDbDictionaryWithDefault
  3
ObjectDBX Classes
 90
        0
 91
        1
280
     0
281
     0
  0
CLASS
  1
MATERIAL
  2
AcDbMaterial
  3
ObjectDBX Classes
 90
     1153
 91
        3
280
     0
281
     0
  0
CLASS
  1
VISUALSTYLE
  2
AcDbVisualStyle
  3
ObjectDBX Classes
 90
     4095
 91
       24
280
     0
281
     0
  0
CLASS
  1
SCALE
  2
AcDbScale
  3
ObjectDBX Classes
 90
     1153
 91
       17
280
     0
281
     0
  0
CLASS
  1
TABLESTYLE
  2
AcDbTableStyle
  3
ObjectDBX Classes
 90
     4095
 91
        1
280
     0
281
     0
  0
CLASS
  1
MLEADERSTYLE
  2
AcDbMLeaderStyle
  3
ACDB_MLEADERSTYLE_CLASS
 90
     4095
 91
        1
280
     0
281
     0
  0
CLASS
  1
ACDBSECTIONVIEWSTYLE
  2
AcDbSectionViewStyle
  3
ObjectDBX Classes
 90
     1025
 91
        1
280
     0
281
     0
  0
CLASS
  1
ACDBDETAILVIEWSTYLE
  2
AcDbDetailViewStyle
  3
ObjectDBX Classes
 90
     1025
 91
        1
280
     0
281
     0
  0
CLASS
  1
DICTIONARYVAR
  2
AcDbDictionaryVar
  3
ObjectDBX Classes
 90
        0
 91
        5
280
     0
281
     0
  0
CLASS
  1
CELLSTYLEMAP
  2
AcDbCellStyleMap
  3
ObjectDBX Classes
 90
     1152
 91
        1
280
     0
281
     0
  0
ENDSEC
  0
SECTION
  2
TABLES
  0
TABLE
  2
VPORT
  5
8
330
0
100
AcDbSymbolTable
 70
     1
  0
VPORT
  5
57
330
8
100
AcDbSymbolTableRecord
100
AcDbViewportTableRecord
  2
*Active
 70
     0
 10
0.0
 20
0.0
 11
1.0
 21
1.0
 12
0.0
 22
0.0
 13
0.0
 23
0.0
 14
1.0
 24
1.0
 15
0.0
 25
0.0
 16
0.0
 26
0.0
 36
1.0
 17
49.99999998749409
 27
-49.99999998749409
 37
0.0
 40
101.9999999744879
 41
1.0
 42
50.0
 43
0.0
 44
0.0
 50
0.0
 51
0.0
 71
     0
 72
   100
 73
     1
 74
     1
 75
     0
 76
     0
 77
     0
 78
     0
281
     0
 65
     1
110
0.0
120
0.0
130
0.0
111
1.0
121
0.0
131
0.0
112
0.0
122
1.0
132
0.0
 79
     0
146
0.0
 60
     3
 61
     5
292
     1
282
     1
141
0.0
142
0.0
 63
   250
421
  3355443
  0
ENDTAB
  0
TABLE
  2
LTYPE
  5
5
330
0
100
AcDbSymbolTable
 70
     1
  0
LTYPE
  5
5B
330
5
100
AcDbSymbolTableRecord
100
AcDbLinetypeTableRecord
  2
ByBlock
 70
     0
  3

 72
    65
 73
     0
 40
0.0
  0
LTYPE
  5
5C
330
5
100
AcDbSymbolTableRecord
100
AcDbLinetypeTableRecord
  2
ByLayer
 70
     0
  3

 72
    65
 73
     0
 40
0.0
  0
LTYPE
  5
5D
330
5
100
AcDbSymbolTableRecord
100
AcDbLinetypeTableRecord
  2
Continuous
 70
     0
  3
Solid line
 72
    65
 73
     0
 40
0.0
  0
ENDTAB
  0
TABLE
  2
LAYER
  5
2
330
0
100
AcDbSymbolTable
 70
     2
  0
LAYER
  5
54
330
2
100
AcDbSymbolTableRecord
100
AcDbLayerTableRecord
  2
0
 70
     0
 62
     7
  6
Continuous
370
    -3
390
F
347
21
348
0
  0
LAYER
  5
78
330
2
100
AcDbSymbolTableRecord
100
AcDbLayerTableRecord
  2
Camada 1
 70
     0
 62
     7
  6
Continuous
370
     0
390
F
347
21
348
0
  0
ENDTAB
  0
TABLE
  2
STYLE
  5
3
330
0
100
AcDbSymbolTable
 70
     2
  0
STYLE
  5
55
330
3
100
AcDbSymbolTableRecord
100
AcDbTextStyleTableRecord
  2
Standard
 70
     0
 40
0.0
 41
1.0
 50
0.0
 71
     0
 42
0.2
  3
txt
  4

  0
STYLE
  5
5A
330
3
100
AcDbSymbolTableRecord
100
AcDbTextStyleTableRecord
  2
Annotative
 70
     0
 40
0.0
 41
1.0
 50
0.0
 71
     0
 42
0.2
  3
txt
  4

1001
AcadAnnotative
1000
AnnotativeData
1002
{
1070
     1
1070
     1
1002
}
  0
ENDTAB
  0
TABLE
  2
VIEW
  5
6
330
0
100
AcDbSymbolTable
 70
     0
  0
ENDTAB
  0
TABLE
  2
UCS
  5
7
330
0
100
AcDbSymbolTable
 70
     0
  0
ENDTAB
  0
TABLE
  2
APPID
  5
9
330
0
100
AcDbSymbolTable
 70
     2
  0
APPID
  5
56
330
9
100
AcDbSymbolTableRecord
100
AcDbRegAppTableRecord
  2
ACAD
 70
     0
  0
APPID
  5
5E
330
9
100
AcDbSymbolTableRecord
100
AcDbRegAppTableRecord
  2
AcadAnnotative
 70
     0
  0
ENDTAB
  0
TABLE
  2
DIMSTYLE
  5
A
330
0
100
AcDbSymbolTable
 70
     2
100
AcDbDimStyleTable
 71
     0
  0
DIMSTYLE
105
58
330
A
100
AcDbSymbolTableRecord
100
AcDbDimStyleTableRecord
  2
Standard
 70
     0
340
55
  0
DIMSTYLE
105
59
330
A
100
AcDbSymbolTableRecord
100
AcDbDimStyleTableRecord
  2
Annotative
 70
     0
340
55
1001
AcadAnnotative
1000
AnnotativeData
1002
{
1070
     1
1070
     1
1002
}
  0
ENDTAB
  0
TABLE
  2
BLOCK_RECORD
  5
1
330
0
100
AcDbSymbolTable
 70
     4
  0
BLOCK_RECORD
  5
70
330
1
100
AcDbSymbolTableRecord
100
AcDbBlockTableRecord
  2
*Model_Space
340
73
 70
     0
280
     1
281
     0
  0
BLOCK_RECORD
  5
6C
330
1
100
AcDbSymbolTableRecord
100
AcDbBlockTableRecord
  2
*Paper_Space
340
6F
 70
     0
280
     1
281
     0
  0
BLOCK_RECORD
  5
74
330
1
100
AcDbSymbolTableRecord
100
AcDbBlockTableRecord
  2
*Paper_Space0
340
77
 70
     0
280
     1
281
     0
  0
BLOCK_RECORD
  5
79
330
1
100
AcDbSymbolTableRecord
100
AcDbBlockTableRecord
  2
Block_0
340
0
102
{BLKREFS
331
7A
102
}
 70
     0
280
     1
281
     0
  0
BLOCK_RECORD
  5
7D
330
1
100
AcDbSymbolTableRecord
100
AcDbBlockTableRecord
  2
Block_1
340
0
102
{BLKREFS
331
7E
102
}
 70
     0
280
     1
281
     0
  0
BLOCK_RECORD
  5
187
330
1
100
AcDbSymbolTableRecord
100
AcDbBlockTableRecord
  2
Block_2
340
0
102
{BLKREFS
331
188
102
}
 70
     0
280
     1
281
     0
  0
ENDTAB
  0
ENDSEC
  0
SECTION
  2
BLOCKS
  0
BLOCK
  5
71
330
70
100
AcDbEntity
  8
0
100
AcDbBlockBegin
  2
*Model_Space
 70
     0
 10
0.0
 20
0.0
 30
0.0
  3
*Model_Space
  1

  0
ENDBLK
  5
72
330
70
100
AcDbEntity
  8
0
100
AcDbBlockEnd
  0
BLOCK
  5
6D
330
6C
100
AcDbEntity
 67
     1
  8
0
100
AcDbBlockBegin
  2
*Paper_Space
 70
     0
 10
0.0
 20
0.0
 30
0.0
  3
*Paper_Space
  1

  0
ENDBLK
  5
6E
330
6C
100
AcDbEntity
 67
     1
  8
0
100
AcDbBlockEnd
  0
BLOCK
  5
75
330
74
100
AcDbEntity
 67
     1
  8
0
100
AcDbBlockBegin
  2
*Paper_Space0
 70
     0
 10
0.0
 20
0.0
 30
0.0
  3
*Paper_Space0
  1

  0
ENDBLK
  5
76
330
74
100
AcDbEntity
 67
     1
  8
0
100
AcDbBlockEnd
  0
BLOCK
  5
7B
330
79
100
AcDbEntity
  8
0
100
AcDbBlockBegin
  2
Block_0
 70
     0
 10
0.0
 20
0.0
 30
0.0
  3
Block_0
  1

  0
INSERT
  5
7E
330
79
100
AcDbEntity
  8
Camada 1
100
AcDbBlockReference
  2
Block_1
 10
0.0
 20
0.0
 30
0.0
  0
INSERT
  5
188
330
79
100
AcDbEntity
  8
Camada 1
100
AcDbBlockReference
  2
Block_2
 10
0.0
 20
0.0
 30
0.0
  0
ENDBLK
  5
7C
330
79
100
AcDbEntity
  8
0
100
AcDbBlockEnd
  0
BLOCK
  5
7F
330
7D
100
AcDbEntity
  8
0
100
AcDbBlockBegin
  2
Block_1
 70
     0
 10
0.0
 20
0.0
 30
0.0
  3
Block_1
  1

  0
LINE
  5
81
330
7D
100
AcDbEntity
  8
Camada 1
 62
    18
420
        0
370
     9
100
AcDbLine
 10
48.24316047152667
 20
-79.18055273582204
 30
0.0
 11
78.69566104454269
 21
-79.18055273582204
 31
0.0
  0
LWPOLYLINE
  5
82
330
7D
100
AcDbEntity
  8
Camada 1
 62
    18
420
        0
370
     9
100
AcDbPolyline
 90
        3
 70
     0
 43
0.0
 10
48.20217453250994
 20
-79.13956679680596
 10
48.16118859349385
 20
-79.13956679680596
 10
47.99724483742758
 20
-79.13956679680596
  0
LWPOLYLINE
  5
83
330
7D
100
AcDbEntity
  8
Camada 1
 62
    18
420
        0
370
     9
100
AcDbPolyline
 90
        3
 70
     0
 43
0.0
 10
78.73664872076673
 20
-79.13956679680596
 10
78.75714082167128
 20
-79.13956679680596
 10
78.94157667864146
 20
-79.13956679680596
  0
LINE
  5
84
330
7D
100
AcDbEntity
  8
Camada 1
 62
    18
420
        0
370
     9
100
AcDbLine
 10
48.14069562398548
 20
-79.07808875688534
 30
0.0
 11
48.24316047152667
 21
-79.18055273582204
 31
0.0
  0
LINE
  5
85
330
7D
100
AcDbEntity
  8
Camada 1
 62
    18
420
        0
370
     9
100
AcDbLine
 10
48.22266750201862
 20
-79.0371028178686
 30
0.0
 11
48.28414641054308
 21
-79.09858085778923
 31
0.0
  0
LINE
  5
86
330
7D
100
AcDbEntity
  8
Camada 1
 62
    18
420
        0
370
     9
100
AcDbLine
 10
65.02687383484946
 20
-70.16366178706559
 30
0.0
 11
61.89145558031568
 21
-70.16366178706559
 31
0.0
  0
LINE
  5
87
330
7D
100
AcDbEntity
  8
Camada 1
 62
    18
420
        0
370
     9
100
AcDbLine
 10
61.58406016908831
 20
-69.99971803099931
 30
0.0
 11
65.35476134698138
 21
-69.99971803099931
 31
0.0
  0
LINE
  5
88
330
7D
100
AcDbEntity
  8
Camada 1
 62
    18
420
        0
370
     9
100
AcDbLine
 10
61.78898986417068
 20
-68.27831206672225
 30
0.0
 11
65.149831651899
 21
-68.27831206672225
 31
0.0
  0
LINE
  5
89
330
7D
100
AcDbEntity
  8
Camada 1
 62
    18
420
        0
370
     9
100
AcDbLine
 10
78.79812502348006
 20
-79.07808875688534
 30
0.0
 11
78.71615314544723
 21
-79.0371028178686
 31
0.0
  0
LINE
  5
8A
330
7D
100
AcDbEntity
  8
Camada 1
 62
    18
420
        0
370
     9
100
AcDbLine
 10
60.02659796087687
 20
-67.90943861557426
 30
0.0
 11
60.21103381784737
 21
-67.90943861557426
 31
0.0
  0
LINE
  5
8B
330
7D
100
AcDbEntity
  8
Camada 1
 62
    18
420
        0
370
     9
100
AcDbLine
 10
66.72778769822198
 20
-67.90943861557426
 30
0.0
 11
66.9122235551925
 21
-67.90943861557426
 31
0.0
  0
LINE
  5
8C
330
7D
100
AcDbEntity
  8
Camada 1
 62
    18
420
        0
370
     9
100
AcDbLine
 10
60.43645561383396
 20
-67.3356372065509
 30
0.0
 11
60.21103381784737
 21
-67.3356372065509
 31
0.0
  0
LINE
  5
8D
330
7D
100
AcDbEntity
  8
Camada 1
 62
    18
420
        0
370
     9
100
AcDbLine
 10
66.50236416502777
 20
-67.3356372065509
 30
0.0
 11
66.72778769822198
 21
-67.3356372065509
 31
0.0
  0
LINE
  5
8E
330
7D
100
AcDbEntity
  8
Camada 1
 62
    18
420
        0
370
     9
100
AcDbLine
 10
60.3954714120255
 20
-67.15119961237308
 30
0.0
 11
60.37497757391332
 21
-67.15119961237308
 31
0.0
  0
LINE
  5
8F
330
7D
100
AcDbEntity
  8
Camada 1
 62
    18
420
        0
370
     9
100
AcDbLine
 10
66.54335184125149
 20
-67.15119961237308
 30
0.0
 11
66.54335184125149
 21
-67.15119961237308
 31
0.0
  0
LINE
  5
90
330
7D
100
AcDbEntity
  8
Camada 1
 62
    18
420
        0
370
     9
100
AcDbLine
 10
66.64581582018917
 20
-65.49127168801728
 30
0.0
 11
66.60482814396512
 21
-65.49127168801728
 31
0.0
  0
LINE
  5
91
330
7D
100
AcDbEntity
  8
Camada 1
 62
    18
420
        0
370
     9
100
AcDbLine
 10
60.33399163489692
 20
-65.49127168801728
 30
0.0
 11
60.29300569588051
 21
-65.49127168801728
 31
0.0
  0
LINE
  5
92
330
7D
100
AcDbEntity
  8
Camada 1
 62
    18
420
        0
370
     9
100
AcDbLine
 10
60.29300569588051
 20
-65.47077958711273
 30
0.0
 11
60.33399163489692
 21
-65.47077958711273
 31
0.0
  0
LINE
  5
93
330
7D
100
AcDbEntity
  8
Camada 1
 62
    18
420
        0
370
     9
100
AcDbLine
 10
66.60482814396512
 20
-65.47077958711273
 30
0.0
 11
66.64581582018917
 21
-65.47077958711273
 31
0.0
  0
LINE
  5
94
330
7D
100
AcDbEntity
  8
Camada 1
 62
    18
420
        0
370
     9
100
AcDbLine
 10
60.41596351292973
 20
-65.38880770907991
 30
0.0
 11
60.43645561383396
 21
-65.38880770907991
 31
0.0
  0
LINE
  5
95
330
7D
100
AcDbEntity
  8
Camada 1
 62
    18
420
        0
370
     9
100
AcDbLine
 10
66.48187206412322
 20
-65.38880770907991
 30
0.0
 11
66.52285974034727
 21
-65.38880770907991
 31
0.0
  0
LINE
  5
96
330
7D
100
AcDbEntity
  8
Camada 1
 62
    18
420
        0
370
     9
100
AcDbLine
 10
60.27251359497564
 20
-65.16338417588537
 30
0.0
 11
60.21103381784737
 21
-65.16338417588537
 31
0.0
  0
LINE
  5
97
330
7D
100
AcDbEntity
  8
Camada 1
 62
    18
420
        0
370
     9
100
AcDbLine
 10
66.52285974034727
 20
-65.04042809604346
 30
0.0
 11
66.48187206412322
 21
-65.04042809604346
 31
0.0
  0
LINE
  5
98
330
7D
100
AcDbEntity
  8
Camada 1
 62
    18
420
        0
370
     9
100
AcDbLine
 10
60.43645561383396
 20
-65.04042809604346
 30
0.0
 11
60.41596351292973
 21
-65.04042809604346
 31
0.0
  0
LINE
  5
99
330
7D
100
AcDbEntity
  8
Camada 1
 62
    18
420
        0
370
     9
100
AcDbLine
 10
66.37940808518585
 20
-64.85599223907328
 30
0.0
 11
66.09250477486272
 21
-64.85599223907328
 31
0.0
  0
LINE
  5
9A
330
7D
100
AcDbEntity
  8
Camada 1
 62
    18
420
        0
370
     9
100
AcDbLine
 10
60.5594134308835
 20
-64.85599223907328
 30
0.0
 11
60.846315003999
 21
-64.85599223907328
 31
0.0
  0
LINE
  5
9B
330
7D
100
AcDbEntity
  8
Camada 1
 62
    18
420
        0
370
     9
100
AcDbLine
 10
60.53892132997928
 20
-64.81500456284891
 30
0.0
 11
60.88730094301573
 21
-64.81500456284891
 31
0.0
  0
LINE
  5
9C
330
7D
100
AcDbEntity
  8
Camada 1
 62
    18
420
        0
370
     9
100
AcDbLine
 10
66.05152057305395
 20
-64.81500456284891
 30
0.0
 11
66.37940808518585
 21
-64.81500456284891
 31
0.0
  0
LINE
  5
9D
330
7D
100
AcDbEntity
  8
Camada 1
 62
    18
420
        0
370
     9
100
AcDbLine
 10
66.37940808518585
 20
-64.75352826013592
 30
0.0
 11
66.03102847214941
 21
-64.75352826013592
 31
0.0
  0
LINE
  5
9E
330
7D
100
AcDbEntity
  8
Camada 1
 62
    18
420
        0
370
     9
100
AcDbLine
 10
60.88730094301573
 20
-64.75352826013592
 30
0.0
 11
60.53892132997928
 21
-64.75352826013592
 31
0.0
  0
LINE
  5
9F
330
7D
100
AcDbEntity
  8
Camada 1
 62
    18
420
        0
370
     9
100
AcDbLine
 10
66.37940808518585
 20
-64.69204848300766
 30
0.0
 11
66.03102847214941
 21
-64.69204848300766
 31
0.0
  0
LINE
  5
A0
330
7D
100
AcDbEntity
  8
Camada 1
 62
    18
420
        0
370
     9
100
AcDbLine
 10
60.90779478112727
 20
-64.69204848300766
 30
0.0
 11
60.5594134308835
 21
-64.69204848300766
 31
0.0
  0
LINE
  5
A1
330
7D
100
AcDbEntity
  8
Camada 1
 62
    18
420
        0
370
     9
100
AcDbLine
 10
60.5594134308835
 20
-64.63056870587874
 30
0.0
 11
60.90779478112727
 21
-64.63056870587874
 31
0.0
  0
LINE
  5
A2
330
7D
100
AcDbEntity
  8
Camada 1
 62
    18
420
        0
370
     9
100
AcDbLine
 10
66.03102847214941
 20
-64.63056870587874
 30
0.0
 11
66.37940808518585
 21
-64.63056870587874
 31
0.0
  0
LINE
  5
A3
330
7D
100
AcDbEntity
  8
Camada 1
 62
    18
420
        0
370
     9
100
AcDbLine
 10
66.37940808518585
 20
-64.52810472694138
 30
0.0
 11
66.03102847214941
 21
-64.52810472694138
 31
0.0
  0
LINE
  5
A4
330
7D
100
AcDbEntity
  8
Camada 1
 62
    18
420
        0
370
     9
100
AcDbLine
 10
60.90779478112727
 20
-64.52810472694138
 30
0.0
 11
60.5594134308835
 21
-64.52810472694138
 31
0.0
  0
LINE
  5
A5
330
7D
100
AcDbEntity
  8
Camada 1
 62
    18
420
        0
370
     9
100
AcDbLine
 10
60.5594134308835
 20
-64.4666249498131
 30
0.0
 11
60.90779478112727
 21
-64.4666249498131
 31
0.0
  0
LINE
  5
A6
330
7D
100
AcDbEntity
  8
Camada 1
 62
    18
420
        0
370
     9
100
AcDbLine
 10
66.03102847214941
 20
-64.4666249498131
 30
0.0
 11
66.37940808518585
 21
-64.4666249498131
 31
0.0
  0
LINE
  5
A7
330
7D
100
AcDbEntity
  8
Camada 1
 62
    18
420
        0
370
     9
100
AcDbLine
 10
69.35088432086165
 20
-62.84768296447339
 30
0.0
 11
69.12546078766711
 21
-62.84768296447339
 31
0.0
  0
LINE
  5
A8
330
7D
100
AcDbEntity
  8
Camada 1
 62
    18
420
        0
370
     9
100
AcDbLine
 10
57.81336072840225
 20
-62.84768296447339
 30
0.0
 11
57.58793893241535
 21
-62.84768296447339
 31
0.0
  0
LINE
  5
A9
330
7D
100
AcDbEntity
  8
Camada 1
 62
    18
420
        0
370
     9
100
AcDbLine
 10
66.72778769822198
 20
-65.16338417588537
 30
0.0
 11
66.66630792109341
 21
-65.16338417588537
 31
0.0
  0
LINE
  5
AA
330
7D
100
AcDbEntity
  8
Camada 1
 62
    18
420
        0
370
     9
100
AcDbLine
 10
47.97675186791953
 20
-29.81307170783379
 30
0.0
 11
47.97675186791953
 21
-28.70645656601208
 31
0.0
  0
LINE
  5
AB
330
7D
100
AcDbEntity
  8
Camada 1
 62
    18
420
        0
370
     9
100
AcDbLine
 10
47.99724483742758
 20
-79.13956679680596
 30
0.0
 11
47.99724483742758
 21
-22.16920537311033
 31
0.0
  0
LINE
  5
AC
330
7D
100
AcDbEntity
  8
Camada 1
 62
    18
420
        0
370
     9
100
AcDbLine
 10
48.01773780693626
 20
-22.16920537311033
 30
0.0
 11
48.01773780693626
 21
-79.13956679680596
 31
0.0
  0
LWPOLYLINE
  5
AD
330
7D
100
AcDbEntity
  8
Camada 1
 62
    18
420
        0
370
     9
100
AcDbPolyline
 90
        3
 70
     0
 43
0.0
 10
48.14069562398548
 20
-22.16920537311033
 10
48.14069562398548
 20
-79.07808875688534
 10
48.14069562398548
 20
-79.13956679680596
  0
LINE
  5
AE
330
7D
100
AcDbEntity
  8
Camada 1
 62
    18
420
        0
370
     9
100
AcDbLine
 10
48.16118859349385
 20
-79.09858085778923
 30
0.0
 11
48.16118859349385
 21
-79.13956679680596
 31
0.0
  0
LINE
  5
AF
330
7D
100
AcDbEntity
  8
Camada 1
 62
    18
420
        0
370
     9
100
AcDbLine
 10
48.22266750201862
 20
-22.16920537311033
 30
0.0
 11
48.22266750201862
 21
-79.0371028178686
 31
0.0
  0
LINE
  5
B0
330
7D
100
AcDbEntity
  8
Camada 1
 62
    18
420
        0
370
     9
100
AcDbLine
 10
48.85794868817026
 20
-21.53392939858097
 30
0.0
 11
48.85794868817026
 21
-21.45195404613287
 31
0.0
  0
LINE
  5
B1
330
7D
100
AcDbEntity
  8
Camada 1
 62
    18
420
        0
370
     9
100
AcDbLine
 10
48.91942672809089
 20
-21.2675181891627
 30
0.0
 11
48.91942672809089
 21
-21.28801029006788
 31
0.0
  0
LINE
  5
B2
330
7D
100
AcDbEntity
  8
Camada 1
 62
    18
420
        0
370
     9
100
AcDbLine
 10
48.91942672809089
 20
-21.41096984432443
 30
0.0
 11
48.91942672809089
 21
-21.43146194522897
 31
0.0
  0
LINE
  5
B3
330
7D
100
AcDbEntity
  8
Camada 1
 62
    18
420
        0
370
     9
100
AcDbLine
 10
48.93991969759925
 20
-21.43146194522897
 30
0.0
 11
48.93991969759925
 21
-21.45195404613287
 31
0.0
  0
LINE
  5
B4
330
7D
100
AcDbEntity
  8
Camada 1
 62
    18
420
        0
370
     9
100
AcDbLine
 10
49.02189157563206
 20
-21.43146194522897
 30
0.0
 11
49.02189157563206
 21
-21.2675181891627
 31
0.0
  0
LINE
  5
B5
330
7D
100
AcDbEntity
  8
Camada 1
 62
    18
420
        0
370
     9
100
AcDbLine
 10
70.96982630620104
 20
-61.98697998233485
 30
0.0
 11
55.9485031089641
 21
-61.98697998233485
 31
0.0
  0
LINE
  5
B6
330
7D
100
AcDbEntity
  8
Camada 1
 62
    18
420
        0
370
     9
100
AcDbLine
 10
55.82554529191455
 20
-61.74106434823641
 30
0.0
 11
71.11327448694718
 21
-61.74106434823641
 31
0.0
  0
LINE
  5
B7
330
7D
100
AcDbEntity
  8
Camada 1
 62
    18
420
        0
370
     9
100
AcDbLine
 10
61.82997580318708
 20
-60.83937716428877
 30
0.0
 11
62.17835541622322
 21
-60.83937716428877
 31
0.0
  0
LINE
  5
B8
330
7D
100
AcDbEntity
  8
Camada 1
 62
    18
420
        0
370
     9
100
AcDbLine
 10
64.76046609984679
 20
-60.83937716428877
 30
0.0
 11
65.1088457128826
 21
-60.83937716428877
 31
0.0
  0
LINE
  5
B9
330
7D
100
AcDbEntity
  8
Camada 1
 62
    18
420
        0
370
     9
100
AcDbLine
 10
64.76046609984679
 20
-60.73691318535142
 30
0.0
 11
62.17835541622322
 21
-60.73691318535142
 31
0.0
  0
LINE
  5
BA
330
7D
100
AcDbEntity
  8
Camada 1
 62
    18
420
        0
370
     9
100
AcDbLine
 10
64.76046609984679
 20
-60.51148965215687
 30
0.0
 11
62.17835541622322
 21
-60.51148965215687
 31
0.0
  0
LINE
  5
BB
330
7D
100
AcDbEntity
  8
Camada 1
 62
    18
420
        0
370
     9
100
AcDbLine
 10
61.11272273900231
 20
-64.3641609708751
 30
0.0
 11
61.15370867801904
 21
-64.40514864709946
 31
0.0
  0
LINE
  5
BC
330
7D
100
AcDbEntity
  8
Camada 1
 62
    18
420
        0
370
     9
100
AcDbLine
 10
65.27278946894823
 20
-58.83106788968889
 30
0.0
 11
65.19081759091574
 21
-58.83106788968889
 31
0.0
  0
LINE
  5
BD
330
7D
100
AcDbEntity
  8
Camada 1
 62
    18
420
        0
370
     9
100
AcDbLine
 10
61.66603204712081
 20
-58.83106788968889
 30
0.0
 11
61.74800392515394
 21
-58.83106788968889
 31
0.0
  0
LINE
  5
BE
330
7D
100
AcDbEntity
  8
Camada 1
 62
    18
420
        0
370
     9
100
AcDbLine
 10
78.75714082167128
 20
-79.13956679680596
 30
0.0
 11
78.75714082167128
 21
-79.11907469590142
 31
0.0
  0
LINE
  5
BF
330
7D
100
AcDbEntity
  8
Camada 1
 62
    18
420
        0
370
     9
100
AcDbLine
 10
64.16617085271124
 20
-56.94571816934554
 30
0.0
 11
69.986163769805
 21
-58.93353186862625
 31
0.0
  0
LINE
  5
C0
330
7D
100
AcDbEntity
  8
Camada 1
 62
    18
420
        0
370
     9
100
AcDbLine
 10
60.47744155285069
 20
-64.87648433997718
 30
0.0
 11
60.45694945194615
 21
-64.81500456284891
 31
0.0
  0
LINE
  5
C1
330
7D
100
AcDbEntity
  8
Camada 1
 62
    18
420
        0
370
     9
100
AcDbLine
 10
60.45694945194615
 20
-64.75352826013592
 30
0.0
 11
60.43645561383396
 21
-64.7125405839122
 31
0.0
  0
LINE
  5
C2
330
7D
100
AcDbEntity
  8
Camada 1
 62
    18
420
        0
370
     9
100
AcDbLine
 10
60.02659796087687
 20
-67.90943861557426
 30
0.0
 11
59.86265420481124
 21
-65.1838797512052
 31
0.0
  0
LINE
  5
C3
330
7D
100
AcDbEntity
  8
Camada 1
 62
    18
420
        0
370
     9
100
AcDbLine
 10
60.21103381784737
 20
-67.17169345048526
 30
0.0
 11
60.08807600079815
 21
-65.1838797512052
 31
0.0
  0
LINE
  5
C4
330
7D
100
AcDbEntity
  8
Camada 1
 62
    18
420
        0
370
     9
100
AcDbLine
 10
60.27251359497564
 20
-65.16338417588537
 30
0.0
 11
60.33399163489692
 21
-66.474934224413
 31
0.0
  0
LINE
  5
C5
330
7D
100
AcDbEntity
  8
Camada 1
 62
    18
420
        0
370
     9
100
AcDbLine
 10
59.86265420481124
 20
-65.1838797512052
 30
0.0
 11
59.86265420481124
 21
-65.14289207498146
 31
0.0
  0
LINE
  5
C6
330
7D
100
AcDbEntity
  8
Camada 1
 62
    18
420
        0
370
     9
100
AcDbLine
 10
59.53476669267933
 20
-66.57739820334971
 30
0.0
 11
59.53476669267933
 21
-64.56908892875046
 31
0.0
  0
LINE
  5
C7
330
7D
100
AcDbEntity
  8
Camada 1
 62
    18
420
        0
370
     9
100
AcDbLine
 10
60.21103381784737
 20
-68.7291556586967
 30
0.0
 11
60.21103381784737
 21
-67.17169345048526
 31
0.0
  0
LINE
  5
C8
330
7D
100
AcDbEntity
  8
Camada 1
 62
    18
420
        0
370
     9
100
AcDbLine
 10
60.33399163489692
 20
-65.49127168801728
 30
0.0
 11
60.33399163489692
 21
-65.47077958711273
 31
0.0
  0
LINE
  5
C9
330
7D
100
AcDbEntity
  8
Camada 1
 62
    18
420
        0
370
     9
100
AcDbLine
 10
60.41596351292973
 20
-65.38880770907991
 30
0.0
 11
60.41596351292973
 21
-65.04042809604346
 31
0.0
  0
LINE
  5
CA
330
7D
100
AcDbEntity
  8
Camada 1
 62
    18
420
        0
370
     9
100
AcDbLine
 10
60.43645561383396
 20
-65.04042809604346
 30
0.0
 11
60.43645561383396
 21
-65.38880770907991
 31
0.0
  0
LINE
  5
CB
330
7D
100
AcDbEntity
  8
Camada 1
 62
    18
420
        0
370
     9
100
AcDbLine
 10
60.45694945194615
 20
-64.81500456284891
 30
0.0
 11
60.45694945194615
 21
-64.75352826013592
 31
0.0
  0
LINE
  5
CC
330
7D
100
AcDbEntity
  8
Camada 1
 62
    18
420
        0
370
     9
100
AcDbLine
 10
60.5594134308835
 20
-64.4666249498131
 30
0.0
 11
60.5594134308835
 21
-64.52810472694138
 31
0.0
  0
LINE
  5
CD
330
7D
100
AcDbEntity
  8
Camada 1
 62
    18
420
        0
370
     9
100
AcDbLine
 10
60.5594134308835
 20
-64.63056870587874
 30
0.0
 11
60.5594134308835
 21
-64.69204848300766
 31
0.0
  0
LINE
  5
CE
330
7D
100
AcDbEntity
  8
Camada 1
 62
    18
420
        0
370
     9
100
AcDbLine
 10
60.82582290309478
 20
-64.81500456284891
 30
0.0
 11
60.82582290309478
 21
-64.75352826013592
 31
0.0
  0
LINE
  5
CF
330
7D
100
AcDbEntity
  8
Camada 1
 62
    18
420
        0
370
     9
100
AcDbLine
 10
60.90779478112727
 20
-64.69204848300766
 30
0.0
 11
60.90779478112727
 21
-64.63056870587874
 31
0.0
  0
LINE
  5
D0
330
7D
100
AcDbEntity
  8
Camada 1
 62
    18
420
        0
370
     9
100
AcDbLine
 10
60.90779478112727
 20
-64.52810472694138
 30
0.0
 11
60.90779478112727
 21
-64.4666249498131
 31
0.0
  0
LINE
  5
D1
330
7D
100
AcDbEntity
  8
Camada 1
 62
    18
420
        0
370
     9
100
AcDbLine
 10
61.66603204712081
 20
-60.6549413073186
 30
0.0
 11
61.66603204712081
 21
-58.83106788968889
 31
0.0
  0
LINE
  5
D2
330
7D
100
AcDbEntity
  8
Camada 1
 62
    18
420
        0
370
     9
100
AcDbLine
 10
62.17835541622322
 20
-60.83937716428877
 30
0.0
 11
62.17835541622322
 21
-60.51148965215687
 31
0.0
  0
LINE
  5
D3
330
7D
100
AcDbEntity
  8
Camada 1
 62
    18
420
        0
370
     9
100
AcDbLine
 10
48.24316047152667
 20
-79.18055273582204
 30
0.0
 11
48.28414641054308
 21
-79.09858085778923
 31
0.0
  0
LINE
  5
D4
330
7D
100
AcDbEntity
  8
Camada 1
 62
    18
420
        0
370
     9
100
AcDbLine
 10
64.76046609984679
 20
-60.51148965215687
 30
0.0
 11
64.76046609984679
 21
-60.83937716428877
 31
0.0
  0
LINE
  5
D5
330
7D
100
AcDbEntity
  8
Camada 1
 62
    18
420
        0
370
     9
100
AcDbLine
 10
65.27278946894823
 20
-60.6549413073186
 30
0.0
 11
65.27278946894823
 21
-58.83106788968889
 31
0.0
  0
LINE
  5
D6
330
7D
100
AcDbEntity
  8
Camada 1
 62
    18
420
        0
370
     9
100
AcDbLine
 10
66.03102847214941
 20
-64.4666249498131
 30
0.0
 11
66.03102847214941
 21
-64.52810472694138
 31
0.0
  0
LINE
  5
D7
330
7D
100
AcDbEntity
  8
Camada 1
 62
    18
420
        0
370
     9
100
AcDbLine
 10
66.03102847214941
 20
-64.63056870587874
 30
0.0
 11
66.03102847214941
 21
-64.69204848300766
 31
0.0
  0
LINE
  5
D8
330
7D
100
AcDbEntity
  8
Camada 1
 62
    18
420
        0
370
     9
100
AcDbLine
 10
66.1130003501819
 20
-64.75352826013592
 30
0.0
 11
66.1130003501819
 21
-64.81500456284891
 31
0.0
  0
LINE
  5
D9
330
7D
100
AcDbEntity
  8
Camada 1
 62
    18
420
        0
370
     9
100
AcDbLine
 10
66.37940808518585
 20
-64.69204848300766
 30
0.0
 11
66.37940808518585
 21
-64.63056870587874
 31
0.0
  0
LINE
  5
DA
330
7D
100
AcDbEntity
  8
Camada 1
 62
    18
420
        0
370
     9
100
AcDbLine
 10
66.37940808518585
 20
-64.52810472694138
 30
0.0
 11
66.37940808518585
 21
-64.4666249498131
 31
0.0
  0
LINE
  5
DB
330
7D
100
AcDbEntity
  8
Camada 1
 62
    18
420
        0
370
     9
100
AcDbLine
 10
66.48187206412322
 20
-64.75352826013592
 30
0.0
 11
66.48187206412322
 21
-64.81500456284891
 31
0.0
  0
LINE
  5
DC
330
7D
100
AcDbEntity
  8
Camada 1
 62
    18
420
        0
370
     9
100
AcDbLine
 10
66.48187206412322
 20
-65.38880770907991
 30
0.0
 11
66.48187206412322
 21
-65.04042809604346
 31
0.0
  0
LINE
  5
DD
330
7D
100
AcDbEntity
  8
Camada 1
 62
    18
420
        0
370
     9
100
AcDbLine
 10
66.52285974034727
 20
-65.04042809604346
 30
0.0
 11
66.52285974034727
 21
-65.38880770907991
 31
0.0
  0
LINE
  5
DE
330
7D
100
AcDbEntity
  8
Camada 1
 62
    18
420
        0
370
     9
100
AcDbLine
 10
78.69566104454269
 20
-79.18055273582204
 30
0.0
 11
78.65467684273392
 21
-79.09858085778923
 31
0.0
  0
LINE
  5
DF
330
7D
100
AcDbEntity
  8
Camada 1
 62
    18
420
        0
370
     9
100
AcDbLine
 10
66.60482814396512
 20
-65.47077958711273
 30
0.0
 11
66.60482814396512
 21
-65.49127168801728
 31
0.0
  0
LINE
  5
E0
330
7D
100
AcDbEntity
  8
Camada 1
 62
    18
420
        0
370
     9
100
AcDbLine
 10
66.72778769822198
 20
-68.7291556586967
 30
0.0
 11
66.72778769822198
 21
-67.17169345048526
 31
0.0
  0
LINE
  5
E1
330
7D
100
AcDbEntity
  8
Camada 1
 62
    18
420
        0
370
     9
100
AcDbLine
 10
67.40405482339003
 20
-64.56908892875046
 30
0.0
 11
67.40405482339003
 21
-66.57739820334971
 31
0.0
  0
LINE
  5
E2
330
7D
100
AcDbEntity
  8
Camada 1
 62
    18
420
        0
370
     9
100
AcDbLine
 10
66.83025167715936
 20
-65.1838797512052
 30
0.0
 11
66.83025167715936
 21
-65.14289207498146
 31
0.0
  0
LINE
  5
E3
330
7D
100
AcDbEntity
  8
Camada 1
 62
    18
420
        0
370
     9
100
AcDbLine
 10
66.54335184125149
 20
-67.2946512675348
 30
0.0
 11
66.56384394215604
 21
-66.94627165449836
 31
0.0
  0
LINE
  5
E4
330
7D
100
AcDbEntity
  8
Camada 1
 62
    18
420
        0
370
     9
100
AcDbLine
 10
66.5843360430609
 20
-66.53641052712599
 30
0.0
 11
66.66630792109341
 21
-65.16338417588537
 31
0.0
  0
LINE
  5
E5
330
7D
100
AcDbEntity
  8
Camada 1
 62
    18
420
        0
370
     9
100
AcDbLine
 10
66.78926747535058
 20
-65.1838797512052
 30
0.0
 11
66.62532371928463
 21
-67.90943861557426
 31
0.0
  0
LINE
  5
E6
330
7D
100
AcDbEntity
  8
Camada 1
 62
    18
420
        0
370
     9
100
AcDbLine
 10
67.0556752103539
 20
-65.1838797512052
 30
0.0
 11
66.9122235551925
 21
-67.90943861557426
 31
0.0
  0
LINE
  5
E7
330
7D
100
AcDbEntity
  8
Camada 1
 62
    18
420
        0
370
     9
100
AcDbLine
 10
66.48187206412322
 20
-64.7125405839122
 30
0.0
 11
66.48187206412322
 21
-64.75352826013592
 31
0.0
  0
LINE
  5
E8
330
7D
100
AcDbEntity
  8
Camada 1
 62
    18
420
        0
370
     9
100
AcDbLine
 10
66.48187206412322
 20
-64.81500456284891
 30
0.0
 11
66.461379963219
 21
-64.87648433997718
 31
0.0
  0
LINE
  5
E9
330
7D
100
AcDbEntity
  8
Camada 1
 62
    18
420
        0
370
     9
100
AcDbLine
 10
56.95265774626371
 20
-58.93353186862625
 30
0.0
 11
62.81363660237484
 21
-56.94571816934554
 31
0.0
  0
LINE
  5
EA
330
7D
100
AcDbEntity
  8
Camada 1
 62
    18
420
        0
370
     9
100
AcDbLine
 10
48.18168156300189
 20
-79.11907469590142
 30
0.0
 11
48.16118859349385
 21
-79.13956679680596
 31
0.0
  0
LINE
  5
EB
330
7D
100
AcDbEntity
  8
Camada 1
 62
    18
420
        0
370
     9
100
AcDbLine
 10
77.9169299404373
 20
-21.43146194522897
 30
0.0
 11
77.9169299404373
 21
-21.2675181891627
 31
0.0
  0
LINE
  5
EC
330
7D
100
AcDbEntity
  8
Camada 1
 62
    18
420
        0
370
     9
100
AcDbLine
 10
77.97840971756556
 20
-21.43146194522897
 30
0.0
 11
77.97840971756556
 21
-21.45195404613287
 31
0.0
  0
LINE
  5
ED
330
7D
100
AcDbEntity
  8
Camada 1
 62
    18
420
        0
370
     9
100
AcDbLine
 10
78.01939391937465
 20
-21.43146194522897
 30
0.0
 11
78.01939391937465
 21
-21.41096984432443
 31
0.0
  0
LINE
  5
EE
330
7D
100
AcDbEntity
  8
Camada 1
 62
    18
420
        0
370
     9
100
AcDbLine
 10
78.01939391937465
 20
-21.28801029006788
 30
0.0
 11
78.01939391937465
 21
-21.2675181891627
 31
0.0
  0
LINE
  5
EF
330
7D
100
AcDbEntity
  8
Camada 1
 62
    18
420
        0
370
     9
100
AcDbLine
 10
78.06038159559903
 20
-21.53392939858097
 30
0.0
 11
78.06038159559903
 21
-21.45195404613287
 31
0.0
  0
LINE
  5
F0
330
7D
100
AcDbEntity
  8
Camada 1
 62
    18
420
        0
370
     9
100
AcDbLine
 10
78.71615314544723
 20
-79.0371028178686
 30
0.0
 11
78.71615314544723
 21
-22.16920537311033
 31
0.0
  0
LINE
  5
F1
330
7D
100
AcDbEntity
  8
Camada 1
 62
    18
420
        0
370
     9
100
AcDbLine
 10
78.75714082167128
 20
-79.13956679680596
 30
0.0
 11
78.75714082167128
 21
-79.09858085778923
 31
0.0
  0
LWPOLYLINE
  5
F2
330
7D
100
AcDbEntity
  8
Camada 1
 62
    18
420
        0
370
     9
100
AcDbPolyline
 90
        3
 70
     0
 43
0.0
 10
78.79812502348006
 20
-79.13956679680596
 10
78.79812502348006
 20
-79.07808875688534
 10
78.79812502348006
 20
-22.16920537311033
  0
LINE
  5
F3
330
7D
100
AcDbEntity
  8
Camada 1
 62
    18
420
        0
370
     9
100
AcDbLine
 10
78.90058900241773
 20
-79.13956679680596
 30
0.0
 11
78.90058900241773
 21
-22.16920537311033
 31
0.0
  0
LINE
  5
F4
330
7D
100
AcDbEntity
  8
Camada 1
 62
    18
420
        0
370
     9
100
AcDbLine
 10
78.94157667864146
 20
-22.16920537311033
 30
0.0
 11
78.94157667864146
 21
-79.13956679680596
 31
0.0
  0
LINE
  5
F5
330
7D
100
AcDbEntity
  8
Camada 1
 62
    18
420
        0
370
     9
100
AcDbLine
 10
78.96206877954601
 20
-28.70645656601208
 30
0.0
 11
78.96206877954601
 21
-29.81307170783379
 31
0.0
  0
LINE
  5
F6
330
7D
100
AcDbEntity
  8
Camada 1
 62
    18
420
        0
370
     9
100
AcDbLine
 10
65.80560493895486
 20
-64.3641609708751
 30
0.0
 11
65.76462073714608
 21
-64.40514864709946
 31
0.0
  0
LINE
  5
F7
330
7D
100
AcDbEntity
  8
Camada 1
 62
    18
420
        0
370
     9
100
AcDbLine
 10
47.97675186791953
 20
-29.81307170783379
 30
0.0
 11
47.99724483742758
 21
-29.81307170783379
 31
0.0
  0
LINE
  5
F8
330
7D
100
AcDbEntity
  8
Camada 1
 62
    18
420
        0
370
     9
100
AcDbLine
 10
78.94157667864146
 20
-29.81307170783379
 30
0.0
 11
78.96206877954601
 21
-29.81307170783379
 31
0.0
  0
LINE
  5
F9
330
7D
100
AcDbEntity
  8
Camada 1
 62
    18
420
        0
370
     9
100
AcDbLine
 10
78.96206877954601
 20
-28.70645656601208
 30
0.0
 11
78.94157667864146
 21
-28.70645656601208
 31
0.0
  0
LINE
  5
FA
330
7D
100
AcDbEntity
  8
Camada 1
 62
    18
420
        0
370
     9
100
AcDbLine
 10
47.99724483742758
 20
-28.70645656601208
 30
0.0
 11
47.97675186791953
 21
-28.70645656601208
 31
0.0
  0
LINE
  5
FB
330
7D
100
AcDbEntity
  8
Camada 1
 62
    18
420
        0
370
     9
100
AcDbLine
 10
48.14069562398548
 20
-79.07808875688534
 30
0.0
 11
48.22266750201862
 21
-79.0371028178686
 31
0.0
  0
LINE
  5
FC
330
7D
100
AcDbEntity
  8
Camada 1
 62
    18
420
        0
370
     9
100
AcDbLine
 10
48.14069562398548
 20
-22.27167282646297
 30
0.0
 11
47.99724483742758
 21
-22.27167282646297
 31
0.0
  0
LINE
  5
FD
330
7D
100
AcDbEntity
  8
Camada 1
 62
    18
420
        0
370
     9
100
AcDbLine
 10
78.79812502348006
 20
-22.27167282646297
 30
0.0
 11
78.94157667864146
 21
-22.27167282646297
 31
0.0
  0
LINE
  5
FE
330
7D
100
AcDbEntity
  8
Camada 1
 62
    18
420
        0
370
     9
100
AcDbLine
 10
78.71615314544723
 20
-22.16920537311033
 30
0.0
 11
78.79812502348006
 21
-22.16920537311033
 31
0.0
  0
LINE
  5
FF
330
7D
100
AcDbEntity
  8
Camada 1
 62
    18
420
        0
370
     9
100
AcDbLine
 10
78.94157667864146
 20
-22.16920537311033
 30
0.0
 11
78.90058900241773
 21
-22.16920537311033
 31
0.0
  0
LINE
  5
100
330
7D
100
AcDbEntity
  8
Camada 1
 62
    18
420
        0
370
     9
100
AcDbLine
 10
48.22266750201862
 20
-22.16920537311033
 30
0.0
 11
48.14069562398548
 21
-22.16920537311033
 31
0.0
  0
LINE
  5
101
330
7D
100
AcDbEntity
  8
Camada 1
 62
    18
420
        0
370
     9
100
AcDbLine
 10
48.01773780693626
 20
-22.16920537311033
 30
0.0
 11
47.99724483742758
 21
-22.16920537311033
 31
0.0
  0
LINE
  5
102
330
7D
100
AcDbEntity
  8
Camada 1
 62
    18
420
        0
370
     9
100
AcDbLine
 10
78.06038159559903
 20
-21.53392939858097
 30
0.0
 11
48.85794868817026
 21
-21.53392939858097
 31
0.0
  0
LINE
  5
103
330
7D
100
AcDbEntity
  8
Camada 1
 62
    18
420
        0
370
     9
100
AcDbLine
 10
78.06038159559903
 20
-21.45195404613287
 30
0.0
 11
48.85794868817026
 21
-21.45195404613287
 31
0.0
  0
LINE
  5
104
330
7D
100
AcDbEntity
  8
Camada 1
 62
    18
420
        0
370
     9
100
AcDbLine
 10
78.01939391937465
 20
-21.43146194522897
 30
0.0
 11
48.91942672809089
 21
-21.43146194522897
 31
0.0
  0
LINE
  5
105
330
7D
100
AcDbEntity
  8
Camada 1
 62
    18
420
        0
370
     9
100
AcDbLine
 10
48.91942672809089
 20
-21.41096984432443
 30
0.0
 11
78.01939391937465
 21
-21.41096984432443
 31
0.0
  0
LINE
  5
106
330
7D
100
AcDbEntity
  8
Camada 1
 62
    18
420
        0
370
     9
100
AcDbLine
 10
78.01939391937465
 20
-21.28801029006788
 30
0.0
 11
48.91942672809089
 21
-21.28801029006788
 31
0.0
  0
LINE
  5
107
330
7D
100
AcDbEntity
  8
Camada 1
 62
    18
420
        0
370
     9
100
AcDbLine
 10
48.91942672809089
 20
-21.2675181891627
 30
0.0
 11
78.01939391937465
 21
-21.2675181891627
 31
0.0
  0
LINE
  5
108
330
7D
100
AcDbEntity
  8
Camada 1
 62
    18
420
        0
370
     9
100
AcDbLine
 10
78.65467684273392
 20
-79.09858085778923
 30
0.0
 11
78.71615314544723
 21
-79.0371028178686
 31
0.0
  0
LINE
  5
109
330
7D
100
AcDbEntity
  8
Camada 1
 62
    18
420
        0
370
     9
100
AcDbLine
 10
78.69566104454269
 20
-79.18055273582204
 30
0.0
 11
78.79812502348006
 21
-79.07808875688534
 31
0.0
  0
LINE
  5
10A
330
7D
100
AcDbEntity
  8
Camada 1
 62
    18
420
        0
370
     9
100
AcDbLine
 10
91.12738689517691
 20
-79.18055273582204
 30
0.0
 11
85.45084563324392
 21
-79.18055273582204
 31
0.0
  0
LINE
  5
10B
330
7D
100
AcDbEntity
  8
Camada 1
 62
    18
420
        0
370
     9
100
AcDbLine
 10
91.22985434852923
 20
-79.18055273582204
 30
0.0
 11
91.70119351582254
 21
-79.18055273582204
 31
0.0
  0
LINE
  5
10C
330
7D
100
AcDbEntity
  8
Camada 1
 62
    18
420
        0
370
     9
100
AcDbLine
 10
85.51232541037219
 20
-79.13956679680596
 30
0.0
 11
91.68070141491799
 21
-79.13956679680596
 31
0.0
  0
LINE
  5
10D
330
7D
100
AcDbEntity
  8
Camada 1
 62
    18
420
        0
370
     9
100
AcDbLine
 10
91.68070141491799
 20
-79.07808875688534
 30
0.0
 11
91.70119351582254
 21
-79.07808875688534
 31
0.0
  0
LINE
  5
10E
330
7D
100
AcDbEntity
  8
Camada 1
 62
    18
420
        0
370
     9
100
AcDbLine
 10
85.51232541037219
 20
-78.83217312278624
 30
0.0
 11
85.45084563324392
 21
-78.83217312278624
 31
0.0
  0
LINE
  5
10F
330
7D
100
AcDbEntity
  8
Camada 1
 62
    18
420
        0
370
     9
100
AcDbLine
 10
91.80365402034462
 20
-69.6923243569796
 30
0.0
 11
91.80365402034462
 21
-69.6923243569796
 31
0.0
  0
LINE
  5
110
330
7D
100
AcDbEntity
  8
Camada 1
 62
    18
420
        0
370
     9
100
AcDbLine
 10
92.02908102795413
 20
-69.4669025609927
 30
0.0
 11
92.00858892704991
 21
-69.4669025609927
 31
0.0
  0
LINE
  5
111
330
7D
100
AcDbEntity
  8
Camada 1
 62
    18
420
        0
370
     9
100
AcDbLine
 10
85.49183330946766
 20
-68.27831206672225
 30
0.0
 11
85.51232541037219
 21
-68.27831206672225
 31
0.0
  0
LINE
  5
112
330
7D
100
AcDbEntity
  8
Camada 1
 62
    18
420
        0
370
     9
100
AcDbLine
 10
92.02908102795413
 20
-63.66740174480284
 30
0.0
 11
92.00858892704991
 21
-63.66740174480284
 31
0.0
  0
LINE
  5
113
330
7D
100
AcDbEntity
  8
Camada 1
 62
    18
420
        0
370
     9
100
AcDbLine
 10
91.80365402034462
 20
-63.44197821160893
 30
0.0
 11
91.80365402034462
 21
-63.44197821160893
 31
0.0
  0
LINE
  5
114
330
7D
100
AcDbEntity
  8
Camada 1
 62
    18
420
        0
370
     9
100
AcDbLine
 10
85.45084563324392
 20
-78.83217312278624
 30
0.0
 11
85.45084563324392
 21
-79.18055273582204
 31
0.0
  0
LINE
  5
115
330
7D
100
AcDbEntity
  8
Camada 1
 62
    18
420
        0
370
     9
100
AcDbLine
 10
85.49183330946766
 20
-68.27831206672225
 30
0.0
 11
85.49183330946766
 21
-78.83217312278624
 31
0.0
  0
LINE
  5
116
330
7D
100
AcDbEntity
  8
Camada 1
 62
    18
420
        0
370
     9
100
AcDbLine
 10
85.51232541037219
 20
-79.13956679680596
 30
0.0
 11
85.51232541037219
 21
-21.28801029006788
 31
0.0
  0
LINE
  5
117
330
7D
100
AcDbEntity
  8
Camada 1
 62
    18
420
        0
370
     9
100
AcDbLine
 10
85.55331308659622
 20
-21.2675181891627
 30
0.0
 11
85.55331308659622
 21
-79.13956679680596
 31
0.0
  0
LINE
  5
118
330
7D
100
AcDbEntity
  8
Camada 1
 62
    18
420
        0
370
     9
100
AcDbLine
 10
91.90612147369726
 20
-63.56493776586548
 30
0.0
 11
91.88562937279336
 21
-63.52395008964111
 31
0.0
  0
LINE
  5
119
330
7D
100
AcDbEntity
  8
Camada 1
 62
    18
420
        0
370
     9
100
AcDbLine
 10
91.12738689517691
 20
-79.18055273582204
 30
0.0
 11
91.12738689517691
 21
-79.13956679680596
 31
0.0
  0
LINE
  5
11A
330
7D
100
AcDbEntity
  8
Camada 1
 62
    18
420
        0
370
     9
100
AcDbLine
 10
91.22985434852923
 20
-79.13956679680596
 30
0.0
 11
91.22985434852923
 21
-79.18055273582204
 31
0.0
  0
LINE
  5
11B
330
7D
100
AcDbEntity
  8
Camada 1
 62
    18
420
        0
370
     9
100
AcDbLine
 10
91.63971026427899
 20
-79.13956679680596
 30
0.0
 11
91.63971026427899
 21
-21.2675181891627
 31
0.0
  0
LINE
  5
11C
330
7D
100
AcDbEntity
  8
Camada 1
 62
    18
420
        0
370
     9
100
AcDbLine
 10
91.68070141491799
 20
-79.13956679680596
 30
0.0
 11
91.68070141491799
 21
-21.28801029006788
 31
0.0
  0
LINE
  5
11D
330
7D
100
AcDbEntity
  8
Camada 1
 62
    18
420
        0
370
     9
100
AcDbLine
 10
91.70119351582254
 20
-21.45195404613287
 30
0.0
 11
91.70119351582254
 21
-79.18055273582204
 31
0.0
  0
LINE
  5
11E
330
7D
100
AcDbEntity
  8
Camada 1
 62
    18
420
        0
370
     9
100
AcDbLine
 10
91.80365402034462
 20
-21.53392939858097
 30
0.0
 11
91.80365402034462
 21
-79.09858085778923
 31
0.0
  0
LINE
  5
11F
330
7D
100
AcDbEntity
  8
Camada 1
 62
    18
420
        0
370
     9
100
AcDbLine
 10
91.80365402034462
 20
-63.44197821160893
 30
0.0
 11
91.80365402034462
 21
-69.6923243569796
 31
0.0
  0
LINE
  5
120
330
7D
100
AcDbEntity
  8
Camada 1
 62
    18
420
        0
370
     9
100
AcDbLine
 10
91.88562937279336
 20
-69.61035247894677
 30
0.0
 11
91.88562937279336
 21
-63.52395008964111
 31
0.0
  0
LINE
  5
121
330
7D
100
AcDbEntity
  8
Camada 1
 62
    18
420
        0
370
     9
100
AcDbLine
 10
91.90612147369726
 20
-63.56493776586548
 30
0.0
 11
91.90612147369726
 21
-69.5693665399307
 31
0.0
  0
LINE
  5
122
330
7D
100
AcDbEntity
  8
Camada 1
 62
    18
420
        0
370
     9
100
AcDbLine
 10
92.00858892704991
 20
-63.66740174480284
 30
0.0
 11
92.00858892704991
 21
-69.4669025609927
 31
0.0
  0
LINE
  5
123
330
7D
100
AcDbEntity
  8
Camada 1
 62
    18
420
        0
370
     9
100
AcDbLine
 10
92.02908102795413
 20
-63.66740174480284
 30
0.0
 11
92.02908102795413
 21
-69.4669025609927
 31
0.0
  0
LINE
  5
124
330
7D
100
AcDbEntity
  8
Camada 1
 62
    18
420
        0
370
     9
100
AcDbLine
 10
92.09055733066776
 20
-63.72888152193111
 30
0.0
 11
92.09055733066776
 21
-69.40542278386442
 31
0.0
  0
LINE
  5
125
330
7D
100
AcDbEntity
  8
Camada 1
 62
    18
420
        0
370
     9
100
AcDbLine
 10
91.90612147369726
 20
-69.5693665399307
 30
0.0
 11
91.88562937279336
 21
-69.61035247894677
 31
0.0
  0
LINE
  5
126
330
7D
100
AcDbEntity
  8
Camada 1
 62
    18
420
        0
370
     9
100
AcDbLine
 10
91.80365402034462
 20
-21.53392939858097
 30
0.0
 11
91.70119351582254
 21
-21.45195404613287
 31
0.0
  0
LINE
  5
127
330
7D
100
AcDbEntity
  8
Camada 1
 62
    18
420
        0
370
     9
100
AcDbLine
 10
91.68070141491799
 20
-22.27167282646297
 30
0.0
 11
85.51232541037219
 21
-22.27167282646297
 31
0.0
  0
LINE
  5
128
330
7D
100
AcDbEntity
  8
Camada 1
 62
    18
420
        0
370
     9
100
AcDbLine
 10
85.51232541037219
 20
-22.16920537311033
 30
0.0
 11
91.80365402034462
 21
-22.16920537311033
 31
0.0
  0
LINE
  5
129
330
7D
100
AcDbEntity
  8
Camada 1
 62
    18
420
        0
370
     9
100
AcDbLine
 10
91.70119351582254
 20
-79.18055273582204
 30
0.0
 11
91.80365402034462
 21
-79.09858085778923
 31
0.0
  0
LINE
  5
12A
330
7D
100
AcDbEntity
  8
Camada 1
 62
    18
420
        0
370
     9
100
AcDbLine
 10
91.68070141491799
 20
-21.45195404613287
 30
0.0
 11
91.70119351582254
 21
-21.45195404613287
 31
0.0
  0
LINE
  5
12B
330
7D
100
AcDbEntity
  8
Camada 1
 62
    18
420
        0
370
     9
100
AcDbLine
 10
85.55331308659622
 20
-21.2675181891627
 30
0.0
 11
91.63971026427899
 21
-21.2675181891627
 31
0.0
  0
LINE
  5
12C
330
7D
100
AcDbEntity
  8
Camada 1
 62
    18
420
        0
370
     9
100
AcDbLine
 10
91.70119351582254
 20
-79.07808875688534
 30
0.0
 11
91.80365402034462
 21
-79.0371028178686
 31
0.0
  0
LWPOLYLINE
  5
12D
330
7D
100
AcDbEntity
  8
Camada 1
 62
    18
420
        0
370
     9
100
AcDbPolyline
 90
       10
 70
     0
 43
0.0
 10
59.51427459177478
 20
-64.56908892875046
 10
59.49378075366293
 20
-64.28218909284293
 10
59.41180887562946
 20
-63.99528925693474
 10
59.28885279578788
 20
-63.70838594661193
 10
59.12490903972193
 20
-63.48296588783266
 10
58.8994855065277
 20
-63.25754235463811
 10
58.65357160963625
 20
-63.09359859857185
 10
58.38716213742562
 20
-62.97064251873058
 10
58.10026230151744
 20
-62.88867064069712
 10
57.81336072840225
 20
-62.86817853979322
  0
LWPOLYLINE
  5
12E
330
7D
100
AcDbEntity
  8
Camada 1
 62
    18
420
        0
370
     9
100
AcDbPolyline
 90
       18
 70
     0
 43
0.0
 10
56.95265774626371
 20
-58.95402744394607
 10
56.64526407224432
 20
-59.09747562469188
 10
56.37885460003336
 20
-59.26141938075815
 10
56.13294070314191
 20
-59.48684291395206
 10
55.92801100805955
 20
-59.75325064895634
 10
55.76406725199359
 20
-60.04015048486387
 10
55.66160327305624
 20
-60.34754589609059
 10
55.60012349592796
 20
-60.67543340822314
 10
55.60012349592796
 20
-61.00332092035441
 10
55.66160327305624
 20
-61.33120843248632
 10
55.76406725199359
 20
-61.6386003692984
 10
55.92801100805955
 20
-61.92550020520658
 10
56.13294070314191
 20
-62.19191141462485
 10
56.35836249912881
 20
-62.39683937249957
 10
56.64526407224432
 20
-62.5812752294704
 10
56.93216390815186
 20
-62.72472688463149
 10
57.26005142028377
 20
-62.8066987626643
 10
57.58793893241535
 20
-62.82719086356884
  0
LWPOLYLINE
  5
12F
330
7D
100
AcDbEntity
  8
Camada 1
 62
    18
420
        0
370
     9
100
AcDbPolyline
 90
       17
 70
     0
 43
0.0
 10
58.30519199660012
 20
-60.47050197593314
 10
58.16174034143902
 20
-60.49099755125233
 10
58.03878252438948
 20
-60.57296942928514
 10
57.95681064635634
 20
-60.69592550912705
 10
57.9363185454518
 20
-60.83937716428877
 10
57.95681064635634
 20
-60.98282534503459
 10
58.03878252438948
 20
-61.10578489929177
 10
58.16174034143902
 20
-61.18775677732458
 10
58.30519199660012
 20
-61.20824887822913
 10
58.44864191455389
 20
-61.18775677732458
 10
58.57159973160375
 20
-61.10578489929177
 10
58.65357160963625
 20
-60.98282534503459
 10
58.67406371054079
 20
-60.83937716428877
 10
58.65357160963625
 20
-60.69592550912705
 10
58.57159973160375
 20
-60.57296942928514
 10
58.44864191455389
 20
-60.49099755125233
 10
58.30519199660012
 20
-60.47050197593314
  0
LWPOLYLINE
  5
130
330
7D
100
AcDbEntity
  8
Camada 1
 62
    18
420
        0
370
     9
100
AcDbPolyline
 90
       17
 70
     0
 43
0.0
 10
56.87068586823123
 20
-60.47050197593314
 10
56.72723595027713
 20
-60.49099755125233
 10
56.60427813322758
 20
-60.57296942928514
 10
56.52230625519445
 20
-60.69592550912705
 10
56.50181241708259
 20
-60.83937716428877
 10
56.52230625519445
 20
-60.98282534503459
 10
56.60427813322758
 20
-61.10578489929177
 10
56.72723595027713
 20
-61.18775677732458
 10
56.87068586823123
 20
-61.20824887822913
 10
57.01413578618499
 20
-61.18775677732458
 10
57.13709360323454
 20
-61.10578489929177
 10
57.21906548126735
 20
-60.98282534503459
 10
57.23955931937922
 20
-60.83937716428877
 10
57.21906548126735
 20
-60.69592550912705
 10
57.13709360323454
 20
-60.57296942928514
 10
57.01413578618499
 20
-60.49099755125233
 10
56.87068586823123
 20
-60.47050197593314
  0
LWPOLYLINE
  5
131
330
7D
100
AcDbEntity
  8
Camada 1
 62
    18
420
        0
370
     9
100
AcDbPolyline
 90
       15
 70
     0
 43
0.0
 10
56.87068586823123
 20
-60.57296942928514
 10
56.74772805118136
 20
-60.59346153018968
 10
56.66575617314855
 20
-60.67543340822314
 10
56.60427813322758
 20
-60.77789738715987
 10
56.60427813322758
 20
-60.90085346700178
 10
56.66575617314855
 20
-61.00332092035441
 10
56.74772805118136
 20
-61.08529279838787
 10
56.87068586823123
 20
-61.10578489929177
 10
56.99364368528045
 20
-61.08529279838787
 10
57.07561556331359
 20
-61.00332092035441
 10
57.13709360323454
 20
-60.90085346700178
 10
57.13709360323454
 20
-60.77789738715987
 10
57.07561556331359
 20
-60.67543340822314
 10
56.99364368528045
 20
-60.59346153018968
 10
56.87068586823123
 20
-60.57296942928514
  0
LWPOLYLINE
  5
132
330
7D
100
AcDbEntity
  8
Camada 1
 62
    18
420
        0
370
     9
100
AcDbPolyline
 90
       15
 70
     0
 43
0.0
 10
58.30519199660012
 20
-60.57296942928514
 10
58.18223417955057
 20
-60.59346153018968
 10
58.10026230151744
 20
-60.67543340822314
 10
58.03878252438948
 20
-60.77789738715987
 10
58.03878252438948
 20
-60.90085346700178
 10
58.10026230151744
 20
-61.00332092035441
 10
58.18223417955057
 20
-61.08529279838787
 10
58.30519199660012
 20
-61.10578489929177
 10
58.42814807644202
 20
-61.08529279838787
 10
58.51011995447485
 20
-61.00332092035441
 10
58.57159973160375
 20
-60.90085346700178
 10
58.57159973160375
 20
-60.77789738715987
 10
58.51011995447485
 20
-60.67543340822314
 10
58.42814807644202
 20
-60.59346153018968
 10
58.30519199660012
 20
-60.57296942928514
  0
LWPOLYLINE
  5
133
330
7D
100
AcDbEntity
  8
Camada 1
 62
    18
420
        0
370
     9
100
AcDbPolyline
 90
        3
 70
     0
 43
0.0
 10
60.33399163489692
 20
-65.49127168801728
 10
60.41596351292973
 20
-65.47077958711273
 10
60.43645561383396
 20
-65.38880770907991
  0
LINE
  5
134
330
7D
100
AcDbEntity
  8
Camada 1
 62
    18
420
        0
370
     9
100
AcDbLine
 10
60.33399163489692
 20
-65.47077958711273
 30
0.0
 11
60.41596351292973
 21
-65.38880770907991
 31
0.0
  0
LWPOLYLINE
  5
135
330
7D
100
AcDbEntity
  8
Camada 1
 62
    18
420
        0
370
     9
100
AcDbPolyline
 90
        6
 70
     0
 43
0.0
 10
60.5594134308835
 20
-64.4666249498131
 10
60.33399163489692
 20
-64.50761262603683
 10
60.14955577792641
 20
-64.61007660497419
 10
60.006104122765
 20
-64.77402036104047
 10
59.90364014382765
 20
-64.95845621801065
 10
59.8831480429231
 20
-65.1838797512052
  0
LWPOLYLINE
  5
136
330
7D
100
AcDbEntity
  8
Camada 1
 62
    18
420
        0
370
     9
100
AcDbPolyline
 90
        5
 70
     0
 43
0.0
 10
60.5594134308835
 20
-64.69204848300766
 10
60.37497757391332
 20
-64.73303268481609
 10
60.23152765595956
 20
-64.83550013816874
 10
60.12906193981455
 20
-64.97894831891518
 10
60.10856983891001
 20
-65.16338417588537
  0
LWPOLYLINE
  5
137
330
7D
100
AcDbEntity
  8
Camada 1
 62
    18
420
        0
370
     9
100
AcDbPolyline
 90
        5
 70
     0
 43
0.0
 10
60.53892132997928
 20
-64.81500456284891
 10
60.45694945194615
 20
-64.83550013816874
 10
60.33399163489692
 20
-64.89697644088237
 10
60.25201975686378
 20
-65.01993599513892
 10
60.23152765595956
 20
-65.16338417588537
  0
LWPOLYLINE
  5
138
330
7D
100
AcDbEntity
  8
Camada 1
 62
    18
420
        0
370
     9
100
AcDbPolyline
 90
        4
 70
     0
 43
0.0
 10
60.5594134308835
 20
-64.87648433997718
 10
60.41596351292973
 20
-64.9174720162022
 10
60.31349953399237
 20
-65.01993599513892
 10
60.29300569588051
 20
-65.16338417588537
  0
LINE
  5
139
330
7D
100
AcDbEntity
  8
Camada 1
 62
    18
420
        0
370
     9
100
AcDbLine
 10
60.53892132997928
 20
-64.75352826013592
 30
0.0
 11
60.45694945194615
 21
-64.77402036104047
 31
0.0
  0
LINE
  5
13A
330
7D
100
AcDbEntity
  8
Camada 1
 62
    18
420
        0
370
     9
100
AcDbLine
 10
60.51842749186741
 20
-64.87648433997718
 30
0.0
 11
60.43645561383396
 21
-65.04042809604346
 31
0.0
  0
LWPOLYLINE
  5
13B
330
7D
100
AcDbEntity
  8
Camada 1
 62
    18
420
        0
370
     9
100
AcDbPolyline
 90
        3
 70
     0
 43
0.0
 10
60.62089320801241
 20
-64.87648433997718
 10
60.49793539096287
 20
-64.9174720162022
 10
60.45694945194615
 20
-65.04042809604346
  0
LINE
  5
13C
330
7D
100
AcDbEntity
  8
Camada 1
 62
    18
420
        0
370
     9
100
AcDbLine
 10
60.90779478112727
 20
-64.69204848300766
 30
0.0
 11
60.96927282104855
 21
-64.69204848300766
 31
0.0
  0
LWPOLYLINE
  5
13D
330
7D
100
AcDbEntity
  8
Camada 1
 62
    18
420
        0
370
     9
100
AcDbPolyline
 90
        3
 70
     0
 43
0.0
 10
60.90779478112727
 20
-64.50761262603683
 10
61.0307508609695
 20
-64.48711705071765
 10
61.15370867801904
 20
-64.40514864709946
  0
LINE
  5
13E
330
7D
100
AcDbEntity
  8
Camada 1
 62
    18
420
        0
370
     9
100
AcDbLine
 10
60.90779478112727
 20
-64.44613284890856
 30
0.0
 11
61.09223063809777
 21
-64.3641609708751
 31
0.0
  0
LWPOLYLINE
  5
13F
330
7D
100
AcDbEntity
  8
Camada 1
 62
    18
420
        0
370
     9
100
AcDbPolyline
 90
        3
 70
     0
 43
0.0
 10
61.66603204712081
 20
-60.6549413073186
 10
61.70701798613754
 20
-60.77789738715987
 10
61.82997580318708
 20
-60.81888506338423
  0
LINE
  5
140
330
7D
100
AcDbEntity
  8
Camada 1
 62
    18
420
        0
370
     9
100
AcDbLine
 10
61.74800392515394
 20
-58.81057578878434
 30
0.0
 11
61.82997580318708
 21
-58.72860391075152
 31
0.0
  0
LWPOLYLINE
  5
141
330
7D
100
AcDbEntity
  8
Camada 1
 62
    18
420
        0
370
     9
100
AcDbPolyline
 90
        7
 70
     0
 43
0.0
 10
48.91942672809089
 20
-21.2675181891627
 10
48.69400493210398
 20
-21.28801029006788
 10
48.46858226751358
 20
-21.39047774341988
 10
48.28414641054308
 20
-21.53392939858097
 10
48.14069562398548
 20
-21.71836525555179
 10
48.0382307764443
 20
-21.9437853143317
 10
48.01773780693626
 20
-22.16920537311033
  0
LWPOLYLINE
  5
142
330
7D
100
AcDbEntity
  8
Camada 1
 62
    18
420
        0
370
     9
100
AcDbPolyline
 90
        7
 70
     0
 43
0.0
 10
48.91942672809089
 20
-21.28801029006788
 10
48.69400493210398
 20
-21.30850239097179
 10
48.46858226751358
 20
-21.41096984432443
 10
48.30463938005112
 20
-21.55442149948616
 10
48.16118859349385
 20
-21.73885735645569
 10
48.05872374595235
 20
-21.9437853143317
 10
48.0382307764443
 20
-22.16920537311033
  0
LWPOLYLINE
  5
143
330
7D
100
AcDbEntity
  8
Camada 1
 62
    18
420
        0
370
     9
100
AcDbPolyline
 90
        6
 70
     0
 43
0.0
 10
48.85794868817026
 20
-21.45195404613287
 10
48.63252602357921
 20
-21.49293824794261
 10
48.42759632849716
 20
-21.5954057012946
 10
48.28414641054308
 20
-21.73885735645569
 10
48.18168156300189
 20
-21.9437853143317
 10
48.14069562398548
 20
-22.16920537311033
  0
LWPOLYLINE
  5
144
330
7D
100
AcDbEntity
  8
Camada 1
 62
    18
420
        0
370
     9
100
AcDbPolyline
 90
        6
 70
     0
 43
0.0
 10
48.85794868817026
 20
-21.53392939858097
 10
48.65301899308789
 20
-21.5749136003907
 10
48.48907523702162
 20
-21.65688200400824
 10
48.34562531906785
 20
-21.80033365916997
 10
48.26365344103503
 20
-21.9642774152356
 10
48.22266750201862
 20
-22.16920537311033
  0
LINE
  5
145
330
7D
100
AcDbEntity
  8
Camada 1
 62
    18
420
        0
370
     9
100
AcDbLine
 10
47.99724483742758
 20
-28.70645656601208
 30
0.0
 11
47.99724483742758
 21
-28.70645656601208
 31
0.0
  0
LINE
  5
146
330
7D
100
AcDbEntity
  8
Camada 1
 62
    18
420
        0
370
     9
100
AcDbLine
 10
47.99724483742758
 20
-29.81307170783379
 30
0.0
 11
47.99724483742758
 21
-29.81307170783379
 31
0.0
  0
LWPOLYLINE
  5
147
330
7D
100
AcDbEntity
  8
Camada 1
 62
    18
420
        0
370
     9
100
AcDbPolyline
 90
       28
 70
     0
 43
0.0
 10
59.55526053079151
 20
-66.57739820334971
 10
59.57575263169574
 20
-67.02824179532417
 10
59.65772450972888
 20
-67.47908712450499
 10
59.80117616489028
 20
-67.90943861557426
 10
59.9651181837486
 20
-68.33979010664352
 10
60.19054171694315
 20
-68.7291556586967
 10
60.47744155285069
 20
-69.0980291098447
 10
60.78483696407804
 20
-69.42591662197661
 10
61.1332165771145
 20
-69.71281645788415
 10
61.52258212916704
 20
-69.95873209198324
 10
61.91194768121958
 20
-70.16366178706559
 10
62.34229917228917
 20
-70.32760554313123
 10
62.7931445014703
 20
-70.43006952206923
 10
63.24398809344412
 20
-70.4915492991975
 10
63.69483342262557
 20
-70.4915492991975
 10
64.14567701459906
 20
-70.43006952206923
 10
64.59652234378019
 20
-70.32760554313123
 10
65.02687383484946
 20
-70.16366178706559
 10
65.41623938690232
 20
-69.95873209198324
 10
65.80560493895486
 20
-69.71281645788415
 10
66.15398455199164
 20
-69.42591662197661
 10
66.461379963219
 20
-69.0980291098447
 10
66.74827979912653
 20
-68.7291556586967
 10
66.97370333232076
 20
-68.33979010664352
 10
67.13764708838704
 20
-67.90943861557426
 10
67.28109526913316
 20
-67.47908712450499
 10
67.36306714716597
 20
-67.02824179532417
 10
67.3835627224858
 20
-66.57739820334971
  0
LWPOLYLINE
  5
148
330
7D
100
AcDbEntity
  8
Camada 1
 62
    18
420
        0
370
     9
100
AcDbPolyline
 90
       14
 70
     0
 43
0.0
 10
65.80560493895486
 20
-64.38465307177965
 10
65.51870510304732
 20
-64.11824533677665
 10
65.19081759091574
 20
-63.87232970267756
 10
64.84243797787896
 20
-63.68789384570739
 10
64.45307242582642
 20
-63.54444219054565
 10
64.06370513656624
 20
-63.44197821160893
 10
63.67433958451338
 20
-63.3805019088953
 10
63.26448193155631
 20
-63.3805019088953
 10
62.87511637950344
 20
-63.44197821160893
 10
62.48574909024326
 20
-63.54444219054565
 10
62.0963835381904
 20
-63.68789384570739
 10
61.74800392515394
 20
-63.87232970267756
 10
61.42011815022968
 20
-64.11824533677665
 10
61.1332165771145
 20
-64.38465307177965
  0
LWPOLYLINE
  5
149
330
7D
100
AcDbEntity
  8
Camada 1
 62
    18
420
        0
370
     9
100
AcDbPolyline
 90
       13
 70
     0
 43
0.0
 10
65.76462073714608
 20
-64.42564074800401
 10
65.43673322501418
 20
-64.1387374376812
 10
65.08835187477074
 20
-63.89282527799739
 10
64.71948016082973
 20
-63.70838594661193
 10
64.30962077066502
 20
-63.56493776586548
 10
63.89976311770793
 20
-63.46247031251284
 10
63.46941162663834
 20
-63.44197821160893
 10
63.03905839836144
 20
-63.46247031251284
 10
62.62920074540467
 20
-63.56493776586548
 10
62.21934135523994
 20
-63.70838594661193
 10
61.85046964129895
 20
-63.89282527799739
 10
61.50208829105518
 20
-64.1387374376812
 10
61.17420251613123
 20
-64.42564074800401
  0
LWPOLYLINE
  5
14A
330
7D
100
AcDbEntity
  8
Camada 1
 62
    18
420
        0
370
     9
100
AcDbPolyline
 90
       50
 70
     0
 43
0.0
 10
63.46941162663834
 20
-63.46247031251284
 10
63.08004433737816
 20
-63.48296588783266
 10
62.67018668442108
 20
-63.56493776586548
 10
62.30131323327244
 20
-63.68789384570739
 10
61.93244151933209
 20
-63.87232970267756
 10
61.60455400720017
 20
-64.07726113496756
 10
61.29716033318014
 20
-64.3436688699712
 10
61.0307508609695
 20
-64.63056870587874
 10
60.80532906498227
 20
-64.95845621801065
 10
60.62089320801241
 20
-65.3068358310471
 10
60.47744155285069
 20
-65.69620312030727
 10
60.3954714120255
 20
-66.08556693515217
 10
60.35448547300878
 20
-66.474934224413
 10
60.37497757391332
 20
-66.88479187737008
 10
60.43645561383396
 20
-67.27415742942262
 10
60.53892132997928
 20
-67.64303088057062
 10
60.70286508604524
 20
-68.01190433171925
 10
60.90779478112727
 20
-68.36028394475571
 10
61.15370867801904
 20
-68.66767761877543
 10
61.44061025113423
 20
-68.95457919189126
 10
61.76849776326581
 20
-69.18000098787752
 10
62.11687737630226
 20
-69.38493068296051
 10
62.48574909024326
 20
-69.52838060091396
 10
62.87511637950344
 20
-69.63084457985132
 10
63.26448193155631
 20
-69.6923243569796
 10
63.67433958451338
 20
-69.6923243569796
 10
64.06370513656624
 20
-69.63084457985132
 10
64.45307242582642
 20
-69.52838060091396
 10
64.8219441397671
 20
-69.38493068296051
 10
65.17032375280322
 20
-69.18000098787752
 10
65.49821126493546
 20
-68.95457919189126
 10
65.78511283805063
 20
-68.66767761877543
 10
66.03102847214941
 20
-68.36028394475571
 10
66.23595643002445
 20
-68.01190433171925
 10
66.39990018609008
 20
-67.64303088057062
 10
66.50236416502777
 20
-67.27415742942262
 10
66.56384394215604
 20
-66.88479187737008
 10
66.5843360430609
 20
-66.474934224413
 10
66.54335184125149
 20
-66.08556693515217
 10
66.461379963219
 20
-65.69620312030727
 10
66.31792830805728
 20
-65.3068358310471
 10
66.13349245108676
 20
-64.95845621801065
 10
65.90806891789222
 20
-64.63056870587874
 10
65.64166118288922
 20
-64.3436688699712
 10
65.3342675088695
 20
-64.07726113496756
 10
65.00638173394523
 20
-63.87232970267756
 10
64.63750828279628
 20
-63.68789384570739
 10
64.26863483164861
 20
-63.56493776586548
 10
63.8587771786912
 20
-63.48296588783266
 10
63.46941162663834
 20
-63.46247031251284
  0
LWPOLYLINE
  5
14B
330
7D
100
AcDbEntity
  8
Camada 1
 62
    18
420
        0
370
     9
100
AcDbPolyline
 90
       47
 70
     0
 43
0.0
 10
63.46941162663834
 20
-63.74937362283565
 10
63.08004433737816
 20
-63.7698657237402
 10
62.71117262343748
 20
-63.85183760177365
 10
62.34229917228917
 20
-63.97479368161492
 10
61.99391955925303
 20
-64.15923301300037
 10
61.686525885233
 20
-64.38465307177965
 10
61.39962431211781
 20
-64.65106080678264
 10
61.15370867801904
 20
-64.93796411710611
 10
60.94877898293669
 20
-65.28634373014191
 10
60.80532906498227
 20
-65.63472334317836
 10
60.70286508604524
 20
-66.00359505711935
 10
60.64138530891664
 20
-66.39296234638019
 10
60.64138530891664
 20
-66.76183406032054
 10
60.70286508604524
 20
-67.15119961237308
 10
60.80532906498227
 20
-67.52007306352171
 10
60.94877898293669
 20
-67.86845267655817
 10
61.15370867801904
 20
-68.21683228959398
 10
61.39962431211781
 20
-68.50373386270979
 10
61.686525885233
 20
-68.77014159771279
 10
61.99391955925303
 20
-68.99556513090733
 10
62.34229917228917
 20
-69.18000098787752
 10
62.71117262343748
 20
-69.30295880492706
 10
63.08004433737816
 20
-69.38493068296051
 10
63.46941162663834
 20
-69.40542278386442
 10
63.8587771786912
 20
-69.38493068296051
 10
64.22764889263188
 20
-69.30295880492706
 10
64.59652234378019
 20
-69.18000098787752
 10
64.94490195681665
 20
-68.99556513090733
 10
65.25229563083637
 20
-68.77014159771279
 10
65.53919720395187
 20
-68.50373386270979
 10
65.78511283805063
 20
-68.21683228959398
 10
65.99004079592536
 20
-67.86845267655817
 10
66.13349245108676
 20
-67.52007306352171
 10
66.23595643002445
 20
-67.15119961237308
 10
66.29743620715273
 20
-66.76183406032054
 10
66.29743620715273
 20
-66.39296234638019
 10
66.23595643002445
 20
-66.00359505711935
 10
66.13349245108676
 20
-65.63472334317836
 10
65.99004079592536
 20
-65.28634373014191
 10
65.78511283805063
 20
-64.93796411710611
 10
65.53919720395187
 20
-64.65106080678264
 10
65.25229563083637
 20
-64.38465307177965
 10
64.94490195681665
 20
-64.15923301300037
 10
64.59652234378019
 20
-63.97479368161492
 10
64.22764889263188
 20
-63.85183760177365
 10
63.8587771786912
 20
-63.7698657237402
 10
63.46941162663834
 20
-63.74937362283565
  0
LWPOLYLINE
  5
14C
330
7D
100
AcDbEntity
  8
Camada 1
 62
    18
420
        0
370
     9
100
AcDbPolyline
 90
       46
 70
     0
 43
0.0
 10
63.46941162663834
 20
-63.95430158071038
 10
63.10053817549035
 20
-63.97479368161492
 10
62.75215856245389
 20
-64.05676555964838
 10
62.40377894941744
 20
-64.17972511390492
 10
62.07589143728585
 20
-64.3436688699712
 10
61.78898986417068
 20
-64.56908892875046
 10
61.52258212916704
 20
-64.81500456284891
 10
61.29716033318014
 20
-65.10190787317238
 10
61.11272273900231
 20
-65.42979538530364
 10
60.96927282104855
 20
-65.75767942302092
 10
60.88730094301573
 20
-66.12655461137655
 10
60.846315003999
 20
-66.4954263253169
 10
60.86680884211119
 20
-66.84380593835335
 10
60.92828688203214
 20
-67.21267938950134
 10
61.0307508609695
 20
-67.5610590025378
 10
61.19469461703545
 20
-67.88894651467035
 10
61.39962431211781
 20
-68.19634018868943
 10
61.64553994621659
 20
-68.46274792369307
 10
61.93244151933209
 20
-68.70866355779151
 10
62.23983519335181
 20
-68.89309941476233
 10
62.56772096827607
 20
-69.03655106992342
 10
62.91610231851985
 20
-69.13901504886078
 10
63.28497403246053
 20
-69.20049308878205
 10
63.65384748360884
 20
-69.20049308878205
 10
64.02271919754952
 20
-69.13901504886078
 10
64.3711005477936
 20
-69.03655106992342
 10
64.69898632271787
 20
-68.89309941476233
 10
65.00638173394523
 20
-68.70866355779151
 10
65.29328156985278
 20
-68.46274792369307
 10
65.53919720395187
 20
-68.19634018868943
 10
65.74412516182658
 20
-67.88894651467035
 10
65.90806891789222
 20
-67.5610590025378
 10
66.01053637124486
 20
-67.21267938950134
 10
66.07201267395883
 20
-66.84380593835335
 10
66.09250477486272
 20
-66.4954263253169
 10
66.05152057305395
 20
-66.12655461137655
 10
65.96954869502113
 20
-65.75767942302092
 10
65.82609703985941
 20
-65.42979538530364
 10
65.64166118288922
 20
-65.10190787317238
 10
65.41623938690232
 20
-64.81500456284891
 10
65.149831651899
 20
-64.56908892875046
 10
64.86293007878351
 20
-64.3436688699712
 10
64.53504256665159
 20
-64.17972511390492
 10
64.18666295361546
 20
-64.05676555964838
 10
63.83828334057934
 20
-63.97479368161492
 10
63.46941162663834
 20
-63.95430158071038
  0
LWPOLYLINE
  5
14D
330
7D
100
AcDbEntity
  8
Camada 1
 62
    18
420
        0
370
     9
100
AcDbPolyline
 90
       46
 70
     0
 43
0.0
 10
63.46941162663834
 20
-63.97479368161492
 10
63.10053817549035
 20
-63.99528925693474
 10
62.75215856245389
 20
-64.07726113496756
 10
62.40377894941744
 20
-64.20021721480947
 10
62.0963835381904
 20
-64.3641609708751
 10
61.78898986417068
 20
-64.58958450406965
 10
61.54307423007159
 20
-64.83550013816874
 10
61.31765243408468
 20
-65.12239997407693
 10
61.1332165771145
 20
-65.42979538530364
 10
60.98976492195276
 20
-65.77817499834009
 10
60.90779478112727
 20
-66.12655461137655
 10
60.86680884211119
 20
-66.4954263253169
 10
60.88730094301573
 20
-66.84380593835335
 10
60.94877898293669
 20
-67.21267938950134
 10
61.05124469908137
 20
-67.5610590025378
 10
61.21518845514732
 20
-67.86845267655817
 10
61.42011815022968
 20
-68.17584635057788
 10
61.66603204712081
 20
-68.44225582278852
 10
61.93244151933209
 20
-68.68816971967934
 10
62.23983519335181
 20
-68.87260731385778
 10
62.58821480638793
 20
-69.01605723181188
 10
62.93659441942439
 20
-69.1185212107486
 10
63.28497403246053
 20
-69.18000098787752
 10
63.65384748360884
 20
-69.18000098787752
 10
64.00222709664497
 20
-69.1185212107486
 10
64.35060670968143
 20
-69.01605723181188
 10
64.69898632271787
 20
-68.87260731385778
 10
65.00638173394523
 20
-68.68816971967934
 10
65.27278946894823
 20
-68.44225582278852
 10
65.51870510304732
 20
-68.17584635057788
 10
65.72363306092237
 20
-67.86845267655817
 10
65.887576816988
 20
-67.5610590025378
 10
65.99004079592536
 20
-67.21267938950134
 10
66.05152057305395
 20
-66.84380593835335
 10
66.07201267395883
 20
-66.4954263253169
 10
66.03102847214941
 20
-66.12655461137655
 10
65.94905659411627
 20
-65.77817499834009
 10
65.80560493895486
 20
-65.42979538530364
 10
65.62116908198468
 20
-65.12239997407693
 10
65.39574728599778
 20
-64.83550013816874
 10
65.149831651899
 20
-64.58958450406965
 10
64.84243797787896
 20
-64.3641609708751
 10
64.53504256665159
 20
-64.20021721480947
 10
64.18666295361546
 20
-64.07726113496756
 10
63.83828334057934
 20
-63.99528925693474
 10
63.46941162663834
 20
-63.97479368161492
  0
LWPOLYLINE
  5
14E
330
7D
100
AcDbEntity
  8
Camada 1
 62
    18
420
        0
370
     9
100
AcDbPolyline
 90
       45
 70
     0
 43
0.0
 10
63.46941162663834
 20
-63.99528925693474
 10
63.10053817549035
 20
-64.01578135783864
 10
62.75215856245389
 20
-64.09775323587211
 10
62.40377894941744
 20
-64.22070931571401
 10
62.07589143728585
 20
-64.40514864709946
 10
61.76849776326581
 20
-64.63056870587874
 10
61.52258212916704
 20
-64.87648433997718
 10
61.29716033318014
 20
-65.1838797512052
 10
61.11272273900231
 20
-65.51176378892117
 10
60.98976492195276
 20
-65.86014687637291
 10
60.90779478112727
 20
-66.20852648940936
 10
60.88730094301573
 20
-66.57739820334971
 10
60.90779478112727
 20
-66.94627165449836
 10
60.98976492195276
 20
-67.2946512675348
 10
61.11272273900231
 20
-67.64303088057062
 10
61.29716033318014
 20
-67.97091839270317
 10
61.52258212916704
 20
-68.27831206672225
 10
61.76849776326581
 20
-68.52422770082198
 10
62.07589143728585
 20
-68.74964949680888
 10
62.40377894941744
 20
-68.93408535377907
 10
62.75215856245389
 20
-69.05704317082797
 10
63.10053817549035
 20
-69.13901504886078
 10
63.46941162663834
 20
-69.15950714976597
 10
63.83828334057934
 20
-69.13901504886078
 10
64.18666295361546
 20
-69.05704317082797
 10
64.53504256665159
 20
-68.93408535377907
 10
64.86293007878351
 20
-68.74964949680888
 10
65.17032375280322
 20
-68.52422770082198
 10
65.41623938690232
 20
-68.27831206672225
 10
65.64166118288922
 20
-67.97091839270317
 10
65.82609703985941
 20
-67.64303088057062
 10
65.94905659411627
 20
-67.2946512675348
 10
66.03102847214941
 20
-66.94627165449836
 10
66.05152057305395
 20
-66.57739820334971
 10
66.03102847214941
 20
-66.20852648940936
 10
65.94905659411627
 20
-65.86014687637291
 10
65.82609703985941
 20
-65.51176378892117
 10
65.64166118288922
 20
-65.1838797512052
 10
65.41623938690232
 20
-64.87648433997718
 10
65.17032375280322
 20
-64.63056870587874
 10
64.86293007878351
 20
-64.40514864709946
 10
64.53504256665159
 20
-64.22070931571401
 10
64.18666295361546
 20
-64.09775323587211
 10
63.83828334057934
 20
-64.01578135783864
 10
63.46941162663834
 20
-63.99528925693474
  0
LWPOLYLINE
  5
14F
330
7D
100
AcDbEntity
  8
Camada 1
 62
    18
420
        0
370
     9
100
AcDbPolyline
 90
       44
 70
     0
 43
0.0
 10
63.46941162663834
 20
-64.17972511390492
 10
63.12103027639457
 20
-64.20021721480947
 10
62.77265066335844
 20
-64.28218909284293
 10
62.44476488843417
 20
-64.40514864709946
 10
62.13736947720681
 20
-64.56908892875046
 10
61.87096174220317
 20
-64.79451246194436
 10
61.6250461081044
 20
-65.04042809604346
 10
61.42011815022968
 20
-65.32732793195164
 10
61.25617439416405
 20
-65.63472334317836
 10
61.15370867801904
 20
-65.96261085531091
 10
61.09223063809777
 20
-66.31099046834673
 10
61.07173679998591
 20
-66.65937008138318
 10
61.11272273900231
 20
-67.00774969441899
 10
61.19469461703545
 20
-67.35612930745543
 10
61.33814627219686
 20
-67.6635229814758
 10
61.52258212916704
 20
-67.97091839270317
 10
61.74800392515394
 20
-68.23732612770616
 10
61.99391955925303
 20
-68.48324176180461
 10
62.30131323327244
 20
-68.66767761877543
 10
62.60870690729248
 20
-68.81112753672951
 10
62.95708825753657
 20
-68.91359325287388
 10
63.28497403246053
 20
-68.97507129279515
 10
63.65384748360884
 20
-68.97507129279515
 10
63.98173499574074
 20
-68.91359325287388
 10
64.33011460877719
 20
-68.81112753672951
 10
64.63750828279628
 20
-68.66767761877543
 10
64.94490195681665
 20
-68.48324176180461
 10
65.19081759091574
 20
-68.23732612770616
 10
65.41623938690232
 20
-67.97091839270317
 10
65.6006752438725
 20
-67.6635229814758
 10
65.74412516182658
 20
-67.35612930745543
 10
65.82609703985941
 20
-67.00774969441899
 10
65.86708471608345
 20
-66.65937008138318
 10
65.84659261517924
 20
-66.31099046834673
 10
65.78511283805063
 20
-65.96261085531091
 10
65.68264712190563
 20
-65.63472334317836
 10
65.51870510304732
 20
-65.32732793195164
 10
65.31377540796497
 20
-65.04042809604346
 10
65.06785977386588
 20
-64.79451246194436
 10
64.80145203886287
 20
-64.56908892875046
 10
64.49405836484283
 20
-64.40514864709946
 10
64.16617085271124
 20
-64.28218909284293
 10
63.81779123967479
 20
-64.20021721480947
 10
63.46941162663834
 20
-64.17972511390492
  0
LWPOLYLINE
  5
150
330
7D
100
AcDbEntity
  8
Camada 1
 62
    18
420
        0
370
     9
100
AcDbPolyline
 90
        3
 70
     0
 43
0.0
 10
66.50236416502777
 20
-65.38880770907991
 10
66.52285974034727
 20
-65.47077958711273
 10
66.60482814396512
 20
-65.49127168801728
  0
LWPOLYLINE
  5
151
330
7D
100
AcDbEntity
  8
Camada 1
 62
    18
420
        0
370
     9
100
AcDbPolyline
 90
        3
 70
     0
 43
0.0
 10
66.52285974034727
 20
-65.38880770907991
 10
66.54335184125149
 20
-65.45028748620818
 10
66.60482814396512
 20
-65.47077958711273
  0
LINE
  5
152
330
7D
100
AcDbEntity
  8
Camada 1
 62
    18
420
        0
370
     9
100
AcDbLine
 10
65.96954869502113
 20
-64.69204848300766
 30
0.0
 11
66.03102847214941
 21
-64.69204848300766
 31
0.0
  0
LWPOLYLINE
  5
153
330
7D
100
AcDbEntity
  8
Camada 1
 62
    18
420
        0
370
     9
100
AcDbPolyline
 90
        3
 70
     0
 43
0.0
 10
65.78511283805063
 20
-64.40514864709946
 10
65.90806891789222
 20
-64.48711705071765
 10
66.03102847214941
 20
-64.50761262603683
  0
LINE
  5
154
330
7D
100
AcDbEntity
  8
Camada 1
 62
    18
420
        0
370
     9
100
AcDbLine
 10
65.84659261517924
 20
-64.3641609708751
 30
0.0
 11
66.03102847214941
 21
-64.44613284890856
 31
0.0
  0
LWPOLYLINE
  5
155
330
7D
100
AcDbEntity
  8
Camada 1
 62
    18
420
        0
370
     9
100
AcDbPolyline
 90
        6
 70
     0
 43
0.0
 10
67.0556752103539
 20
-65.1838797512052
 10
67.03518310944935
 20
-64.95845621801065
 10
66.93271565609703
 20
-64.77402036104047
 10
66.78926747535058
 20
-64.61007660497419
 10
66.60482814396512
 20
-64.50761262603683
 10
66.37940808518585
 20
-64.4666249498131
  0
LWPOLYLINE
  5
156
330
7D
100
AcDbEntity
  8
Camada 1
 62
    18
420
        0
370
     9
100
AcDbPolyline
 90
        5
 70
     0
 43
0.0
 10
66.83025167715936
 20
-65.16338417588537
 10
66.80975957625513
 20
-64.97894831891518
 10
66.70729559731777
 20
-64.83550013816874
 10
66.56384394215604
 20
-64.73303268481609
 10
66.37940808518585
 20
-64.69204848300766
  0
LINE
  5
157
330
7D
100
AcDbEntity
  8
Camada 1
 62
    18
420
        0
370
     9
100
AcDbLine
 10
66.76877190003075
 20
-65.16338417588537
 30
0.0
 11
66.76877190003075
 21
-65.14289207498146
 31
0.0
  0
LINE
  5
158
330
7D
100
AcDbEntity
  8
Camada 1
 62
    18
420
        0
370
     9
100
AcDbLine
 10
66.70729559731777
 20
-65.16338417588537
 30
0.0
 11
66.70729559731777
 21
-65.14289207498146
 31
0.0
  0
LINE
  5
159
330
7D
100
AcDbEntity
  8
Camada 1
 62
    18
420
        0
370
     9
100
AcDbLine
 10
66.461379963219
 20
-64.77402036104047
 30
0.0
 11
66.37940808518585
 21
-64.75352826013592
 31
0.0
  0
LINE
  5
15A
330
7D
100
AcDbEntity
  8
Camada 1
 62
    18
420
        0
370
     9
100
AcDbLine
 10
66.461379963219
 20
-64.83550013816874
 30
0.0
 11
66.37940808518585
 21
-64.81500456284891
 31
0.0
  0
LWPOLYLINE
  5
15B
330
7D
100
AcDbEntity
  8
Camada 1
 62
    18
420
        0
370
     9
100
AcDbPolyline
 90
        4
 70
     0
 43
0.0
 10
66.64581582018917
 20
-65.16338417588537
 10
66.62532371928463
 20
-65.01993599513892
 10
66.52285974034727
 20
-64.9174720162022
 10
66.37940808518585
 20
-64.87648433997718
  0
LINE
  5
15C
330
7D
100
AcDbEntity
  8
Camada 1
 62
    18
420
        0
370
     9
100
AcDbLine
 10
66.50236416502777
 20
-65.04042809604346
 30
0.0
 11
66.42039228699463
 21
-64.87648433997718
 31
0.0
  0
LWPOLYLINE
  5
15D
330
7D
100
AcDbEntity
  8
Camada 1
 62
    18
420
        0
370
     9
100
AcDbPolyline
 90
        3
 70
     0
 43
0.0
 10
66.48187206412322
 20
-65.04042809604346
 10
66.44088786231413
 20
-64.9174720162022
 10
66.31792830805728
 20
-64.87648433997718
  0
LWPOLYLINE
  5
15E
330
7D
100
AcDbEntity
  8
Camada 1
 62
    18
420
        0
370
     9
100
AcDbPolyline
 90
        5
 70
     0
 43
0.0
 10
64.14567701459906
 20
-56.96621027025072
 10
63.83828334057934
 20
-56.88423839221727
 10
63.48990372754321
 20
-56.84325419040881
 10
63.16201621541066
 20
-56.86374629131272
 10
62.83413044048671
 20
-56.94571816934554
  0
LWPOLYLINE
  5
15F
330
7D
100
AcDbEntity
  8
Camada 1
 62
    18
420
        0
370
     9
100
AcDbPolyline
 90
       18
 70
     0
 43
0.0
 10
65.08835187477074
 20
-58.74909601165607
 10
65.04736593575433
 20
-58.46219617574789
 10
64.96539579492851
 20
-58.19578844074489
 10
64.8219441397671
 20
-57.92938070574126
 10
64.63750828279628
 20
-57.70395717254672
 10
64.41208648680969
 20
-57.51952131557653
 10
64.16617085271124
 20
-57.37606966041544
 10
63.89976311770793
 20
-57.27360568147808
 10
63.61286154459243
 20
-57.21212590434981
 10
63.32595997147693
 20
-57.21212590434981
 10
63.03905839836144
 20
-57.27360568147808
 10
62.77265066335844
 20
-57.37606966041544
 10
62.52673502925967
 20
-57.51952131557653
 10
62.30131323327244
 20
-57.70395717254672
 10
62.11687737630226
 20
-57.92938070574126
 10
61.97342572114117
 20
-58.19578844074489
 10
61.89145558031568
 20
-58.46219617574789
 10
61.85046964129895
 20
-58.74909601165607
  0
LWPOLYLINE
  5
160
330
7D
100
AcDbEntity
  8
Camada 1
 62
    18
420
        0
370
     9
100
AcDbPolyline
 90
        3
 70
     0
 43
0.0
 10
65.1088457128826
 20
-60.81888506338423
 10
65.23180352993183
 20
-60.77789738715987
 10
65.27278946894823
 20
-60.6549413073186
  0
LINE
  5
161
330
7D
100
AcDbEntity
  8
Camada 1
 62
    18
420
        0
370
     9
100
AcDbLine
 10
65.1088457128826
 20
-58.72860391075152
 30
0.0
 11
65.19081759091574
 21
-58.81057578878434
 31
0.0
  0
LWPOLYLINE
  5
162
330
7D
100
AcDbEntity
  8
Camada 1
 62
    18
420
        0
370
     9
100
AcDbPolyline
 90
       10
 70
     0
 43
0.0
 10
69.12546078766711
 20
-62.86817853979322
 10
68.83856095175925
 20
-62.88867064069712
 10
68.55165764143643
 20
-62.97064251873058
 10
68.26475780552858
 20
-63.09359859857185
 10
68.03933427233402
 20
-63.25754235463811
 10
67.81391421355476
 20
-63.48296588783266
 10
67.64997045748912
 20
-63.72888152193111
 10
67.52701090323194
 20
-63.99528925693474
 10
67.44503902519912
 20
-64.28218909284293
 10
67.42454692429458
 20
-64.56908892875046
  0
LWPOLYLINE
  5
163
330
7D
100
AcDbEntity
  8
Camada 1
 62
    18
420
        0
370
     9
100
AcDbPolyline
 90
       18
 70
     0
 43
0.0
 10
69.35088432086165
 20
-62.82719086356884
 10
69.67876835857795
 20
-62.8066987626643
 10
70.00665587071019
 20
-62.72472688463149
 10
70.29355918103269
 20
-62.5812752294704
 10
70.58045901694055
 20
-62.39683937249957
 10
70.80588255013509
 20
-62.19191141462485
 10
71.01081050800949
 20
-61.92550020520658
 10
71.17475426407608
 20
-61.6386003692984
 10
71.27721824301345
 20
-61.33120843248632
 10
71.33869802014172
 20
-61.00332092035441
 10
71.33869802014172
 20
-60.67543340822314
 10
71.27721824301345
 20
-60.34754589609059
 10
71.17475426407608
 20
-60.04015048486387
 10
71.01081050800949
 20
-59.75325064895634
 10
70.80588255013509
 20
-59.48684291395206
 10
70.55996691603631
 20
-59.26141938075815
 10
70.29355918103269
 20
-59.09747562469188
 10
69.986163769805
 20
-58.95402744394607
  0
LWPOLYLINE
  5
164
330
7D
100
AcDbEntity
  8
Camada 1
 62
    18
420
        0
370
     9
100
AcDbPolyline
 90
       17
 70
     0
 43
0.0
 10
70.06813564783846
 20
-60.47050197593314
 10
69.92468399267704
 20
-60.49099755125233
 10
69.80172791283514
 20
-60.57296942928514
 10
69.71975603480233
 20
-60.69592550912705
 10
69.69926393389778
 20
-60.83937716428877
 10
69.71975603480233
 20
-60.98282534503459
 10
69.80172791283514
 20
-61.10578489929177
 10
69.92468399267704
 20
-61.18775677732458
 10
70.06813564783846
 20
-61.20824887822913
 10
70.21158730300019
 20
-61.18775677732458
 10
70.33454338284177
 20
-61.10578489929177
 10
70.41651526087459
 20
-60.98282534503459
 10
70.43700736177945
 20
-60.83937716428877
 10
70.41651526087459
 20
-60.69592550912705
 10
70.33454338284177
 20
-60.57296942928514
 10
70.21158730300019
 20
-60.49099755125233
 10
70.06813564783846
 20
-60.47050197593314
  0
LWPOLYLINE
  5
165
330
7D
100
AcDbEntity
  8
Camada 1
 62
    18
420
        0
370
     9
100
AcDbPolyline
 90
       17
 70
     0
 43
0.0
 10
68.63362951946924
 20
-60.47050197593314
 10
68.49018133872312
 20
-60.49099755125233
 10
68.36722178446592
 20
-60.57296942928514
 10
68.2852499064328
 20
-60.69592550912705
 10
68.26475780552858
 20
-60.83937716428877
 10
68.2852499064328
 20
-60.98282534503459
 10
68.36722178446592
 20
-61.10578489929177
 10
68.49018133872312
 20
-61.18775677732458
 10
68.63362951946924
 20
-61.20824887822913
 10
68.77708117463065
 20
-61.18775677732458
 10
68.90003725447257
 20
-61.10578489929177
 10
68.98200913250569
 20
-60.98282534503459
 10
69.0025047078252
 20
-60.83937716428877
 10
68.98200913250569
 20
-60.69592550912705
 10
68.90003725447257
 20
-60.57296942928514
 10
68.77708117463065
 20
-60.49099755125233
 10
68.63362951946924
 20
-60.47050197593314
  0
LWPOLYLINE
  5
166
330
7D
100
AcDbEntity
  8
Camada 1
 62
    18
420
        0
370
     9
100
AcDbPolyline
 90
       15
 70
     0
 43
0.0
 10
70.06813564783846
 20
-60.57296942928514
 10
69.94517956799656
 20
-60.59346153018968
 10
69.86320768996375
 20
-60.67543340822314
 10
69.80172791283514
 20
-60.77789738715987
 10
69.80172791283514
 20
-60.90085346700178
 10
69.86320768996375
 20
-61.00332092035441
 10
69.94517956799656
 20
-61.08529279838787
 10
70.06813564783846
 20
-61.10578489929177
 10
70.19109172768037
 20
-61.08529279838787
 10
70.27306360571317
 20
-61.00332092035441
 10
70.33454338284177
 20
-60.90085346700178
 10
70.33454338284177
 20
-60.77789738715987
 10
70.27306360571317
 20
-60.67543340822314
 10
70.19109172768037
 20
-60.59346153018968
 10
70.06813564783846
 20
-60.57296942928514
  0
LWPOLYLINE
  5
167
330
7D
100
AcDbEntity
  8
Camada 1
 62
    18
420
        0
370
     9
100
AcDbPolyline
 90
       15
 70
     0
 43
0.0
 10
68.63362951946924
 20
-60.57296942928514
 10
68.51067343962798
 20
-60.59346153018968
 10
68.42870156159452
 20
-60.67543340822314
 10
68.36722178446592
 20
-60.77789738715987
 10
68.36722178446592
 20
-60.90085346700178
 10
68.42870156159452
 20
-61.00332092035441
 10
68.51067343962798
 20
-61.08529279838787
 10
68.63362951946924
 20
-61.10578489929177
 10
68.75658907372643
 20
-61.08529279838787
 10
68.83856095175925
 20
-61.00332092035441
 10
68.90003725447257
 20
-60.90085346700178
 10
68.90003725447257
 20
-60.77789738715987
 10
68.83856095175925
 20
-60.67543340822314
 10
68.75658907372643
 20
-60.59346153018968
 10
68.63362951946924
 20
-60.57296942928514
  0
LWPOLYLINE
  5
168
330
7D
100
AcDbEntity
  8
Camada 1
 62
    18
420
        0
370
     9
100
AcDbPolyline
 90
        7
 70
     0
 43
0.0
 10
78.92108457773725
 20
-22.16920537311033
 10
78.90058900241773
 20
-21.9437853143317
 10
78.79812502348006
 20
-21.71836525555179
 10
78.65467684273392
 20
-21.53392939858097
 10
78.47023751134814
 20
-21.39047774341988
 10
78.24481745256921
 20
-21.28801029006788
 10
78.01939391937465
 20
-21.2675181891627
  0
LWPOLYLINE
  5
169
330
7D
100
AcDbEntity
  8
Camada 1
 62
    18
420
        0
370
     9
100
AcDbPolyline
 90
        7
 70
     0
 43
0.0
 10
78.90058900241773
 20
-22.16920537311033
 10
78.8800969015132
 20
-21.9437853143317
 10
78.77763292257583
 20
-21.71836525555179
 10
78.63418126741411
 20
-21.55442149948616
 10
78.44974541044392
 20
-21.41096984432443
 10
78.24481745256921
 20
-21.30850239097179
 10
78.01939391937465
 20
-21.28801029006788
  0
LWPOLYLINE
  5
16A
330
7D
100
AcDbEntity
  8
Camada 1
 62
    18
420
        0
370
     9
100
AcDbPolyline
 90
        6
 70
     0
 43
0.0
 10
78.77763292257583
 20
-22.16920537311033
 10
78.73664872076673
 20
-21.9437853143317
 10
78.63418126741411
 20
-21.73885735645569
 10
78.49073308666797
 20
-21.5954057012946
 10
78.28580165437798
 20
-21.49293824794261
 10
78.06038159559903
 20
-21.45195404613287
  0
LWPOLYLINE
  5
16B
330
7D
100
AcDbEntity
  8
Camada 1
 62
    18
420
        0
370
     9
100
AcDbPolyline
 90
        6
 70
     0
 43
0.0
 10
78.69566104454269
 20
-22.16920537311033
 10
78.65467684273392
 20
-21.9642774152356
 10
78.57270496470079
 20
-21.80033365916997
 10
78.42925330953971
 20
-21.65688200400824
 10
78.26530955347343
 20
-21.5749136003907
 10
78.06038159559903
 20
-21.53392939858097
  0
LINE
  5
16C
330
7D
100
AcDbEntity
  8
Camada 1
 62
    18
420
        0
370
     9
100
AcDbLine
 10
78.94157667864146
 20
-29.81307170783379
 30
0.0
 11
78.94157667864146
 21
-29.81307170783379
 31
0.0
  0
LINE
  5
16D
330
7D
100
AcDbEntity
  8
Camada 1
 62
    18
420
        0
370
     9
100
AcDbLine
 10
78.94157667864146
 20
-28.70645656601208
 30
0.0
 11
78.94157667864146
 21
-28.70645656601208
 31
0.0
  0
LINE
  5
16E
330
7D
100
AcDbEntity
  8
Camada 1
 62
    18
420
        0
370
     9
100
AcDbLine
 10
85.53281751127673
 20
-67.86845267655817
 30
0.0
 11
85.51232541037219
 21
-68.27831206672225
 31
0.0
  0
LWPOLYLINE
  5
16F
330
7D
100
AcDbEntity
  8
Camada 1
 62
    18
420
        0
370
     9
100
AcDbPolyline
 90
        3
 70
     0
 43
0.0
 10
92.00858892704991
 20
-69.4669025609927
 10
91.94710567550634
 20
-69.48739466189724
 10
91.90612147369726
 20
-69.5693665399307
  0
LWPOLYLINE
  5
170
330
7D
100
AcDbEntity
  8
Camada 1
 62
    18
420
        0
370
     9
100
AcDbPolyline
 90
        3
 70
     0
 43
0.0
 10
91.90612147369726
 20
-63.56493776586548
 10
91.94710567550634
 20
-63.64690964389893
 10
92.00858892704991
 20
-63.66740174480284
  0
LINE
  5
171
330
7D
100
AcDbEntity
  8
Camada 1
 62
    18
420
        0
370
     9
100
AcDbLine
 10
91.80365402034462
 20
-69.6923243569796
 30
0.0
 11
91.88562937279336
 21
-69.61035247894677
 31
0.0
  0
LINE
  5
172
330
7D
100
AcDbEntity
  8
Camada 1
 62
    18
420
        0
370
     9
100
AcDbLine
 10
91.88562937279336
 20
-63.52395008964111
 30
0.0
 11
91.80365402034462
 21
-63.44197821160893
 31
0.0
  0
LINE
  5
173
330
7D
100
AcDbEntity
  8
Camada 1
 62
    18
420
        0
370
     9
100
AcDbLine
 10
92.02908102795413
 20
-69.44640872288115
 30
0.0
 11
92.07006522976321
 21
-69.40542278386442
 31
0.0
  0
LINE
  5
174
330
7D
100
AcDbEntity
  8
Camada 1
 62
    18
420
        0
370
     9
100
AcDbLine
 10
92.07006522976321
 20
-63.72888152193111
 30
0.0
 11
92.02908102795413
 21
-63.68789384570739
 31
0.0
  0
LINE
  5
175
330
7D
100
AcDbEntity
  8
Camada 1
 62
    18
420
        0
370
     9
100
AcDbLine
 10
91.66020931401376
 20
-21.28801029006788
 30
0.0
 11
91.63971026427899
 21
-21.2675181891627
 31
0.0
  0
LINE
  5
176
330
7D
100
AcDbEntity
  8
Camada 1
 62
    18
420
        0
370
     9
100
AcDbLine
 10
85.55331308659622
 20
-21.2675181891627
 30
0.0
 11
85.53281751127673
 21
-21.28801029006788
 31
0.0
  0
LINE
  5
177
330
7D
100
AcDbEntity
  8
Camada 1
 62
    18
420
        0
370
     9
100
AcDbLine
 10
60.88730094301573
 20
-64.75352826013592
 30
0.0
 11
60.90779478112727
 21
-64.69204848300766
 31
0.0
  0
LINE
  5
178
330
7D
100
AcDbEntity
  8
Camada 1
 62
    18
420
        0
370
     9
100
AcDbLine
 10
66.1130003501819
 20
-64.81500456284891
 30
0.0
 11
66.09250477486272
 21
-64.85599223907328
 31
0.0
  0
LWPOLYLINE
  5
179
330
7D
100
AcDbEntity
  8
Camada 1
 62
    18
420
        0
370
     9
100
AcDbPolyline
 90
        3
 70
     0
 43
0.0
 10
66.48187206412322
 20
-64.81500456284891
 10
66.64581582018917
 20
-64.93796411710611
 10
66.72778769822198
 20
-65.14289207498146
  0
LINE
  5
17A
330
7D
100
AcDbEntity
  8
Camada 1
 62
    18
420
        0
370
     9
100
AcDbLine
 10
60.53892132997928
 20
-64.81500456284891
 30
0.0
 11
60.5594134308835
 21
-64.85599223907328
 31
0.0
  0
LINE
  5
17B
330
7D
100
AcDbEntity
  8
Camada 1
 62
    18
420
        0
370
     9
100
AcDbLine
 10
60.82582290309478
 20
-64.81500456284891
 30
0.0
 11
60.846315003999
 21
-64.85599223907328
 31
0.0
  0
LWPOLYLINE
  5
17C
330
7D
100
AcDbEntity
  8
Camada 1
 62
    18
420
        0
370
     9
100
AcDbPolyline
 90
        5
 70
     0
 43
0.0
 10
66.48187206412322
 20
-64.75352826013592
 10
66.60482814396512
 20
-64.81500456284891
 10
66.68680002199794
 20
-64.89697644088237
 10
66.74827979912653
 20
-65.01993599513892
 10
66.78926747535058
 20
-65.14289207498146
  0
LINE
  5
17D
330
7D
100
AcDbEntity
  8
Camada 1
 62
    18
420
        0
370
     9
100
AcDbLine
 10
66.37940808518585
 20
-64.85599223907328
 30
0.0
 11
66.37940808518585
 21
-64.81500456284891
 31
0.0
  0
LINE
  5
17E
330
7D
100
AcDbEntity
  8
Camada 1
 62
    18
420
        0
370
     9
100
AcDbLine
 10
66.37940808518585
 20
-64.75352826013592
 30
0.0
 11
66.37940808518585
 21
-64.69204848300766
 31
0.0
  0
LWPOLYLINE
  5
17F
330
7D
100
AcDbEntity
  8
Camada 1
 62
    18
420
        0
370
     9
100
AcDbPolyline
 90
        5
 70
     0
 43
0.0
 10
60.14955577792641
 20
-65.1838797512052
 10
60.17004787883064
 20
-65.04042809604346
 10
60.23152765595956
 20
-64.9174720162022
 10
60.33399163489692
 20
-64.81500456284891
 10
60.45694945194615
 20
-64.75352826013592
  0
LINE
  5
180
330
7D
100
AcDbEntity
  8
Camada 1
 62
    18
420
        0
370
     9
100
AcDbLine
 10
60.846315003999
 20
-64.69204848300766
 30
0.0
 11
60.82582290309478
 21
-64.75352826013592
 31
0.0
  0
LINE
  5
181
330
7D
100
AcDbEntity
  8
Camada 1
 62
    18
420
        0
370
     9
100
AcDbLine
 10
60.5594134308835
 20
-64.69204848300766
 30
0.0
 11
60.53892132997928
 21
-64.75352826013592
 31
0.0
  0
LINE
  5
182
330
7D
100
AcDbEntity
  8
Camada 1
 62
    18
420
        0
370
     9
100
AcDbLine
 10
66.07201267395883
 20
-64.69204848300766
 30
0.0
 11
66.1130003501819
 21
-64.75352826013592
 31
0.0
  0
LINE
  5
183
330
7D
100
AcDbEntity
  8
Camada 1
 62
    18
420
        0
370
     9
100
AcDbLine
 10
66.03102847214941
 20
-64.69204848300766
 30
0.0
 11
66.03102847214941
 21
-64.75352826013592
 31
0.0
  0
LINE
  5
184
330
7D
100
AcDbEntity
  8
Camada 1
 62
    18
420
        0
370
     9
100
AcDbLine
 10
60.90779478112727
 20
-64.63056870587874
 30
0.0
 11
61.0307508609695
 21
-64.63056870587874
 31
0.0
  0
LINE
  5
185
330
7D
100
AcDbEntity
  8
Camada 1
 62
    18
420
        0
370
     9
100
AcDbLine
 10
65.887576816988
 20
-64.61007660497419
 30
0.0
 11
66.03102847214941
 21
-64.63056870587874
 31
0.0
  0
LINE
  5
186
330
7D
100
AcDbEntity
  8
Camada 1
 62
    18
420
        0
370
     9
100
AcDbLine
 10
53.87871753165089
 20
-79.18055273582204
 30
0.0
 11
52.7925910163178
 21
-79.18055273582204
 31
0.0
  0
ENDBLK
  5
80
330
7D
100
AcDbEntity
  8
0
100
AcDbBlockEnd
  0
BLOCK
  5
189
330
187
100
AcDbEntity
  8
0
100
AcDbBlockBegin
  2
Block_2
 70
     0
 10
0.0
 20
0.0
 30
0.0
  3
Block_2
  1

  0
LINE
  5
18B
330
187
100
AcDbEntity
  8
Camada 1
 62
    18
420
        0
370
     9
100
AcDbLine
 10
12.32606759405295
 20
-79.20635841073963
 30
0.0
 11
7.909442644320413
 21
-79.20635841073963
 31
0.0
  0
LINE
  5
18C
330
187
100
AcDbEntity
  8
Camada 1
 62
    18
420
        0
370
     9
100
AcDbLine
 10
33.61274741786824
 20
-79.20635841073963
 30
0.0
 11
38.02937236760046
 21
-79.20635841073963
 31
0.0
  0
LINE
  5
18D
330
187
100
AcDbEntity
  8
Camada 1
 62
    18
420
        0
370
     9
100
AcDbLine
 10
38.02937236760046
 20
-78.86847398699157
 30
0.0
 11
33.61274741786824
 21
-78.86847398699157
 31
0.0
  0
LINE
  5
18E
330
187
100
AcDbEntity
  8
Camada 1
 62
    18
420
        0
370
     9
100
AcDbLine
 10
7.909442644320413
 20
-78.86847398699157
 30
0.0
 11
12.32606759405295
 21
-78.86847398699157
 31
0.0
  0
LINE
  5
18F
330
187
100
AcDbEntity
  8
Camada 1
 62
    18
420
        0
370
     9
100
AcDbLine
 10
36.31582280785516
 20
-72.9072386205189
 30
0.0
 11
9.622996295890439
 21
-72.9072386205189
 31
0.0
  0
LINE
  5
190
330
187
100
AcDbEntity
  8
Camada 1
 62
    18
420
        0
370
     9
100
AcDbLine
 10
9.622996295890439
 20
-72.73829538568868
 30
0.0
 11
36.31582280785516
 21
-72.73829538568868
 31
0.0
  0
LINE
  5
191
330
187
100
AcDbEntity
  8
Camada 1
 62
    18
420
        0
370
     9
100
AcDbLine
 10
36.31582280785516
 20
-70.18003169770377
 30
0.0
 11
9.622996295890439
 21
-70.18003169770377
 31
0.0
  0
LINE
  5
192
330
187
100
AcDbEntity
  8
Camada 1
 62
    18
420
        0
370
     9
100
AcDbLine
 10
9.622996295890439
 20
-70.03522613343886
 30
0.0
 11
36.31582280785516
 21
-70.03522613343886
 31
0.0
  0
LINE
  5
193
330
187
100
AcDbEntity
  8
Camada 1
 62
    18
420
        0
370
     9
100
AcDbLine
 10
26.227573620182
 20
-69.91455414791324
 30
0.0
 11
19.71124548356295
 21
-69.91455414791324
 31
0.0
  0
LINE
  5
194
330
187
100
AcDbEntity
  8
Camada 1
 62
    18
420
        0
370
     9
100
AcDbLine
 10
26.227573620182
 20
-67.74244204115749
 30
0.0
 11
25.79315283556062
 21
-67.74244204115749
 31
0.0
  0
LINE
  5
195
330
187
100
AcDbEntity
  8
Camada 1
 62
    18
420
        0
370
     9
100
AcDbLine
 10
19.71124548356295
 20
-67.74244204115749
 30
0.0
 11
20.14566626818433
 21
-67.74244204115749
 31
0.0
  0
LINE
  5
196
330
187
100
AcDbEntity
  8
Camada 1
 62
    18
420
        0
370
     9
100
AcDbLine
 10
7.909442644320413
 20
-79.20635841073963
 30
0.0
 11
7.909442644320413
 21
-22.77975580263575
 31
0.0
  0
LINE
  5
197
330
187
100
AcDbEntity
  8
Camada 1
 62
    18
420
        0
370
     9
100
AcDbLine
 10
26.227573620182
 20
-67.35628841401659
 30
0.0
 11
25.79315283556062
 21
-67.35628841401659
 31
0.0
  0
LINE
  5
198
330
187
100
AcDbEntity
  8
Camada 1
 62
    18
420
        0
370
     9
100
AcDbLine
 10
19.71124548356295
 20
-67.35628841401659
 30
0.0
 11
20.14566626818433
 21
-67.35628841401659
 31
0.0
  0
LINE
  5
199
330
187
100
AcDbEntity
  8
Camada 1
 62
    18
420
        0
370
     9
100
AcDbLine
 10
26.227573620182
 20
-67.16321160044582
 30
0.0
 11
25.79315283556062
 21
-67.16321160044582
 31
0.0
  0
LINE
  5
19A
330
187
100
AcDbEntity
  8
Camada 1
 62
    18
420
        0
370
     9
100
AcDbLine
 10
19.71124548356295
 20
-67.16321160044582
 30
0.0
 11
20.14566626818433
 21
-67.16321160044582
 31
0.0
  0
LINE
  5
19B
330
187
100
AcDbEntity
  8
Camada 1
 62
    18
420
        0
370
     9
100
AcDbLine
 10
8.126653036631106
 20
-22.77975580263575
 30
0.0
 11
8.126653036631106
 21
-78.86847398699157
 31
0.0
  0
LINE
  5
19C
330
187
100
AcDbEntity
  8
Camada 1
 62
    18
420
        0
370
     9
100
AcDbLine
 10
9.38165232483918
 20
-78.86847398699157
 30
0.0
 11
9.38165232483918
 21
-22.77975580263575
 31
0.0
  0
LINE
  5
19D
330
187
100
AcDbEntity
  8
Camada 1
 62
    18
420
        0
370
     9
100
AcDbLine
 10
9.622996295890439
 20
-78.86847398699157
 30
0.0
 11
9.622996295890439
 21
-21.69370384108229
 31
0.0
  0
LINE
  5
19E
330
187
100
AcDbEntity
  8
Camada 1
 62
    18
420
        0
370
     9
100
AcDbLine
 10
9.840206688201131
 20
-26.71369281026642
 30
0.0
 11
9.840206688201131
 21
-21.69370384108229
 31
0.0
  0
LINE
  5
19F
330
187
100
AcDbEntity
  8
Camada 1
 62
    18
420
        0
370
     9
100
AcDbLine
 10
10.08155475107647
 20
-21.69370384108229
 30
0.0
 11
10.08155475107647
 21
-24.49330536238138
 31
0.0
  0
LINE
  5
1A0
330
187
100
AcDbEntity
  8
Camada 1
 62
    18
420
        0
370
     9
100
AcDbLine
 10
11.11933955514945
 20
-26.71369281026642
 30
0.0
 11
11.11933955514945
 21
-25.00013506687199
 31
0.0
  0
LINE
  5
1A1
330
187
100
AcDbEntity
  8
Camada 1
 62
    18
420
        0
370
     9
100
AcDbLine
 10
11.33654994746014
 20
-26.71369281026642
 30
0.0
 11
11.33654994746014
 21
-25.00013506687199
 31
0.0
  0
LINE
  5
1A2
330
187
100
AcDbEntity
  8
Camada 1
 62
    18
420
        0
370
     9
100
AcDbLine
 10
12.32606759405295
 20
-78.86847398699157
 30
0.0
 11
12.32606759405295
 21
-79.20635841073963
 31
0.0
  0
LINE
  5
1A3
330
187
100
AcDbEntity
  8
Camada 1
 62
    18
420
        0
370
     9
100
AcDbLine
 10
12.44673957957826
 20
-23.74513987048832
 30
0.0
 11
12.44673957957826
 21
-22.44186933297535
 31
0.0
  0
LINE
  5
1A4
330
187
100
AcDbEntity
  8
Camada 1
 62
    18
420
        0
370
     9
100
AcDbLine
 10
36.31582280785516
 20
-61.99841706699614
 30
0.0
 11
9.622996295890439
 21
-61.99841706699614
 31
0.0
  0
LINE
  5
1A5
330
187
100
AcDbEntity
  8
Camada 1
 62
    18
420
        0
370
     9
100
AcDbLine
 10
9.622996295890439
 20
-61.75707309594488
 30
0.0
 11
36.31582280785516
 21
-61.75707309594488
 31
0.0
  0
LINE
  5
1A6
330
187
100
AcDbEntity
  8
Camada 1
 62
    18
420
        0
370
     9
100
AcDbLine
 10
24.94844484505777
 20
-68.56301645291977
 30
0.0
 11
25.04498325184348
 21
-68.65955485970548
 31
0.0
  0
LINE
  5
1A7
330
187
100
AcDbEntity
  8
Camada 1
 62
    18
420
        0
370
     9
100
AcDbLine
 10
24.61055837539769
 20
-60.83995618557281
 30
0.0
 11
21.32826072834759
 21
-60.83995618557281
 31
0.0
  0
LINE
  5
1A8
330
187
100
AcDbEntity
  8
Camada 1
 62
    18
420
        0
370
     9
100
AcDbLine
 10
21.66614310618391
 20
-60.62274579326212
 30
0.0
 11
24.24854241882112
 21
-60.62274579326212
 31
0.0
  0
LINE
  5
1A9
330
187
100
AcDbEntity
  8
Camada 1
 62
    18
420
        0
370
     9
100
AcDbLine
 10
21.25585590030278
 20
-58.83678731364727
 30
0.0
 11
21.15931749351739
 21
-58.83678731364727
 31
0.0
  0
LINE
  5
1AA
330
187
100
AcDbEntity
  8
Camada 1
 62
    18
420
        0
370
     9
100
AcDbLine
 10
24.68296320344251
 20
-58.83678731364727
 30
0.0
 11
24.77950161022789
 21
-58.83678731364727
 31
0.0
  0
LINE
  5
1AB
330
187
100
AcDbEntity
  8
Camada 1
 62
    18
420
        0
370
     9
100
AcDbLine
 10
36.31582280785516
 20
-56.47160248514484
 30
0.0
 11
9.622996295890439
 21
-56.47160248514484
 31
0.0
  0
LINE
  5
1AC
330
187
100
AcDbEntity
  8
Camada 1
 62
    18
420
        0
370
     9
100
AcDbLine
 10
9.622996295890439
 20
-56.25439209283415
 30
0.0
 11
36.31582280785516
 21
-56.25439209283415
 31
0.0
  0
LINE
  5
1AD
330
187
100
AcDbEntity
  8
Camada 1
 62
    18
420
        0
370
     9
100
AcDbLine
 10
19.71124548356295
 20
-70.03522613343886
 30
0.0
 11
19.71124548356295
 21
-67.16321160044582
 31
0.0
  0
LINE
  5
1AE
330
187
100
AcDbEntity
  8
Camada 1
 62
    18
420
        0
370
     9
100
AcDbLine
 10
20.14566626818433
 20
-67.74244204115749
 30
0.0
 11
20.14566626818433
 21
-67.16321160044582
 31
0.0
  0
LINE
  5
1AF
330
187
100
AcDbEntity
  8
Camada 1
 62
    18
420
        0
370
     9
100
AcDbLine
 10
21.15931749351739
 20
-58.83678731364727
 30
0.0
 11
21.15931749351739
 21
-60.67101704256733
 31
0.0
  0
LINE
  5
1B0
330
187
100
AcDbEntity
  8
Camada 1
 62
    18
420
        0
370
     9
100
AcDbLine
 10
21.66614310618391
 20
-60.62274579326212
 30
0.0
 11
21.66614310618391
 21
-60.83995618557281
 31
0.0
  0
LINE
  5
1B1
330
187
100
AcDbEntity
  8
Camada 1
 62
    18
420
        0
370
     9
100
AcDbLine
 10
24.24854241882112
 20
-60.83995618557281
 30
0.0
 11
24.24854241882112
 21
-60.62274579326212
 31
0.0
  0
LINE
  5
1B2
330
187
100
AcDbEntity
  8
Camada 1
 62
    18
420
        0
370
     9
100
AcDbLine
 10
24.77950161022789
 20
-58.83678731364727
 30
0.0
 11
24.77950161022789
 21
-60.67101704256733
 31
0.0
  0
LINE
  5
1B3
330
187
100
AcDbEntity
  8
Camada 1
 62
    18
420
        0
370
     9
100
AcDbLine
 10
25.79315283556062
 20
-67.74244204115749
 30
0.0
 11
25.79315283556062
 21
-67.16321160044582
 31
0.0
  0
LINE
  5
1B4
330
187
100
AcDbEntity
  8
Camada 1
 62
    18
420
        0
370
     9
100
AcDbLine
 10
26.227573620182
 20
-70.03522613343886
 30
0.0
 11
26.227573620182
 21
-67.16321160044582
 31
0.0
  0
LINE
  5
1B5
330
187
100
AcDbEntity
  8
Camada 1
 62
    18
420
        0
370
     9
100
AcDbLine
 10
33.49207952416702
 20
-23.74513987048832
 30
0.0
 11
33.49207952416702
 21
-22.44186933297535
 31
0.0
  0
LINE
  5
1B6
330
187
100
AcDbEntity
  8
Camada 1
 62
    18
420
        0
370
     9
100
AcDbLine
 10
33.61274741786824
 20
-78.86847398699157
 30
0.0
 11
33.61274741786824
 21
-79.20635841073963
 31
0.0
  0
LINE
  5
1B7
330
187
100
AcDbEntity
  8
Camada 1
 62
    18
420
        0
370
     9
100
AcDbLine
 10
34.60226506446105
 20
-25.00013506687199
 30
0.0
 11
34.60226506446105
 21
-26.71369281026642
 31
0.0
  0
LINE
  5
1B8
330
187
100
AcDbEntity
  8
Camada 1
 62
    18
420
        0
370
     9
100
AcDbLine
 10
34.81947545677174
 20
-26.71369281026642
 30
0.0
 11
34.81947545677174
 21
-25.00013506687199
 31
0.0
  0
LINE
  5
1B9
330
187
100
AcDbEntity
  8
Camada 1
 62
    18
420
        0
370
     9
100
AcDbLine
 10
35.85726844449288
 20
-24.49330536238138
 30
0.0
 11
35.85726844449288
 21
-21.69370384108229
 31
0.0
  0
LINE
  5
1BA
330
187
100
AcDbEntity
  8
Camada 1
 62
    18
420
        0
370
     9
100
AcDbLine
 10
36.07447883680358
 20
-21.69370384108229
 30
0.0
 11
36.07447883680358
 21
-26.71369281026642
 31
0.0
  0
LINE
  5
1BB
330
187
100
AcDbEntity
  8
Camada 1
 62
    18
420
        0
370
     9
100
AcDbLine
 10
20.9903742586875
 20
-68.56301645291977
 30
0.0
 11
20.89383585190212
 21
-68.65955485970548
 31
0.0
  0
LINE
  5
1BC
330
187
100
AcDbEntity
  8
Camada 1
 62
    18
420
        0
370
     9
100
AcDbLine
 10
36.31582280785516
 20
-78.86847398699157
 30
0.0
 11
36.31582280785516
 21
-21.69370384108229
 31
0.0
  0
LINE
  5
1BD
330
187
100
AcDbEntity
  8
Camada 1
 62
    18
420
        0
370
     9
100
AcDbLine
 10
36.53303320016585
 20
-22.77975580263575
 30
0.0
 11
36.53303320016585
 21
-78.86847398699157
 31
0.0
  0
LINE
  5
1BE
330
187
100
AcDbEntity
  8
Camada 1
 62
    18
420
        0
370
     9
100
AcDbLine
 10
37.81216197529008
 20
-78.86847398699157
 30
0.0
 11
37.81216197529008
 21
-22.77975580263575
 31
0.0
  0
LINE
  5
1BF
330
187
100
AcDbEntity
  8
Camada 1
 62
    18
420
        0
370
     9
100
AcDbLine
 10
38.02937236760046
 20
-79.20635841073963
 30
0.0
 11
38.02937236760046
 21
-22.77975580263575
 31
0.0
  0
LINE
  5
1C0
330
187
100
AcDbEntity
  8
Camada 1
 62
    18
420
        0
370
     9
100
AcDbLine
 10
10.87799558409851
 20
-27.17224717362773
 30
0.0
 11
10.08155475107647
 21
-27.17224717362773
 31
0.0
  0
LINE
  5
1C1
330
187
100
AcDbEntity
  8
Camada 1
 62
    18
420
        0
370
     9
100
AcDbLine
 10
35.06082761147085
 20
-27.17224717362773
 30
0.0
 11
35.85726844449288
 21
-27.17224717362773
 31
0.0
  0
LINE
  5
1C2
330
187
100
AcDbEntity
  8
Camada 1
 62
    18
420
        0
370
     9
100
AcDbLine
 10
35.85726844449288
 20
-26.93090320257712
 30
0.0
 11
35.06082761147085
 21
-26.93090320257712
 31
0.0
  0
LINE
  5
1C3
330
187
100
AcDbEntity
  8
Camada 1
 62
    18
420
        0
370
     9
100
AcDbLine
 10
10.08155475107647
 20
-26.93090320257712
 30
0.0
 11
10.87799558409851
 21
-26.93090320257712
 31
0.0
  0
LINE
  5
1C4
330
187
100
AcDbEntity
  8
Camada 1
 62
    18
420
        0
370
     9
100
AcDbLine
 10
34.81947545677174
 20
-25.28974619540309
 30
0.0
 11
34.60226506446105
 21
-25.28974619540309
 31
0.0
  0
LINE
  5
1C5
330
187
100
AcDbEntity
  8
Camada 1
 62
    18
420
        0
370
     9
100
AcDbLine
 10
11.33654994746014
 20
-25.28974619540309
 30
0.0
 11
11.11933955514945
 21
-25.28974619540309
 31
0.0
  0
LINE
  5
1C6
330
187
100
AcDbEntity
  8
Camada 1
 62
    18
420
        0
370
     9
100
AcDbLine
 10
11.11933955514945
 20
-25.00013506687199
 30
0.0
 11
11.33654994746014
 21
-25.00013506687199
 31
0.0
  0
LINE
  5
1C7
330
187
100
AcDbEntity
  8
Camada 1
 62
    18
420
        0
370
     9
100
AcDbLine
 10
34.60226506446105
 20
-25.00013506687199
 30
0.0
 11
34.81947545677174
 21
-25.00013506687199
 31
0.0
  0
LINE
  5
1C8
330
187
100
AcDbEntity
  8
Camada 1
 62
    18
420
        0
370
     9
100
AcDbLine
 10
9.840206688201131
 20
-24.49330536238138
 30
0.0
 11
11.67443641712055
 21
-24.49330536238138
 31
0.0
  0
LINE
  5
1C9
330
187
100
AcDbEntity
  8
Camada 1
 62
    18
420
        0
370
     9
100
AcDbLine
 10
34.26438677844913
 20
-24.49330536238138
 30
0.0
 11
36.07447883680358
 21
-24.49330536238138
 31
0.0
  0
LINE
  5
1CA
330
187
100
AcDbEntity
  8
Camada 1
 62
    18
420
        0
370
     9
100
AcDbLine
 10
7.909442644320413
 20
-22.77975580263575
 30
0.0
 11
9.840206688201131
 21
-22.77975580263575
 31
0.0
  0
LINE
  5
1CB
330
187
100
AcDbEntity
  8
Camada 1
 62
    18
420
        0
370
     9
100
AcDbLine
 10
36.07447883680358
 20
-22.77975580263575
 30
0.0
 11
38.02937236760046
 21
-22.77975580263575
 31
0.0
  0
LINE
  5
1CC
330
187
100
AcDbEntity
  8
Camada 1
 62
    18
420
        0
370
     9
100
AcDbLine
 10
11.67443641712055
 20
-21.69370384108229
 30
0.0
 11
9.622996295890439
 21
-21.69370384108229
 31
0.0
  0
LINE
  5
1CD
330
187
100
AcDbEntity
  8
Camada 1
 62
    18
420
        0
370
     9
100
AcDbLine
 10
34.26438677844913
 20
-21.69370384108229
 30
0.0
 11
36.31582280785516
 21
-21.69370384108229
 31
0.0
  0
LWPOLYLINE
  5
1CE
330
187
100
AcDbEntity
  8
Camada 1
 62
    18
420
        0
370
     9
100
AcDbPolyline
 90
        3
 70
     0
 43
0.0
 10
20.14566626818433
 20
-67.52523164884616
 10
20.19393342566482
 20
-67.64590363437243
 10
20.31460950301486
 20
-67.71830846241693
  0
LINE
  5
1CF
330
187
100
AcDbEntity
  8
Camada 1
 62
    18
420
        0
370
     9
100
AcDbLine
 10
20.43528148854049
 20
-67.83898044794256
 30
0.0
 11
20.29047183245053
 21
-67.74244204115749
 31
0.0
  0
LWPOLYLINE
  5
1D0
330
187
100
AcDbEntity
  8
Camada 1
 62
    18
420
        0
370
     9
100
AcDbPolyline
 90
        3
 70
     0
 43
0.0
 10
21.15931749351739
 20
-60.67101704256733
 10
21.20758465099788
 20
-60.79168902809232
 10
21.32826072834759
 20
-60.83995618557281
  0
LINE
  5
1D1
330
187
100
AcDbEntity
  8
Camada 1
 62
    18
420
        0
370
     9
100
AcDbLine
 10
21.25585590030278
 20
-58.81265373490735
 30
0.0
 11
21.32826072834759
 21
-58.74025299868629
 31
0.0
  0
LWPOLYLINE
  5
1D2
330
187
100
AcDbEntity
  8
Camada 1
 62
    18
420
        0
370
     9
100
AcDbPolyline
 90
        6
 70
     0
 43
0.0
 10
12.42260600083801
 20
-22.44186933297535
 10
12.37433884335752
 20
-22.20052536192409
 10
12.27780043657246
 20
-22.00744854835332
 10
12.10885720174226
 20
-21.83850531352376
 10
11.91578038817181
 20
-21.74197099856278
 10
11.67443641712055
 20
-21.69370384108229
  0
LWPOLYLINE
  5
1D3
330
187
100
AcDbEntity
  8
Camada 1
 62
    18
420
        0
370
     9
100
AcDbPolyline
 90
        6
 70
     0
 43
0.0
 10
11.67443641712055
 20
-24.49330536238138
 10
11.91578038817181
 20
-24.44503820490089
 10
12.10885720174226
 20
-24.34850388993991
 10
12.27780043657246
 20
-24.17956065510907
 10
12.37433884335752
 20
-23.98648384153894
 10
12.42260600083801
 20
-23.74513987048832
  0
LWPOLYLINE
  5
1D4
330
187
100
AcDbEntity
  8
Camada 1
 62
    18
420
        0
370
     9
100
AcDbPolyline
 90
        5
 70
     0
 43
0.0
 10
9.622996295890439
 20
-26.71369281026642
 10
9.647129874630683
 20
-26.88262786144781
 10
9.767805951980397
 20
-27.02743751753809
 10
9.912611516246272
 20
-27.14811359488717
 10
10.08155475107647
 20
-27.17224717362773
  0
LWPOLYLINE
  5
1D5
330
187
100
AcDbEntity
  8
Camada 1
 62
    18
420
        0
370
     9
100
AcDbPolyline
 90
        5
 70
     0
 43
0.0
 10
10.87799558409851
 20
-27.17224717362773
 10
11.04693472710431
 20
-27.14811359488717
 10
11.19174438319459
 20
-27.02743751753809
 10
11.3124163687199
 20
-26.88262786144781
 10
11.33654994746014
 20
-26.71369281026642
  0
LWPOLYLINE
  5
1D6
330
187
100
AcDbEntity
  8
Camada 1
 62
    18
420
        0
370
     9
100
AcDbPolyline
 90
       14
 70
     0
 43
0.0
 10
11.67443641712055
 20
-22.10399104696311
 10
11.52962676103059
 20
-22.12812462570368
 10
11.43308835424521
 20
-22.22465894066466
 10
11.38482119676472
 20
-22.3694685967543
 10
11.40895477550528
 20
-22.49014467410401
 10
11.4813596035501
 20
-22.61081256780555
 10
11.60203158907573
 20
-22.68321330402597
 10
11.74683715334128
 20
-22.68321330402597
 10
11.867513230691
 20
-22.61081256780555
 10
11.93991396691173
 20
-22.49014467410401
 10
11.96405163747638
 20
-22.3694685967543
 10
11.91578038817181
 20
-22.22465894066466
 10
11.81924198138642
 20
-22.12812462570368
 10
11.67443641712055
 20
-22.10399104696311
  0
LWPOLYLINE
  5
1D7
330
187
100
AcDbEntity
  8
Camada 1
 62
    18
420
        0
370
     9
100
AcDbPolyline
 90
       14
 70
     0
 43
0.0
 10
8.754154726647666
 20
-23.40725340082791
 10
8.609345070557386
 20
-23.43138697956784
 10
8.512806663772323
 20
-23.52792947817698
 10
8.464539506291833
 20
-23.67273095061845
 10
8.488673085032079
 20
-23.79340702796881
 10
8.561077913076898
 20
-23.91408310531788
 10
8.681749898602205
 20
-23.98648384153894
 10
8.82655546286808
 20
-23.98648384153894
 10
8.947231540217794
 20
-23.91408310531788
 10
9.01963227643885
 20
-23.79340702796881
 10
9.043765855179094
 20
-23.67273095061845
 10
8.995498697698604
 20
-23.52792947817698
 10
8.898960290913219
 20
-23.43138697956784
 10
8.754154726647666
 20
-23.40725340082791
  0
LWPOLYLINE
  5
1D8
330
187
100
AcDbEntity
  8
Camada 1
 62
    18
420
        0
370
     9
100
AcDbPolyline
 90
        4
 70
     0
 43
0.0
 10
9.01963227643885
 20
-23.69687271300783
 10
8.995498697698604
 20
-23.55206305691755
 10
8.874826712172975
 20
-23.4555205583084
 10
8.754154726647666
 20
-23.43138697956784
  0
LWPOLYLINE
  5
1D9
330
187
100
AcDbEntity
  8
Camada 1
 62
    18
420
        0
370
     9
100
AcDbPolyline
 90
        4
 70
     0
 43
0.0
 10
8.488673085032079
 20
-23.69687271300783
 10
8.512806663772323
 20
-23.84167418544929
 10
8.633478649297632
 20
-23.93821668405845
 10
8.754154726647666
 20
-23.96235026279901
  0
LWPOLYLINE
  5
1DA
330
187
100
AcDbEntity
  8
Camada 1
 62
    18
420
        0
370
     9
100
AcDbPolyline
 90
       13
 70
     0
 43
0.0
 10
8.754154726647666
 20
-23.4555205583084
 10
8.633478649297632
 20
-23.47965413704832
 10
8.536940242512567
 20
-23.57619663565747
 10
8.512806663772323
 20
-23.69687271300783
 10
8.536940242512567
 20
-23.81754060670937
 10
8.633478649297632
 20
-23.91408310531788
 10
8.754154726647666
 20
-23.93821668405845
 10
8.874826712172975
 20
-23.91408310531788
 10
8.97136511895836
 20
-23.81754060670937
 10
8.995498697698604
 20
-23.69687271300783
 10
8.97136511895836
 20
-23.57619663565747
 10
8.874826712172975
 20
-23.47965413704832
 10
8.754154726647666
 20
-23.4555205583084
  0
LWPOLYLINE
  5
1DB
330
187
100
AcDbEntity
  8
Camada 1
 62
    18
420
        0
370
     9
100
AcDbPolyline
 90
        3
 70
     0
 43
0.0
 10
10.87799558409851
 20
-26.93090320257712
 10
11.02280114836406
 20
-26.85849428270789
 10
11.0952059764092
 20
-26.71369281026642
  0
LWPOLYLINE
  5
1DC
330
187
100
AcDbEntity
  8
Camada 1
 62
    18
420
        0
370
     9
100
AcDbPolyline
 90
        4
 70
     0
 43
0.0
 10
9.864344358765782
 20
-26.71369281026642
 10
9.888477937505706
 20
-26.83436070396796
 10
9.98501634429077
 20
-26.90676144018838
 10
10.08155475107647
 20
-26.93090320257712
  0
LWPOLYLINE
  5
1DD
330
187
100
AcDbEntity
  8
Camada 1
 62
    18
420
        0
370
     9
100
AcDbPolyline
 90
       11
 70
     0
 43
0.0
 10
20.89383585190212
 20
-68.65955485970548
 10
21.25585590030278
 20
-68.94917008006067
 10
21.64200952744367
 20
-69.1905140511113
 10
22.07643031206538
 20
-69.35945728594212
 10
22.51085109668676
 20
-69.48012927146712
 10
22.96940955187248
 20
-69.50426694203177
 10
23.42796800705819
 20
-69.48012927146712
 10
23.8623887916799
 20
-69.35945728594212
 10
24.29680957630161
 20
-69.1905140511113
 10
24.68296320344251
 20
-68.94917008006067
 10
25.04498325184348
 20
-68.65955485970548
  0
LWPOLYLINE
  5
1DE
330
187
100
AcDbEntity
  8
Camada 1
 62
    18
420
        0
370
     9
100
AcDbPolyline
 90
       16
 70
     0
 43
0.0
 10
20.45941506728073
 20
-67.83898044794256
 10
20.67662545959143
 20
-68.17686282577823
 10
20.94210710120702
 20
-68.51474929543929
 10
21.23172232156253
 20
-68.78022684522981
 10
21.59373827813909
 20
-69.0215749081058
 10
21.95575832654007
 20
-69.1905140511113
 10
22.34191195368064
 20
-69.31119012846164
 10
22.75219915956178
 20
-69.38359086468206
 10
23.18661994418317
 20
-69.38359086468206
 10
23.59690715006463
 20
-69.31119012846164
 10
23.98306077720553
 20
-69.1905140511113
 10
24.34508082560618
 20
-69.0215749081058
 10
24.70709678218275
 20
-68.78022684522981
 10
24.99671200253826
 20
-68.51474929543929
 10
25.26219364415417
 20
-68.17686282577823
 10
25.47940403646454
 20
-67.83898044794256
  0
LWPOLYLINE
  5
1DF
330
187
100
AcDbEntity
  8
Camada 1
 62
    18
420
        0
370
     9
100
AcDbPolyline
 90
        3
 70
     0
 43
0.0
 10
25.62420960073041
 20
-67.71830846241693
 10
25.74488567808013
 20
-67.64590363437243
 10
25.79315283556062
 20
-67.52523164884616
  0
LINE
  5
1E0
330
187
100
AcDbEntity
  8
Camada 1
 62
    18
420
        0
370
     9
100
AcDbLine
 10
25.64834727129475
 20
-67.74244204115749
 30
0.0
 11
25.50353761520478
 21
-67.83898044794256
 31
0.0
  0
LWPOLYLINE
  5
1E1
330
187
100
AcDbEntity
  8
Camada 1
 62
    18
420
        0
370
     9
100
AcDbPolyline
 90
       16
 70
     0
 43
0.0
 10
24.58642479665712
 20
-58.76438657742621
 10
24.53815763917663
 20
-58.42650010776645
 10
24.41748156182692
 20
-58.1368889792347
 10
24.24854241882112
 20
-57.84727375887887
 10
24.03133202651011
 20
-57.60592569600417
 10
23.76585038489515
 20
-57.4128488824334
 10
23.45210158579876
 20
-57.29217689690777
 10
23.13835278670268
 20
-57.21977206886263
 10
22.80046631704227
 20
-57.21977206886263
 10
22.48671751794652
 20
-57.29217689690777
 10
22.17296871885012
 20
-57.4128488824334
 10
21.90748707723485
 20
-57.60592569600417
 10
21.69027668492416
 20
-57.84727375887887
 10
21.52133754191836
 20
-58.1368889792347
 10
21.40066146456865
 20
-58.42650010776645
 10
21.35239430708816
 20
-58.76438657742621
  0
LWPOLYLINE
  5
1E2
330
187
100
AcDbEntity
  8
Camada 1
 62
    18
420
        0
370
     9
100
AcDbPolyline
 90
        3
 70
     0
 43
0.0
 10
24.61055837539769
 20
-60.83995618557281
 10
24.73123036092299
 20
-60.79168902809232
 10
24.77950161022789
 20
-60.67101704256733
  0
LINE
  5
1E3
330
187
100
AcDbEntity
  8
Camada 1
 62
    18
420
        0
370
     9
100
AcDbLine
 10
24.61055837539769
 20
-58.74025299868629
 30
0.0
 11
24.68296320344251
 21
-58.81265373490735
 31
0.0
  0
LWPOLYLINE
  5
1E4
330
187
100
AcDbEntity
  8
Camada 1
 62
    18
420
        0
370
     9
100
AcDbPolyline
 90
        6
 70
     0
 43
0.0
 10
34.26438677844913
 20
-21.69370384108229
 10
34.0230346237497
 20
-21.74197099856278
 10
33.82995781017893
 20
-21.83850531352376
 10
33.66102275899722
 20
-22.00744854835332
 10
33.56448026038775
 20
-22.20052536192409
 10
33.51621310290694
 20
-22.44186933297535
  0
LWPOLYLINE
  5
1E5
330
187
100
AcDbEntity
  8
Camada 1
 62
    18
420
        0
370
     9
100
AcDbPolyline
 90
        6
 70
     0
 43
0.0
 10
33.51621310290694
 20
-23.74513987048832
 10
33.56448026038775
 20
-23.98648384153894
 10
33.66102275899722
 20
-24.17956065510907
 10
33.82995781017893
 20
-24.34850388993991
 10
34.0230346237497
 20
-24.44503820490089
 10
34.26438677844913
 20
-24.49330536238138
  0
LWPOLYLINE
  5
1E6
330
187
100
AcDbEntity
  8
Camada 1
 62
    18
420
        0
370
     9
100
AcDbPolyline
 90
        5
 70
     0
 43
0.0
 10
35.85726844449288
 20
-27.17224717362773
 10
36.02620349567524
 20
-27.14811359488717
 10
36.17101315176487
 20
-27.02743751753809
 10
36.29168922911459
 20
-26.88262786144781
 10
36.31582280785516
 20
-26.71369281026642
  0
LWPOLYLINE
  5
1E7
330
187
100
AcDbEntity
  8
Camada 1
 62
    18
420
        0
370
     9
100
AcDbPolyline
 90
        5
 70
     0
 43
0.0
 10
34.60226506446105
 20
-26.71369281026642
 10
34.62639864320161
 20
-26.88262786144781
 10
34.74707472055069
 20
-27.02743751753809
 10
34.89188437664064
 20
-27.14811359488717
 10
35.06082761147085
 20
-27.17224717362773
  0
LWPOLYLINE
  5
1E8
330
187
100
AcDbEntity
  8
Camada 1
 62
    18
420
        0
370
     9
100
AcDbPolyline
 90
       14
 70
     0
 43
0.0
 10
34.26438677844913
 20
-22.10399104696311
 10
34.11957712235885
 20
-22.12812462570368
 10
34.0230346237497
 20
-22.22465894066466
 10
33.97476746626921
 20
-22.3694685967543
 10
33.99890104500914
 20
-22.49014467410401
 10
34.07130996487804
 20
-22.61081256780555
 10
34.19197785857991
 20
-22.68321330402597
 10
34.33678751466954
 20
-22.68321330402597
 10
34.45746359201926
 20
-22.61081256780555
 10
34.52986432823999
 20
-22.49014467410401
 10
34.55399790698024
 20
-22.3694685967543
 10
34.50573074949975
 20
-22.22465894066466
 10
34.4091882508906
 20
-22.12812462570368
 10
34.26438677844913
 20
-22.10399104696311
  0
LWPOLYLINE
  5
1E9
330
187
100
AcDbEntity
  8
Camada 1
 62
    18
420
        0
370
     9
100
AcDbPolyline
 90
       14
 70
     0
 43
0.0
 10
37.18466437709761
 20
-23.40725340082791
 10
37.03985472100765
 20
-23.43138697956784
 10
36.94332040604667
 20
-23.52792947817698
 10
36.89505324856618
 20
-23.67273095061845
 10
36.91918682730643
 20
-23.79340702796881
 10
36.99158756352716
 20
-23.91408310531788
 10
37.11226364087688
 20
-23.98648384153894
 10
37.25707329696683
 20
-23.98648384153894
 10
37.37774119066838
 20
-23.91408310531788
 10
37.45014192688911
 20
-23.79340702796881
 10
37.47428368927785
 20
-23.67273095061845
 10
37.42600834814887
 20
-23.52792947817698
 10
37.32947403318789
 20
-23.43138697956784
 10
37.18466437709761
 20
-23.40725340082791
  0
LWPOLYLINE
  5
1EA
330
187
100
AcDbEntity
  8
Camada 1
 62
    18
420
        0
370
     9
100
AcDbPolyline
 90
        4
 70
     0
 43
0.0
 10
37.45014192688911
 20
-23.69687271300783
 10
37.42600834814887
 20
-23.55206305691755
 10
37.30534045444732
 20
-23.4555205583084
 10
37.18466437709761
 20
-23.43138697956784
  0
LWPOLYLINE
  5
1EB
330
187
100
AcDbEntity
  8
Camada 1
 62
    18
420
        0
370
     9
100
AcDbPolyline
 90
        4
 70
     0
 43
0.0
 10
36.91918682730643
 20
-23.69687271300783
 10
36.94332040604667
 20
-23.84167418544929
 10
37.06399648339638
 20
-23.93821668405845
 10
37.18466437709761
 20
-23.96235026279901
  0
LWPOLYLINE
  5
1EC
330
187
100
AcDbEntity
  8
Camada 1
 62
    18
420
        0
370
     9
100
AcDbPolyline
 90
       13
 70
     0
 43
0.0
 10
37.18466437709761
 20
-23.4555205583084
 10
37.06399648339638
 20
-23.47965413704832
 10
36.96745398478692
 20
-23.57619663565747
 10
36.94332040604667
 20
-23.69687271300783
 10
36.96745398478692
 20
-23.81754060670937
 10
37.06399648339638
 20
-23.91408310531788
 10
37.18466437709761
 20
-23.93821668405845
 10
37.30534045444732
 20
-23.91408310531788
 10
37.4018747694083
 20
-23.81754060670937
 10
37.42600834814887
 20
-23.69687271300783
 10
37.4018747694083
 20
-23.57619663565747
 10
37.30534045444732
 20
-23.47965413704832
 10
37.18466437709761
 20
-23.4555205583084
  0
LWPOLYLINE
  5
1ED
330
187
100
AcDbEntity
  8
Camada 1
 62
    18
420
        0
370
     9
100
AcDbPolyline
 90
        4
 70
     0
 43
0.0
 10
34.84361721916015
 20
-26.71369281026642
 10
34.86775079790008
 20
-26.83436070396796
 10
34.96428511286106
 20
-26.90676144018838
 10
35.06082761147085
 20
-26.93090320257712
  0
LWPOLYLINE
  5
1EE
330
187
100
AcDbEntity
  8
Camada 1
 62
    18
420
        0
370
     9
100
AcDbPolyline
 90
        3
 70
     0
 43
0.0
 10
35.85726844449288
 20
-26.93090320257712
 10
36.00206991693435
 20
-26.85849428270789
 10
36.07447883680358
 20
-26.71369281026642
  0
LWPOLYLINE
  5
1EF
330
187
100
AcDbEntity
  8
Camada 1
 62
    18
420
        0
370
     9
100
AcDbPolyline
 90
       14
 70
     0
 43
0.0
 10
29.55814251653667
 20
-60.57447863578163
 10
29.43747053101136
 20
-60.59861221452219
 10
29.34093212422566
 20
-60.69515062130726
 10
29.29266496674517
 20
-60.81582260683289
 10
29.31679854548574
 20
-60.93649459235852
 10
29.38920337353088
 20
-61.03303299914358
 10
29.48574178031594
 20
-61.10543782718807
 10
29.63054734458181
 20
-61.10543782718807
 10
29.72708575136687
 20
-61.03303299914358
 10
29.79949057941169
 20
-60.93649459235852
 10
29.82362415815194
 20
-60.81582260683289
 10
29.77535700067145
 20
-60.69515062130726
 10
29.67881859388639
 20
-60.59861221452219
 10
29.55814251653667
 20
-60.57447863578163
  0
LWPOLYLINE
  5
1F0
330
187
100
AcDbEntity
  8
Camada 1
 62
    18
420
        0
370
     9
100
AcDbPolyline
 90
       15
 70
     0
 43
0.0
 10
29.55814251653667
 20
-60.50207380773649
 10
29.4133369522708
 20
-60.52620738647705
 10
29.29266496674517
 20
-60.62274579326212
 10
29.22026013870035
 20
-60.76755544935175
 10
29.22026013870035
 20
-60.91236101361795
 10
29.29266496674517
 20
-61.05717066970758
 10
29.4133369522708
 20
-61.15370907649329
 10
29.55814251653667
 20
-61.17784265523322
 10
29.70295217262663
 20
-61.15370907649329
 10
29.82362415815194
 20
-61.05717066970758
 10
29.89602898619708
 20
-60.91236101361795
 10
29.89602898619708
 20
-60.76755544935175
 10
29.82362415815194
 20
-60.62274579326212
 10
29.70295217262663
 20
-60.52620738647705
 10
29.55814251653667
 20
-60.50207380773649
  0
LWPOLYLINE
  5
1F1
330
187
100
AcDbEntity
  8
Camada 1
 62
    18
420
        0
370
     9
100
AcDbPolyline
 90
       14
 70
     0
 43
0.0
 10
28.13420408532248
 20
-60.57447863578163
 10
28.01353209979685
 20
-60.59861221452219
 10
27.91699369301179
 20
-60.69515062130726
 10
27.8687265355313
 20
-60.81582260683289
 10
27.89286011427154
 20
-60.93649459235852
 10
27.96526494231636
 20
-61.03303299914358
 10
28.06180334910175
 20
-61.10543782718807
 10
28.20660891336762
 20
-61.10543782718807
 10
28.30314732015236
 20
-61.03303299914358
 10
28.37555214819782
 20
-60.93649459235852
 10
28.39968572693807
 20
-60.81582260683289
 10
28.35141447763285
 20
-60.69515062130726
 10
28.25488016267187
 20
-60.59861221452219
 10
28.13420408532248
 20
-60.57447863578163
  0
LWPOLYLINE
  5
1F2
330
187
100
AcDbEntity
  8
Camada 1
 62
    18
420
        0
370
     9
100
AcDbPolyline
 90
       15
 70
     0
 43
0.0
 10
28.13420408532248
 20
-60.50207380773649
 10
27.9893985210566
 20
-60.52620738647705
 10
27.8687265355313
 20
-60.62274579326212
 10
27.79632170748616
 20
-60.76755544935175
 10
27.79632170748616
 20
-60.91236101361795
 10
27.8687265355313
 20
-61.05717066970758
 10
27.9893985210566
 20
-61.15370907649329
 10
28.13420408532248
 20
-61.17784265523322
 10
28.27901374141244
 20
-61.15370907649329
 10
28.39968572693807
 20
-61.05717066970758
 10
28.47209055498289
 20
-60.91236101361795
 10
28.47209055498289
 20
-60.76755544935175
 10
28.39968572693807
 20
-60.62274579326212
 10
28.27901374141244
 20
-60.52620738647705
 10
28.13420408532248
 20
-60.50207380773649
  0
LWPOLYLINE
  5
1F3
330
187
100
AcDbEntity
  8
Camada 1
 62
    18
420
        0
370
     9
100
AcDbPolyline
 90
       14
 70
     0
 43
0.0
 10
17.80461501842279
 20
-60.57447863578163
 10
17.68393894107308
 20
-60.59861221452219
 10
17.58740053428802
 20
-60.69515062130726
 10
17.5391333768072
 20
-60.81582260683289
 10
17.56326695554745
 20
-60.93649459235852
 10
17.63567178359259
 20
-61.03303299914358
 10
17.73221019037797
 20
-61.10543782718807
 10
17.87701575464353
 20
-61.10543782718807
 10
17.97355416142891
 20
-61.03303299914358
 10
18.04595898947405
 20
-60.93649459235852
 10
18.07009256821397
 20
-60.81582260683289
 10
18.02182541073349
 20
-60.69515062130726
 10
17.92528700394842
 20
-60.59861221452219
 10
17.80461501842279
 20
-60.57447863578163
  0
LWPOLYLINE
  5
1F4
330
187
100
AcDbEntity
  8
Camada 1
 62
    18
420
        0
370
     9
100
AcDbPolyline
 90
       15
 70
     0
 43
0.0
 10
17.80461501842279
 20
-60.50207380773649
 10
17.65980536233315
 20
-60.52620738647705
 10
17.5391333768072
 20
-60.62274579326212
 10
17.46672854876238
 20
-60.76755544935175
 10
17.46672854876238
 20
-60.91236101361795
 10
17.5391333768072
 20
-61.05717066970758
 10
17.65980536233315
 20
-61.15370907649329
 10
17.80461501842279
 20
-61.17784265523322
 10
17.94942058268867
 20
-61.15370907649329
 10
18.07009256821397
 20
-61.05717066970758
 10
18.14249739625912
 20
-60.91236101361795
 10
18.14249739625912
 20
-60.76755544935175
 10
18.07009256821397
 20
-60.62274579326212
 10
17.94942058268867
 20
-60.52620738647705
 10
17.80461501842279
 20
-60.50207380773649
  0
LWPOLYLINE
  5
1F5
330
187
100
AcDbEntity
  8
Camada 1
 62
    18
420
        0
370
     9
100
AcDbPolyline
 90
       14
 70
     0
 43
0.0
 10
16.35653891664395
 20
-60.57447863578163
 10
16.23586693111864
 20
-60.59861221452219
 10
16.13932852433358
 20
-60.69515062130726
 10
16.09106136685309
 20
-60.81582260683289
 10
16.11519494559333
 20
-60.93649459235852
 10
16.18759977363815
 20
-61.03303299914358
 10
16.28413408859945
 20
-61.10543782718807
 10
16.42894374468909
 20
-61.10543782718807
 10
16.52548215147415
 20
-61.03303299914358
 10
16.59788697951929
 20
-60.93649459235852
 10
16.62202055825986
 20
-60.81582260683289
 10
16.57374930895496
 20
-60.69515062130726
 10
16.4772109021699
 20
-60.59861221452219
 10
16.35653891664395
 20
-60.57447863578163
  0
LWPOLYLINE
  5
1F6
330
187
100
AcDbEntity
  8
Camada 1
 62
    18
420
        0
370
     9
100
AcDbPolyline
 90
       15
 70
     0
 43
0.0
 10
16.35653891664395
 20
-60.50207380773649
 10
16.21173335237872
 20
-60.52620738647705
 10
16.09106136685309
 20
-60.62274579326212
 10
16.01865653880795
 20
-60.76755544935175
 10
16.01865653880795
 20
-60.91236101361795
 10
16.09106136685309
 20
-61.05717066970758
 10
16.21173335237872
 20
-61.15370907649329
 10
16.35653891664395
 20
-61.17784265523322
 10
16.50134857273423
 20
-61.15370907649329
 10
16.62202055825986
 20
-61.05717066970758
 10
16.69442538630468
 20
-60.91236101361795
 10
16.69442538630468
 20
-60.76755544935175
 10
16.62202055825986
 20
-60.62274579326212
 10
16.50134857273423
 20
-60.52620738647705
 10
16.35653891664395
 20
-60.50207380773649
  0
LINE
  5
1F7
330
187
100
AcDbEntity
  8
Camada 1
 62
    18
420
        0
370
     9
100
AcDbLine
 10
10.22636031534203
 20
-56.25439209283415
 30
0.0
 11
12.63981639314903
 21
-56.25439209283415
 31
0.0
  0
LINE
  5
1F8
330
187
100
AcDbEntity
  8
Camada 1
 62
    18
420
        0
370
     9
100
AcDbLine
 10
10.22636031534203
 20
-61.99841706699614
 30
0.0
 11
12.63981639314903
 21
-61.99841706699614
 31
0.0
  0
LINE
  5
1F9
330
187
100
AcDbEntity
  8
Camada 1
 62
    18
420
        0
370
     9
100
AcDbLine
 10
11.36068761802479
 20
-70.03522613343886
 30
0.0
 11
11.43308835424521
 21
-70.03522613343886
 31
0.0
  0
LINE
  5
1FA
330
187
100
AcDbEntity
  8
Camada 1
 62
    18
420
        0
370
     9
100
AcDbLine
 10
11.04693472710431
 20
-72.9072386205189
 30
0.0
 11
11.43308835424521
 21
-72.9072386205189
 31
0.0
  0
LINE
  5
1FB
330
187
100
AcDbEntity
  8
Camada 1
 62
    18
420
        0
370
     9
100
AcDbLine
 10
35.32630516126235
 20
-61.99841706699614
 30
0.0
 11
35.20562908391263
 21
-61.99841706699614
 31
0.0
  0
LINE
  5
1FC
330
187
100
AcDbEntity
  8
Camada 1
 62
    18
420
        0
370
     9
100
AcDbLine
 10
35.51938197483248
 20
-70.03522613343886
 30
0.0
 11
35.20562908391263
 21
-70.03522613343886
 31
0.0
  0
LINE
  5
1FD
330
187
100
AcDbEntity
  8
Camada 1
 62
    18
420
        0
370
     9
100
AcDbLine
 10
16.21173335237872
 20
-70.75926213841544
 30
0.0
 11
16.21173335237872
 21
-71.0006061094667
 31
0.0
  0
LINE
  5
1FE
330
187
100
AcDbEntity
  8
Camada 1
 62
    18
420
        0
370
     9
100
AcDbLine
 10
16.21173335237872
 20
-71.26608775108197
 30
0.0
 11
16.21173335237872
 21
-71.53156939269724
 31
0.0
  0
LINE
  5
1FF
330
187
100
AcDbEntity
  8
Camada 1
 62
    18
420
        0
370
     9
100
AcDbLine
 10
16.21173335237872
 20
-71.79704694248906
 30
0.0
 11
16.21173335237872
 21
-72.01426142662383
 31
0.0
  0
LINE
  5
200
330
187
100
AcDbEntity
  8
Camada 1
 62
    18
420
        0
370
     9
100
AcDbLine
 10
16.33240533790402
 20
-72.01426142662383
 30
0.0
 11
16.33240533790402
 21
-71.79704694248906
 31
0.0
  0
LINE
  5
201
330
187
100
AcDbEntity
  8
Camada 1
 62
    18
420
        0
370
     9
100
AcDbLine
 10
16.33240533790402
 20
-71.53156939269724
 30
0.0
 11
16.33240533790402
 21
-71.26608775108197
 31
0.0
  0
LINE
  5
202
330
187
100
AcDbEntity
  8
Camada 1
 62
    18
420
        0
370
     9
100
AcDbLine
 10
16.33240533790402
 20
-71.0006061094667
 30
0.0
 11
16.33240533790402
 21
-70.75926213841544
 31
0.0
  0
LINE
  5
203
330
187
100
AcDbEntity
  8
Camada 1
 62
    18
420
        0
370
     9
100
AcDbLine
 10
18.98720538676197
 20
-70.75926213841544
 30
0.0
 11
18.98720538676197
 21
-71.0006061094667
 31
0.0
  0
LINE
  5
204
330
187
100
AcDbEntity
  8
Camada 1
 62
    18
420
        0
370
     9
100
AcDbLine
 10
18.98720538676197
 20
-71.26608775108197
 30
0.0
 11
18.98720538676197
 21
-71.53156939269724
 31
0.0
  0
LINE
  5
205
330
187
100
AcDbEntity
  8
Camada 1
 62
    18
420
        0
370
     9
100
AcDbLine
 10
18.98720538676197
 20
-71.79704694248906
 30
0.0
 11
18.98720538676197
 21
-72.01426142662383
 31
0.0
  0
LINE
  5
206
330
187
100
AcDbEntity
  8
Camada 1
 62
    18
420
        0
370
     9
100
AcDbLine
 10
19.08374379354703
 20
-72.01426142662383
 30
0.0
 11
19.08374379354703
 21
-71.79704694248906
 31
0.0
  0
LINE
  5
207
330
187
100
AcDbEntity
  8
Camada 1
 62
    18
420
        0
370
     9
100
AcDbLine
 10
19.08374379354703
 20
-71.53156939269724
 30
0.0
 11
19.08374379354703
 21
-71.26608775108197
 31
0.0
  0
LINE
  5
208
330
187
100
AcDbEntity
  8
Camada 1
 62
    18
420
        0
370
     9
100
AcDbLine
 10
19.08374379354703
 20
-71.0006061094667
 30
0.0
 11
19.08374379354703
 21
-70.75926213841544
 31
0.0
  0
LINE
  5
209
330
187
100
AcDbEntity
  8
Camada 1
 62
    18
420
        0
370
     9
100
AcDbLine
 10
16.45307732342965
 20
-72.25560539767446
 30
0.0
 11
16.71855896504492
 21
-72.25560539767446
 31
0.0
  0
LINE
  5
20A
330
187
100
AcDbEntity
  8
Camada 1
 62
    18
420
        0
370
     9
100
AcDbLine
 10
16.98403651483643
 20
-72.25560539767446
 30
0.0
 11
17.24951815645169
 21
-72.25560539767446
 31
0.0
  0
LINE
  5
20B
330
187
100
AcDbEntity
  8
Camada 1
 62
    18
420
        0
370
     9
100
AcDbLine
 10
17.51499979806696
 20
-72.25560539767446
 30
0.0
 11
17.78047734785846
 21
-72.25560539767446
 31
0.0
  0
LINE
  5
20C
330
187
100
AcDbEntity
  8
Camada 1
 62
    18
420
        0
370
     9
100
AcDbLine
 10
18.04595898947405
 20
-72.25560539767446
 30
0.0
 11
18.311440631089
 21
-72.25560539767446
 31
0.0
  0
LINE
  5
20D
330
187
100
AcDbEntity
  8
Camada 1
 62
    18
420
        0
370
     9
100
AcDbLine
 10
18.5769181808805
 20
-72.25560539767446
 30
0.0
 11
18.86653340123601
 21
-72.25560539767446
 31
0.0
  0
LINE
  5
20E
330
187
100
AcDbEntity
  8
Camada 1
 62
    18
420
        0
370
     9
100
AcDbLine
 10
18.86653340123601
 20
-72.15906699088939
 30
0.0
 11
18.5769181808805
 21
-72.15906699088939
 31
0.0
  0
LINE
  5
20F
330
187
100
AcDbEntity
  8
Camada 1
 62
    18
420
        0
370
     9
100
AcDbLine
 10
18.311440631089
 20
-72.15906699088939
 30
0.0
 11
18.04595898947405
 21
-72.15906699088939
 31
0.0
  0
LINE
  5
210
330
187
100
AcDbEntity
  8
Camada 1
 62
    18
420
        0
370
     9
100
AcDbLine
 10
17.78047734785846
 20
-72.15906699088939
 30
0.0
 11
17.51499979806696
 21
-72.15906699088939
 31
0.0
  0
LINE
  5
211
330
187
100
AcDbEntity
  8
Camada 1
 62
    18
420
        0
370
     9
100
AcDbLine
 10
17.24951815645169
 20
-72.15906699088939
 30
0.0
 11
16.98403651483643
 21
-72.15906699088939
 31
0.0
  0
LINE
  5
212
330
187
100
AcDbEntity
  8
Camada 1
 62
    18
420
        0
370
     9
100
AcDbLine
 10
16.71855896504492
 20
-72.15906699088939
 30
0.0
 11
16.45307732342965
 21
-72.15906699088939
 31
0.0
  0
LINE
  5
213
330
187
100
AcDbEntity
  8
Camada 1
 62
    18
420
        0
370
     9
100
AcDbLine
 10
16.45307732342965
 20
-70.63859015289044
 30
0.0
 11
16.71855896504492
 21
-70.63859015289044
 31
0.0
  0
LINE
  5
214
330
187
100
AcDbEntity
  8
Camada 1
 62
    18
420
        0
370
     9
100
AcDbLine
 10
16.98403651483643
 20
-70.63859015289044
 30
0.0
 11
17.24951815645169
 21
-70.63859015289044
 31
0.0
  0
LINE
  5
215
330
187
100
AcDbEntity
  8
Camada 1
 62
    18
420
        0
370
     9
100
AcDbLine
 10
17.51499979806696
 20
-70.63859015289044
 30
0.0
 11
17.78047734785846
 21
-70.63859015289044
 31
0.0
  0
LINE
  5
216
330
187
100
AcDbEntity
  8
Camada 1
 62
    18
420
        0
370
     9
100
AcDbLine
 10
18.04595898947405
 20
-70.63859015289044
 30
0.0
 11
18.311440631089
 21
-70.63859015289044
 31
0.0
  0
LINE
  5
217
330
187
100
AcDbEntity
  8
Camada 1
 62
    18
420
        0
370
     9
100
AcDbLine
 10
18.5769181808805
 20
-70.63859015289044
 30
0.0
 11
18.86653340123601
 21
-70.63859015289044
 31
0.0
  0
LINE
  5
218
330
187
100
AcDbEntity
  8
Camada 1
 62
    18
420
        0
370
     9
100
AcDbLine
 10
18.86653340123601
 20
-70.54205174610475
 30
0.0
 11
18.5769181808805
 21
-70.54205174610475
 31
0.0
  0
LINE
  5
219
330
187
100
AcDbEntity
  8
Camada 1
 62
    18
420
        0
370
     9
100
AcDbLine
 10
18.311440631089
 20
-70.54205174610475
 30
0.0
 11
18.04595898947405
 21
-70.54205174610475
 31
0.0
  0
LINE
  5
21A
330
187
100
AcDbEntity
  8
Camada 1
 62
    18
420
        0
370
     9
100
AcDbLine
 10
17.78047734785846
 20
-70.54205174610475
 30
0.0
 11
17.51499979806696
 21
-70.54205174610475
 31
0.0
  0
LINE
  5
21B
330
187
100
AcDbEntity
  8
Camada 1
 62
    18
420
        0
370
     9
100
AcDbLine
 10
17.24951815645169
 20
-70.54205174610475
 30
0.0
 11
16.98403651483643
 21
-70.54205174610475
 31
0.0
  0
LINE
  5
21C
330
187
100
AcDbEntity
  8
Camada 1
 62
    18
420
        0
370
     9
100
AcDbLine
 10
16.71855896504492
 20
-70.54205174610475
 30
0.0
 11
16.45307732342965
 21
-70.54205174610475
 31
0.0
  0
LWPOLYLINE
  5
21D
330
187
100
AcDbEntity
  8
Camada 1
 62
    18
420
        0
370
     9
100
AcDbPolyline
 90
        4
 70
     0
 43
0.0
 10
19.08374379354703
 20
-70.75926213841544
 10
19.05961021480678
 20
-70.63859015289044
 10
18.96307180802172
 20
-70.56618532484531
 10
18.86653340123601
 20
-70.54205174610475
  0
LWPOLYLINE
  5
21E
330
187
100
AcDbEntity
  8
Camada 1
 62
    18
420
        0
370
     9
100
AcDbPolyline
 90
        4
 70
     0
 43
0.0
 10
16.45307732342965
 20
-70.54205174610475
 10
16.33240533790402
 20
-70.56618532484531
 10
16.26000050985921
 20
-70.63859015289044
 10
16.21173335237872
 20
-70.75926213841544
  0
LWPOLYLINE
  5
21F
330
187
100
AcDbEntity
  8
Camada 1
 62
    18
420
        0
370
     9
100
AcDbPolyline
 90
        4
 70
     0
 43
0.0
 10
16.21173335237872
 20
-72.01426142662383
 10
16.26000050985921
 20
-72.13493341214882
 10
16.33240533790402
 20
-72.23146977302281
 10
16.45307732342965
 20
-72.25560539767446
  0
LWPOLYLINE
  5
220
330
187
100
AcDbEntity
  8
Camada 1
 62
    18
420
        0
370
     9
100
AcDbPolyline
 90
        4
 70
     0
 43
0.0
 10
18.86653340123601
 20
-72.25560539767446
 10
18.96307180802172
 20
-72.23146977302281
 10
19.05961021480678
 20
-72.13493341214882
 10
19.08374379354703
 20
-72.01426142662383
  0
LWPOLYLINE
  5
221
330
187
100
AcDbEntity
  8
Camada 1
 62
    18
420
        0
370
     9
100
AcDbPolyline
 90
        3
 70
     0
 43
0.0
 10
16.33240533790402
 20
-72.01426142662383
 10
16.35653891664395
 20
-72.11079574158481
 10
16.45307732342965
 20
-72.15906699088939
  0
LWPOLYLINE
  5
222
330
187
100
AcDbEntity
  8
Camada 1
 62
    18
420
        0
370
     9
100
AcDbPolyline
 90
        3
 70
     0
 43
0.0
 10
16.45307732342965
 20
-70.63859015289044
 10
16.35653891664395
 20
-70.66272373163101
 10
16.33240533790402
 20
-70.75926213841544
  0
LWPOLYLINE
  5
223
330
187
100
AcDbEntity
  8
Camada 1
 62
    18
420
        0
370
     9
100
AcDbPolyline
 90
        3
 70
     0
 43
0.0
 10
18.98720538676197
 20
-70.75926213841544
 10
18.93893822928147
 20
-70.66272373163101
 10
18.86653340123601
 20
-70.63859015289044
  0
LWPOLYLINE
  5
224
330
187
100
AcDbEntity
  8
Camada 1
 62
    18
420
        0
370
     9
100
AcDbPolyline
 90
        3
 70
     0
 43
0.0
 10
18.86653340123601
 20
-72.15906699088939
 10
18.93893822928147
 20
-72.11079574158481
 10
18.98720538676197
 20
-72.01426142662383
  0
LINE
  5
225
330
187
100
AcDbEntity
  8
Camada 1
 62
    18
420
        0
370
     9
100
AcDbLine
 10
26.83093763963392
 20
-70.75926213841544
 30
0.0
 11
26.83093763963392
 21
-71.0006061094667
 31
0.0
  0
LINE
  5
226
330
187
100
AcDbEntity
  8
Camada 1
 62
    18
420
        0
370
     9
100
AcDbLine
 10
26.83093763963392
 20
-71.26608775108197
 30
0.0
 11
26.83093763963392
 21
-71.53156939269724
 31
0.0
  0
LINE
  5
227
330
187
100
AcDbEntity
  8
Camada 1
 62
    18
420
        0
370
     9
100
AcDbLine
 10
26.83093763963392
 20
-71.79704694248906
 30
0.0
 11
26.83093763963392
 21
-72.01426142662383
 31
0.0
  0
LINE
  5
228
330
187
100
AcDbEntity
  8
Camada 1
 62
    18
420
        0
370
     9
100
AcDbLine
 10
29.60641376584156
 20
-70.75926213841544
 30
0.0
 11
29.60641376584156
 21
-71.0006061094667
 31
0.0
  0
LINE
  5
229
330
187
100
AcDbEntity
  8
Camada 1
 62
    18
420
        0
370
     9
100
AcDbLine
 10
29.60641376584156
 20
-71.26608775108197
 30
0.0
 11
29.60641376584156
 21
-71.53156939269724
 31
0.0
  0
LINE
  5
22A
330
187
100
AcDbEntity
  8
Camada 1
 62
    18
420
        0
370
     9
100
AcDbLine
 10
29.60641376584156
 20
-71.79704694248906
 30
0.0
 11
29.60641376584156
 21
-72.01426142662383
 31
0.0
  0
LINE
  5
22B
330
187
100
AcDbEntity
  8
Camada 1
 62
    18
420
        0
370
     9
100
AcDbLine
 10
29.70295217262663
 20
-72.01426142662383
 30
0.0
 11
29.70295217262663
 21
-71.79704694248906
 31
0.0
  0
LINE
  5
22C
330
187
100
AcDbEntity
  8
Camada 1
 62
    18
420
        0
370
     9
100
AcDbLine
 10
29.70295217262663
 20
-71.53156939269724
 30
0.0
 11
29.70295217262663
 21
-71.26608775108197
 31
0.0
  0
LINE
  5
22D
330
187
100
AcDbEntity
  8
Camada 1
 62
    18
420
        0
370
     9
100
AcDbLine
 10
29.70295217262663
 20
-71.0006061094667
 30
0.0
 11
29.70295217262663
 21
-70.75926213841544
 31
0.0
  0
LINE
  5
22E
330
187
100
AcDbEntity
  8
Camada 1
 62
    18
420
        0
370
     9
100
AcDbLine
 10
27.07228570250926
 20
-72.25560539767446
 30
0.0
 11
27.33776325230044
 21
-72.25560539767446
 31
0.0
  0
LINE
  5
22F
330
187
100
AcDbEntity
  8
Camada 1
 62
    18
420
        0
370
     9
100
AcDbLine
 10
27.60324489391603
 20
-72.25560539767446
 30
0.0
 11
27.8687265355313
 21
-72.25560539767446
 31
0.0
  0
LINE
  5
230
330
187
100
AcDbEntity
  8
Camada 1
 62
    18
420
        0
370
     9
100
AcDbLine
 10
28.13420408532248
 20
-72.25560539767446
 30
0.0
 11
28.39968572693807
 21
-72.25560539767446
 31
0.0
  0
LINE
  5
231
330
187
100
AcDbEntity
  8
Camada 1
 62
    18
420
        0
370
     9
100
AcDbLine
 10
28.66516736855333
 20
-72.25560539767446
 30
0.0
 11
28.93064491834484
 21
-72.25560539767446
 31
0.0
  0
LINE
  5
232
330
187
100
AcDbEntity
  8
Camada 1
 62
    18
420
        0
370
     9
100
AcDbLine
 10
29.19612655996011
 20
-72.25560539767446
 30
0.0
 11
29.48574178031594
 21
-72.25560539767446
 31
0.0
  0
LINE
  5
233
330
187
100
AcDbEntity
  8
Camada 1
 62
    18
420
        0
370
     9
100
AcDbLine
 10
29.48574178031594
 20
-72.15906699088939
 30
0.0
 11
29.19612655996011
 21
-72.15906699088939
 31
0.0
  0
LINE
  5
234
330
187
100
AcDbEntity
  8
Camada 1
 62
    18
420
        0
370
     9
100
AcDbLine
 10
28.93064491834484
 20
-72.15906699088939
 30
0.0
 11
28.66516736855333
 21
-72.15906699088939
 31
0.0
  0
LINE
  5
235
330
187
100
AcDbEntity
  8
Camada 1
 62
    18
420
        0
370
     9
100
AcDbLine
 10
28.39968572693807
 20
-72.15906699088939
 30
0.0
 11
28.13420408532248
 21
-72.15906699088939
 31
0.0
  0
LINE
  5
236
330
187
100
AcDbEntity
  8
Camada 1
 62
    18
420
        0
370
     9
100
AcDbLine
 10
27.8687265355313
 20
-72.15906699088939
 30
0.0
 11
27.60324489391603
 21
-72.15906699088939
 31
0.0
  0
LINE
  5
237
330
187
100
AcDbEntity
  8
Camada 1
 62
    18
420
        0
370
     9
100
AcDbLine
 10
27.33776325230044
 20
-72.15906699088939
 30
0.0
 11
27.07228570250926
 21
-72.15906699088939
 31
0.0
  0
LINE
  5
238
330
187
100
AcDbEntity
  8
Camada 1
 62
    18
420
        0
370
     9
100
AcDbLine
 10
27.07228570250926
 20
-70.63859015289044
 30
0.0
 11
27.33776325230044
 21
-70.63859015289044
 31
0.0
  0
LINE
  5
239
330
187
100
AcDbEntity
  8
Camada 1
 62
    18
420
        0
370
     9
100
AcDbLine
 10
27.60324489391603
 20
-70.63859015289044
 30
0.0
 11
27.8687265355313
 21
-70.63859015289044
 31
0.0
  0
LINE
  5
23A
330
187
100
AcDbEntity
  8
Camada 1
 62
    18
420
        0
370
     9
100
AcDbLine
 10
28.13420408532248
 20
-70.63859015289044
 30
0.0
 11
28.39968572693807
 21
-70.63859015289044
 31
0.0
  0
LINE
  5
23B
330
187
100
AcDbEntity
  8
Camada 1
 62
    18
420
        0
370
     9
100
AcDbLine
 10
28.66516736855333
 20
-70.63859015289044
 30
0.0
 11
28.93064491834484
 21
-70.63859015289044
 31
0.0
  0
LINE
  5
23C
330
187
100
AcDbEntity
  8
Camada 1
 62
    18
420
        0
370
     9
100
AcDbLine
 10
29.19612655996011
 20
-70.63859015289044
 30
0.0
 11
29.48574178031594
 21
-70.63859015289044
 31
0.0
  0
LINE
  5
23D
330
187
100
AcDbEntity
  8
Camada 1
 62
    18
420
        0
370
     9
100
AcDbLine
 10
29.48574178031594
 20
-70.54205174610475
 30
0.0
 11
29.19612655996011
 21
-70.54205174610475
 31
0.0
  0
LINE
  5
23E
330
187
100
AcDbEntity
  8
Camada 1
 62
    18
420
        0
370
     9
100
AcDbLine
 10
28.93064491834484
 20
-70.54205174610475
 30
0.0
 11
28.66516736855333
 21
-70.54205174610475
 31
0.0
  0
LINE
  5
23F
330
187
100
AcDbEntity
  8
Camada 1
 62
    18
420
        0
370
     9
100
AcDbLine
 10
28.39968572693807
 20
-70.54205174610475
 30
0.0
 11
28.13420408532248
 21
-70.54205174610475
 31
0.0
  0
LINE
  5
240
330
187
100
AcDbEntity
  8
Camada 1
 62
    18
420
        0
370
     9
100
AcDbLine
 10
27.8687265355313
 20
-70.54205174610475
 30
0.0
 11
27.60324489391603
 21
-70.54205174610475
 31
0.0
  0
LINE
  5
241
330
187
100
AcDbEntity
  8
Camada 1
 62
    18
420
        0
370
     9
100
AcDbLine
 10
27.33776325230044
 20
-70.54205174610475
 30
0.0
 11
27.07228570250926
 21
-70.54205174610475
 31
0.0
  0
LWPOLYLINE
  5
242
330
187
100
AcDbEntity
  8
Camada 1
 62
    18
420
        0
370
     9
100
AcDbPolyline
 90
        4
 70
     0
 43
0.0
 10
29.70295217262663
 20
-70.75926213841544
 10
29.67881859388639
 20
-70.63859015289044
 10
29.582280187101
 20
-70.56618532484531
 10
29.48574178031594
 20
-70.54205174610475
  0
LWPOLYLINE
  5
243
330
187
100
AcDbEntity
  8
Camada 1
 62
    18
420
        0
370
     9
100
AcDbPolyline
 90
        4
 70
     0
 43
0.0
 10
27.07228570250926
 20
-70.54205174610475
 10
26.95161371698363
 20
-70.56618532484531
 10
26.87920888893881
 20
-70.63859015289044
 10
26.83093763963392
 20
-70.75926213841544
  0
LWPOLYLINE
  5
244
330
187
100
AcDbEntity
  8
Camada 1
 62
    18
420
        0
370
     9
100
AcDbPolyline
 90
        4
 70
     0
 43
0.0
 10
26.83093763963392
 20
-72.01426142662383
 10
26.87920888893881
 20
-72.13493341214882
 10
26.95161371698363
 20
-72.23146977302281
 10
27.07228570250926
 20
-72.25560539767446
  0
LWPOLYLINE
  5
245
330
187
100
AcDbEntity
  8
Camada 1
 62
    18
420
        0
370
     9
100
AcDbPolyline
 90
        4
 70
     0
 43
0.0
 10
29.48574178031594
 20
-72.25560539767446
 10
29.582280187101
 20
-72.23146977302281
 10
29.67881859388639
 20
-72.13493341214882
 10
29.70295217262663
 20
-72.01426142662383
  0
LWPOLYLINE
  5
246
330
187
100
AcDbEntity
  8
Camada 1
 62
    18
420
        0
370
     9
100
AcDbPolyline
 90
        3
 70
     0
 43
0.0
 10
26.95161371698363
 20
-72.01426142662383
 10
26.97574729572356
 20
-72.11079574158481
 10
27.07228570250926
 20
-72.15906699088939
  0
LWPOLYLINE
  5
247
330
187
100
AcDbEntity
  8
Camada 1
 62
    18
420
        0
370
     9
100
AcDbPolyline
 90
        3
 70
     0
 43
0.0
 10
27.07228570250926
 20
-70.63859015289044
 10
26.97574729572356
 20
-70.66272373163101
 10
26.95161371698363
 20
-70.75926213841544
  0
LWPOLYLINE
  5
248
330
187
100
AcDbEntity
  8
Camada 1
 62
    18
420
        0
370
     9
100
AcDbPolyline
 90
        3
 70
     0
 43
0.0
 10
29.60641376584156
 20
-70.75926213841544
 10
29.55814251653667
 20
-70.66272373163101
 10
29.48574178031594
 20
-70.63859015289044
  0
LWPOLYLINE
  5
249
330
187
100
AcDbEntity
  8
Camada 1
 62
    18
420
        0
370
     9
100
AcDbPolyline
 90
        3
 70
     0
 43
0.0
 10
29.48574178031594
 20
-72.15906699088939
 10
29.55814251653667
 20
-72.11079574158481
 10
29.60641376584156
 20
-72.01426142662383
  0
LINE
  5
24A
330
187
100
AcDbEntity
  8
Camada 1
 62
    18
420
        0
370
     9
100
AcDbLine
 10
26.95161371698363
 20
-70.75926213841544
 30
0.0
 11
26.95161371698363
 21
-71.0006061094667
 31
0.0
  0
LINE
  5
24B
330
187
100
AcDbEntity
  8
Camada 1
 62
    18
420
        0
370
     9
100
AcDbLine
 10
26.95161371698363
 20
-71.26608775108197
 30
0.0
 11
26.95161371698363
 21
-71.53156939269724
 31
0.0
  0
LINE
  5
24C
330
187
100
AcDbEntity
  8
Camada 1
 62
    18
420
        0
370
     9
100
AcDbLine
 10
26.95161371698363
 20
-71.79704694248906
 30
0.0
 11
26.95161371698363
 21
-72.01426142662383
 31
0.0
  0
LINE
  5
24D
330
187
100
AcDbEntity
  8
Camada 1
 62
    18
420
        0
370
     9
100
AcDbLine
 10
9.622996295890439
 20
-70.18003169770377
 30
0.0
 11
9.622996295890439
 21
-72.73829538568868
 31
0.0
  0
LINE
  5
24E
330
187
100
AcDbEntity
  8
Camada 1
 62
    18
420
        0
370
     9
100
AcDbLine
 10
27.55497773643554
 20
-56.20612084352958
 30
0.0
 11
29.84775773689218
 21
-56.20612084352958
 31
0.0
  0
LINE
  5
24F
330
187
100
AcDbEntity
  8
Camada 1
 62
    18
420
        0
370
     9
100
AcDbLine
 10
16.09106136685309
 20
-56.18198726478965
 30
0.0
 11
18.38384136731005
 21
-56.18198726478965
 31
0.0
  0
LINE
  5
250
330
187
100
AcDbEntity
  8
Camada 1
 62
    18
420
        0
370
     9
100
AcDbLine
 10
16.09106136685309
 20
-56.25439209283415
 30
0.0
 11
16.09106136685309
 21
-53.88920317250828
 31
0.0
  0
LINE
  5
251
330
187
100
AcDbEntity
  8
Camada 1
 62
    18
420
        0
370
     9
100
AcDbLine
 10
16.93576935735594
 20
-54.58910559874558
 30
0.0
 11
16.93576935735594
 21
-55.04766405393162
 31
0.0
  0
LINE
  5
252
330
187
100
AcDbEntity
  8
Camada 1
 62
    18
420
        0
370
     9
100
AcDbLine
 10
17.5391333768072
 20
-55.04766405393162
 30
0.0
 11
17.5391333768072
 21
-54.58910559874558
 31
0.0
  0
LINE
  5
253
330
187
100
AcDbEntity
  8
Camada 1
 62
    18
420
        0
370
     9
100
AcDbLine
 10
28.13420408532248
 20
-53.33411040236127
 30
0.0
 11
29.29266496674517
 21
-53.33411040236127
 31
0.0
  0
LINE
  5
254
330
187
100
AcDbEntity
  8
Camada 1
 62
    18
420
        0
370
     9
100
AcDbLine
 10
16.6461541370001
 20
-53.30997682362134
 30
0.0
 11
17.80461501842279
 21
-53.30997682362134
 31
0.0
  0
LINE
  5
255
330
187
100
AcDbEntity
  8
Camada 1
 62
    18
420
        0
370
     9
100
AcDbLine
 10
18.38384136731005
 20
-53.88920317250828
 30
0.0
 11
18.38384136731005
 21
-56.25439209283415
 31
0.0
  0
LINE
  5
256
330
187
100
AcDbEntity
  8
Camada 1
 62
    18
420
        0
370
     9
100
AcDbLine
 10
27.55497773643554
 20
-56.25439209283415
 30
0.0
 11
27.55497773643554
 21
-53.91334084307294
 31
0.0
  0
LINE
  5
257
330
187
100
AcDbEntity
  8
Camada 1
 62
    18
420
        0
370
     9
100
AcDbLine
 10
28.39968572693807
 20
-54.58910559874558
 30
0.0
 11
28.39968572693807
 21
-55.04766405393162
 31
0.0
  0
LINE
  5
258
330
187
100
AcDbEntity
  8
Camada 1
 62
    18
420
        0
370
     9
100
AcDbLine
 10
29.00304974638966
 20
-55.04766405393162
 30
0.0
 11
29.00304974638966
 21
-54.58910559874558
 31
0.0
  0
LINE
  5
259
330
187
100
AcDbEntity
  8
Camada 1
 62
    18
420
        0
370
     9
100
AcDbLine
 10
29.84775773689218
 20
-53.91334084307294
 30
0.0
 11
29.84775773689218
 21
-56.25439209283415
 31
0.0
  0
LWPOLYLINE
  5
25A
330
187
100
AcDbEntity
  8
Camada 1
 62
    18
420
        0
370
     9
100
AcDbPolyline
 90
        5
 70
     0
 43
0.0
 10
18.35970778856949
 20
-53.88920317250828
 10
18.311440631089
 20
-53.67199278019823
 10
18.19076455373961
 20
-53.50304954536738
 10
18.02182541073349
 20
-53.3823775598424
 10
17.80461501842279
 20
-53.33411040236127
  0
LWPOLYLINE
  5
25B
330
187
100
AcDbEntity
  8
Camada 1
 62
    18
420
        0
370
     9
100
AcDbPolyline
 90
        5
 70
     0
 43
0.0
 10
16.6461541370001
 20
-53.33411040236127
 10
16.42894374468909
 20
-53.3823775598424
 10
16.26000050985921
 20
-53.50304954536738
 10
16.13932852433358
 20
-53.67199278019823
 10
16.09106136685309
 20
-53.88920317250828
  0
LWPOLYLINE
  5
25C
330
187
100
AcDbEntity
  8
Camada 1
 62
    18
420
        0
370
     9
100
AcDbPolyline
 90
        7
 70
     0
 43
0.0
 10
17.51499979806696
 20
-54.58910559874558
 10
17.46672854876238
 20
-54.44430003447938
 10
17.37019014197732
 20
-54.34776162769432
 10
17.22538457771145
 20
-54.29949037838975
 10
17.08057492162117
 20
-54.34776162769432
 10
16.98403651483643
 20
-54.44430003447938
 10
16.93576935735594
 20
-54.58910559874558
  0
LWPOLYLINE
  5
25D
330
187
100
AcDbEntity
  8
Camada 1
 62
    18
420
        0
370
     9
100
AcDbPolyline
 90
        7
 70
     0
 43
0.0
 10
16.93576935735594
 20
-55.04766405393162
 10
16.98403651483643
 20
-55.19246961819653
 10
17.08057492162117
 20
-55.28900802498223
 10
17.22538457771145
 20
-55.33727927428681
 10
17.37019014197732
 20
-55.28900802498223
 10
17.46672854876238
 20
-55.19246961819653
 10
17.51499979806696
 20
-55.04766405393162
  0
LWPOLYLINE
  5
25E
330
187
100
AcDbEntity
  8
Camada 1
 62
    18
420
        0
370
     9
100
AcDbPolyline
 90
        5
 70
     0
 43
0.0
 10
29.84775773689218
 20
-53.91334084307294
 10
29.79949057941169
 20
-53.69612635893815
 10
29.67881859388639
 20
-53.52718721593204
 10
29.50987535905618
 20
-53.40651113858232
 10
29.29266496674517
 20
-53.35824398110183
  0
LWPOLYLINE
  5
25F
330
187
100
AcDbEntity
  8
Camada 1
 62
    18
420
        0
370
     9
100
AcDbPolyline
 90
        5
 70
     0
 43
0.0
 10
28.13420408532248
 20
-53.35824398110183
 10
27.91699369301179
 20
-53.40651113858232
 10
27.74805045818158
 20
-53.52718721593204
 10
27.62737847265595
 20
-53.69612635893815
 10
27.57911131517547
 20
-53.91334084307294
  0
LWPOLYLINE
  5
260
330
187
100
AcDbEntity
  8
Camada 1
 62
    18
420
        0
370
     9
100
AcDbPolyline
 90
        7
 70
     0
 43
0.0
 10
28.42381930567831
 20
-55.04766405393162
 10
28.47209055498289
 20
-55.19246961819653
 10
28.56862896176827
 20
-55.28900802498223
 10
28.71343452603415
 20
-55.33727927428681
 10
28.85824418212378
 20
-55.28900802498223
 10
28.95477849708509
 20
-55.19246961819653
 10
29.00304974638966
 20
-55.04766405393162
  0
LWPOLYLINE
  5
261
330
187
100
AcDbEntity
  8
Camada 1
 62
    18
420
        0
370
     9
100
AcDbPolyline
 90
        7
 70
     0
 43
0.0
 10
29.00304974638966
 20
-54.58910559874558
 10
28.95477849708509
 20
-54.44430003447938
 10
28.85824418212378
 20
-54.34776162769432
 10
28.71343452603415
 20
-54.29949037838975
 10
28.56862896176827
 20
-54.34776162769432
 10
28.47209055498289
 20
-54.44430003447938
 10
28.42381930567831
 20
-54.58910559874558
  0
ENDBLK
  5
18A
330
187
100
AcDbEntity
  8
0
100
AcDbBlockEnd
  0
ENDSEC
  0
SECTION
  2
ENTITIES
  0
INSERT
  5
7A
330
70
100
AcDbEntity
  8
Camada 1
100
AcDbBlockReference
  2
Block_0
 10
0.0
 20
0.0
 30
0.0
  0
ENDSEC
  0
SECTION
  2
OBJECTS
  0
DICTIONARY
  5
C
330
0
100
AcDbDictionary
281
     1
  3
ACAD_COLOR
350
63
  3
ACAD_DETAILVIEWSTYLE
350
6A
  3
ACAD_GROUP
350
D
  3
ACAD_LAYOUT
350
62
  3
ACAD_MATERIAL
350
10
  3
ACAD_MLEADERSTYLE
350
66
  3
ACAD_MLINESTYLE
350
5F
  3
ACAD_PLOTSETTINGS
350
61
  3
ACAD_PLOTSTYLENAME
350
E
  3
ACAD_SCALELIST
350
42
  3
ACAD_SECTIONVIEWSTYLE
350
68
  3
ACAD_TABLESTYLE
350
64
  3
ACAD_VISUALSTYLE
350
29
  3
ACDB_RECOMPOSE_DATA
350
26A
  3
AcDbVariableDictionary
350
262
  0
DICTIONARY
  5
63
102
{ACAD_REACTORS
330
C
102
}
330
C
100
AcDbDictionary
281
     1
  0
DICTIONARY
  5
6A
102
{ACAD_REACTORS
330
C
102
}
330
C
100
AcDbDictionary
281
     1
  3
Imperial24
350
6B
  0
DICTIONARY
  5
D
102
{ACAD_REACTORS
330
C
102
}
330
C
100
AcDbDictionary
281
     1
  0
DICTIONARY
  5
62
102
{ACAD_REACTORS
330
C
102
}
330
C
100
AcDbDictionary
281
     1
  3
Layout1
350
6F
  3
Layout2
350
77
  3
Model
350
73
  0
DICTIONARY
  5
10
102
{ACAD_REACTORS
330
C
102
}
330
C
100
AcDbDictionary
281
     1
  3
ByBlock
350
19
  3
ByLayer
350
11
  3
Global
350
21
  0
DICTIONARY
  5
66
102
{ACAD_REACTORS
330
C
102
}
330
C
100
AcDbDictionary
281
     1
  3
Standard
350
67
  0
DICTIONARY
  5
5F
102
{ACAD_REACTORS
330
C
102
}
330
C
100
AcDbDictionary
281
     1
  3
Standard
350
60
  0
DICTIONARY
  5
61
102
{ACAD_REACTORS
330
C
102
}
330
C
100
AcDbDictionary
281
     1
  0
ACDBDICTIONARYWDFLT
  5
E
102
{ACAD_REACTORS
330
C
102
}
330
C
100
AcDbDictionary
281
     1
  3
Normal
350
F
100
AcDbDictionaryWithDefault
340
F
  0
DICTIONARY
  5
42
102
{ACAD_REACTORS
330
C
102
}
330
C
100
AcDbDictionary
281
     1
  3
A0
350
43
  3
A1
350
44
  3
A2
350
45
  3
A3
350
46
  3
A4
350
47
  3
A5
350
48
  3
A6
350
49
  3
A7
350
4A
  3
A8
350
4B
  3
A9
350
4C
  3
B0
350
4D
  3
B1
350
4E
  3
B2
350
4F
  3
B3
350
50
  3
B4
350
51
  3
B5
350
52
  3
B6
350
53
  0
DICTIONARY
  5
68
102
{ACAD_REACTORS
330
C
102
}
330
C
100
AcDbDictionary
281
     1
  3
Imperial24
350
69
  0
DICTIONARY
  5
64
102
{ACAD_REACTORS
330
C
102
}
330
C
100
AcDbDictionary
281
     1
  3
Standard
350
65
  0
DICTIONARY
  5
29
102
{ACAD_REACTORS
330
C
102
}
330
C
100
AcDbDictionary
281
     1
  3
2dWireframe
350
2F
  3
Basic
350
2E
  3
Brighten
350
35
  3
ColorChange
350
39
  3
Conceptual
350
32
  3
Dim
350
34
  3
EdgeColorOff
350
41
  3
Facepattern
350
38
  3
Flat
350
2A
  3
FlatWithEdges
350
2B
  3
Gouraud
350
2C
  3
GouraudWithEdges
350
2D
  3
Hidden
350
31
  3
JitterOff
350
3F
  3
Linepattern
350
37
  3
OverhangOff
350
40
  3
Realistic
350
33
  3
Shaded
350
3E
  3
Shaded with edges
350
3D
  3
Shades of Gray
350
3A
  3
Sketchy
350
3B
  3
Thicken
350
36
  3
Wireframe
350
30
  3
X-Ray
350
3C
  0
XRECORD
  5
26A
102
{ACAD_REACTORS
330
C
102
}
330
C
100
AcDbXrecord
280
     1
 90
        1
330
65
  0
DICTIONARY
  5
262
102
{ACAD_REACTORS
330
C
102
}
330
C
100
AcDbDictionary
281
     1
  3
CANNOSCALE
350
267
  3
CMLEADERSTYLE
350
264
  3
CTABLESTYLE
350
263
  3
CVIEWDETAILSTYLE
350
265
  3
CVIEWSECTIONSTYLE
350
266
  0
ACDBDETAILVIEWSTYLE
  5
6B
102
{ACAD_REACTORS
330
6A
102
}
330
6A
100
AcDbModelDocViewStyle
 70
     0
  3
Imperial24
290
     1
300
Imperial24
 90
        0
100
AcDbDetailViewStyle
 70
     0
 71
     0
 90
        3
 71
     1
340
55
 62
   256
 40
0.24
340
0
 62
   256
 40
0.24
300

 40
0.36
280
     3
 71
     2
340
5D
 90
       25
 62
   256
 71
     3
340
55
 62
   256
 40
0.24
 90
        1
 40
0.75
 90
        1
300
%<\AcVar ViewType \f "%tc1">% %<\AcVar ViewDetailId>%\PSCALE %<\AcVar ViewScale \f "%sn">%
 71
     4
340
5D
 90
       25
 62
   256
340
5D
 90
       25
 62
   256
280
     0
  0
LAYOUT
  5
6F
102
{ACAD_REACTORS
330
62
102
}
330
62
100
AcDbPlotSettings
  1

  2

  4

  6

 40
0.0
 41
0.0
 42
0.0
 43
0.0
 44
0.0
 45
0.0
 46
0.0
 47
0.0
 48
0.0
 49
0.0
140
0.0
141
0.0
142
1.0
143
1.0
 70
   688
 72
     0
 73
     0
 74
     5
  7

 75
    16
147
1.0
 76
     0
 77
     2
 78
   300
148
0.0
149
0.0
100
AcDbLayout
  1
Layout1
 70
     1
 71
     1
 10
0.0
 20
0.0
 11
12.0
 21
9.0
 12
0.0
 22
0.0
 32
0.0
 14
0.0
 24
0.0
 34
0.0
 15
0.0
 25
0.0
 35
0.0
146
0.0
 13
0.0
 23
0.0
 33
0.0
 16
1.0
 26
0.0
 36
0.0
 17
0.0
 27
1.0
 37
0.0
 76
     0
330
6C
  0
LAYOUT
  5
77
102
{ACAD_REACTORS
330
62
102
}
330
62
100
AcDbPlotSettings
  1

  2

  4

  6

 40
0.0
 41
0.0
 42
0.0
 43
0.0
 44
0.0
 45
0.0
 46
0.0
 47
0.0
 48
0.0
 49
0.0
140
0.0
141
0.0
142
1.0
143
1.0
 70
   688
 72
     0
 73
     0
 74
     5
  7

 75
    16
147
1.0
 76
     0
 77
     2
 78
   300
148
0.0
149
0.0
100
AcDbLayout
  1
Layout2
 70
     1
 71
     2
 10
0.0
 20
0.0
 11
12.0
 21
9.0
 12
0.0
 22
0.0
 32
0.0
 14
0.0
 24
0.0
 34
0.0
 15
0.0
 25
0.0
 35
0.0
146
0.0
 13
0.0
 23
0.0
 33
0.0
 16
1.0
 26
0.0
 36
0.0
 17
0.0
 27
1.0
 37
0.0
 76
     0
330
74
  0
LAYOUT
  5
73
102
{ACAD_REACTORS
330
62
102
}
330
62
100
AcDbPlotSettings
  1

  2

  4

  6

 40
0.0
 41
0.0
 42
0.0
 43
0.0
 44
0.0
 45
0.0
 46
0.0
 47
0.0
 48
0.0
 49
0.0
140
0.0
141
0.0
142
1.0
143
1.0
 70
  1712
 72
     0
 73
     0
 74
     0
  7

 75
     0
147
1.0
 76
     0
 77
     2
 78
   300
148
0.0
149
0.0
100
AcDbLayout
  1
Model
 70
     1
 71
     0
 10
0.0
 20
0.0
 11
12.0
 21
9.0
 12
0.0
 22
0.0
 32
0.0
 14
0.0
 24
0.0
 34
0.0
 15
0.0
 25
0.0
 35
0.0
146
0.0
 13
0.0
 23
0.0
 33
0.0
 16
1.0
 26
0.0
 36
0.0
 17
0.0
 27
1.0
 37
0.0
 76
     0
330
70
  0
MATERIAL
  5
19
102
{ACAD_XDICTIONARY
360
1A
102
}
102
{ACAD_REACTORS
330
10
102
}
330
10
100
AcDbMaterial
  1
ByBlock
 72
     0
 43
0.0208333333333333
 43
0.0
 43
0.0
 43
0.0
 43
0.0
 43
0.0208333333333333
 43
0.0
 43
0.0
 43
0.0
 43
0.0
 43
1.0
 43
0.0
 43
0.0
 43
0.0
 43
0.0
 43
1.0
 77
     0
 47
0.0208333333333333
 47
0.0
 47
0.0
 47
0.0
 47
0.0
 47
0.0208333333333333
 47
0.0
 47
0.0
 47
0.0
 47
0.0
 47
1.0
 47
0.0
 47
0.0
 47
0.0
 47
0.0
 47
1.0
171
     0
 49
0.0208333333333333
 49
0.0
 49
0.0
 49
0.0
 49
0.0
 49
0.0208333333333333
 49
0.0
 49
0.0
 49
0.0
 49
0.0
 49
1.0
 49
0.0
 49
0.0
 49
0.0
 49
0.0
 49
1.0
175
     0
142
0.0208333333333333
142
0.0
142
0.0
142
0.0
142
0.0
142
0.0208333333333333
142
0.0
142
0.0
142
0.0
142
0.0
142
1.0
142
0.0
142
0.0
142
0.0
142
0.0
142
1.0
179
     0
144
0.0208333333333333
144
0.0
144
0.0
144
0.0
144
0.0
144
0.0208333333333333
144
0.0
144
0.0
144
0.0
144
0.0
144
1.0
144
0.0
144
0.0
144
0.0
144
0.0
144
1.0
147
0.0208333333333333
147
0.0
147
0.0
147
0.0
147
0.0
147
0.0208333333333333
147
0.0
147
0.0
147
0.0
147
0.0
147
1.0
147
0.0
147
0.0
147
0.0
147
0.0
147
1.0
  0
MATERIAL
  5
11
102
{ACAD_XDICTIONARY
360
12
102
}
102
{ACAD_REACTORS
330
10
102
}
330
10
100
AcDbMaterial
  1
ByLayer
 72
     0
 43
0.0208333333333333
 43
0.0
 43
0.0
 43
0.0
 43
0.0
 43
0.0208333333333333
 43
0.0
 43
0.0
 43
0.0
 43
0.0
 43
1.0
 43
0.0
 43
0.0
 43
0.0
 43
0.0
 43
1.0
 77
     0
 47
0.0208333333333333
 47
0.0
 47
0.0
 47
0.0
 47
0.0
 47
0.0208333333333333
 47
0.0
 47
0.0
 47
0.0
 47
0.0
 47
1.0
 47
0.0
 47
0.0
 47
0.0
 47
0.0
 47
1.0
171
     0
 49
0.0208333333333333
 49
0.0
 49
0.0
 49
0.0
 49
0.0
 49
0.0208333333333333
 49
0.0
 49
0.0
 49
0.0
 49
0.0
 49
1.0
 49
0.0
 49
0.0
 49
0.0
 49
0.0
 49
1.0
175
     0
142
0.0208333333333333
142
0.0
142
0.0
142
0.0
142
0.0
142
0.0208333333333333
142
0.0
142
0.0
142
0.0
142
0.0
142
1.0
142
0.0
142
0.0
142
0.0
142
0.0
142
1.0
179
     0
144
0.0208333333333333
144
0.0
144
0.0
144
0.0
144
0.0
144
0.0208333333333333
144
0.0
144
0.0
144
0.0
144
0.0
144
1.0
144
0.0
144
0.0
144
0.0
144
0.0
144
1.0
147
0.0208333333333333
147
0.0
147
0.0
147
0.0
147
0.0
147
0.0208333333333333
147
0.0
147
0.0
147
0.0
147
0.0
147
1.0
147
0.0
147
0.0
147
0.0
147
0.0
147
1.0
  0
MATERIAL
  5
21
102
{ACAD_XDICTIONARY
360
22
102
}
102
{ACAD_REACTORS
330
10
102
}
330
10
100
AcDbMaterial
  1
Global
 72
     0
 43
0.0208333333333333
 43
0.0
 43
0.0
 43
0.0
 43
0.0
 43
0.0208333333333333
 43
0.0
 43
0.0
 43
0.0
 43
0.0
 43
1.0
 43
0.0
 43
0.0
 43
0.0
 43
0.0
 43
1.0
 77
     0
 47
0.0208333333333333
 47
0.0
 47
0.0
 47
0.0
 47
0.0
 47
0.0208333333333333
 47
0.0
 47
0.0
 47
0.0
 47
0.0
 47
1.0
 47
0.0
 47
0.0
 47
0.0
 47
0.0
 47
1.0
171
     0
 49
0.0208333333333333
 49
0.0
 49
0.0
 49
0.0
 49
0.0
 49
0.0208333333333333
 49
0.0
 49
0.0
 49
0.0
 49
0.0
 49
1.0
 49
0.0
 49
0.0
 49
0.0
 49
0.0
 49
1.0
175
     0
142
0.0208333333333333
142
0.0
142
0.0
142
0.0
142
0.0
142
0.0208333333333333
142
0.0
142
0.0
142
0.0
142
0.0
142
1.0
142
0.0
142
0.0
142
0.0
142
0.0
142
1.0
179
     0
144
0.0208333333333333
144
0.0
144
0.0
144
0.0
144
0.0
144
0.0208333333333333
144
0.0
144
0.0
144
0.0
144
0.0
144
1.0
144
0.0
144
0.0
144
0.0
144
0.0
144
1.0
147
0.0208333333333333
147
0.0
147
0.0
147
0.0
147
0.0
147
0.0208333333333333
147
0.0
147
0.0
147
0.0
147
0.0
147
1.0
147
0.0
147
0.0
147
0.0
147
0.0
147
1.0
  0
MLEADERSTYLE
  5
67
102
{ACAD_REACTORS
330
66
102
}
330
66
100
AcDbMLeaderStyle
179
     2
170
     2
171
     1
172
     0
 90
        2
 40
0.0
 41
0.0
173
     1
 91
-1056964608
340
5B
 92
       -2
290
     1
 42
0.09
291
     1
 43
0.36
  3
Standard
 44
0.18
300

342
55
174
     1
178
     6
175
     1
176
     0
 93
-1056964608
 45
0.18
292
     0
297
     0
 46
0.18
 94
-1056964608
 47
1.0
 49
1.0
140
1.0
293
     1
141
0.0
294
     1
177
     0
142
1.0
295
     1
296
     0
143
0.125
271
     0
272
     9
273
     9
298
     1
  0
MLINESTYLE
  5
60
102
{ACAD_REACTORS
330
5F
102
}
330
5F
100
AcDbMlineStyle
  2
STANDARD
 70
     0
  3

 62
   256
 51
90.0
 52
90.0
 71
     2
 49
0.5
 62
   256
  6
BYLAYER
 49
-0.5
 62
   256
  6
BYLAYER
  0
ACDBPLACEHOLDER
  5
F
102
{ACAD_REACTORS
330
E
102
}
330
E
  0
SCALE
  5
43
102
{ACAD_REACTORS
330
42
102
}
330
42
100
AcDbScale
 70
     0
300
1:1
140
1.0
141
1.0
290
     1
  0
SCALE
  5
44
102
{ACAD_REACTORS
330
42
102
}
330
42
100
AcDbScale
 70
     0
300
1/128" = 1'-0"
140
0.0078125
141
12.0
290
     0
  0
SCALE
  5
45
102
{ACAD_REACTORS
330
42
102
}
330
42
100
AcDbScale
 70
     0
300
1/64" = 1'-0"
140
0.015625
141
12.0
290
     0
  0
SCALE
  5
46
102
{ACAD_REACTORS
330
42
102
}
330
42
100
AcDbScale
 70
     0
300
1/32" = 1'-0"
140
0.03125
141
12.0
290
     0
  0
SCALE
  5
47
102
{ACAD_REACTORS
330
42
102
}
330
42
100
AcDbScale
 70
     0
300
1/16" = 1'-0"
140
0.0625
141
12.0
290
     0
  0
SCALE
  5
48
102
{ACAD_REACTORS
330
42
102
}
330
42
100
AcDbScale
 70
     0
300
3/32" = 1'-0"
140
0.09375
141
12.0
290
     0
  0
SCALE
  5
49
102
{ACAD_REACTORS
330
42
102
}
330
42
100
AcDbScale
 70
     0
300
1/8" = 1'-0"
140
0.125
141
12.0
290
     0
  0
SCALE
  5
4A
102
{ACAD_REACTORS
330
42
102
}
330
42
100
AcDbScale
 70
     0
300
3/16" = 1'-0"
140
0.1875
141
12.0
290
     0
  0
SCALE
  5
4B
102
{ACAD_REACTORS
330
42
102
}
330
42
100
AcDbScale
 70
     0
300
1/4" = 1'-0"
140
0.25
141
12.0
290
     0
  0
SCALE
  5
4C
102
{ACAD_REACTORS
330
42
102
}
330
42
100
AcDbScale
 70
     0
300
3/8" = 1'-0"
140
0.375
141
12.0
290
     0
  0
SCALE
  5
4D
102
{ACAD_REACTORS
330
42
102
}
330
42
100
AcDbScale
 70
     0
300
1/2" = 1'-0"
140
0.5
141
12.0
290
     0
  0
SCALE
  5
4E
102
{ACAD_REACTORS
330
42
102
}
330
42
100
AcDbScale
 70
     0
300
3/4" = 1'-0"
140
0.75
141
12.0
290
     0
  0
SCALE
  5
4F
102
{ACAD_REACTORS
330
42
102
}
330
42
100
AcDbScale
 70
     0
300
1" = 1'-0"
140
1.0
141
12.0
290
     0
  0
SCALE
  5
50
102
{ACAD_REACTORS
330
42
102
}
330
42
100
AcDbScale
 70
     0
300
1-1/2" = 1'-0"
140
1.5
141
12.0
290
     0
  0
SCALE
  5
51
102
{ACAD_REACTORS
330
42
102
}
330
42
100
AcDbScale
 70
     0
300
3" = 1'-0"
140
3.0
141
12.0
290
     0
  0
SCALE
  5
52
102
{ACAD_REACTORS
330
42
102
}
330
42
100
AcDbScale
 70
     0
300
6" = 1'-0"
140
6.0
141
12.0
290
     0
  0
SCALE
  5
53
102
{ACAD_REACTORS
330
42
102
}
330
42
100
AcDbScale
 70
     0
300
1'-0" = 1'-0"
140
12.0
141
12.0
290
     0
  0
ACDBSECTIONVIEWSTYLE
  5
69
102
{ACAD_REACTORS
330
68
102
}
330
68
100
AcDbModelDocViewStyle
 70
     0
  3
Imperial24
290
     1
300
Imperial24
 90
        0
100
AcDbSectionViewStyle
 70
     0
 71
     0
 90
       78
 71
     1
340
55
 62
   256
 40
0.24
340
0
340
0
 62
   256
 40
0.24
300
I, O, Q, S, X, Z
 40
0.48
 90
        3
 40
0.18
 90
        1
 71
     2
340
5D
 90
       25
 62
   256
340
5D
 90
       50
 62
   256
 40
0.24
 40
0.0
 40
0.24
 71
     3
340
55
 62
   256
 40
0.24
 90
        1
 40
0.75
 90
        1
300
%<\AcVar ViewType \f "%tc1">% %<\AcVar ViewSectionStartId>%-%<\AcVar ViewSectionEndId>%\PSCALE %<\AcVar ViewScale \f "%sn">%
 71
     4
 62
   256
 62
   257
300
ANSI31
 40
1.0
 90
        0
290
     0
290
     0
 90
        6
 40
0.0
 40
1.570796326794896
 40
0.2617993877991494
 40
1.308996938995747
 40
-0.2617993877991494
 40
1.832595714594046
  0
TABLESTYLE
  5
65
102
{ACAD_XDICTIONARY
360
268
102
}
102
{ACAD_REACTORS
330
64
102
}
330
64
100
AcDbTableStyle
280
     0
  3
Standard
 70
     0
 71
     0
 40
0.06
 41
0.06
280
     0
281
     0
  7
Standard
140
0.18
170
     2
 62
     0
 63
     7
283
     0
 90
      512
 91
        0
  1

274
    -2
284
     1
 64
     0
275
    -2
285
     1
 65
     0
276
    -2
286
     1
 66
     0
277
    -2
287
     1
 67
     0
278
    -2
288
     1
 68
     0
279
    -2
289
     1
 69
     0
  7
Standard
140
0.25
170
     5
 62
     0
 63
     7
283
     0
 90
      512
 91
        0
  1

274
    -2
284
     1
 64
     0
275
    -2
285
     1
 65
     0
276
    -2
286
     1
 66
     0
277
    -2
287
     1
 67
     0
278
    -2
288
     1
 68
     0
279
    -2
289
     1
 69
     0
  7
Standard
140
0.18
170
     5
 62
     0
 63
     7
283
     0
 90
      512
 91
        0
  1

274
    -2
284
     1
 64
     0
275
    -2
285
     1
 65
     0
276
    -2
286
     1
 66
     0
277
    -2
287
     1
 67
     0
278
    -2
288
     1
 68
     0
279
    -2
289
     1
 69
     0
  0
VISUALSTYLE
  5
2F
102
{ACAD_REACTORS
330
29
102
}
330
29
100
AcDbVisualStyle
  2
2dWireframe
 70
     4
177
     3
291
     0
 70
    58
 90
        0
176
     1
 90
        2
176
     1
 90
        0
176
     1
 90
        0
176
     1
 40
0.6
176
     1
 40
30.0
176
     1
 62
     7
420
 16777215
176
     1
 90
        1
176
     1
 90
        4
176
     1
 62
     7
176
     1
 62
   257
176
     1
 90
        1
176
     1
 90
        1
176
     1
 40
1.0
176
     1
 90
        0
176
     1
 62
   257
176
     1
 40
1.0
176
     1
 90
        1
176
     1
 90
        6
176
     1
 90
        2
176
     1
 62
     7
176
     1
 90
        5
176
     1
 90
        0
176
     1
 90
        0
176
     1
290
     0
176
     1
 90
        1
176
     1
 40
0.0
176
     1
 90
        0
176
     1
290
     1
176
     1
290
     1
176
     1
290
     0
176
     1
290
     0
176
     1
290
     0
176
     1
290
     0
176
     1
290
     0
176
     1
290
     0
176
     1
290
     0
176
     1
 90
       50
176
     1
 40
0.0
176
     1
 40
1.0
176
     1
 90
        0
176
     1
 62
    18
420
        0
176
     1
 90
       50
176
     1
 90
        3
176
     1
 62
     5
420
      255
176
     1
290
     0
176
     1
 90
       50
176
     1
 90
       50
176
     1
 90
       50
176
     1
290
     0
176
     1
 90
       50
176
     1
 62
   256
176
     0
 40
1.0
176
     0
 90
        2
176
     1
  1
strokes_ogs.tif
176
     1
290
     0
176
     1
 40
1.0
176
     1
 40
1.0
176
     1
  0
VISUALSTYLE
  5
2E
102
{ACAD_REACTORS
330
29
102
}
330
29
100
AcDbVisualStyle
  2
Basic
 70
     7
177
     3
291
     1
 70
    58
 90
        1
176
     1
 90
        0
176
     1
 90
        1
176
     1
 90
        0
176
     1
 40
0.6
176
     1
 40
30.0
176
     1
 62
     7
420
 16777215
176
     1
 90
        0
176
     1
 90
        4
176
     1
 62
     7
176
     1
 62
   257
176
     1
 90
        1
176
     1
 90
        1
176
     1
 40
1.0
176
     1
 90
        8
176
     1
 62
     7
176
     1
 40
1.0
176
     1
 90
        1
176
     1
 90
        6
176
     1
 90
        2
176
     1
 62
     7
176
     1
 90
        5
176
     1
 90
        0
176
     1
 90
        0
176
     1
290
     0
176
     1
 90
        1
176
     1
 40
0.0
176
     1
 90
        0
176
     1
290
     0
176
     1
290
     1
176
     1
290
     1
176
     1
290
     0
176
     1
290
     0
176
     1
290
     0
176
     1
290
     0
176
     1
290
     0
176
     1
290
     0
176
     1
 90
       50
176
     1
 40
0.0
176
     1
 40
1.0
176
     1
 90
        0
176
     1
 62
    18
420
        0
176
     1
 90
       50
176
     1
 90
        3
176
     1
 62
     5
420
      255
176
     1
290
     0
176
     1
 90
       50
176
     1
 90
       50
176
     1
 90
       50
176
     1
290
     0
176
     1
 90
       50
176
     1
 62
   256
176
     0
 40
1.0
176
     0
 90
        2
176
     1
  1
strokes_ogs.tif
176
     1
290
     0
176
     1
 40
1.0
176
     1
 40
1.0
176
     1
  0
VISUALSTYLE
  5
35
102
{ACAD_REACTORS
330
29
102
}
330
29
100
AcDbVisualStyle
  2
Brighten
 70
    12
177
     3
291
     1
 70
    58
 90
        2
176
     1
 90
        2
176
     1
 90
        0
176
     1
 90
        0
176
     1
 40
0.6
176
     1
 40
30.0
176
     1
 62
     7
420
 16777215
176
     1
 90
        1
176
     1
 90
        4
176
     1
 62
     7
176
     1
 62
   257
176
     1
 90
        1
176
     1
 90
        1
176
     1
 40
1.0
176
     1
 90
        8
176
     1
 62
     7
176
     1
 40
1.0
176
     1
 90
        1
176
     1
 90
        6
176
     1
 90
        2
176
     1
 62
     7
176
     1
 90
        5
176
     1
 90
        0
176
     1
 90
        0
176
     1
290
     0
176
     1
 90
        1
176
     1
 40
50.0
176
     1
 90
        0
176
     1
290
     0
176
     1
290
     1
176
     1
290
     1
176
     1
290
     0
176
     1
290
     0
176
     1
290
     0
176
     1
290
     0
176
     1
290
     0
176
     1
290
     0
176
     1
 90
       50
176
     1
 40
0.0
176
     1
 40
1.0
176
     1
 90
        0
176
     1
 62
    18
420
        0
176
     1
 90
       50
176
     1
 90
        3
176
     1
 62
     5
420
      255
176
     1
290
     0
176
     1
 90
       50
176
     1
 90
       50
176
     1
 90
       50
176
     1
290
     0
176
     1
 90
       50
176
     1
 62
   256
176
     0
 40
1.0
176
     0
 90
        2
176
     1
  1
strokes_ogs.tif
176
     1
290
     0
176
     1
 40
1.0
176
     1
 40
1.0
176
     1
  0
VISUALSTYLE
  5
39
102
{ACAD_REACTORS
330
29
102
}
330
29
100
AcDbVisualStyle
  2
ColorChange
 70
    16
177
     3
291
     1
 70
    58
 90
        2
176
     1
 90
        2
176
     1
 90
        3
176
     1
 90
        0
176
     1
 40
0.6
176
     1
 40
30.0
176
     1
 62
     8
420
  8421504
176
     1
 90
        1
176
     1
 90
        4
176
     1
 62
     7
176
     1
 62
   257
176
     1
 90
        1
176
     1
 90
        1
176
     1
 40
1.0
176
     1
 90
        8
176
     1
 62
     8
420
  8421504
176
     1
 40
1.0
176
     1
 90
        1
176
     1
 90
        6
176
     1
 90
        2
176
     1
 62
     7
176
     1
 90
        5
176
     1
 90
        0
176
     1
 90
        0
176
     1
290
     0
176
     1
 90
        1
176
     1
 40
0.0
176
     1
 90
        0
176
     1
290
     0
176
     1
290
     1
176
     1
290
     1
176
     1
290
     0
176
     1
290
     0
176
     1
290
     0
176
     1
290
     0
176
     1
290
     0
176
     1
290
     0
176
     1
 90
       50
176
     1
 40
0.0
176
     1
 40
1.0
176
     1
 90
        0
176
     1
 62
    18
420
        0
176
     1
 90
       50
176
     1
 90
        3
176
     1
 62
     5
420
      255
176
     1
290
     0
176
     1
 90
       50
176
     1
 90
       50
176
     1
 90
       50
176
     1
290
     0
176
     1
 90
       50
176
     1
 62
   256
176
     0
 40
1.0
176
     0
 90
        2
176
     1
  1
strokes_ogs.tif
176
     1
290
     0
176
     1
 40
1.0
176
     1
 40
1.0
176
     1
  0
VISUALSTYLE
  5
32
102
{ACAD_REACTORS
330
29
102
}
330
29
100
AcDbVisualStyle
  2
Conceptual
 70
     9
177
     3
291
     0
 70
    58
 90
        3
176
     1
 90
        2
176
     1
 90
        0
176
     1
 90
        0
176
     1
 40
0.6
176
     1
 40
30.0
176
     1
 62
     7
420
 16777215
176
     1
 90
        2
176
     1
 90
        2
176
     1
 62
     7
176
     1
 62
   257
176
     1
 90
        1
176
     1
 90
        1
176
     1
 40
179.0
176
     1
 90
        8
176
     1
 62
     7
176
     1
 40
1.0
176
     1
 90
        1
176
     1
 90
        6
176
     1
 90
        2
176
     1
 62
     7
176
     1
 90
        3
176
     1
 90
        0
176
     1
 90
        0
176
     1
290
     0
176
     1
 90
        1
176
     1
 40
0.0
176
     1
 90
        0
176
     1
290
     0
176
     1
290
     1
176
     1
290
     1
176
     1
290
     0
176
     1
290
     0
176
     1
290
     0
176
     1
290
     0
176
     1
290
     0
176
     1
290
     0
176
     1
 90
       50
176
     1
 40
0.0
176
     1
 40
1.0
176
     1
 90
        0
176
     1
 62
    18
420
        0
176
     1
 90
       50
176
     1
 90
        3
176
     1
 62
     5
420
      255
176
     1
290
     0
176
     1
 90
       50
176
     1
 90
       50
176
     1
 90
       50
176
     1
290
     0
176
     1
 90
       50
176
     1
 62
   256
176
     0
 40
1.0
176
     0
 90
        2
176
     1
  1
strokes_ogs.tif
176
     1
290
     0
176
     1
 40
1.0
176
     1
 40
1.0
176
     1
  0
VISUALSTYLE
  5
34
102
{ACAD_REACTORS
330
29
102
}
330
29
100
AcDbVisualStyle
  2
Dim
 70
    11
177
     3
291
     1
 70
    58
 90
        2
176
     1
 90
        2
176
     1
 90
        0
176
     1
 90
        0
176
     1
 40
0.6
176
     1
 40
30.0
176
     1
 62
     7
420
 16777215
176
     1
 90
        1
176
     1
 90
        4
176
     1
 62
     7
176
     1
 62
   257
176
     1
 90
        1
176
     1
 90
        1
176
     1
 40
1.0
176
     1
 90
        8
176
     1
 62
     7
176
     1
 40
1.0
176
     1
 90
        1
176
     1
 90
        6
176
     1
 90
        2
176
     1
 62
     7
176
     1
 90
        5
176
     1
 90
        0
176
     1
 90
        0
176
     1
290
     0
176
     1
 90
        1
176
     1
 40
-50.0
176
     1
 90
        0
176
     1
290
     0
176
     1
290
     1
176
     1
290
     1
176
     1
290
     0
176
     1
290
     0
176
     1
290
     0
176
     1
290
     0
176
     1
290
     0
176
     1
290
     0
176
     1
 90
       50
176
     1
 40
0.0
176
     1
 40
1.0
176
     1
 90
        0
176
     1
 62
    18
420
        0
176
     1
 90
       50
176
     1
 90
        3
176
     1
 62
     5
420
      255
176
     1
290
     0
176
     1
 90
       50
176
     1
 90
       50
176
     1
 90
       50
176
     1
290
     0
176
     1
 90
       50
176
     1
 62
   256
176
     0
 40
1.0
176
     0
 90
        2
176
     1
  1
strokes_ogs.tif
176
     1
290
     0
176
     1
 40
1.0
176
     1
 40
1.0
176
     1
  0
VISUALSTYLE
  5
41
102
{ACAD_REACTORS
330
29
102
}
330
29
100
AcDbVisualStyle
  2
EdgeColorOff
 70
    22
177
     3
291
     1
 70
    58
 90
        2
176
     0
 90
        2
176
     0
 90
        0
176
     0
 90
        0
176
     0
 40
0.6
176
     0
 40
30.0
176
     0
 62
     7
420
 16777215
176
     0
 90
        1
176
     0
 90
        4
176
     0
 62
     7
176
     0
 62
   257
176
     0
 90
        1
176
     0
 90
        1
176
     0
 40
1.0
176
     0
 90
        8
176
     2
 62
     7
176
     0
 40
1.0
176
     0
 90
        1
176
     0
 90
        6
176
     0
 90
        2
176
     0
 62
     7
176
     0
 90
        5
176
     0
 90
        0
176
     0
 90
        0
176
     0
290
     0
176
     0
 90
        1
176
     0
 40
0.0
176
     0
 90
        0
176
     0
290
     0
176
     0
290
     1
176
     0
290
     1
176
     0
290
     0
176
     0
290
     0
176
     0
290
     0
176
     0
290
     0
176
     0
290
     0
176
     0
290
     0
176
     0
 90
       50
176
     0
 40
0.0
176
     0
 40
1.0
176
     0
 90
        0
176
     0
 62
    18
420
        0
176
     0
 90
       50
176
     0
 90
        3
176
     0
 62
     5
420
      255
176
     0
290
     0
176
     0
 90
       50
176
     0
 90
       50
176
     0
 90
       50
176
     0
290
     0
176
     0
 90
       50
176
     0
 62
   256
176
     0
 40
1.0
176
     0
 90
        2
176
     0
  1
strokes_ogs.tif
176
     0
290
     0
176
     0
 40
1.0
176
     0
 40
1.0
176
     0
  0
VISUALSTYLE
  5
38
102
{ACAD_REACTORS
330
29
102
}
330
29
100
AcDbVisualStyle
  2
Facepattern
 70
    15
177
     3
291
     1
 70
    58
 90
        2
176
     1
 90
        2
176
     1
 90
        0
176
     1
 90
        0
176
     1
 40
0.6
176
     1
 40
30.0
176
     1
 62
     7
420
 16777215
176
     1
 90
        1
176
     1
 90
        4
176
     1
 62
     7
176
     1
 62
   257
176
     1
 90
        1
176
     1
 90
        1
176
     1
 40
1.0
176
     1
 90
        8
176
     1
 62
     7
176
     1
 40
1.0
176
     1
 90
        1
176
     1
 90
        6
176
     1
 90
        2
176
     1
 62
     7
176
     1
 90
        5
176
     1
 90
        0
176
     1
 90
        0
176
     1
290
     0
176
     1
 90
        1
176
     1
 40
0.0
176
     1
 90
        0
176
     1
290
     0
176
     1
290
     1
176
     1
290
     1
176
     1
290
     0
176
     1
290
     0
176
     1
290
     0
176
     1
290
     0
176
     1
290
     0
176
     1
290
     0
176
     1
 90
       50
176
     1
 40
0.0
176
     1
 40
1.0
176
     1
 90
        0
176
     1
 62
    18
420
        0
176
     1
 90
       50
176
     1
 90
        3
176
     1
 62
     5
420
      255
176
     1
290
     0
176
     1
 90
       50
176
     1
 90
       50
176
     1
 90
       50
176
     1
290
     0
176
     1
 90
       50
176
     1
 62
   256
176
     0
 40
1.0
176
     0
 90
        2
176
     1
  1
strokes_ogs.tif
176
     1
290
     0
176
     1
 40
1.0
176
     1
 40
1.0
176
     1
  0
VISUALSTYLE
  5
2A
102
{ACAD_REACTORS
330
29
102
}
330
29
100
AcDbVisualStyle
  2
Flat
 70
     0
177
     3
291
     1
 70
    58
 90
        2
176
     1
 90
        1
176
     1
 90
        1
176
     1
 90
        2
176
     1
 40
0.6
176
     1
 40
30.0
176
     1
 62
     7
420
 16777215
176
     1
 90
        0
176
     1
 90
        0
176
     1
 62
     7
176
     1
 62
   257
176
     1
 90
        1
176
     1
 90
        1
176
     1
 40
1.0
176
     1
 90
        8
176
     1
 62
     7
176
     1
 40
1.0
176
     1
 90
        1
176
     1
 90
        6
176
     1
 90
        2
176
     1
 62
     7
176
     1
 90
        5
176
     1
 90
        0
176
     1
 90
        0
176
     1
290
     0
176
     1
 90
       13
176
     1
 40
0.0
176
     1
 90
        0
176
     1
290
     0
176
     1
290
     1
176
     1
290
     1
176
     1
290
     0
176
     1
290
     0
176
     1
290
     0
176
     1
290
     0
176
     1
290
     0
176
     1
290
     0
176
     1
 90
       50
176
     1
 40
0.0
176
     1
 40
1.0
176
     1
 90
        0
176
     1
 62
    18
420
        0
176
     1
 90
       50
176
     1
 90
        3
176
     1
 62
     5
420
      255
176
     1
290
     0
176
     1
 90
       50
176
     1
 90
       50
176
     1
 90
       50
176
     1
290
     0
176
     1
 90
       50
176
     1
 62
   256
176
     0
 40
1.0
176
     0
 90
        2
176
     1
  1
strokes_ogs.tif
176
     1
290
     0
176
     1
 40
1.0
176
     1
 40
1.0
176
     1
  0
VISUALSTYLE
  5
2B
102
{ACAD_REACTORS
330
29
102
}
330
29
100
AcDbVisualStyle
  2
FlatWithEdges
 70
     1
177
     3
291
     1
 70
    58
 90
        2
176
     1
 90
        1
176
     1
 90
        1
176
     1
 90
        2
176
     1
 40
0.6
176
     1
 40
30.0
176
     1
 62
     7
420
 16777215
176
     1
 90
        1
176
     1
 90
        0
176
     1
 62
     7
176
     1
 62
   257
176
     1
 90
        1
176
     1
 90
        1
176
     1
 40
1.0
176
     1
 90
        0
176
     1
 62
   257
176
     1
 40
1.0
176
     1
 90
        1
176
     1
 90
        6
176
     1
 90
        2
176
     1
 62
     7
176
     1
 90
        5
176
     1
 90
        0
176
     1
 90
        0
176
     1
290
     0
176
     1
 90
       13
176
     1
 40
0.0
176
     1
 90
        0
176
     1
290
     0
176
     1
290
     1
176
     1
290
     1
176
     1
290
     0
176
     1
290
     0
176
     1
290
     0
176
     1
290
     0
176
     1
290
     0
176
     1
290
     0
176
     1
 90
       50
176
     1
 40
0.0
176
     1
 40
1.0
176
     1
 90
        0
176
     1
 62
    18
420
        0
176
     1
 90
       50
176
     1
 90
        3
176
     1
 62
     5
420
      255
176
     1
290
     0
176
     1
 90
       50
176
     1
 90
       50
176
     1
 90
       50
176
     1
290
     0
176
     1
 90
       50
176
     1
 62
   256
176
     0
 40
1.0
176
     0
 90
        2
176
     1
  1
strokes_ogs.tif
176
     1
290
     0
176
     1
 40
1.0
176
     1
 40
1.0
176
     1
  0
VISUALSTYLE
  5
2C
102
{ACAD_REACTORS
330
29
102
}
330
29
100
AcDbVisualStyle
  2
Gouraud
 70
     2
177
     3
291
     1
 70
    58
 90
        2
176
     1
 90
        2
176
     1
 90
        1
176
     1
 90
        2
176
     1
 40
0.6
176
     1
 40
30.0
176
     1
 62
     7
420
 16777215
176
     1
 90
        0
176
     1
 90
        0
176
     1
 62
     7
176
     1
 62
   257
176
     1
 90
        1
176
     1
 90
        1
176
     1
 40
1.0
176
     1
 90
        0
176
     1
 62
     7
176
     1
 40
1.0
176
     1
 90
        1
176
     1
 90
        6
176
     1
 90
        2
176
     1
 62
     7
176
     1
 90
        5
176
     1
 90
        0
176
     1
 90
        0
176
     1
290
     0
176
     1
 90
       13
176
     1
 40
0.0
176
     1
 90
        0
176
     1
290
     0
176
     1
290
     1
176
     1
290
     1
176
     1
290
     0
176
     1
290
     0
176
     1
290
     0
176
     1
290
     0
176
     1
290
     0
176
     1
290
     0
176
     1
 90
       50
176
     1
 40
0.0
176
     1
 40
1.0
176
     1
 90
        0
176
     1
 62
    18
420
        0
176
     1
 90
       50
176
     1
 90
        3
176
     1
 62
     5
420
      255
176
     1
290
     0
176
     1
 90
       50
176
     1
 90
       50
176
     1
 90
       50
176
     1
290
     0
176
     1
 90
       50
176
     1
 62
   256
176
     0
 40
1.0
176
     0
 90
        2
176
     1
  1
strokes_ogs.tif
176
     1
290
     0
176
     1
 40
1.0
176
     1
 40
1.0
176
     1
  0
VISUALSTYLE
  5
2D
102
{ACAD_REACTORS
330
29
102
}
330
29
100
AcDbVisualStyle
  2
GouraudWithEdges
 70
     3
177
     3
291
     1
 70
    58
 90
        2
176
     1
 90
        2
176
     1
 90
        1
176
     1
 90
        2
176
     1
 40
0.6
176
     1
 40
30.0
176
     1
 62
     7
420
 16777215
176
     1
 90
        1
176
     1
 90
        0
176
     1
 62
     7
176
     1
 62
   257
176
     1
 90
        1
176
     1
 90
        1
176
     1
 40
1.0
176
     1
 90
        0
176
     1
 62
   257
176
     1
 40
1.0
176
     1
 90
        1
176
     1
 90
        6
176
     1
 90
        2
176
     1
 62
     7
176
     1
 90
        5
176
     1
 90
        0
176
     1
 90
        0
176
     1
290
     0
176
     1
 90
       13
176
     1
 40
0.0
176
     1
 90
        0
176
     1
290
     0
176
     1
290
     1
176
     1
290
     1
176
     1
290
     0
176
     1
290
     0
176
     1
290
     0
176
     1
290
     0
176
     1
290
     0
176
     1
290
     0
176
     1
 90
       50
176
     1
 40
0.0
176
     1
 40
1.0
176
     1
 90
        0
176
     1
 62
    18
420
        0
176
     1
 90
       50
176
     1
 90
        3
176
     1
 62
     5
420
      255
176
     1
290
     0
176
     1
 90
       50
176
     1
 90
       50
176
     1
 90
       50
176
     1
290
     0
176
     1
 90
       50
176
     1
 62
   256
176
     0
 40
1.0
176
     0
 90
        2
176
     1
  1
strokes_ogs.tif
176
     1
290
     0
176
     1
 40
1.0
176
     1
 40
1.0
176
     1
  0
VISUALSTYLE
  5
31
102
{ACAD_REACTORS
330
29
102
}
330
29
100
AcDbVisualStyle
  2
Hidden
 70
     6
177
     3
291
     0
 70
    58
 90
        1
176
     1
 90
        2
176
     1
 90
        2
176
     1
 90
        0
176
     1
 40
0.6
176
     1
 40
30.0
176
     1
 62
     7
420
 16777215
176
     1
 90
        2
176
     1
 90
        2
176
     1
 62
     7
176
     1
 62
   257
176
     1
 90
        2
176
     1
 90
        1
176
     1
 40
40.0
176
     1
 90
        0
176
     1
 62
   257
176
     1
 40
1.0
176
     1
 90
        1
176
     1
 90
        6
176
     1
 90
        2
176
     1
 62
     7
176
     1
 90
        3
176
     1
 90
        0
176
     1
 90
        0
176
     1
290
     0
176
     1
 90
        1
176
     1
 40
0.0
176
     1
 90
        0
176
     1
290
     0
176
     1
290
     1
176
     1
290
     1
176
     1
290
     0
176
     1
290
     0
176
     1
290
     0
176
     1
290
     0
176
     1
290
     0
176
     1
290
     0
176
     1
 90
       50
176
     1
 40
0.0
176
     1
 40
1.0
176
     1
 90
        0
176
     1
 62
    18
420
        0
176
     1
 90
       50
176
     1
 90
        3
176
     1
 62
     5
420
      255
176
     1
290
     0
176
     1
 90
       50
176
     1
 90
       50
176
     1
 90
       50
176
     1
290
     0
176
     1
 90
       50
176
     1
 62
   256
176
     0
 40
1.0
176
     0
 90
        2
176
     1
  1
strokes_ogs.tif
176
     1
290
     0
176
     1
 40
1.0
176
     1
 40
1.0
176
     1
  0
VISUALSTYLE
  5
3F
102
{ACAD_REACTORS
330
29
102
}
330
29
100
AcDbVisualStyle
  2
JitterOff
 70
    20
177
     3
291
     1
 70
    58
 90
        2
176
     0
 90
        2
176
     0
 90
        0
176
     0
 90
        0
176
     0
 40
0.6
176
     0
 40
30.0
176
     0
 62
     7
420
 16777215
176
     0
 90
        1
176
     0
 90
        4
176
     0
 62
     7
176
     0
 62
   257
176
     0
 90
        1
176
     0
 90
        1
176
     0
 40
1.0
176
     0
 90
       10
176
     2
 62
     7
176
     0
 40
1.0
176
     0
 90
        1
176
     0
 90
        6
176
     0
 90
        2
176
     0
 62
     7
176
     0
 90
        5
176
     0
 90
        0
176
     0
 90
        0
176
     0
290
     0
176
     0
 90
        1
176
     0
 40
0.0
176
     0
 90
        0
176
     0
290
     0
176
     0
290
     1
176
     0
290
     1
176
     0
290
     0
176
     0
290
     0
176
     0
290
     0
176
     0
290
     0
176
     0
290
     0
176
     0
290
     0
176
     0
 90
       50
176
     0
 40
0.0
176
     0
 40
1.0
176
     0
 90
        0
176
     0
 62
    18
420
        0
176
     0
 90
       50
176
     0
 90
        3
176
     0
 62
     5
420
      255
176
     0
290
     0
176
     0
 90
       50
176
     0
 90
       50
176
     0
 90
       50
176
     0
290
     0
176
     0
 90
       50
176
     0
 62
   256
176
     0
 40
1.0
176
     0
 90
        2
176
     0
  1
strokes_ogs.tif
176
     0
290
     0
176
     0
 40
1.0
176
     0
 40
1.0
176
     0
  0
VISUALSTYLE
  5
37
102
{ACAD_REACTORS
330
29
102
}
330
29
100
AcDbVisualStyle
  2
Linepattern
 70
    14
177
     3
291
     1
 70
    58
 90
        2
176
     1
 90
        2
176
     1
 90
        0
176
     1
 90
        0
176
     1
 40
0.6
176
     1
 40
30.0
176
     1
 62
     7
420
 16777215
176
     1
 90
        1
176
     1
 90
        4
176
     1
 62
     7
176
     1
 62
   257
176
     1
 90
        7
176
     1
 90
        7
176
     1
 40
1.0
176
     1
 90
        8
176
     1
 62
     7
176
     1
 40
1.0
176
     1
 90
        1
176
     1
 90
        6
176
     1
 90
        2
176
     1
 62
     7
176
     1
 90
        5
176
     1
 90
        0
176
     1
 90
        0
176
     1
290
     0
176
     1
 90
        1
176
     1
 40
0.0
176
     1
 90
        0
176
     1
290
     0
176
     1
290
     1
176
     1
290
     1
176
     1
290
     0
176
     1
290
     0
176
     1
290
     0
176
     1
290
     0
176
     1
290
     0
176
     1
290
     0
176
     1
 90
       50
176
     1
 40
0.0
176
     1
 40
1.0
176
     1
 90
        0
176
     1
 62
    18
420
        0
176
     1
 90
       50
176
     1
 90
        3
176
     1
 62
     5
420
      255
176
     1
290
     0
176
     1
 90
       50
176
     1
 90
       50
176
     1
 90
       50
176
     1
290
     0
176
     1
 90
       50
176
     1
 62
   256
176
     0
 40
1.0
176
     0
 90
        2
176
     1
  1
strokes_ogs.tif
176
     1
290
     0
176
     1
 40
1.0
176
     1
 40
1.0
176
     1
  0
VISUALSTYLE
  5
40
102
{ACAD_REACTORS
330
29
102
}
330
29
100
AcDbVisualStyle
  2
OverhangOff
 70
    21
177
     3
291
     1
 70
    58
 90
        2
176
     0
 90
        2
176
     0
 90
        0
176
     0
 90
        0
176
     0
 40
0.6
176
     0
 40
30.0
176
     0
 62
     7
420
 16777215
176
     0
 90
        1
176
     0
 90
        4
176
     0
 62
     7
176
     0
 62
   257
176
     0
 90
        1
176
     0
 90
        1
176
     0
 40
1.0
176
     0
 90
        9
176
     2
 62
     7
176
     0
 40
1.0
176
     0
 90
        1
176
     0
 90
        6
176
     0
 90
        2
176
     0
 62
     7
176
     0
 90
        5
176
     0
 90
        0
176
     0
 90
        0
176
     0
290
     0
176
     0
 90
        1
176
     0
 40
0.0
176
     0
 90
        0
176
     0
290
     0
176
     0
290
     1
176
     0
290
     1
176
     0
290
     0
176
     0
290
     0
176
     0
290
     0
176
     0
290
     0
176
     0
290
     0
176
     0
290
     0
176
     0
 90
       50
176
     0
 40
0.0
176
     0
 40
1.0
176
     0
 90
        0
176
     0
 62
    18
420
        0
176
     0
 90
       50
176
     0
 90
        3
176
     0
 62
     5
420
      255
176
     0
290
     0
176
     0
 90
       50
176
     0
 90
       50
176
     0
 90
       50
176
     0
290
     0
176
     0
 90
       50
176
     0
 62
   256
176
     0
 40
1.0
176
     0
 90
        2
176
     0
  1
strokes_ogs.tif
176
     0
290
     0
176
     0
 40
1.0
176
     0
 40
1.0
176
     0
  0
VISUALSTYLE
  5
33
102
{ACAD_REACTORS
330
29
102
}
330
29
100
AcDbVisualStyle
  2
Realistic
 70
     8
177
     3
291
     0
 70
    58
 90
        2
176
     1
 90
        3
176
     1
 90
        0
176
     1
 90
        2
176
     1
 40
0.6
176
     1
 40
30.0
176
     1
 62
     7
420
 16777215
176
     1
 90
        0
176
     1
 90
        0
176
     1
 62
     7
176
     1
 62
   257
176
     1
 90
        1
176
     1
 90
        1
176
     1
 40
1.0
176
     1
 90
        8
176
     1
 62
   257
176
     1
 40
1.0
176
     1
 90
        1
176
     1
 90
        6
176
     1
 90
        2
176
     1
 62
     7
176
     1
 90
        3
176
     1
 90
        0
176
     1
 90
        0
176
     1
290
     0
176
     1
 90
       13
176
     1
 40
0.0
176
     1
 90
        0
176
     1
290
     0
176
     1
290
     1
176
     1
290
     1
176
     1
290
     0
176
     1
290
     0
176
     1
290
     0
176
     1
290
     0
176
     1
290
     0
176
     1
290
     0
176
     1
 90
       50
176
     1
 40
0.0
176
     1
 40
1.0
176
     1
 90
        0
176
     1
 62
    18
420
        0
176
     1
 90
       50
176
     1
 90
        3
176
     1
 62
     5
420
      255
176
     1
290
     0
176
     1
 90
       50
176
     1
 90
       50
176
     1
 90
       50
176
     1
290
     0
176
     1
 90
       50
176
     1
 62
   256
176
     0
 40
1.0
176
     0
 90
        2
176
     1
  1
strokes_ogs.tif
176
     1
290
     0
176
     1
 40
1.0
176
     1
 40
1.0
176
     1
  0
VISUALSTYLE
  5
3E
102
{ACAD_REACTORS
330
29
102
}
330
29
100
AcDbVisualStyle
  2
Shaded
 70
    27
177
     3
291
     0
 70
    58
 90
        2
176
     1
 90
        2
176
     1
 90
        1
176
     1
 90
        2
176
     1
 40
0.6
176
     1
 40
30.0
176
     1
 62
     7
420
 16777215
176
     1
 90
        0
176
     1
 90
        4
176
     1
 62
     7
176
     1
 62
   257
176
     1
 90
        1
176
     1
 90
        1
176
     1
 40
1.0
176
     1
 90
        8
176
     1
 62
   257
176
     1
 40
1.0
176
     1
 90
        1
176
     1
 90
        6
176
     1
 90
        2
176
     1
 62
     8
420
  7895160
176
     1
 90
        3
176
     1
 90
        0
176
     1
 90
        0
176
     1
290
     0
176
     1
 90
        5
176
     1
 40
0.0
176
     1
 90
        0
176
     1
290
     0
176
     1
290
     1
176
     1
290
     1
176
     1
290
     0
176
     1
290
     0
176
     1
290
     0
176
     1
290
     0
176
     1
290
     0
176
     1
290
     0
176
     1
 90
       50
176
     1
 40
0.0
176
     1
 40
1.0
176
     1
 90
        0
176
     1
 62
    18
420
        0
176
     1
 90
       50
176
     1
 90
        3
176
     1
 62
     5
420
      255
176
     1
290
     0
176
     1
 90
       50
176
     1
 90
       50
176
     1
 90
       50
176
     1
290
     0
176
     1
 90
       50
176
     1
 62
   256
176
     0
 40
1.0
176
     0
 90
        2
176
     1
  1
strokes_ogs.tif
176
     1
290
     0
176
     1
 40
1.0
176
     1
 40
1.0
176
     1
  0
VISUALSTYLE
  5
3D
102
{ACAD_REACTORS
330
29
102
}
330
29
100
AcDbVisualStyle
  2
Shaded with edges
 70
    26
177
     3
291
     0
 70
    58
 90
        2
176
     1
 90
        2
176
     1
 90
        1
176
     1
 90
        2
176
     1
 40
0.6
176
     1
 40
30.0
176
     1
 62
     7
420
 16777215
176
     1
 90
        1
176
     1
 90
        2
176
     1
 62
     7
176
     1
 62
   257
176
     1
 90
        2
176
     1
 90
        1
176
     1
 40
1.0
176
     1
 90
        8
176
     1
 62
   257
176
     1
 40
1.0
176
     1
 90
        1
176
     1
 90
        6
176
     1
 90
        2
176
     1
 62
     7
176
     1
 90
        3
176
     1
 90
        0
176
     1
 90
        0
176
     1
290
     0
176
     1
 90
        5
176
     1
 40
0.0
176
     1
 90
        0
176
     1
290
     0
176
     1
290
     1
176
     1
290
     1
176
     1
290
     0
176
     1
290
     0
176
     1
290
     0
176
     1
290
     0
176
     1
290
     0
176
     1
290
     0
176
     1
 90
       50
176
     1
 40
0.0
176
     1
 40
1.0
176
     1
 90
        0
176
     1
 62
    18
420
        0
176
     1
 90
       50
176
     1
 90
        3
176
     1
 62
     5
420
      255
176
     1
290
     0
176
     1
 90
       50
176
     1
 90
       50
176
     1
 90
       50
176
     1
290
     0
176
     1
 90
       50
176
     1
 62
   256
176
     0
 40
1.0
176
     0
 90
        2
176
     1
  1
strokes_ogs.tif
176
     1
290
     0
176
     1
 40
1.0
176
     1
 40
1.0
176
     1
  0
VISUALSTYLE
  5
3A
102
{ACAD_REACTORS
330
29
102
}
330
29
100
AcDbVisualStyle
  2
Shades of Gray
 70
    23
177
     3
291
     0
 70
    58
 90
        2
176
     1
 90
        2
176
     1
 90
        3
176
     1
 90
        0
176
     1
 40
0.6
176
     1
 40
30.0
176
     1
 62
     7
420
 16777215
176
     1
 90
        2
176
     1
 90
        2
176
     1
 62
     7
176
     1
 62
     7
176
     1
 90
        1
176
     1
 90
        1
176
     1
 40
40.0
176
     1
 90
        8
176
     1
 62
     7
176
     1
 40
1.0
176
     1
 90
        1
176
     1
 90
        6
176
     1
 90
        2
176
     1
 62
     7
176
     1
 90
        3
176
     1
 90
        0
176
     1
 90
        0
176
     1
290
     0
176
     1
 90
        1
176
     1
 40
0.0
176
     1
 90
        0
176
     1
290
     0
176
     1
290
     1
176
     1
290
     1
176
     1
290
     0
176
     1
290
     0
176
     1
290
     0
176
     1
290
     0
176
     1
290
     0
176
     1
290
     0
176
     1
 90
       50
176
     1
 40
0.0
176
     1
 40
1.0
176
     1
 90
        0
176
     1
 62
    18
420
        0
176
     1
 90
       50
176
     1
 90
        3
176
     1
 62
     5
420
      255
176
     1
290
     0
176
     1
 90
       50
176
     1
 90
       50
176
     1
 90
       50
176
     1
290
     0
176
     1
 90
       50
176
     1
 62
   256
176
     0
 40
1.0
176
     0
 90
        2
176
     1
  1
strokes_ogs.tif
176
     1
290
     0
176
     1
 40
1.0
176
     1
 40
1.0
176
     1
  0
VISUALSTYLE
  5
3B
102
{ACAD_REACTORS
330
29
102
}
330
29
100
AcDbVisualStyle
  2
Sketchy
 70
    24
177
     3
291
     0
 70
    58
 90
        1
176
     1
 90
        2
176
     1
 90
        2
176
     1
 90
        0
176
     1
 40
0.6
176
     1
 40
30.0
176
     1
 62
     7
420
 16777215
176
     1
 90
        2
176
     1
 90
        2
176
     1
 62
     7
176
     1
 62
     7
176
     1
 90
        1
176
     1
 90
        1
176
     1
 40
40.0
176
     1
 90
       11
176
     1
 62
     7
176
     1
 40
1.0
176
     1
 90
        1
176
     1
 90
        6
176
     1
 90
        2
176
     1
 62
     7
176
     1
 90
        6
176
     1
 90
        0
176
     1
 90
        0
176
     1
290
     0
176
     1
 90
        1
176
     1
 40
0.0
176
     1
 90
        0
176
     1
290
     0
176
     1
290
     1
176
     1
290
     1
176
     1
290
     0
176
     1
290
     0
176
     1
290
     0
176
     1
290
     0
176
     1
290
     0
176
     1
290
     0
176
     1
 90
       50
176
     1
 40
0.0
176
     1
 40
1.0
176
     1
 90
        0
176
     1
 62
    18
420
        0
176
     1
 90
       50
176
     1
 90
        3
176
     1
 62
     5
420
      255
176
     1
290
     0
176
     1
 90
       50
176
     1
 90
       50
176
     1
 90
       50
176
     1
290
     0
176
     1
 90
       50
176
     1
 62
   256
176
     0
 40
1.0
176
     0
 90
        2
176
     1
  1
strokes_ogs.tif
176
     1
290
     0
176
     1
 40
1.0
176
     1
 40
1.0
176
     1
  0
VISUALSTYLE
  5
36
102
{ACAD_REACTORS
330
29
102
}
330
29
100
AcDbVisualStyle
  2
Thicken
 70
    13
177
     3
291
     1
 70
    58
 90
        2
176
     1
 90
        2
176
     1
 90
        0
176
     1
 90
        0
176
     1
 40
0.6
176
     1
 40
30.0
176
     1
 62
     7
420
 16777215
176
     1
 90
        1
176
     1
 90
        4
176
     1
 62
     7
176
     1
 62
   257
176
     1
 90
        1
176
     1
 90
        1
176
     1
 40
1.0
176
     1
 90
       12
176
     1
 62
     7
176
     1
 40
1.0
176
     1
 90
        1
176
     1
 90
        6
176
     1
 90
        2
176
     1
 62
     7
176
     1
 90
        5
176
     1
 90
        0
176
     1
 90
        0
176
     1
290
     0
176
     1
 90
        1
176
     1
 40
0.0
176
     1
 90
        0
176
     1
290
     0
176
     1
290
     1
176
     1
290
     1
176
     1
290
     0
176
     1
290
     0
176
     1
290
     0
176
     1
290
     0
176
     1
290
     0
176
     1
290
     0
176
     1
 90
       50
176
     1
 40
0.0
176
     1
 40
1.0
176
     1
 90
        0
176
     1
 62
    18
420
        0
176
     1
 90
       50
176
     1
 90
        3
176
     1
 62
     5
420
      255
176
     1
290
     0
176
     1
 90
       50
176
     1
 90
       50
176
     1
 90
       50
176
     1
290
     0
176
     1
 90
       50
176
     1
 62
   256
176
     0
 40
1.0
176
     0
 90
        2
176
     1
  1
strokes_ogs.tif
176
     1
290
     0
176
     1
 40
1.0
176
     1
 40
1.0
176
     1
  0
VISUALSTYLE
  5
30
102
{ACAD_REACTORS
330
29
102
}
330
29
100
AcDbVisualStyle
  2
Wireframe
 70
     5
177
     3
291
     0
 70
    58
 90
        0
176
     1
 90
        2
176
     1
 90
        0
176
     1
 90
        0
176
     1
 40
0.6
176
     1
 40
30.0
176
     1
 62
     7
420
 16777215
176
     1
 90
        1
176
     1
 90
        4
176
     1
 62
     7
176
     1
 62
   257
176
     1
 90
        1
176
     1
 90
        1
176
     1
 40
1.0
176
     1
 90
        0
176
     1
 62
   257
176
     1
 40
1.0
176
     1
 90
        1
176
     1
 90
        6
176
     1
 90
        2
176
     1
 62
     7
176
     1
 90
        3
176
     1
 90
        0
176
     1
 90
        0
176
     1
290
     0
176
     1
 90
        1
176
     1
 40
0.0
176
     1
 90
        0
176
     1
290
     0
176
     1
290
     1
176
     1
290
     1
176
     1
290
     0
176
     1
290
     0
176
     1
290
     0
176
     1
290
     0
176
     1
290
     0
176
     1
290
     0
176
     1
 90
       50
176
     1
 40
0.0
176
     1
 40
1.0
176
     1
 90
        0
176
     1
 62
    18
420
        0
176
     1
 90
       50
176
     1
 90
        3
176
     1
 62
     5
420
      255
176
     1
290
     0
176
     1
 90
       50
176
     1
 90
       50
176
     1
 90
       50
176
     1
290
     0
176
     1
 90
       50
176
     1
 62
   256
176
     0
 40
1.0
176
     0
 90
        2
176
     1
  1
strokes_ogs.tif
176
     1
290
     0
176
     1
 40
1.0
176
     1
 40
1.0
176
     1
  0
VISUALSTYLE
  5
3C
102
{ACAD_REACTORS
330
29
102
}
330
29
100
AcDbVisualStyle
  2
X-Ray
 70
    25
177
     3
291
     0
 70
    58
 90
        2
176
     1
 90
        2
176
     1
 90
        1
176
     1
 90
        1
176
     1
 40
0.5
176
     1
 40
30.0
176
     1
 62
     7
420
 16777215
176
     1
 90
        1
176
     1
 90
        0
176
     1
 62
     7
176
     1
 62
   257
176
     1
 90
        1
176
     1
 90
        1
176
     1
 40
1.0
176
     1
 90
        8
176
     1
 62
     7
176
     1
 40
1.0
176
     1
 90
        1
176
     1
 90
        6
176
     1
 90
        2
176
     1
 62
     7
176
     1
 90
        3
176
     1
 90
        0
176
     1
 90
        0
176
     1
290
     0
176
     1
 90
       13
176
     1
 40
0.0
176
     1
 90
        0
176
     1
290
     0
176
     1
290
     1
176
     1
290
     1
176
     1
290
     0
176
     1
290
     0
176
     1
290
     0
176
     1
290
     0
176
     1
290
     0
176
     1
290
     0
176
     1
 90
       50
176
     1
 40
0.0
176
     1
 40
1.0
176
     1
 90
        0
176
     1
 62
    18
420
        0
176
     1
 90
       50
176
     1
 90
        3
176
     1
 62
     5
420
      255
176
     1
290
     0
176
     1
 90
       50
176
     1
 90
       50
176
     1
 90
       50
176
     1
290
     0
176
     1
 90
       50
176
     1
 62
   256
176
     0
 40
1.0
176
     0
 90
        2
176
     1
  1
strokes_ogs.tif
176
     1
290
     0
176
     1
 40
1.0
176
     1
 40
1.0
176
     1
  0
DICTIONARYVAR
  5
267
102
{ACAD_REACTORS
330
262
102
}
330
262
100
DictionaryVariables
280
     0
  1
1:1
  0
DICTIONARYVAR
  5
264
102
{ACAD_REACTORS
330
262
102
}
330
262
100
DictionaryVariables
280
     0
  1
STANDARD
  0
DICTIONARYVAR
  5
263
102
{ACAD_REACTORS
330
262
102
}
330
262
100
DictionaryVariables
280
     0
  1
STANDARD
  0
DICTIONARYVAR
  5
265
102
{ACAD_REACTORS
330
262
102
}
330
262
100
DictionaryVariables
280
     0
  1
Imperial24
  0
DICTIONARYVAR
  5
266
102
{ACAD_REACTORS
330
262
102
}
330
262
100
DictionaryVariables
280
     0
  1
Imperial24
  0
DICTIONARY
  5
1A
330
19
100
AcDbDictionary
280
     1
281
     1
  3
BUMPTILE
360
1C
  3
DIFFUSETILE
360
1B
  3
OPACITYTILE
360
1F
  3
REFLECTIONTILE
360
1E
  3
REFRACTIONTILE
360
20
  3
SPECULARTILE
360
1D
  0
DICTIONARY
  5
12
330
11
100
AcDbDictionary
280
     1
281
     1
  3
BUMPTILE
360
14
  3
DIFFUSETILE
360
13
  3
OPACITYTILE
360
17
  3
REFLECTIONTILE
360
16
  3
REFRACTIONTILE
360
18
  3
SPECULARTILE
360
15
  0
DICTIONARY
  5
22
330
21
100
AcDbDictionary
280
     1
281
     1
  3
BUMPTILE
360
24
  3
DIFFUSETILE
360
23
  3
OPACITYTILE
360
27
  3
REFLECTIONTILE
360
26
  3
REFRACTIONTILE
360
28
  3
SPECULARTILE
360
25
  0
DICTIONARY
  5
268
330
65
100
AcDbDictionary
280
     1
281
     1
  3
ACAD_ROUNDTRIP_2008_TABLESTYLE_CELLSTYLEMAP
360
269
  0
XRECORD
  5
1C
102
{ACAD_REACTORS
330
1A
102
}
330
1A
100
AcDbXrecord
280
     1
270
     1
271
     1
  0
XRECORD
  5
1B
102
{ACAD_REACTORS
330
1A
102
}
330
1A
100
AcDbXrecord
280
     1
270
     1
271
     1
  0
XRECORD
  5
1F
102
{ACAD_REACTORS
330
1A
102
}
330
1A
100
AcDbXrecord
280
     1
270
     1
271
     1
  0
XRECORD
  5
1E
102
{ACAD_REACTORS
330
1A
102
}
330
1A
100
AcDbXrecord
280
     1
270
     1
271
     1
  0
XRECORD
  5
20
102
{ACAD_REACTORS
330
1A
102
}
330
1A
100
AcDbXrecord
280
     1
270
     1
271
     1
  0
XRECORD
  5
1D
102
{ACAD_REACTORS
330
1A
102
}
330
1A
100
AcDbXrecord
280
     1
270
     1
271
     1
  0
XRECORD
  5
14
102
{ACAD_REACTORS
330
12
102
}
330
12
100
AcDbXrecord
280
     1
270
     1
271
     1
  0
XRECORD
  5
13
102
{ACAD_REACTORS
330
12
102
}
330
12
100
AcDbXrecord
280
     1
270
     1
271
     1
  0
XRECORD
  5
17
102
{ACAD_REACTORS
330
12
102
}
330
12
100
AcDbXrecord
280
     1
270
     1
271
     1
  0
XRECORD
  5
16
102
{ACAD_REACTORS
330
12
102
}
330
12
100
AcDbXrecord
280
     1
270
     1
271
     1
  0
XRECORD
  5
18
102
{ACAD_REACTORS
330
12
102
}
330
12
100
AcDbXrecord
280
     1
270
     1
271
     1
  0
XRECORD
  5
15
102
{ACAD_REACTORS
330
12
102
}
330
12
100
AcDbXrecord
280
     1
270
     1
271
     1
  0
XRECORD
  5
24
102
{ACAD_REACTORS
330
22
102
}
330
22
100
AcDbXrecord
280
     1
270
     1
271
     1
  0
XRECORD
  5
23
102
{ACAD_REACTORS
330
22
102
}
330
22
100
AcDbXrecord
280
     1
270
     1
271
     1
  0
XRECORD
  5
27
102
{ACAD_REACTORS
330
22
102
}
330
22
100
AcDbXrecord
280
     1
270
     1
271
     1
  0
XRECORD
  5
26
102
{ACAD_REACTORS
330
22
102
}
330
22
100
AcDbXrecord
280
     1
270
     1
271
     1
  0
XRECORD
  5
28
102
{ACAD_REACTORS
330
22
102
}
330
22
100
AcDbXrecord
280
     1
270
     1
271
     1
  0
XRECORD
  5
25
102
{ACAD_REACTORS
330
22
102
}
330
22
100
AcDbXrecord
280
     1
270
     1
271
     1
  0
CELLSTYLEMAP
  5
269
102
{ACAD_REACTORS
330
268
102
}
330
268
100
AcDbCellStyleMap
 90
        3
300
CELLSTYLE
  1
TABLEFORMAT_BEGIN
 90
        5
170
     1
 91
        0
 92
    32768
 62
   257
 93
        1
300
CONTENTFORMAT
  1
CONTENTFORMAT_BEGIN
 90
        0
 91
        0
 92
      512
 93
        0
300

 40
0.0
140
1.0
 94
        5
 62
     0
340
55
144
0.25
309
CONTENTFORMAT_END
171
     0
 94
        0
309
TABLEFORMAT_END
  1
CELLSTYLE_BEGIN
 90
        1
 91
        1
300
_TITLE
309
CELLSTYLE_END
300
CELLSTYLE
  1
TABLEFORMAT_BEGIN
 90
        5
170
     1
 91
        0
 92
        0
 62
   257
 93
        1
300
CONTENTFORMAT
  1
CONTENTFORMAT_BEGIN
 90
        0
 91
        0
 92
      512
 93
        0
300

 40
0.0
140
1.0
 94
        5
 62
     0
340
55
144
0.18
309
CONTENTFORMAT_END
171
     0
 94
        0
309
TABLEFORMAT_END
  1
CELLSTYLE_BEGIN
 90
        2
 91
        1
300
_HEADER
309
CELLSTYLE_END
300
CELLSTYLE
  1
TABLEFORMAT_BEGIN
 90
        5
170
     1
 91
        0
 92
        0
 62
   257
 93
        1
300
CONTENTFORMAT
  1
CONTENTFORMAT_BEGIN
 90
        0
 91
        0
 92
      512
 93
        0
300

 40
0.0
140
1.0
 94
        2
 62
     0
340
55
144
0.18
309
CONTENTFORMAT_END
171
     0
 94
        0
309
TABLEFORMAT_END
  1
CELLSTYLE_BEGIN
 90
        3
 91
        2
300
_DATA
309
CELLSTYLE_END
  0
ENDSEC
  0
EOF
