  0
SECTION
  2
HEADER
  9
$ACADVER
  1
AC1032
  9
$ACADMAINTVER
 90
      228
  9
$DWGCODEPAGE
  3
ANSI_1252
  9
$REQUIREDVERSIONS
160
                 0
  9
$INSBASE
 10
0.0
 20
0.0
 30
0.0
  9
$EXTMIN
 10
1.000000000000000E+20
 20
1.000000000000000E+20
 30
1.000000000000000E+20
  9
$EXTMAX
 10
-1.000000000000000E+20
 20
-1.000000000000000E+20
 30
-1.000000000000000E+20
  9
$LIMMIN
 10
0.0
 20
0.0
  9
$LIMMAX
 10
12.0
 20
9.0
  9
$ORTHOMODE
 70
     0
  9
$REGENMODE
 70
     1
  9
$FILLMODE
 70
     1
  9
$QTEXTMODE
 70
     0
  9
$MIRRTEXT
 70
     0
  9
$LTSCALE
 40
1.0
  9
$ATTMODE
 70
     1
  9
$TEXTSIZE
 40
0.2
  9
$TRACEWID
 40
0.05
  9
$TEXTSTYLE
  7
Standard
  9
$CLAYER
  8
0
  9
$CELTYPE
  6
ByLayer
  9
$CECOLOR
 62
   256
  9
$CELTSCALE
 40
1.0
  9
$DISPSILH
 70
     0
  9
$DIMSCALE
 40
1.0
  9
$DIMASZ
 40
0.18
  9
$DIMEXO
 40
0.0625
  9
$DIMDLI
 40
0.38
  9
$DIMRND
 40
0.0
  9
$DIMDLE
 40
0.0
  9
$DIMEXE
 40
0.18
  9
$DIMTP
 40
0.0
  9
$DIMTM
 40
0.0
  9
$DIMTXT
 40
0.18
  9
$DIMCEN
 40
0.09
  9
$DIMTSZ
 40
0.0
  9
$DIMTOL
 70
     0
  9
$DIMLIM
 70
     0
  9
$DIMTIH
 70
     1
  9
$DIMTOH
 70
     1
  9
$DIMSE1
 70
     0
  9
$DIMSE2
 70
     0
  9
$DIMTAD
 70
     0
  9
$DIMZIN
 70
     0
  9
$DIMBLK
  1

  9
$DIMASO
 70
     1
  9
$DIMSHO
 70
     1
  9
$DIMPOST
  1

  9
$DIMAPOST
  1

  9
$DIMALT
 70
     0
  9
$DIMALTD
 70
     2
  9
$DIMALTF
 40
25.4
  9
$DIMLFAC
 40
1.0
  9
$DIMTOFL
 70
     0
  9
$DIMTVP
 40
0.0
  9
$DIMTIX
 70
     0
  9
$DIMSOXD
 70
     0
  9
$DIMSAH
 70
     0
  9
$DIMBLK1
  1

  9
$DIMBLK2
  1

  9
$DIMSTYLE
  2
Standard
  9
$DIMCLRD
 70
     0
  9
$DIMCLRE
 70
     0
  9
$DIMCLRT
 70
     0
  9
$DIMTFAC
 40
1.0
  9
$DIMGAP
 40
0.09
  9
$DIMJUST
 70
     0
  9
$DIMSD1
 70
     0
  9
$DIMSD2
 70
     0
  9
$DIMTOLJ
 70
     1
  9
$DIMTZIN
 70
     0
  9
$DIMALTZ
 70
     0
  9
$DIMALTTZ
 70
     0
  9
$DIMUPT
 70
     0
  9
$DIMDEC
 70
     4
  9
$DIMTDEC
 70
     4
  9
$DIMALTU
 70
     2
  9
$DIMALTTD
 70
     2
  9
$DIMTXSTY
  7
Standard
  9
$DIMAUNIT
 70
     0
  9
$DIMADEC
 70
     0
  9
$DIMALTRND
 40
0.0
  9
$DIMAZIN
 70
     0
  9
$DIMDSEP
 70
    46
  9
$DIMATFIT
 70
     3
  9
$DIMFRAC
 70
     0
  9
$DIMLDRBLK
  1

  9
$DIMLUNIT
 70
     2
  9
$DIMLWD
 70
    -2
  9
$DIMLWE
 70
    -2
  9
$DIMTMOVE
 70
     0
  9
$DIMFXL
 40
1.0
  9
$DIMFXLON
 70
     0
  9
$DIMJOGANG
 40
0.7853981633974483
  9
$DIMTFILL
 70
     0
  9
$DIMTFILLCLR
 70
     0
  9
$DIMARCSYM
 70
     0
  9
$DIMLTYPE
  6

  9
$DIMLTEX1
  6

  9
$DIMLTEX2
  6

  9
$DIMTXTDIRECTION
 70
     0
  9
$LUNITS
 70
     2
  9
$LUPREC
 70
     4
  9
$SKETCHINC
 40
0.1
  9
$FILLETRAD
 40
0.0
  9
$AUNITS
 70
     0
  9
$AUPREC
 70
     0
  9
$MENU
  1
.
  9
$ELEVATION
 40
0.0
  9
$PELEVATION
 40
0.0
  9
$THICKNESS
 40
0.0
  9
$LIMCHECK
 70
     0
  9
$CHAMFERA
 40
0.0
  9
$CHAMFERB
 40
0.0
  9
$CHAMFERC
 40
0.0
  9
$CHAMFERD
 40
0.0
  9
$SKPOLY
 70
     0
  9
$TDCREATE
 40
2460255.751168982
  9
$TDUCREATE
 40
2460255.751168982
  9
$TDUPDATE
 40
2460255.751168982
  9
$TDUUPDATE
 40
2460255.751168982
  9
$TDINDWG
 40
0.0000000000
  9
$TDUSRTIMER
 40
0.0000000000
  9
$USRTIMER
 70
     1
  9
$ANGBASE
 50
0.0
  9
$ANGDIR
 70
     0
  9
$PDMODE
 70
     0
  9
$PDSIZE
 40
0.0
  9
$PLINEWID
 40
0.0
  9
$SPLFRAME
 70
     0
  9
$SPLINETYPE
 70
     6
  9
$SPLINESEGS
 70
     8
  9
$HANDSEED
  5
12F
  9
$SURFTAB1
 70
     6
  9
$SURFTAB2
 70
     6
  9
$SURFTYPE
 70
     6
  9
$SURFU
 70
     6
  9
$SURFV
 70
     6
  9
$UCSBASE
  2

  9
$UCSNAME
  2

  9
$UCSORG
 10
0.0
 20
0.0
 30
0.0
  9
$UCSXDIR
 10
1.0
 20
0.0
 30
0.0
  9
$UCSYDIR
 10
0.0
 20
1.0
 30
0.0
  9
$UCSORTHOREF
  2

  9
$UCSORTHOVIEW
 70
     0
  9
$UCSORGTOP
 10
0.0
 20
0.0
 30
0.0
  9
$UCSORGBOTTOM
 10
0.0
 20
0.0
 30
0.0
  9
$UCSORGLEFT
 10
0.0
 20
0.0
 30
0.0
  9
$UCSORGRIGHT
 10
0.0
 20
0.0
 30
0.0
  9
$UCSORGFRONT
 10
0.0
 20
0.0
 30
0.0
  9
$UCSORGBACK
 10
0.0
 20
0.0
 30
0.0
  9
$PUCSBASE
  2

  9
$PUCSNAME
  2

  9
$PUCSORG
 10
0.0
 20
0.0
 30
0.0
  9
$PUCSXDIR
 10
1.0
 20
0.0
 30
0.0
  9
$PUCSYDIR
 10
0.0
 20
1.0
 30
0.0
  9
$PUCSORTHOREF
  2

  9
$PUCSORTHOVIEW
 70
     0
  9
$PUCSORGTOP
 10
0.0
 20
0.0
 30
0.0
  9
$PUCSORGBOTTOM
 10
0.0
 20
0.0
 30
0.0
  9
$PUCSORGLEFT
 10
0.0
 20
0.0
 30
0.0
  9
$PUCSORGRIGHT
 10
0.0
 20
0.0
 30
0.0
  9
$PUCSORGFRONT
 10
0.0
 20
0.0
 30
0.0
  9
$PUCSORGBACK
 10
0.0
 20
0.0
 30
0.0
  9
$USERI1
 70
     0
  9
$USERI2
 70
     0
  9
$USERI3
 70
     0
  9
$USERI4
 70
     0
  9
$USERI5
 70
     0
  9
$USERR1
 40
0.0
  9
$USERR2
 40
0.0
  9
$USERR3
 40
0.0
  9
$USERR4
 40
0.0
  9
$USERR5
 40
0.0
  9
$WORLDVIEW
 70
     1
  9
$SHADEDGE
 70
     3
  9
$SHADEDIF
 70
    70
  9
$TILEMODE
 70
     1
  9
$MAXACTVP
 70
    64
  9
$PINSBASE
 10
0.0
 20
0.0
 30
0.0
  9
$PLIMCHECK
 70
     0
  9
$PEXTMIN
 10
1.000000000000000E+20
 20
1.000000000000000E+20
 30
1.000000000000000E+20
  9
$PEXTMAX
 10
-1.000000000000000E+20
 20
-1.000000000000000E+20
 30
-1.000000000000000E+20
  9
$PLIMMIN
 10
0.0
 20
0.0
  9
$PLIMMAX
 10
12.0
 20
9.0
  9
$UNITMODE
 70
     0
  9
$VISRETAIN
 70
     1
  9
$PLINEGEN
 70
     0
  9
$PSLTSCALE
 70
     1
  9
$TREEDEPTH
 70
  3020
  9
$CMLSTYLE
  2
Standard
  9
$CMLJUST
 70
     0
  9
$CMLSCALE
 40
1.0
  9
$PROXYGRAPHICS
 70
     1
  9
$MEASUREMENT
 70
     0
  9
$CELWEIGHT
370
    -1
  9
$ENDCAPS
280
     0
  9
$JOINSTYLE
280
     0
  9
$LWDISPLAY
290
     1
  9
$INSUNITS
 70
     4
  9
$HYPERLINKBASE
  1

  9
$STYLESHEET
  1

  9
$XEDIT
290
     1
  9
$CEPSNTYPE
380
     0
  9
$PSTYLEMODE
290
     1
  9
$FINGERPRINTGUID
  2
{F5E8F2A6-2138-F444-BAA0-D662DC8511CB}
  9
$VERSIONGUID
  2
{60E90A0A-1050-9C46-8FEA-B9C26D7283E0}
  9
$EXTNAMES
290
     1
  9
$PSVPSCALE
 40
0.0
  9
$OLESTARTUP
290
     0
  9
$SORTENTS
280
   127
  9
$INDEXCTL
280
     0
  9
$HIDETEXT
280
     1
  9
$XCLIPFRAME
280
     2
  9
$HALOGAP
280
     0
  9
$OBSCOLOR
 70
   257
  9
$OBSLTYPE
280
     0
  9
$INTERSECTIONDISPLAY
280
     0
  9
$INTERSECTIONCOLOR
 70
   257
  9
$DIMASSOC
280
     2
  9
$PROJECTNAME
  1

  9
$CAMERADISPLAY
290
     0
  9
$LENSLENGTH
 40
50.0
  9
$CAMERAHEIGHT
 40
0.0
  9
$STEPSPERSEC
 40
2.0
  9
$STEPSIZE
 40
6.0
  9
$3DDWFPREC
 40
2.0
  9
$PSOLWIDTH
 40
0.25
  9
$PSOLHEIGHT
 40
4.0
  9
$LOFTANG1
 40
1.570796326794896
  9
$LOFTANG2
 40
1.570796326794896
  9
$LOFTMAG1
 40
0.0
  9
$LOFTMAG2
 40
0.0
  9
$LOFTPARAM
 70
     7
  9
$LOFTNORMALS
280
     1
  9
$LATITUDE
 40
37.795
  9
$LONGITUDE
 40
-122.394
  9
$NORTHDIRECTION
 40
0.0
  9
$TIMEZONE
 70
 -8000
  9
$LIGHTGLYPHDISPLAY
280
     1
  9
$TILEMODELIGHTSYNCH
280
     1
  9
$CMATERIAL
347
11
  9
$SOLIDHIST
280
     0
  9
$SHOWHIST
280
     1
  9
$DWFFRAME
280
     2
  9
$DGNFRAME
280
     0
  9
$REALWORLDSCALE
290
     1
  9
$INTERFERECOLOR
 62
     1
  9
$INTERFEREOBJVS
345
33
  9
$INTERFEREVPVS
346
30
  9
$CSHADOW
280
     0
  9
$SHADOWPLANELOCATION
 40
0.0
  0
ENDSEC
  0
SECTION
  2
CLASSES
  0
CLASS
  1
ACDBDICTIONARYWDFLT
  2
AcDbDictionaryWithDefault
  3
ObjectDBX Classes
 90
        0
 91
        1
280
     0
281
     0
  0
CLASS
  1
MATERIAL
  2
AcDbMaterial
  3
ObjectDBX Classes
 90
     1153
 91
        3
280
     0
281
     0
  0
CLASS
  1
VISUALSTYLE
  2
AcDbVisualStyle
  3
ObjectDBX Classes
 90
     4095
 91
       24
280
     0
281
     0
  0
CLASS
  1
SCALE
  2
AcDbScale
  3
ObjectDBX Classes
 90
     1153
 91
       17
280
     0
281
     0
  0
CLASS
  1
TABLESTYLE
  2
AcDbTableStyle
  3
ObjectDBX Classes
 90
     4095
 91
        1
280
     0
281
     0
  0
CLASS
  1
MLEADERSTYLE
  2
AcDbMLeaderStyle
  3
ACDB_MLEADERSTYLE_CLASS
 90
     4095
 91
        1
280
     0
281
     0
  0
CLASS
  1
ACDBSECTIONVIEWSTYLE
  2
AcDbSectionViewStyle
  3
ObjectDBX Classes
 90
     1025
 91
        1
280
     0
281
     0
  0
CLASS
  1
ACDBDETAILVIEWSTYLE
  2
AcDbDetailViewStyle
  3
ObjectDBX Classes
 90
     1025
 91
        1
280
     0
281
     0
  0
CLASS
  1
DICTIONARYVAR
  2
AcDbDictionaryVar
  3
ObjectDBX Classes
 90
        0
 91
        5
280
     0
281
     0
  0
CLASS
  1
CELLSTYLEMAP
  2
AcDbCellStyleMap
  3
ObjectDBX Classes
 90
     1152
 91
        1
280
     0
281
     0
  0
ENDSEC
  0
SECTION
  2
TABLES
  0
TABLE
  2
VPORT
  5
8
330
0
100
AcDbSymbolTable
 70
     1
  0
VPORT
  5
57
330
8
100
AcDbSymbolTableRecord
100
AcDbViewportTableRecord
  2
*Active
 70
     0
 10
0.0
 20
0.0
 11
1.0
 21
1.0
 12
0.0
 22
0.0
 13
0.0
 23
0.0
 14
1.0
 24
1.0
 15
0.0
 25
0.0
 16
0.0
 26
0.0
 36
1.0
 17
49.99999998749986
 27
-49.99999998749986
 37
0.0
 40
101.9999999744997
 41
1.0
 42
50.0
 43
0.0
 44
0.0
 50
0.0
 51
0.0
 71
     0
 72
   100
 73
     1
 74
     1
 75
     0
 76
     0
 77
     0
 78
     0
281
     0
 65
     1
110
0.0
120
0.0
130
0.0
111
1.0
121
0.0
131
0.0
112
0.0
122
1.0
132
0.0
 79
     0
146
0.0
 60
     3
 61
     5
292
     1
282
     1
141
0.0
142
0.0
 63
   250
421
  3355443
  0
ENDTAB
  0
TABLE
  2
LTYPE
  5
5
330
0
100
AcDbSymbolTable
 70
     6
  0
LTYPE
  5
5B
330
5
100
AcDbSymbolTableRecord
100
AcDbLinetypeTableRecord
  2
ByBlock
 70
     0
  3

 72
    65
 73
     0
 40
0.0
  0
LTYPE
  5
5C
330
5
100
AcDbSymbolTableRecord
100
AcDbLinetypeTableRecord
  2
ByLayer
 70
     0
  3

 72
    65
 73
     0
 40
0.0
  0
LTYPE
  5
5D
330
5
100
AcDbSymbolTableRecord
100
AcDbLinetypeTableRecord
  2
Continuous
 70
     0
  3
Solid line
 72
    65
 73
     0
 40
0.0
  0
LTYPE
  5
A5
330
5
100
AcDbSymbolTableRecord
100
AcDbLinetypeTableRecord
  2
AI-Linetype-0
 70
     0
  3
Adobe Illustrator Linetype No. 0
 72
    65
 73
     2
 40
1.234722200886347
 49
0.9877777607090781
 74
     0
 49
-0.2469444401772695
 74
     0
  0
LTYPE
  5
A7
330
5
100
AcDbSymbolTableRecord
100
AcDbLinetypeTableRecord
  2
AI-Linetype-1
 70
     0
  3
Adobe Illustrator Linetype No. 1
 72
    65
 73
     2
 40
1.234722200886347
 49
0.9877777607090781
 74
     0
 49
-0.2469444401772695
 74
     0
  0
LTYPE
  5
A9
330
5
100
AcDbSymbolTableRecord
100
AcDbLinetypeTableRecord
  2
AI-Linetype-2
 70
     0
  3
Adobe Illustrator Linetype No. 2
 72
    65
 73
     2
 40
1.728611060213692
 49
0.9877777607090781
 74
     0
 49
-0.7408332995046144
 74
     0
  0
LTYPE
  5
AB
330
5
100
AcDbSymbolTableRecord
100
AcDbLinetypeTableRecord
  2
AI-Linetype-3
 70
     0
  3
Adobe Illustrator Linetype No. 3
 72
    65
 73
     2
 40
1.333499989573571
 49
0.9877777607090781
 74
     0
 49
-0.3457222288644938
 74
     0
  0
LTYPE
  5
AD
330
5
100
AcDbSymbolTableRecord
100
AcDbLinetypeTableRecord
  2
AI-Linetype-4
 70
     0
  3
Adobe Illustrator Linetype No. 4
 72
    65
 73
     2
 40
1.333499989573571
 49
0.9877777607090781
 74
     0
 49
-0.3457222288644938
 74
     0
  0
ENDTAB
  0
TABLE
  2
LAYER
  5
2
330
0
100
AcDbSymbolTable
 70
     2
  0
LAYER
  5
54
330
2
100
AcDbSymbolTableRecord
100
AcDbLayerTableRecord
  2
0
 70
     0
 62
     7
  6
Continuous
370
    -3
390
F
347
21
348
0
  0
LAYER
  5
78
330
2
100
AcDbSymbolTableRecord
100
AcDbLayerTableRecord
  2
Camada 1
 70
     0
 62
     7
  6
Continuous
370
     0
390
F
347
21
348
0
  0
ENDTAB
  0
TABLE
  2
STYLE
  5
3
330
0
100
AcDbSymbolTable
 70
     2
  0
STYLE
  5
55
330
3
100
AcDbSymbolTableRecord
100
AcDbTextStyleTableRecord
  2
Standard
 70
     0
 40
0.0
 41
1.0
 50
0.0
 71
     0
 42
0.2
  3
txt
  4

  0
STYLE
  5
5A
330
3
100
AcDbSymbolTableRecord
100
AcDbTextStyleTableRecord
  2
Annotative
 70
     0
 40
0.0
 41
1.0
 50
0.0
 71
     0
 42
0.2
  3
txt
  4

1001
AcadAnnotative
1000
AnnotativeData
1002
{
1070
     1
1070
     1
1002
}
  0
ENDTAB
  0
TABLE
  2
VIEW
  5
6
330
0
100
AcDbSymbolTable
 70
     0
  0
ENDTAB
  0
TABLE
  2
UCS
  5
7
330
0
100
AcDbSymbolTable
 70
     0
  0
ENDTAB
  0
TABLE
  2
APPID
  5
9
330
0
100
AcDbSymbolTable
 70
     2
  0
APPID
  5
56
330
9
100
AcDbSymbolTableRecord
100
AcDbRegAppTableRecord
  2
ACAD
 70
     0
  0
APPID
  5
5E
330
9
100
AcDbSymbolTableRecord
100
AcDbRegAppTableRecord
  2
AcadAnnotative
 70
     0
  0
ENDTAB
  0
TABLE
  2
DIMSTYLE
  5
A
330
0
100
AcDbSymbolTable
 70
     2
100
AcDbDimStyleTable
 71
     0
  0
DIMSTYLE
105
58
330
A
100
AcDbSymbolTableRecord
100
AcDbDimStyleTableRecord
  2
Standard
 70
     0
340
55
  0
DIMSTYLE
105
59
330
A
100
AcDbSymbolTableRecord
100
AcDbDimStyleTableRecord
  2
Annotative
 70
     0
340
55
1001
AcadAnnotative
1000
AnnotativeData
1002
{
1070
     1
1070
     1
1002
}
  0
ENDTAB
  0
TABLE
  2
BLOCK_RECORD
  5
1
330
0
100
AcDbSymbolTable
 70
     3
  0
BLOCK_RECORD
  5
70
330
1
100
AcDbSymbolTableRecord
100
AcDbBlockTableRecord
  2
*Model_Space
340
73
 70
     0
280
     1
281
     0
  0
BLOCK_RECORD
  5
6C
330
1
100
AcDbSymbolTableRecord
100
AcDbBlockTableRecord
  2
*Paper_Space
340
6F
 70
     0
280
     1
281
     0
  0
BLOCK_RECORD
  5
74
330
1
100
AcDbSymbolTableRecord
100
AcDbBlockTableRecord
  2
*Paper_Space0
340
77
 70
     0
280
     1
281
     0
  0
BLOCK_RECORD
  5
79
330
1
100
AcDbSymbolTableRecord
100
AcDbBlockTableRecord
  2
Block_0
340
0
102
{BLKREFS
331
7A
102
}
 70
     0
280
     1
281
     0
  0
BLOCK_RECORD
  5
7D
330
1
100
AcDbSymbolTableRecord
100
AcDbBlockTableRecord
  2
Block_1
340
0
102
{BLKREFS
331
7E
102
}
 70
     0
280
     1
281
     0
  0
ENDTAB
  0
ENDSEC
  0
SECTION
  2
BLOCKS
  0
BLOCK
  5
71
330
70
100
AcDbEntity
  8
0
100
AcDbBlockBegin
  2
*Model_Space
 70
     0
 10
0.0
 20
0.0
 30
0.0
  3
*Model_Space
  1

  0
ENDBLK
  5
72
330
70
100
AcDbEntity
  8
0
100
AcDbBlockEnd
  0
BLOCK
  5
6D
330
6C
100
AcDbEntity
 67
     1
  8
0
100
AcDbBlockBegin
  2
*Paper_Space
 70
     0
 10
0.0
 20
0.0
 30
0.0
  3
*Paper_Space
  1

  0
ENDBLK
  5
6E
330
6C
100
AcDbEntity
 67
     1
  8
0
100
AcDbBlockEnd
  0
BLOCK
  5
75
330
74
100
AcDbEntity
 67
     1
  8
0
100
AcDbBlockBegin
  2
*Paper_Space0
 70
     0
 10
0.0
 20
0.0
 30
0.0
  3
*Paper_Space0
  1

  0
ENDBLK
  5
76
330
74
100
AcDbEntity
 67
     1
  8
0
100
AcDbBlockEnd
  0
BLOCK
  5
7B
330
79
100
AcDbEntity
  8
0
100
AcDbBlockBegin
  2
Block_0
 70
     0
 10
0.0
 20
0.0
 30
0.0
  3
Block_0
  1

  0
INSERT
  5
7E
330
79
100
AcDbEntity
  8
Camada 1
100
AcDbBlockReference
  2
Block_1
 10
0.0
 20
0.0
 30
0.0
  0
ENDBLK
  5
7C
330
79
100
AcDbEntity
  8
0
100
AcDbBlockEnd
  0
BLOCK
  5
7F
330
7D
100
AcDbEntity
  8
0
100
AcDbBlockBegin
  2
Block_1
 70
     0
 10
0.0
 20
0.0
 30
0.0
  3
Block_1
  1

  0
SPLINE
  5
81
330
7D
100
AcDbEntity
  8
Camada 1
 62
   250
420
  1907995
370
    15
100
AcDbSpline
210
0.0
220
0.0
230
1.0
 70
     8
 71
     3
 72
    38
 73
    34
 74
     0
 42
0.0000000001
 43
0.0000000001
 40
0.0
 40
0.0
 40
0.0
 40
0.0
 40
1.0
 40
1.0
 40
1.0
 40
2.0
 40
2.0
 40
2.0
 40
3.0
 40
3.0
 40
3.0
 40
4.0
 40
4.0
 40
4.0
 40
5.0
 40
5.0
 40
5.0
 40
6.0
 40
6.0
 40
6.0
 40
7.0
 40
7.0
 40
7.0
 40
8.0
 40
8.0
 40
8.0
 40
9.0
 40
9.0
 40
9.0
 40
10.0
 40
10.0
 40
10.0
 40
11.0
 40
11.0
 40
11.0
 40
11.0
 10
48.01243555625145
 20
-36.61619316640686
 30
0.0
 10
49.21425784876746
 20
-36.61619316640686
 30
0.0
 10
50.4166736547121
 20
-36.62691274561985
 30
0.0
 10
51.61790243380625
 20
-36.66640561344394
 30
0.0
 10
52.21841689507314
 20
-36.68605211907451
 30
0.0
 10
52.81873149977226
 20
-36.71323866771113
 30
0.0
 10
53.41825273449167
 20
-36.75372476208333
 30
0.0
 10
54.01757714078002
 20
-36.79420480019592
 30
0.0
 10
54.61650486207084
 20
-36.8483840971671
 30
0.0
 10
55.21126284873687
 20
-36.93252976585979
 30
0.0
 10
55.50894011284807
 20
-36.97460260020517
 30
0.0
 10
55.80542732197687
 20
-37.02401562099558
 30
0.0
 10
56.09953139301578
 20
-37.08592876127456
 30
0.0
 10
56.39323877906099
 20
-37.14784795781347
 30
0.0
 10
56.68476591171049
 20
-37.22206741727927
 30
0.0
 10
56.96994002819897
 20
-37.31673280862265
 30
0.0
 10
57.25531400125265
 20
-37.41139214370642
 30
0.0
 10
57.53433495814788
 20
-37.52629755410641
 30
0.0
 10
57.79371243754924
 20
-37.67930289265809
 30
0.0
 10
58.05249337539298
 20
-37.83210837464777
 30
0.0
 10
58.29242117758714
 20
-38.02262012792605
 30
0.0
 10
58.48471952740477
 20
-38.25243094872539
 30
0.0
 10
58.67761441877231
 20
-38.48263542638879
 30
0.0
 10
58.82307971431697
 20
-38.75173320219062
 30
0.0
 10
58.93123542357027
 20
-39.0325437837542
 30
0.0
 10
59.03939113281971
 20
-39.31414167904526
 30
0.0
 10
59.11004042734288
 20
-39.60765223665908
 30
0.0
 10
59.16084335967541
 20
-39.90374276079547
 30
0.0
 10
59.21184614857057
 20
-40.20023299805552
 30
0.0
 10
59.24320243183388
 20
-40.49969080244196
 30
0.0
 10
59.26245225247203
 20
-40.7997542327727
 30
0.0
 10
59.28189890154126
 20
-41.09961175028248
 30
0.0
 10
59.28904528768197
 20
-41.40026869403861
 30
0.0
 10
59.28944197267567
 20
-41.70091958153515
 30
0.0
  0
SPLINE
  5
82
330
7D
100
AcDbEntity
  8
Camada 1
 62
   250
420
  1907995
370
    15
100
AcDbSpline
210
0.0
220
0.0
230
1.0
 70
     8
 71
     3
 72
    38
 73
    34
 74
     0
 42
0.0000000001
 43
0.0000000001
 40
0.0
 40
0.0
 40
0.0
 40
0.0
 40
1.0
 40
1.0
 40
1.0
 40
2.0
 40
2.0
 40
2.0
 40
3.0
 40
3.0
 40
3.0
 40
4.0
 40
4.0
 40
4.0
 40
5.0
 40
5.0
 40
5.0
 40
6.0
 40
6.0
 40
6.0
 40
7.0
 40
7.0
 40
7.0
 40
8.0
 40
8.0
 40
8.0
 40
9.0
 40
9.0
 40
9.0
 40
10.0
 40
10.0
 40
10.0
 40
11.0
 40
11.0
 40
11.0
 40
11.0
 10
59.28932387561651
 20
-41.70087718771923
 30
0.0
 10
59.28932387561651
 20
-42.0013342749137
 30
0.0
 10
59.28237734603843
 20
-42.30219107523118
 30
0.0
 10
59.26332435383135
 20
-42.60224844930263
 30
0.0
 10
59.24427438975582
 20
-42.90230582337409
 30
0.0
 10
59.21311796305515
 20
-43.20176968401981
 30
0.0
 10
59.16251185915368
 20
-43.49825386502026
 30
0.0
 10
59.11190575525221
 20
-43.79454424571832
 30
0.0
 10
59.0414563172904
 20
-44.08805480333247
 30
0.0
 10
58.93349743647203
 20
-44.37005241174686
 30
0.0
 10
58.82554158377879
 20
-44.65106284987178
 30
0.0
 10
58.68027614479676
 20
-44.92036048223561
 30
0.0
 10
58.48777793842291
 20
-45.15095861676242
 30
0.0
 10
58.29547656047758
 20
-45.3811630944255
 30
0.0
 10
58.0559454432707
 20
-45.57246821769053
 30
0.0
 10
57.79716450542952
 20
-45.72567341280357
 30
0.0
 10
57.53759019760352
 20
-45.87947212134263
 30
0.0
 10
57.25817255571201
 20
-45.99497104516738
 30
0.0
 10
56.97279858265448
 20
-46.08983629307211
 30
0.0
 10
56.687624466166
 20
-46.18488928501994
 30
0.0
 10
56.39590050508928
 20
-46.25970831417076
 30
0.0
 10
56.10199326248144
 20
-46.32182131101173
 30
0.0
 10
55.80788919143869
 20
-46.38433402097571
 30
0.0
 10
55.51140198230989
 20
-46.43394689832748
 30
0.0
 10
55.21352486163863
 20
-46.47641944579651
 30
0.0
 10
54.61856701841124
 20
-46.56135242821604
 30
0.0
 10
54.01944246868552
 20
-46.61612523861262
 30
0.0
 10
53.41992123396995
 20
-46.65720484641022
 30
0.0
 10
52.82020014268789
 20
-46.69828445420718
 30
0.0
 10
52.21948885299379
 20
-46.72607057252913
 30
0.0
 10
51.61877453516557
 20
-46.74611073502376
 30
0.0
 10
50.41734892763971
 20
-46.78619711627294
 30
0.0
 10
49.21473326513565
 20
-46.79651698236259
 30
0.0
 10
48.01231443106008
 20
-46.79651698236259
 30
0.0
  0
SPLINE
  5
83
330
7D
100
AcDbEntity
  8
Camada 1
 62
   250
420
  1907995
370
    15
100
AcDbSpline
210
0.0
220
0.0
230
1.0
 70
     8
 71
     3
 72
    41
 73
    37
 74
     0
 42
0.0000000001
 43
0.0000000001
 40
0.0
 40
0.0
 40
0.0
 40
0.0
 40
1.0
 40
1.0
 40
1.0
 40
2.0
 40
2.0
 40
2.0
 40
3.0
 40
3.0
 40
3.0
 40
4.0
 40
4.0
 40
4.0
 40
5.0
 40
5.0
 40
5.0
 40
6.0
 40
6.0
 40
6.0
 40
7.0
 40
7.0
 40
7.0
 40
8.0
 40
8.0
 40
8.0
 40
9.0
 40
9.0
 40
9.0
 40
10.0
 40
10.0
 40
10.0
 40
11.0
 40
11.0
 40
11.0
 40
12.0
 40
12.0
 40
12.0
 40
12.0
 10
35.99972988341521
 20
-41.69883622828694
 30
0.0
 10
35.99972988341521
 20
-41.3739724155401
 30
0.0
 10
36.00786343984667
 20
-41.04910860279293
 30
0.0
 10
36.02909971358167
 20
-40.72503816003251
 30
0.0
 10
36.05033295918896
 20
-40.40076786071075
 30
0.0
 10
36.0852624355207
 20
-40.07749078793773
 30
0.0
 10
36.14122530089709
 20
-39.75738719511206
 30
0.0
 10
36.19718816627734
 20
-39.43748345884805
 30
0.0
 10
36.27458413381981
 20
-39.12075320253202
 30
0.0
 10
36.38670972113523
 20
-38.81573575197741
 30
0.0
 10
36.49903213688173
 20
-38.51091210172487
 30
0.0
 10
36.64568748740748
 20
-38.21740154411073
 30
0.0
 10
36.83560572726292
 20
-37.95366355791506
 30
0.0
 10
37.02512728212081
 20
-37.69051302888585
 30
0.0
 10
37.25711835631393
 20
-37.45674141441074
 30
0.0
 10
37.51669266414572
 20
-37.26205689837677
 30
0.0
 10
37.77646380040921
 20
-37.06658506861598
 30
0.0
 10
38.06382119842945
 20
-36.9100065369933
 30
0.0
 10
38.3618981756627
 20
-36.78140792399432
 30
0.0
 10
38.66056563819235
 20
-36.65221579756995
 30
0.0
 10
38.96995267993499
 20
-36.5514033028926
 30
0.0
 10
39.28390311316453
 20
-36.46765734732357
 30
0.0
 10
39.59745686140486
 20
-36.38391139175486
 30
0.0
 10
39.91577082956636
 20
-36.31743183185645
 30
0.0
 10
40.23567456582781
 20
-36.26146593834945
 30
0.0
 10
40.87568189491653
 20
-36.14934035103371
 30
0.0
 10
41.52223604046514
 20
-36.07908774150264
 30
0.0
 10
42.16978341256055
 20
-36.02669504106696
 30
0.0
 10
42.8175306412186
 20
-35.97410854032857
 30
0.0
 10
43.46626806829192
 20
-35.93977560554995
 30
0.0
 10
44.11540218036214
 20
-35.9151690234359
 30
0.0
 10
44.7645393205607
 20
-35.89016272819819
 30
0.0
 10
45.41387026106263
 20
-35.87528249874871
 30
0.0
 10
46.06360091468597
 20
-35.86594980294787
 30
0.0
 10
46.71313473987823
 20
-35.85662316340665
 30
0.0
 10
47.36286236537385
 20
-35.85304997033565
 30
0.0
 10
48.01239619055907
 20
-35.85304997033565
 30
0.0
  0
SPLINE
  5
84
330
7D
100
AcDbEntity
  8
Camada 1
 62
   250
420
  1907995
370
    15
100
AcDbSpline
210
0.0
220
0.0
230
1.0
 70
     8
 71
     3
 72
    23
 73
    19
 74
     0
 42
0.0000000001
 43
0.0000000001
 40
0.0
 40
0.0
 40
0.0
 40
0.0
 40
1.0
 40
1.0
 40
1.0
 40
2.0
 40
2.0
 40
2.0
 40
3.0
 40
3.0
 40
3.0
 40
4.0
 40
4.0
 40
4.0
 40
5.0
 40
5.0
 40
5.0
 40
6.0
 40
6.0
 40
6.0
 40
6.0
 10
37.84620162788903
 20
-46.35523975061416
 30
0.0
 10
37.65747344301148
 20
-46.2433140198604
 30
0.0
 10
37.47747838425713
 20
-46.11571468966945
 30
0.0
 10
37.31256341151553
 20
-45.9702493941235
 30
0.0
 10
37.14804815189215
 20
-45.82517775544162
 30
0.0
 10
36.99861297828151
 20
-45.66264592078736
 30
0.0
 10
36.8678341118849
 20
-45.48642088353412
 30
0.0
 10
36.73685538892502
 20
-45.31019584628055
 30
0.0
 10
36.62413628818482
 20
-45.12047746298903
 30
0.0
 10
36.52967378152827
 20
-44.92242566670533
 30
0.0
 10
36.43501141831678
 20
-44.72416795760005
 30
0.0
 10
36.35860867732114
 20
-44.51758289176253
 30
0.0
 10
36.2956992823596
 20
-44.30741857659375
 30
0.0
 10
36.17047703400312
 20
-43.88690220221407
 30
0.0
 10
36.09982773947996
 20
-43.45129968556364
 30
0.0
 10
36.05696153514782
 20
-43.01411042893938
 30
0.0
 10
36.01449201580553
 20
-42.57652751545105
 30
0.0
 10
35.99980861478969
 20
-42.13755166229097
 30
0.0
 10
35.99980861478969
 20
-41.69877566569255
 30
0.0
  0
SPLINE
  5
85
330
7D
100
AcDbEntity
  8
Camada 1
 62
   250
420
  1907995
370
    15
100
AcDbSpline
210
0.0
220
0.0
230
1.0
 70
     8
 71
     3
 72
    29
 73
    25
 74
     0
 42
0.0000000001
 43
0.0000000001
 40
0.0
 40
0.0
 40
0.0
 40
0.0
 40
1.0
 40
1.0
 40
1.0
 40
2.0
 40
2.0
 40
2.0
 40
3.0
 40
3.0
 40
3.0
 40
4.0
 40
4.0
 40
4.0
 40
5.0
 40
5.0
 40
5.0
 40
6.0
 40
6.0
 40
6.0
 40
7.0
 40
7.0
 40
7.0
 40
8.0
 40
8.0
 40
8.0
 40
8.0
 10
37.84620162788903
 20
-46.35523975061416
 30
0.0
 10
37.50565815944571
 20
-46.28161986083368
 30
0.0
 10
37.16749480096137
 20
-46.19430071219333
 30
0.0
 10
36.83608114362725
 20
-46.08634183137399
 30
0.0
 10
36.50466748629377
 20
-45.97858280711632
 30
0.0
 10
36.17980367354082
 20
-45.85038390724068
 30
0.0
 10
35.87398982487367
 20
-45.67971245989568
 30
0.0
 10
35.56956588774382
 20
-45.50984043879735
 30
0.0
 10
35.28419191469271
 20
-45.29808938365476
 30
0.0
 10
35.05676726011099
 20
-45.03613799399491
 30
0.0
 10
34.82914274897113
 20
-44.77418054807547
 30
0.0
 10
34.66006258379121
 20
-44.46201671137886
 30
0.0
 10
34.53126714236309
 20
-44.13774641205677
 30
0.0
 10
34.40207501594128
 20
-43.81228302962493
 30
0.0
 10
34.31376415481668
 20
-43.47451938426552
 30
0.0
 10
34.24569482681513
 20
-43.13298268927378
 30
0.0
 10
34.17762701287551
 20
-42.79105233741765
 30
0.0
 10
34.12999756049321
 20
-42.44534893592982
 30
0.0
 10
34.09507111228918
 20
-42.09865836415221
 30
0.0
 10
34.06014315001937
 20
-41.75156202299229
 30
0.0
 10
34.03771833536521
 20
-41.40367836810458
 30
0.0
 10
34.02402513277168
 20
-41.05519514353218
 30
0.0
 10
34.01013358767424
 20
-40.70671797521939
 30
0.0
 10
34.00437862713982
 20
-40.358234750647
 30
0.0
 10
34.00437862713982
 20
-40.0097575823342
 30
0.0
  0
SPLINE
  5
86
330
7D
100
AcDbEntity
  8
Camada 1
 62
   250
420
  1907995
370
    15
100
AcDbSpline
210
0.0
220
0.0
230
1.0
 70
     8
 71
     3
 72
    53
 73
    49
 74
     0
 42
0.0000000001
 43
0.0000000001
 40
0.0
 40
0.0
 40
0.0
 40
0.0
 40
1.0
 40
1.0
 40
1.0
 40
2.0
 40
2.0
 40
2.0
 40
3.0
 40
3.0
 40
3.0
 40
4.0
 40
4.0
 40
4.0
 40
5.0
 40
5.0
 40
5.0
 40
6.0
 40
6.0
 40
6.0
 40
7.0
 40
7.0
 40
7.0
 40
8.0
 40
8.0
 40
8.0
 40
9.0
 40
9.0
 40
9.0
 40
10.0
 40
10.0
 40
10.0
 40
11.0
 40
11.0
 40
11.0
 40
12.0
 40
12.0
 40
12.0
 40
13.0
 40
13.0
 40
13.0
 40
14.0
 40
14.0
 40
14.0
 40
15.0
 40
15.0
 40
15.0
 40
16.0
 40
16.0
 40
16.0
 40
16.0
 10
34.00429989576534
 20
-40.00973335729644
 30
0.0
 10
34.0044982382622
 20
-39.62295640426965
 30
0.0
 10
34.01144325377449
 20
-39.23617339498422
 30
0.0
 10
34.02870813538479
 20
-38.84979009882149
 30
0.0
 10
34.0463712160443
 20
-38.46340074639979
 30
0.0
 10
34.07455099123288
 20
-38.07761096366247
 30
0.0
 10
34.11979730552785
 20
-37.6932141205969
 30
0.0
 10
34.16504513388538
 20
-37.30901107783373
 30
0.0
 10
34.22715964478989
 20
-36.92600111818064
 30
0.0
 10
34.32082878145136
 20
-36.5509248583967
 30
0.0
 10
34.36726666479705
 20
-36.362993071641
 30
0.0
 10
34.4222378176892
 20
-36.17724153828453
 30
0.0
 10
34.48792552166599
 20
-35.99506319799939
 30
0.0
 10
34.55400991063648
 20
-35.81308471427558
 30
0.0
 10
34.63140587817894
 20
-35.63507308048651
 30
0.0
 10
34.7246783298467
 20
-35.4651950031286
 30
0.0
 10
34.81795078152153
 20
-35.29552283859162
 30
0.0
 10
34.92709820325906
 20
-35.13397817422651
 30
0.0
 10
35.05351202065857
 20
-34.98732585182974
 30
0.0
 10
35.1799243240032
 20
-34.84066747317371
 30
0.0
 10
35.323603023013
 20
-34.70889538022708
 30
0.0
 10
35.47839495810178
 20
-34.59260308641493
 30
0.0
 10
35.63358660631197
 20
-34.47651064916476
 30
0.0
 10
35.80008529090065
 20
-34.37629166791282
 30
0.0
 10
35.97194376509583
 20
-34.28718592273729
 30
0.0
 10
36.14400209585362
 20
-34.19828003412376
 30
0.0
 10
36.32181387308005
 20
-34.12088709470997
 30
0.0
 10
36.50220864496031
 20
-34.05142785516534
 30
0.0
 10
36.86338881745395
 20
-33.9125093760767
 30
0.0
 10
37.23627876757263
 20
-33.80574357836745
 30
0.0
 10
37.61294176733649
 20
-33.71683768975392
 30
0.0
 10
37.98960173896173
 20
-33.62813165770172
 30
0.0
 10
38.37003476022572
 20
-33.55668596506056
 30
0.0
 10
38.75185466489803
 20
-33.49635956475509
 30
0.0
 10
39.13387442613298
 20
-33.43583330788827
 30
0.0
 10
39.51767775577121
 20
-33.38622043053651
 30
0.0
 10
39.90188079853471
 20
-33.3439477396285
 30
0.0
 10
40.2864805262919
 20
-33.30148124841906
 30
0.0
 10
40.6714769390428
 20
-33.26635494365368
 30
0.0
 10
41.05726672177787
 20
-33.2363885719325
 30
0.0
 10
41.82824974569491
 20
-33.17625597192973
 30
0.0
 10
42.60101936615323
 20
-33.13676310410596
 30
0.0
 10
43.37398884317098
 20
-33.1073963020701
 30
0.0
 10
44.14715514861978
 20
-33.07802344377464
 30
0.0
 10
44.92032145406474
 20
-33.05917030813083
 30
0.0
 10
45.69368761607618
 20
-33.04825692861544
 30
0.0
 10
46.46705377808761
 20
-33.03773720596411
 30
0.0
 10
47.2408166250889
 20
-33.03515723944186
 30
0.0
 10
48.01418278710034
 20
-33.03495738288019
 30
0.0
  0
SPLINE
  5
87
330
7D
100
AcDbEntity
  8
Camada 1
 62
   250
420
  1907995
370
    15
100
AcDbSpline
210
0.0
220
0.0
230
1.0
 70
     8
 71
     3
 72
    53
 73
    49
 74
     0
 42
0.0000000001
 43
0.0000000001
 40
0.0
 40
0.0
 40
0.0
 40
0.0
 40
1.0
 40
1.0
 40
1.0
 40
2.0
 40
2.0
 40
2.0
 40
3.0
 40
3.0
 40
3.0
 40
4.0
 40
4.0
 40
4.0
 40
5.0
 40
5.0
 40
5.0
 40
6.0
 40
6.0
 40
6.0
 40
7.0
 40
7.0
 40
7.0
 40
8.0
 40
8.0
 40
8.0
 40
9.0
 40
9.0
 40
9.0
 40
10.0
 40
10.0
 40
10.0
 40
11.0
 40
11.0
 40
11.0
 40
12.0
 40
12.0
 40
12.0
 40
13.0
 40
13.0
 40
13.0
 40
14.0
 40
14.0
 40
14.0
 40
15.0
 40
15.0
 40
15.0
 40
16.0
 40
16.0
 40
16.0
 40
16.0
 10
48.01406469003991
 20
-33.03503611425275
 30
0.0
 10
48.78742782391978
 20
-33.03503611425275
 30
0.0
 10
49.56079398592801
 20
-33.03761608077532
 30
0.0
 10
50.33416014793945
 20
-33.04833565998832
 30
0.0
 10
51.10732645338793
 20
-33.05904918294171
 30
0.0
 10
51.88049275883289
 20
-33.07830203170919
 30
0.0
 10
52.65326540742342
 20
-33.10747503344297
 30
0.0
 10
53.42643171287222
 20
-33.13664803517677
 30
0.0
 10
54.19860479176971
 20
-33.17653455986395
 30
0.0
 10
54.96978767224618
 20
-33.23646730330537
 30
0.0
 10
55.3553806265579
 20
-33.26663353158791
 30
0.0
 10
55.74037703930815
 20
-33.30155997979193
 30
0.0
 10
56.1247769104995
 20
-33.34402647100169
 30
0.0
 10
56.50917678169343
 20
-33.38629916190907
 30
0.0
 10
56.89278328290381
 20
-33.4361118958225
 30
0.0
 10
57.27480304413939
 20
-33.49663815268963
 30
0.0
 10
57.65662294881234
 20
-33.55716440955613
 30
0.0
 10
58.03685611350922
 20
-33.62841024563595
 30
0.0
 10
58.41351911326666
 20
-33.71731613424981
 30
0.0
 10
58.78997922833633
 20
-33.80622202286367
 30
0.0
 10
59.16306903501763
 20
-33.91278796401124
 30
0.0
 10
59.52385555065299
 20
-34.05170644309988
 30
0.0
 10
59.70444412283531
 20
-34.1211656826442
 30
0.0
 10
59.88185921506804
 20
-34.19895833518133
 30
0.0
 10
60.05372071739158
 20
-34.28786422379518
 30
0.0
 10
60.22577602002102
 20
-34.37677011240872
 30
0.0
 10
60.39207787617863
 20
-34.477188950222
 30
0.0
 10
60.5472695243824
 20
-34.59348124403415
 30
0.0
 10
60.70206145947119
 20
-34.70937382472297
 30
0.0
 10
60.84594001504747
 20
-34.84134577423127
 30
0.0
 10
60.97195260526234
 20
-34.98799809662803
 30
0.0
 10
61.09836490860377
 20
-35.13465647528374
 30
0.0
 10
61.20751687253096
 20
-35.29619508338958
 30
0.0
 10
61.30058946764314
 20
-35.46587330418616
 30
0.0
 10
61.39366206275148
 20
-35.63574532528448
 30
0.0
 10
61.47106105842551
 20
-35.81375695907386
 30
0.0
 10
61.53734076176514
 20
-35.99573544279735
 30
0.0
 10
61.60302695167614
 20
-36.17771998278075
 30
0.0
 10
61.65779976206824
 20
-36.36366531643928
 30
0.0
 10
61.70443901603529
 20
-36.5514033028926
 30
0.0
 10
61.79791132426504
 20
-36.92667336297828
 30
0.0
 10
61.86002432111147
 20
-37.30928966576794
 30
0.0
 10
61.90527063540579
 20
-37.69349270853144
 30
0.0
 10
61.95031709313492
 20
-38.07788955159669
 30
0.0
 10
61.97830306801757
 20
-38.46367933433402
 30
0.0
 10
61.99596312055579
 20
-38.84986883019468
 30
0.0
 10
62.01362317308373
 20
-39.23625212635709
 30
0.0
 10
62.02037590236232
 20
-39.62303513564285
 30
0.0
 10
62.02076955923086
 20
-40.0098181449286
 30
0.0
  0
SPLINE
  5
88
330
7D
100
AcDbEntity
  8
Camada 1
 62
   250
420
  1907995
370
    15
100
AcDbSpline
210
0.0
220
0.0
230
1.0
 70
     8
 71
     3
 72
    29
 73
    25
 74
     0
 42
0.0000000001
 43
0.0000000001
 40
0.0
 40
0.0
 40
0.0
 40
0.0
 40
1.0
 40
1.0
 40
1.0
 40
2.0
 40
2.0
 40
2.0
 40
3.0
 40
3.0
 40
3.0
 40
4.0
 40
4.0
 40
4.0
 40
5.0
 40
5.0
 40
5.0
 40
6.0
 40
6.0
 40
6.0
 40
7.0
 40
7.0
 40
7.0
 40
8.0
 40
8.0
 40
8.0
 40
8.0
 10
62.02070899663166
 20
-40.00973335729644
 30
0.0
 10
62.02050914007672
 20
-40.35821658186852
 30
0.0
 10
62.01494949390696
 20
-40.7068936067433
 30
0.0
 10
62.00086263444487
 20
-41.0551769747537
 30
0.0
 10
61.98716943184364
 20
-41.40366019932642
 30
0.0
 10
61.96494295968697
 20
-41.75154385421381
 30
0.0
 10
61.93001651148294
 20
-42.09844033881205
 30
0.0
 10
61.89489020671628
 20
-42.44533076715134
 30
0.0
 10
61.84725772620177
 20
-42.79103416863949
 30
0.0
 10
61.77939128289762
 20
-43.13296452049498
 30
0.0
 10
61.71131892676514
 20
-43.47450121548736
 30
0.0
 10
61.62320640813355
 20
-43.81226486084677
 30
0.0
 10
61.49381442515231
 20
-44.13772824327862
 30
0.0
 10
61.36522186841133
 20
-44.46219234290246
 30
0.0
 10
61.19554364761636
 20
-44.77416237929698
 30
0.0
 10
60.96831884959855
 20
-45.03611376895715
 30
0.0
 10
60.74069433845806
 20
-45.29807121487659
 30
0.0
 10
60.45551719383415
 20
-45.50982227001887
 30
0.0
 10
60.15069959984153
 20
-45.67969429111752
 30
0.0
 10
59.84528243616487
 20
-45.85035968220291
 30
0.0
 10
59.52021876685635
 20
-45.97856463833815
 30
0.0
 10
59.18900193795074
 20
-46.08632366259583
 30
0.0
 10
58.8573914521894
 20
-46.19427648715621
 30
0.0
 10
58.51942795026705
 20
-46.2815956357956
 30
0.0
 10
58.17888448182372
 20
-46.35522158183632
 30
0.0
  0
SPLINE
  5
89
330
7D
100
AcDbEntity
  8
Camada 1
 62
   250
420
  1907995
370
    15
100
AcDbSpline
210
0.0
220
0.0
230
1.0
 70
     8
 71
     3
 72
    23
 73
    19
 74
     0
 42
0.0000000001
 43
0.0000000001
 40
0.0
 40
0.0
 40
0.0
 40
0.0
 40
1.0
 40
1.0
 40
1.0
 40
2.0
 40
2.0
 40
2.0
 40
3.0
 40
3.0
 40
3.0
 40
4.0
 40
4.0
 40
4.0
 40
5.0
 40
5.0
 40
5.0
 40
6.0
 40
6.0
 40
6.0
 40
6.0
 10
60.0254198170187
 20
-41.69883622828694
 30
0.0
 10
60.0254198170187
 20
-42.13761828114496
 30
0.0
 10
60.01053353130866
 20
-42.57658807804545
 30
0.0
 10
59.9678671835353
 20
-43.01417704779304
 30
0.0
 10
59.9252008357658
 20
-43.45116644785597
 30
0.0
 10
59.85455154124135
 20
-43.88696276480878
 30
0.0
 10
59.72912943631968
 20
-44.30748519544775
 30
0.0
 10
59.66641989792462
 20
-44.51764345435724
 30
0.0
 10
59.59001715692832
 20
-44.72423457645469
 30
0.0
 10
59.4953547937162
 20
-44.92248622929973
 30
0.0
 10
59.40089228706028
 20
-45.12053802558343
 30
0.0
 10
59.28817015819237
 20
-45.3102624651339
 30
0.0
 10
59.15719446336021
 20
-45.48648750238747
 30
0.0
 10
59.02641256883525
 20
-45.66271253964104
 30
0.0
 10
58.87678056679354
 20
-45.82523831803602
 30
0.0
 10
58.71206545061201
 20
-45.97030995671822
 30
0.0
 10
58.54735033442534
 20
-46.11577525226417
 30
0.0
 10
58.36735527566779
 20
-46.2433806387144
 30
0.0
 10
58.17882694735993
 20
-46.35530636946816
 30
0.0
  0
SPLINE
  5
8A
330
7D
100
AcDbEntity
  8
Camada 1
 62
   250
420
  1907995
370
    15
100
AcDbSpline
210
0.0
220
0.0
230
1.0
 70
     8
 71
     3
 72
    41
 73
    37
 74
     0
 42
0.0000000001
 43
0.0000000001
 40
0.0
 40
0.0
 40
0.0
 40
0.0
 40
1.0
 40
1.0
 40
1.0
 40
2.0
 40
2.0
 40
2.0
 40
3.0
 40
3.0
 40
3.0
 40
4.0
 40
4.0
 40
4.0
 40
5.0
 40
5.0
 40
5.0
 40
6.0
 40
6.0
 40
6.0
 40
7.0
 40
7.0
 40
7.0
 40
8.0
 40
8.0
 40
8.0
 40
9.0
 40
9.0
 40
9.0
 40
10.0
 40
10.0
 40
10.0
 40
11.0
 40
11.0
 40
11.0
 40
12.0
 40
12.0
 40
12.0
 40
12.0
 10
48.01243555625145
 20
-35.85304997033565
 30
0.0
 10
48.66216318174
 20
-35.85304997033565
 30
0.0
 10
49.31169700693548
 20
-35.85662316340665
 30
0.0
 10
49.96122780400003
 20
-35.86594980294787
 30
0.0
 10
50.61075860106106
 20
-35.87528249874871
 30
0.0
 10
51.2604892546844
 20
-35.89036258475986
 30
0.0
 10
51.90962639488682
 20
-35.91496916687423
 30
0.0
 10
52.55876050695383
 20
-35.93977560554995
 30
0.0
 10
53.20729807746707
 20
-35.97410854032857
 30
0.0
 10
53.85524213455684
 20
-36.02650124076457
 30
0.0
 10
54.50279253478061
 20
-36.07908774150264
 30
0.0
 10
55.14934668032921
 20
-36.14934035103371
 30
0.0
 10
55.78895429629589
 20
-36.26146593834945
 30
0.0
 10
56.10905788911996
 20
-36.31743183185645
 30
0.0
 10
56.42717502884655
 20
-36.38391139175486
 30
0.0
 10
56.74112546207994
 20
-36.46765734732357
 30
0.0
 10
57.05507589531077
 20
-36.5514033028926
 30
0.0
 10
57.3644629370534
 20
-36.65241565413161
 30
0.0
 10
57.66293357115198
 20
-36.78120806743266
 30
0.0
 10
57.96100752025687
 20
-36.9100065369933
 30
0.0
 10
58.24856477483911
 20
-37.06658506861598
 30
0.0
 10
58.50833591109875
 20
-37.26186309807471
 30
0.0
 10
58.76791021892476
 20
-37.45693521471313
 30
0.0
 10
59.00009812155601
 20
-37.69031922858346
 30
0.0
 10
59.18942284798283
 20
-37.95366355791506
 30
0.0
 10
59.37894440284457
 20
-38.21720774380898
 30
0.0
 10
59.52599643836403
 20
-38.5107183014228
 30
0.0
 10
59.63812202567945
 20
-38.81553589541574
 30
0.0
 10
59.75044444142595
 20
-39.12075320253202
 30
0.0
 10
59.82764055240578
 20
-39.43748345884805
 30
0.0
 10
59.88360644591694
 20
-39.75738719511206
 30
0.0
 10
59.93976613972506
 20
-40.07749078793773
 30
0.0
 10
59.9742989310631
 20
-40.40076786071075
 30
0.0
 10
59.99592886166344
 20
-40.72503816003251
 30
0.0
 10
60.01736196383015
 20
-41.04910860279293
 30
0.0
 10
60.02549854839318
 20
-41.3739724155401
 30
0.0
 10
60.02549854839318
 20
-41.69883622828694
 30
0.0
  0
SPLINE
  5
8B
330
7D
100
AcDbEntity
  8
Camada 1
 62
   250
420
  1907995
370
    15
100
AcDbSpline
210
0.0
220
0.0
230
1.0
 70
     8
 71
     3
 72
    41
 73
    37
 74
     0
 42
0.0000000001
 43
0.0000000001
 40
0.0
 40
0.0
 40
0.0
 40
0.0
 40
1.0
 40
1.0
 40
1.0
 40
2.0
 40
2.0
 40
2.0
 40
3.0
 40
3.0
 40
3.0
 40
4.0
 40
4.0
 40
4.0
 40
5.0
 40
5.0
 40
5.0
 40
6.0
 40
6.0
 40
6.0
 40
7.0
 40
7.0
 40
7.0
 40
8.0
 40
8.0
 40
8.0
 40
9.0
 40
9.0
 40
9.0
 40
10.0
 40
10.0
 40
10.0
 40
11.0
 40
11.0
 40
11.0
 40
12.0
 40
12.0
 40
12.0
 40
12.0
 10
32.48803055674412
 20
-40.00973335729644
 30
0.0
 10
32.48822889923776
 20
-39.13754115370611
 30
0.0
 10
32.51839361345741
 20
-38.26276898359385
 30
0.0
 10
32.62853274767599
 20
-37.39692373989883
 30
0.0
 10
32.68370224306434
 20
-36.96430090289335
 30
0.0
 10
32.75891644314147
 20
-36.53385831928807
 30
0.0
 10
32.86786552238216
 20
-36.11076197838613
 30
0.0
 10
32.97721280067527
 20
-35.68825915090928
 30
0.0
 10
33.12029647219774
 20
-35.27349016674023
 30
0.0
 10
33.31775626912181
 20
-34.88353367750681
 30
0.0
 10
33.51501620948325
 20
-34.49417070169881
 30
0.0
 10
33.76605724775573
 20
-34.1296202208258
 30
0.0
 10
34.07008601395766
 20
-33.81685681444419
 30
0.0
 10
34.37411326609382
 20
-33.50389960776082
 30
0.0
 10
34.73073004710056
 20
-33.2429353883898
 30
0.0
 10
35.11175506771969
 20
-33.02881027954622
 30
0.0
 10
35.49298145896403
 20
-32.81447925788137
 30
0.0
 10
35.8982209189031
 20
-32.64718720330498
 30
0.0
 10
36.31219047682677
 20
-32.50906209420342
 30
0.0
 10
36.72675354817198
 20
-32.37094304136114
 30
0.0
 10
37.14985291720484
 20
-32.26219079055505
 30
0.0
 10
37.57672230774169
 20
-32.17109859228267
 30
0.0
 10
38.00379155483733
 20
-32.08020625057165
 30
0.0
 10
38.43423111031426
 20
-32.0073797307776
 30
0.0
 10
38.86626043388792
 20
-31.94586024736203
 30
0.0
 10
39.29828975747184
 20
-31.88433470768719
 30
0.0
 10
39.73170899259244
 20
-31.83432817347169
 30
0.0
 10
40.16611842613214
 20
-31.792055482564
 30
0.0
 10
41.0345436363526
 20
-31.70731630044687
 30
0.0
 10
41.90594246995297
 20
-31.65333686003704
 30
0.0
 10
42.77793784511096
 20
-31.61444356189795
 30
0.0
 10
43.64973639183723
 20
-31.57554420749991
 30
0.0
 10
44.52212845199212
 20
-31.55153719507023
 30
0.0
 10
45.39472036870579
 20
-31.53685076592282
 30
0.0
 10
46.26711242885683
 20
-31.52216433677509
 30
0.0
 10
47.13990420212993
 20
-31.51660469060692
 30
0.0
 10
48.01249309071588
 20
-31.51641089030453
 30
0.0
  0
SPLINE
  5
8C
330
7D
100
AcDbEntity
  8
Camada 1
 62
   250
420
  1907995
370
    15
100
AcDbSpline
210
0.0
220
0.0
230
1.0
 70
     8
 71
     3
 72
    20
 73
    16
 74
     0
 42
0.0000000001
 43
0.0000000001
 40
0.0
 40
0.0
 40
0.0
 40
0.0
 40
1.0
 40
1.0
 40
1.0
 40
2.0
 40
2.0
 40
2.0
 40
3.0
 40
3.0
 40
3.0
 40
4.0
 40
4.0
 40
4.0
 40
5.0
 40
5.0
 40
5.0
 40
5.0
 10
48.01243555625145
 20
-47.49431313905142
 30
0.0
 10
47.15333698557573
 20
-47.49431313905142
 30
0.0
 10
46.29424144302773
 20
-47.48816603571713
 30
0.0
 10
45.43534272891402
 20
-47.47089964004714
 30
0.0
 10
44.57644401480093
 20
-47.45323958751309
 30
0.0
 10
43.71834169880297
 20
-47.42426038608105
 30
0.0
 10
42.86003649811465
 20
-47.37286091219412
 30
0.0
 10
42.00213101054454
 20
-47.32126763800478
 30
0.0
 10
41.14462220797519
 20
-47.24724197884073
 30
0.0
 10
40.29763312805619
 20
-47.10852941257305
 30
0.0
 10
39.87393721746636
 20
-47.03907017302905
 30
0.0
 10
39.45302112996463
 20
-46.95353762092452
 30
0.0
 10
39.03925142860359
 20
-46.83466536059012
 30
0.0
 10
38.62607524066412
 20
-46.71618675711945
 30
0.0
 10
38.22004241074086
 20
-46.5647681585416
 30
0.0
 10
37.84615923407216
 20
-46.35520341305752
 30
0.0
  0
SPLINE
  5
8D
330
7D
100
AcDbEntity
  8
Camada 1
 62
   250
420
  1907995
370
    15
100
AcDbSpline
210
0.0
220
0.0
230
1.0
 70
     8
 71
     3
 72
    41
 73
    37
 74
     0
 42
0.0000000001
 43
0.0000000001
 40
0.0
 40
0.0
 40
0.0
 40
0.0
 40
1.0
 40
1.0
 40
1.0
 40
2.0
 40
2.0
 40
2.0
 40
3.0
 40
3.0
 40
3.0
 40
4.0
 40
4.0
 40
4.0
 40
5.0
 40
5.0
 40
5.0
 40
6.0
 40
6.0
 40
6.0
 40
7.0
 40
7.0
 40
7.0
 40
8.0
 40
8.0
 40
8.0
 40
9.0
 40
9.0
 40
9.0
 40
10.0
 40
10.0
 40
10.0
 40
11.0
 40
11.0
 40
11.0
 40
12.0
 40
12.0
 40
12.0
 40
12.0
 10
48.01243555625145
 20
-48.50294075535853
 30
0.0
 10
47.13964378297514
 20
-48.50294075535853
 30
0.0
 10
46.26665518126392
 20
-48.49738716544964
 30
0.0
 10
45.39406629268502
 20
-48.48230707943881
 30
0.0
 10
44.52127451940808
 20
-48.46782050685242
 30
0.0
 10
43.64868260269826
 20
-48.44380743816346
 30
0.0
 10
42.77668722753707
 20
-48.4049080837651
 30
0.0
 10
41.90449502394867
 20
-48.36601478562666
 30
0.0
 10
41.03309316221609
 20
-48.31203534521683
 30
0.0
 10
40.16447112356455
 20
-48.22729616309906
 30
0.0
 10
39.73006169002164
 20
-48.18482361563001
 30
0.0
 10
39.29644562646934
 20
-48.13461722485317
 30
0.0
 10
38.86421644632984
 20
-48.0730977414376
 30
0.0
 10
38.43218712274976
 20
-48.0117781145837
 30
0.0
 10
38.00174756727284
 20
-47.93874568196839
 30
0.0
 10
37.57487817673983
 20
-47.84785334025737
 30
0.0
 10
37.14800878620619
 20
-47.75676719824459
 30
0.0
 10
36.72490941717332
 20
-47.6478150908765
 30
0.0
 10
36.31054317425597
 20
-47.50969603803454
 30
0.0
 10
35.89677044476338
 20
-47.37157092893267
 30
0.0
 10
35.49173084139399
 20
-47.20447267465899
 30
0.0
 10
35.11070430670844
 20
-46.99014770925374
 30
0.0
 10
34.73047265607349
 20
-46.7762164007119
 30
0.0
 10
34.3738558750706
 20
-46.5152521813412
 30
0.0
 10
34.0700269654313
 20
-46.20249483121919
 30
0.0
 10
33.76639488422307
 20
-45.88973142483758
 30
0.0
 10
33.51515550345052
 20
-45.52557460082862
 30
0.0
 10
33.31809390558593
 20
-45.13641148158197
 30
0.0
 10
33.12043576616501
 20
-44.74645499234823
 30
0.0
 10
32.97735209464575
 20
-44.33169206443878
 30
0.0
 10
32.86800481634879
 20
-43.90918923696257
 30
0.0
 10
32.75885739461446
 20
-43.48628669636205
 30
0.0
 10
32.68364470860055
 20
-43.05565031245438
 30
0.0
 10
32.6286735557084
 20
-42.62282761888787
 30
0.0
 10
32.51853290742083
 20
-41.75698237519286
 30
0.0
 10
32.4883681932076
 20
-40.88201034851861
 30
0.0
 10
32.4879715082107
 20
-40.00981208866932
 30
0.0
  0
SPLINE
  5
8E
330
7D
100
AcDbEntity
  8
Camada 1
 62
   250
420
  1907995
370
    15
100
AcDbSpline
210
0.0
220
0.0
230
1.0
 70
     8
 71
     3
 72
    41
 73
    37
 74
     0
 42
0.0000000001
 43
0.0000000001
 40
0.0
 40
0.0
 40
0.0
 40
0.0
 40
1.0
 40
1.0
 40
1.0
 40
2.0
 40
2.0
 40
2.0
 40
3.0
 40
3.0
 40
3.0
 40
4.0
 40
4.0
 40
4.0
 40
5.0
 40
5.0
 40
5.0
 40
6.0
 40
6.0
 40
6.0
 40
7.0
 40
7.0
 40
7.0
 40
8.0
 40
8.0
 40
8.0
 40
9.0
 40
9.0
 40
9.0
 40
10.0
 40
10.0
 40
10.0
 40
11.0
 40
11.0
 40
11.0
 40
12.0
 40
12.0
 40
12.0
 40
12.0
 10
48.01243555625145
 20
-31.51646539663997
 30
0.0
 10
48.88502444483034
 20
-31.51666525320131
 30
0.0
 10
49.75781621811049
 20
-31.52202504280813
 30
0.0
 10
50.63040510668907
 20
-31.53691132851721
 30
0.0
 10
51.50299702340723
 20
-31.55139790110327
 30
0.0
 10
52.37519225512656
 20
-31.57560477009431
 30
0.0
 10
53.24738748684717
 20
-31.614304267931
 30
0.0
 10
54.11898617701017
 20
-31.65339742263143
 30
0.0
 10
54.99038501061182
 20
-31.70718306273887
 30
0.0
 10
55.85901007739429
 20
-31.79191618859705
 30
0.0
 10
56.29321965436815
 20
-31.83438873606577
 30
0.0
 10
56.72683571792366
 20
-31.88439527028159
 30
0.0
 10
57.15906489806316
 20
-31.94591475369715
 30
0.0
 10
57.59109422164645
 20
-32.00744029337168
 30
0.0
 10
58.02153377712337
 20
-32.08026681316604
 30
0.0
 10
58.44860302421965
 20
-32.17115915487707
 30
0.0
 10
58.87547241475201
 20
-32.26225135314912
 30
0.0
 10
59.29856875565459
 20
-32.37119740425793
 30
0.0
 10
59.71313485513459
 20
-32.50912265679782
 30
0.0
 10
60.12710441305439
 20
-32.64724776589969
 30
0.0
 10
60.53234084486255
 20
-32.8143399639141
 30
0.0
 10
60.91357026423459
 20
-33.02886478588102
 30
0.0
 10
61.29420011393287
 20
-33.24279609442285
 30
0.0
 10
61.65101069523526
 20
-33.50416002691689
 30
0.0
 10
61.95484111894099
 20
-33.81691737703858
 30
0.0
 10
62.25887139920806
 20
-34.12968078342019
 30
0.0
 10
62.51010926591483
 20
-34.4942312642932
 30
0.0
 10
62.70717389190713
 20
-34.8835942401012
 30
0.0
 10
62.90443231820279
 20
-35.27355072933462
 30
0.0
 10
63.04791116065381
 20
-35.68831365724439
 30
0.0
 10
63.15686326802222
 20
-36.11062268441886
 30
0.0
 10
63.26620903225403
 20
-36.53371902532111
 30
0.0
 10
63.34122186170532
 20
-36.96416160892673
 30
0.0
 10
63.39639438522267
 20
-37.39698430249323
 30
0.0
 10
63.50673337600324
 20
-38.26262968962625
 30
0.0
 10
63.53649989116404
 20
-39.13760171630051
 30
0.0
 10
63.5368996042893
 20
-40.00979391989083
 30
0.0
  0
SPLINE
  5
8F
330
7D
100
AcDbEntity
  8
Camada 1
 62
   250
420
  1907995
370
    15
100
AcDbSpline
210
0.0
220
0.0
230
1.0
 70
     8
 71
     3
 72
    20
 73
    16
 74
     0
 42
0.0000000001
 43
0.0000000001
 40
0.0
 40
0.0
 40
0.0
 40
0.0
 40
1.0
 40
1.0
 40
1.0
 40
2.0
 40
2.0
 40
2.0
 40
3.0
 40
3.0
 40
3.0
 40
4.0
 40
4.0
 40
4.0
 40
5.0
 40
5.0
 40
5.0
 40
5.0
 10
58.17880877858081
 20
-46.35523975061416
 30
0.0
 10
57.80452891691455
 20
-46.56461069579585
 30
0.0
 10
57.39849608699128
 20
-46.7166228077991
 30
0.0
 10
56.9851200424924
 20
-46.83510141126977
 30
0.0
 10
56.57135034112879
 20
-46.95377381504219
 30
0.0
 10
56.15023742519599
 20
-47.03930636714704
 30
0.0
 10
55.72654151460551
 20
-47.10856575012968
 30
0.0
 10
54.87935257812774
 20
-47.24728437265697
 30
0.0
 10
54.02184377555454
 20
-47.32130397556111
 30
0.0
 10
53.16413511642256
 20
-47.37290330601004
 30
0.0
 10
52.30622962885565
 20
-47.42449658019936
 30
0.0
 10
51.44792745629249
 20
-47.45307606850807
 30
0.0
 10
50.5892285987446
 20
-47.47073612104179
 30
0.0
 10
49.73072656962554
 20
-47.48820237327376
 30
0.0
 10
48.87143117051428
 20
-47.49435553286701
 30
0.0
 10
48.01233562797013
 20
-47.49435553286701
 30
0.0
  0
SPLINE
  5
90
330
7D
100
AcDbEntity
  8
Camada 1
 62
   250
420
  1907995
370
    15
100
AcDbSpline
210
0.0
220
0.0
230
1.0
 70
     8
 71
     3
 72
    41
 73
    37
 74
     0
 42
0.0000000001
 43
0.0000000001
 40
0.0
 40
0.0
 40
0.0
 40
0.0
 40
1.0
 40
1.0
 40
1.0
 40
2.0
 40
2.0
 40
2.0
 40
3.0
 40
3.0
 40
3.0
 40
4.0
 40
4.0
 40
4.0
 40
5.0
 40
5.0
 40
5.0
 40
6.0
 40
6.0
 40
6.0
 40
7.0
 40
7.0
 40
7.0
 40
8.0
 40
8.0
 40
8.0
 40
9.0
 40
9.0
 40
9.0
 40
10.0
 40
10.0
 40
10.0
 40
11.0
 40
11.0
 40
11.0
 40
12.0
 40
12.0
 40
12.0
 40
12.0
 10
63.5368390416901
 20
-40.00973335729644
 30
0.0
 10
63.53663918513388
 20
-40.88193161714605
 30
0.0
 10
63.50667281340788
 20
-41.75670378725864
 30
0.0
 10
63.39633382262988
 20
-42.62234917439166
 30
0.0
 10
63.34116129910995
 20
-43.05497201139682
 30
0.0
 10
63.26614846965739
 20
-43.48561445156409
 30
0.0
 10
63.15680270542685
 20
-43.90871079246603
 30
0.0
 10
63.04765074149582
 20
-44.33101981964082
 30
0.0
 10
62.90457161216621
 20
-44.74598260411226
 30
0.0
 10
62.7071072730525
 20
-45.13573923678368
 30
0.0
 10
62.51004870331946
 20
-45.52529601289408
 30
0.0
 10
62.25881083661271
 20
-45.88965874972429
 30
0.0
 10
61.95478055634819
 20
-46.20241609984598
 30
0.0
 10
61.65055647577777
 20
-46.51537330652967
 30
0.0
 10
61.29393969477745
 20
-46.77653738246236
 30
0.0
 10
60.91330984507917
 20
-46.99066249130594
 30
0.0
 10
60.53188056914449
 20
-47.20499351297144
 30
0.0
 10
60.1266471654679
 20
-47.37208571098552
 30
0.0
 10
59.71247775098161
 20
-47.51041067664874
 30
0.0
 10
59.2981115080681
 20
-47.64852972949102
 30
0.0
 10
58.87501213903524
 20
-47.75728198029744
 30
0.0
 10
58.44814274850159
 20
-47.84837417856982
 30
0.0
 10
58.02127638609309
 20
-47.93926046402092
 30
0.0
 10
57.59083380248846
 20
-48.01209304007489
 30
0.0
 10
57.15880447891159
 20
-48.07341872318806
 30
0.0
 10
56.72677515533087
 20
-48.13493820660299
 30
0.0
 10
56.29296226334429
 20
-48.18514459738047
 30
0.0
 10
55.8587496582363
 20
-48.22741728828816
 30
0.0
 10
54.99032444801904
 20
-48.31215041414601
 30
0.0
 10
54.11892561441867
 20
-48.36593605425345
 30
0.0
 10
53.24712706769175
 20
-48.40502920895421
 30
0.0
 10
52.37513169253119
 20
-48.44412236365432
 30
0.0
 10
51.50273963237952
 20
-48.46793557578162
 30
0.0
 10
50.63034454409371
 20
-48.48242214836768
 30
0.0
 10
49.75775565551449
 20
-48.49730843407709
 30
0.0
 10
48.88496388223819
 20
-48.50286808024525
 30
0.0
 10
48.01237499365224
 20
-48.50286808024525
 30
0.0
  0
SPLINE
  5
91
330
7D
100
AcDbEntity
  8
Camada 1
 62
   250
420
  1907995
370
    15
100
AcDbSpline
210
0.0
220
0.0
230
1.0
 70
     8
 71
     3
 72
    38
 73
    34
 74
     0
 42
0.0000000001
 43
0.0000000001
 40
0.0
 40
0.0
 40
0.0
 40
0.0
 40
1.0
 40
1.0
 40
1.0
 40
2.0
 40
2.0
 40
2.0
 40
3.0
 40
3.0
 40
3.0
 40
4.0
 40
4.0
 40
4.0
 40
5.0
 40
5.0
 40
5.0
 40
6.0
 40
6.0
 40
6.0
 40
7.0
 40
7.0
 40
7.0
 40
8.0
 40
8.0
 40
8.0
 40
9.0
 40
9.0
 40
9.0
 40
10.0
 40
10.0
 40
10.0
 40
11.0
 40
11.0
 40
11.0
 40
11.0
 10
48.01243555625145
 20
-46.79655937617851
 30
0.0
 10
46.81041340716894
 20
-46.79655937617851
 30
0.0
 10
45.60759788809967
 20
-46.78624556634845
 30
0.0
 10
44.40617228057734
 20
-46.74615312884031
 30
0.0
 10
43.80546099087683
 20
-46.72611296634537
 30
0.0
 10
43.20494652961444
 20
-46.69852670458541
 30
0.0
 10
42.60502860990132
 20
-46.65744709678748
 30
0.0
 10
42.00550434705739
 20
-46.61616763242886
 30
0.0
 10
41.4061829688974
 20
-46.5612010217302
 30
0.0
 10
40.81122512567257
 20
-46.47646183961275
 30
0.0
 10
40.51374468999245
 20
-46.43418914870506
 30
0.0
 10
40.2170606524313
 20
-46.38418261448957
 30
0.0
 10
39.92315340982731
 20
-46.32206356138931
 30
0.0
 10
39.62904933878134
 20
-46.25955085142564
 30
0.0
 10
39.33752220613955
 20
-46.18513153539785
 30
0.0
 10
39.05195140465416
 20
-46.09007248719073
 30
0.0
 10
38.76657743160304
 20
-45.99501949524291
 30
0.0
 10
38.48755647470139
 20
-45.87952057141783
 30
0.0
 10
38.22778231031339
 20
-45.72571580662044
 30
0.0
 10
37.96880454403409
 20
-45.57251061150645
 30
0.0
 10
37.72947025526213
 20
-45.38120548824205
 30
0.0
 10
37.53697204889214
 20
-45.15100101057867
 30
0.0
 10
37.34467369907708
 20
-44.92060273261319
 30
0.0
 10
37.199208403526
 20
-44.65110524368802
 30
0.0
 10
37.09144937927025
 20
-44.3698949490011
 30
0.0
 10
36.98349049845187
 20
-44.08809719714838
 30
0.0
 10
36.91324091705013
 20
-43.79478649609655
 30
0.0
 10
36.86243495658923
 20
-43.49829625883618
 30
0.0
 10
36.81163202425992
 20
-43.20161222127437
 30
0.0
 10
36.78087228254972
 20
-42.90234821719001
 30
0.0
 10
36.76162246191478
 20
-42.60229084311887
 30
0.0
 10
36.74237264127726
 20
-42.30203361248544
 30
0.0
 10
36.73542611169533
 20
-42.00137666872993
 30
0.0
 10
36.73562596825475
 20
-41.70092563779475
 30
0.0
  0
SPLINE
  5
92
330
7D
100
AcDbEntity
  8
Camada 1
 62
   250
420
  1907995
370
    15
100
AcDbSpline
210
0.0
220
0.0
230
1.0
 70
     8
 71
     3
 72
    38
 73
    34
 74
     0
 42
0.0000000001
 43
0.0000000001
 40
0.0
 40
0.0
 40
0.0
 40
0.0
 40
1.0
 40
1.0
 40
1.0
 40
2.0
 40
2.0
 40
2.0
 40
3.0
 40
3.0
 40
3.0
 40
4.0
 40
4.0
 40
4.0
 40
5.0
 40
5.0
 40
5.0
 40
6.0
 40
6.0
 40
6.0
 40
7.0
 40
7.0
 40
7.0
 40
8.0
 40
8.0
 40
8.0
 40
9.0
 40
9.0
 40
9.0
 40
10.0
 40
10.0
 40
10.0
 40
11.0
 40
11.0
 40
11.0
 40
11.0
 10
36.73568653085012
 20
-41.70087718771923
 30
0.0
 10
36.73588335928503
 20
-41.40022630022238
 30
0.0
 10
36.74322657385681
 20
-41.09956935646624
 30
0.0
 10
36.76247639449497
 20
-40.79951198239511
 30
0.0
 10
36.78172621513312
 20
-40.49965446488533
 30
0.0
 10
36.8132793268275
 20
-40.20039046080095
 30
0.0
 10
36.86408225915682
 20
-39.90390022354122
 30
0.0
 10
36.91508504805199
 20
-39.6080095559665
 30
0.0
 10
36.98553448601316
 20
-39.31489871147537
 30
0.0
 10
37.0936901952626
 20
-39.03329475992504
 30
0.0
 10
37.20164907608804
 20
-38.75248417836147
 30
0.0
 10
37.34691451506943
 20
-38.4833864025593
 30
0.0
 10
37.53941272144712
 20
-38.25338178145758
 30
0.0
 10
37.73191092781711
 20
-38.02337716035617
 30
0.0
 10
37.97144204502399
 20
-37.83266555051654
 30
0.0
 10
38.2304228394278
 20
-37.67985401226726
 30
0.0
 10
38.48999714725638
 20
-37.52664881715423
 30
0.0
 10
38.76901810415802
 20
-37.41174946301351
 30
0.0
 10
39.05399539221159
 20
-37.31689027136776
 30
0.0
 10
39.33936936526976
 20
-37.22242473658605
 30
0.0
 10
39.63089346978705
 20
-37.14800542055826
 30
0.0
 10
39.92480071239489
 20
-37.08628608058166
 30
0.0
 10
40.21890478343379
 20
-37.02437294030236
 30
0.0
 10
40.51539199256325
 20
-36.9747600629506
 30
0.0
 10
40.81287242824337
 20
-36.93268722860458
 30
0.0
 10
41.40783027146819
 20
-36.84854155991285
 30
0.0
 10
42.00655813619958
 20
-36.79436226294168
 30
0.0
 10
42.60627922747842
 20
-36.75368236826677
 30
0.0
 10
43.20580046219784
 20
-36.71300247359283
 30
0.0
 10
43.80611506690081
 20
-36.68620958181994
 30
0.0
 10
44.40662952816704
 20
-36.66636321962739
 30
0.0
 10
45.60805513568937
 20
-36.62687035180393
 30
0.0
 10
46.81047396976173
 20
-36.61615682885022
 30
0.0
 10
48.01249309071588
 20
-36.61615682885022
 30
0.0
  0
SPLINE
  5
93
330
7D
100
AcDbEntity
  8
Camada 1
 62
   250
420
  1907995
370
    15
100
AcDbSpline
210
0.0
220
0.0
230
1.0
 70
     8
 71
     3
 72
     8
 73
     4
 74
     0
 42
0.0000000001
 43
0.0000000001
 40
0.0
 40
0.0
 40
0.0
 40
0.0
 40
1.0
 40
1.0
 40
1.0
 40
1.0
 10
63.96051678350402
 20
-40.00973335729644
 30
0.0
 10
63.96051678350402
 20
-39.92579360142535
 30
0.0
 10
63.95971735725733
 20
-39.75829563402801
 30
0.0
 10
63.95892398726995
 20
-39.67435587815723
 30
0.0
  0
SPLINE
  5
94
330
7D
100
AcDbEntity
  8
Camada 1
 62
   250
420
  1907995
370
    15
100
AcDbSpline
210
0.0
220
0.0
230
1.0
 70
     8
 71
     3
 72
     8
 73
     4
 74
     0
 42
0.0000000001
 43
0.0000000001
 40
0.0
 40
0.0
 40
0.0
 40
0.0
 40
1.0
 40
1.0
 40
1.0
 40
1.0
 10
32.06449665109033
 20
-40.00973335729644
 30
0.0
 10
32.06429679453476
 20
-40.09387902598849
 30
0.0
 10
32.06509167858473
 20
-40.26137093712654
 30
0.0
 10
32.06628173356583
 20
-40.3453167492566
 30
0.0
  0
SPLINE
  5
95
330
7D
100
AcDbEntity
  8
Camada 1
 62
   250
420
  1907995
370
    15
100
AcDbSpline
210
0.0
220
0.0
230
1.0
 70
     8
 71
     3
 72
     8
 73
     4
 74
     0
 42
0.0000000001
 43
0.0000000001
 40
0.0
 40
0.0
 40
0.0
 40
0.0
 40
1.0
 40
1.0
 40
1.0
 40
1.0
 10
63.95863328681684
 20
-40.35514000207188
 30
0.0
 10
63.95982031366637
 20
-40.26862027967854
 30
0.0
 10
63.96061368365376
 20
-40.09616223579803
 30
0.0
 10
63.96061368365376
 20
-40.00983631370707
 30
0.0
  0
SPLINE
  5
96
330
7D
100
AcDbEntity
  8
Camada 1
 62
   250
420
  1907995
370
    15
100
AcDbSpline
210
0.0
220
0.0
230
1.0
 70
     8
 71
     3
 72
     8
 73
     4
 74
     0
 42
0.0000000001
 43
0.0000000001
 40
0.0
 40
0.0
 40
0.0
 40
0.0
 40
1.0
 40
1.0
 40
1.0
 40
1.0
 10
32.06626205072092
 20
-39.66427220618588
 30
0.0
 10
32.06507048167789
 20
-39.75079798483884
 30
0.0
 10
32.06427711168664
 20
-39.92325602871901
 30
0.0
 10
32.06447545418349
 20
-40.00978180737163
 30
0.0
  0
LINE
  5
97
330
7D
100
AcDbEntity
  8
Camada 1
 62
   250
420
  1907995
370
    15
100
AcDbLine
 10
48.01243555625145
 20
-31.09298751139285
 30
0.0
 11
47.5452799279047
 21
-31.09358708107754
 31
0.0
  0
LINE
  5
98
330
7D
100
AcDbEntity
  8
Camada 1
 62
   250
420
  1907995
370
    15
100
AcDbLine
 10
48.01243555625145
 20
-31.09298751139285
 30
0.0
 11
47.5452799279047
 21
-31.09358708107754
 31
0.0
  0
SPLINE
  5
99
330
7D
100
AcDbEntity
  8
Camada 1
 62
   250
420
  1907995
370
    15
100
AcDbSpline
210
0.0
220
0.0
230
1.0
 70
     8
 71
     3
 72
    38
 73
    34
 74
     0
 42
0.0000000001
 43
0.0000000001
 40
0.0
 40
0.0
 40
0.0
 40
0.0
 40
1.0
 40
1.0
 40
1.0
 40
2.0
 40
2.0
 40
2.0
 40
3.0
 40
3.0
 40
3.0
 40
4.0
 40
4.0
 40
4.0
 40
5.0
 40
5.0
 40
5.0
 40
6.0
 40
6.0
 40
6.0
 40
7.0
 40
7.0
 40
7.0
 40
8.0
 40
8.0
 40
8.0
 40
9.0
 40
9.0
 40
9.0
 40
10.0
 40
10.0
 40
10.0
 40
11.0
 40
11.0
 40
11.0
 40
11.0
 10
48.01243555625145
 20
-31.09298751139285
 30
0.0
 10
47.1124572343398
 20
-31.09298751139285
 30
0.0
 10
46.21227905586617
 20
-31.09894687068435
 30
0.0
 10
45.31210390552346
 20
-31.11482032668258
 30
0.0
 10
44.41192875517754
 20
-31.13030012581738
 30
0.0
 10
43.51195043326269
 20
-31.15570007791819
 30
0.0
 10
42.61276850947065
 20
-31.19797276882588
 30
0.0
 10
41.71378038597427
 20
-31.24043926003564
 30
0.0
 10
40.81539183216962
 20
-31.29977849005197
 30
0.0
 10
39.91938338832396
 20
-31.39146420174975
 30
0.0
 10
39.02357480103773
 20
-31.48314385718825
 30
0.0
 10
38.12974661058841
 20
-31.60698225026541
 30
0.0
 10
37.25259130238721
 20
-31.80920075304519
 30
0.0
 10
36.8140151623511
 20
-31.91021310428421
 30
0.0
 10
36.37940587224171
 20
-32.03087196115411
 30
0.0
 10
35.95570996165893
 20
-32.18427701282913
 30
0.0
 10
35.53221693576329
 20
-32.33767600824454
 30
0.0
 10
35.11983411781507
 20
-32.52402711128537
 30
0.0
 10
34.73444253413562
 20
-32.75839829544518
 30
0.0
 10
34.34944612138537
 20
-32.99296327990673
 30
0.0
 10
33.99163777133817
 20
-33.2755604580058
 30
0.0
 10
33.68602226516465
 20
-33.60657743034654
 30
0.0
 10
33.38020841649044
 20
-33.93759440268696
 30
0.0
 10
33.12698409669067
 20
-34.31703116926937
 30
0.0
 10
32.9259526207601
 20
-34.72028720423804
 30
0.0
 10
32.72472280233269
 20
-35.12413675263274
 30
0.0
 10
32.57608402683459
 20
-35.55199936971578
 30
0.0
 10
32.46237018548501
 20
-35.98779568666827
 30
0.0
 10
32.34865785819414
 20
-36.42379186018277
 30
0.0
 10
32.26987197910796
 20
-36.86792764638768
 30
0.0
 10
32.21192417470049
 20
-37.31444354255317
 30
0.0
 10
32.0964267649412
 20
-38.20727547832314
 30
0.0
 10
32.06447545418349
 20
-39.10983376675736
 30
0.0
 10
32.06447545418349
 20
-40.00981208866932
 30
0.0
  0
LINE
  5
9A
330
7D
100
AcDbEntity
  8
Camada 1
 62
   250
420
  1907995
370
    15
100
AcDbLine
 10
48.4896930253448
 20
-31.09352651848346
 30
0.0
 11
48.0124143593414
 21
-31.09293300505805
 31
0.0
  0
LINE
  5
9B
330
7D
100
AcDbEntity
  8
Camada 1
 62
   250
420
  1907995
370
    15
100
AcDbLine
 10
48.4896930253448
 20
-31.09352651848346
 30
0.0
 11
48.0124143593414
 21
-31.09293300505805
 31
0.0
  0
SPLINE
  5
9C
330
7D
100
AcDbEntity
  8
Camada 1
 62
   250
420
  1907995
370
    15
100
AcDbSpline
210
0.0
220
0.0
230
1.0
 70
     8
 71
     3
 72
    38
 73
    34
 74
     0
 42
0.0000000001
 43
0.0000000001
 40
0.0
 40
0.0
 40
0.0
 40
0.0
 40
1.0
 40
1.0
 40
1.0
 40
2.0
 40
2.0
 40
2.0
 40
3.0
 40
3.0
 40
3.0
 40
4.0
 40
4.0
 40
4.0
 40
5.0
 40
5.0
 40
5.0
 40
6.0
 40
6.0
 40
6.0
 40
7.0
 40
7.0
 40
7.0
 40
8.0
 40
8.0
 40
8.0
 40
9.0
 40
9.0
 40
9.0
 40
10.0
 40
10.0
 40
10.0
 40
11.0
 40
11.0
 40
11.0
 40
11.0
 10
63.96051678350402
 20
-40.00973335729644
 30
0.0
 10
63.96051678350402
 20
-39.10995489194615
 30
0.0
 10
63.92856395868053
 20
-38.20740265977153
 30
0.0
 10
63.8130650348593
 20
-37.31456466774261
 30
0.0
 10
63.75511874451377
 20
-36.86804877157647
 30
0.0
 10
63.67633286543143
 20
-36.42391298537156
 30
0.0
 10
63.5624206815773
 20
-35.98791681185739
 30
0.0
 10
63.44870835428323
 20
-35.55212049490457
 30
0.0
 10
63.30006957879284
 20
-35.12425787782122
 30
0.0
 10
63.09903810286226
 20
-34.72040832942715
 30
0.0
 10
62.89800662693554
 20
-34.31695849415578
 30
0.0
 10
62.64438259400987
 20
-33.93751567131441
 30
0.0
 10
62.33896543033321
 20
-33.60649869897335
 30
0.0
 10
62.0335482666527
 20
-33.27548172663293
 30
0.0
 10
61.67554460223636
 20
-32.99288454853417
 30
0.0
 10
61.29034833292733
 20
-32.75851336437437
 30
0.0
 10
60.90515206361316
 20
-32.52394837991282
 30
0.0
 10
60.49257544535837
 20
-32.33779713343333
 30
0.0
 10
60.06927924790086
 20
-32.18439813801792
 30
0.0
 10
59.64558333731424
 20
-32.03099308634322
 30
0.0
 10
59.21117390377133
 20
-31.91033422947332
 30
0.0
 10
58.77219805061253
 20
-31.80912202167264
 30
0.0
 10
57.89524259897138
 20
-31.60690351889254
 30
0.0
 10
57.00141743665042
 20
-31.48307118207466
 30
0.0
 10
56.10560582123969
 20
-31.39138547037687
 30
0.0
 10
55.2094005489591
 20
-31.2996997586791
 30
0.0
 10
54.31120882358232
 20
-31.24036052866308
 30
0.0
 10
53.41222372821686
 20
-31.19809389401468
 30
0.0
 10
52.51323863285652
 20
-31.1558212031073
 30
0.0
 10
51.61306045437839
 20
-31.13042125100618
 30
0.0
 10
50.71288530403954
 20
-31.11474159531002
 30
0.0
 10
49.8127101536901
 20
-31.09906193961323
 30
0.0
 10
48.9127318317823
 20
-31.09291483627957
 30
0.0
 10
48.01235682487696
 20
-31.09291483627957
 30
0.0
  0
LINE
  5
9D
330
7D
100
AcDbEntity
  8
Camada 1
 62
   250
420
  1907995
370
    15
100
AcDbLine
 10
48.01243555625145
 20
-48.92647920319972
 30
0.0
 11
48.47978801302989
 21
-48.92588568977431
 31
0.0
  0
LINE
  5
9E
330
7D
100
AcDbEntity
  8
Camada 1
 62
   250
420
  1907995
370
    15
100
AcDbLine
 10
48.01243555625145
 20
-48.92647920319972
 30
0.0
 11
48.47978801302989
 21
-48.92588568977431
 31
0.0
  0
SPLINE
  5
9F
330
7D
100
AcDbEntity
  8
Camada 1
 62
   250
420
  1907995
370
    15
100
AcDbSpline
210
0.0
220
0.0
230
1.0
 70
     8
 71
     3
 72
    38
 73
    34
 74
     0
 42
0.0000000001
 43
0.0000000001
 40
0.0
 40
0.0
 40
0.0
 40
0.0
 40
1.0
 40
1.0
 40
1.0
 40
2.0
 40
2.0
 40
2.0
 40
3.0
 40
3.0
 40
3.0
 40
4.0
 40
4.0
 40
4.0
 40
5.0
 40
5.0
 40
5.0
 40
6.0
 40
6.0
 40
6.0
 40
7.0
 40
7.0
 40
7.0
 40
8.0
 40
8.0
 40
8.0
 40
9.0
 40
9.0
 40
9.0
 40
10.0
 40
10.0
 40
10.0
 40
11.0
 40
11.0
 40
11.0
 40
11.0
 10
48.01243555625145
 20
-48.92647920319972
 30
0.0
 10
48.91261070659415
 20
-48.92647920319972
 30
0.0
 10
49.81278585693686
 20
-48.92033209986575
 30
0.0
 10
50.71296100728246
 20
-48.90465244416991
 30
0.0
 10
51.61293932919025
 20
-48.8891726450351
 30
0.0
 10
52.51311750766452
 20
-48.86357283637231
 30
0.0
 10
53.4122994314572
 20
-48.82130014546493
 30
0.0
 10
54.31128452682523
 20
-48.77903351081652
 30
0.0
 10
55.20947625220202
 20
-48.7196942808002
 30
0.0
 10
56.10568455260646
 20
-48.62800856910274
 30
0.0
 10
57.00149313989335
 20
-48.53632891366423
 30
0.0
 10
57.89512147378323
 20
-48.41229672028468
 30
0.0
 10
58.77227678198444
 20
-48.21027201780697
 30
0.0
 10
59.21105277858318
 20
-48.10925966656796
 30
0.0
 10
59.64546221211967
 20
-47.98840095313638
 30
0.0
 10
60.06915812270886
 20
-47.83519575802304
 30
0.0
 10
60.4926541767367
 20
-47.68159690604628
 30
0.0
 10
60.90523079498764
 20
-47.49544565956679
 30
0.0
 10
61.29042706429796
 20
-47.26088067510492
 30
0.0
 10
61.67542347704564
 20
-47.02650949094544
 30
0.0
 10
62.0334271414607
 20
-46.74391231284604
 30
0.0
 10
62.33904416170385
 20
-46.41289534050562
 30
0.0
 10
62.64446132538051
 20
-46.0818783681652
 30
0.0
 10
62.8978855017474
 20
-45.7024416015828
 30
0.0
 10
63.0991168342406
 20
-45.29918556661445
 30
0.0
 10
63.30014831016732
 20
-44.89513616165807
 30
0.0
 10
63.44878708566156
 20
-44.46747340113639
 30
0.0
 10
63.56249941295178
 20
-44.03167708418389
 30
0.0
 10
63.67641159679821
 20
-43.59548105410773
 30
0.0
 10
63.75499761932562
 20
-43.15154512446449
 30
0.0
 10
63.81294390967115
 20
-42.704829371737
 30
0.0
 10
63.92844283349623
 20
-41.81199743596735
 30
0.0
 10
63.96058945861536
 20
-40.90943914753314
 30
0.0
 10
63.96058945861536
 20
-40.00966068218317
 30
0.0
  0
LINE
  5
A0
330
7D
100
AcDbEntity
  8
Camada 1
 62
   250
420
  1907995
370
    15
100
AcDbLine
 10
47.53533857803219
 20
-48.92594019610942
 30
0.0
 11
48.0124143593414
 21
-48.92653976579411
 31
0.0
  0
LINE
  5
A1
330
7D
100
AcDbEntity
  8
Camada 1
 62
   250
420
  1907995
370
    15
100
AcDbLine
 10
47.53533857803219
 20
-48.92594019610942
 30
0.0
 11
48.0124143593414
 21
-48.92653976579411
 31
0.0
  0
SPLINE
  5
A2
330
7D
100
AcDbEntity
  8
Camada 1
 62
   250
420
  1907995
370
    15
100
AcDbSpline
210
0.0
220
0.0
230
1.0
 70
     8
 71
     3
 72
    38
 73
    34
 74
     0
 42
0.0000000001
 43
0.0000000001
 40
0.0
 40
0.0
 40
0.0
 40
0.0
 40
1.0
 40
1.0
 40
1.0
 40
2.0
 40
2.0
 40
2.0
 40
3.0
 40
3.0
 40
3.0
 40
4.0
 40
4.0
 40
4.0
 40
5.0
 40
5.0
 40
5.0
 40
6.0
 40
6.0
 40
6.0
 40
7.0
 40
7.0
 40
7.0
 40
8.0
 40
8.0
 40
8.0
 40
9.0
 40
9.0
 40
9.0
 40
10.0
 40
10.0
 40
10.0
 40
11.0
 40
11.0
 40
11.0
 40
11.0
 10
32.06449665109033
 20
-40.00973335729644
 30
0.0
 10
32.06449665109033
 20
-40.90951787890602
 30
0.0
 10
32.0962481052854
 20
-41.81207011108063
 30
0.0
 10
32.21194537160733
 20
-42.70490810310987
 30
0.0
 10
32.26989317601479
 20
-43.15142399927569
 30
0.0
 10
32.34867905510483
 20
-43.59535992891894
 30
0.0
 10
32.46239138239185
 20
-44.0315559589951
 30
0.0
 10
32.57610370968271
 20
-44.4673522759476
 30
0.0
 10
32.72474399923952
 20
-44.89521489303095
 30
0.0
 10
32.92597381766694
 20
-45.29906444142502
 30
0.0
 10
33.12700529359687
 20
-45.70251427669639
 30
0.0
 10
33.38022961340112
 20
-46.08195709953808
 30
0.0
 10
33.68604346207148
 20
-46.41297407187882
 30
0.0
 10
33.991658968245
 20
-46.74399104421924
 30
0.0
 10
34.34946731829541
 20
-47.02658216605871
 30
0.0
 10
34.73446221698053
 20
-47.26095335021819
 30
0.0
 10
35.11965545816249
 20
-47.495324534378
 30
0.0
 10
35.53223813267334
 20
-47.68167563741883
 30
0.0
 10
35.95573115856577
 20
-47.83507463283425
 30
0.0
 10
36.37922721259297
 20
-47.98847968450862
 30
0.0
 10
36.8138365026953
 20
-48.10933839794052
 30
0.0
 10
37.25261249929404
 20
-48.21015089261786
 30
0.0
 10
38.12976780749204
 20
-48.4123693953986
 30
0.0
 10
39.02359599794456
 20
-48.53640158877784
 30
0.0
 10
39.9194045852308
 20
-48.62788744391362
 30
0.0
 10
40.81541302907646
 20
-48.7197730121734
 30
0.0
 10
41.71380461101587
 20
-48.77911224218941
 30
0.0
 10
42.61278970638069
 20
-48.82137887683717
 30
0.0
 10
43.51177480174167
 20
-48.86365156774487
 30
0.0
 10
44.41194995208437
 20
-48.88905151984599
 30
0.0
 10
45.31212510243029
 20
-48.90473117554215
 30
0.0
 10
46.21230328090457
 20
-48.92040477497902
 30
0.0
 10
47.1122785746808
 20
-48.92655793457259
 30
0.0
 10
48.01245675315828
 20
-48.92655793457259
 30
0.0
  0
SPLINE
  5
A3
330
7D
100
AcDbEntity
  8
Camada 1
 62
   250
420
  1907995
370
    15
100
AcDbSpline
210
0.0
220
0.0
230
1.0
 70
     9
 71
     3
 72
    17
 73
    13
 74
     0
 42
0.0000000001
 43
0.0000000001
 40
0.0
 40
0.0
 40
0.0
 40
0.0
 40
1.0
 40
1.0
 40
1.0
 40
2.0
 40
2.0
 40
2.0
 40
3.0
 40
3.0
 40
3.0
 40
4.0
 40
4.0
 40
4.0
 40
4.0
 10
48.70165907769791
 20
-34.11774995231863
 30
0.0
 10
48.70165907769791
 20
-33.73712010262613
 30
0.0
 10
48.39306540594265
 20
-33.42872931556251
 30
0.0
 10
48.01263541281087
 20
-33.42872931556251
 30
0.0
 10
47.63200253499129
 20
-33.42872931556251
 30
0.0
 10
47.3234118913644
 20
-33.73712010262613
 30
0.0
 10
47.3234118913644
 20
-34.11774995231863
 30
0.0
 10
47.3234118913644
 20
-34.4983858582704
 30
0.0
 10
47.63200253499129
 20
-34.80677664533434
 30
0.0
 10
48.01263541281087
 20
-34.80677664533434
 30
0.0
 10
48.39306540594265
 20
-34.80677664533434
 30
0.0
 10
48.70165907769791
 20
-34.4983858582704
 30
0.0
 10
48.70165907769791
 20
-34.11774995231863
 30
0.0
  0
LINE
  5
A4
330
7D
100
AcDbEntity
  8
Camada 1
  6
AI-Linetype-0
 62
   250
420
  1907995
370
    15
100
AcDbLine
 10
47.02809656843371
 20
-34.11774995231863
 30
0.0
 11
48.99693200681171
 21
-34.11774995231863
 31
0.0
  0
LINE
  5
A6
330
7D
100
AcDbEntity
  8
Camada 1
  6
AI-Linetype-1
 62
   250
420
  1907995
370
    15
100
AcDbLine
 10
48.01249611884038
 20
-33.13318991103464
 30
0.0
 11
48.01269294727145
 21
-35.10203140566807
 31
0.0
  0
SPLINE
  5
A8
330
7D
100
AcDbEntity
  8
Camada 1
  6
AI-Linetype-2
 62
   250
420
  1907995
370
    15
100
AcDbSpline
210
0.0
220
0.0
230
1.0
 70
     9
 71
     3
 72
    17
 73
    13
 74
     0
 42
0.0000000001
 43
0.0000000001
 40
0.0
 40
0.0
 40
0.0
 40
0.0
 40
1.0
 40
1.0
 40
1.0
 40
2.0
 40
2.0
 40
2.0
 40
3.0
 40
3.0
 40
3.0
 40
4.0
 40
4.0
 40
4.0
 40
4.0
 10
48.91817035276329
 20
-39.22392763839179
 30
0.0
 10
48.91817035276329
 20
-38.72363215837813
 30
0.0
 10
48.51273103626478
 20
-38.31819587000992
 30
0.0
 10
48.01283224124193
 20
-38.31819587000992
 30
0.0
 10
47.5125367612286
 20
-38.31819587000992
 30
0.0
 10
47.10690061629903
 20
-38.72363215837813
 30
0.0
 10
47.10690061629903
 20
-39.22392763839179
 30
0.0
 10
47.10690061629903
 20
-39.72422917466505
 30
0.0
 10
47.5125367612286
 20
-40.12966546303327
 30
0.0
 10
48.01283224124193
 20
-40.12966546303327
 30
0.0
 10
48.51273103626478
 20
-40.12966546303327
 30
0.0
 10
48.91817035276329
 20
-39.72422917466505
 30
0.0
 10
48.91817035276329
 20
-39.22392763839179
 30
0.0
  0
LINE
  5
AA
330
7D
100
AcDbEntity
  8
Camada 1
  6
AI-Linetype-3
 62
   250
420
  1907995
370
    15
100
AcDbLine
 10
48.01249611884038
 20
-37.45199330700812
 30
0.0
 11
48.01249611884038
 21
-40.99634041427167
 31
0.0
  0
LINE
  5
AC
330
7D
100
AcDbEntity
  8
Camada 1
  6
AI-Linetype-4
 62
   250
420
  1907995
370
    15
100
AcDbLine
 10
46.24050122486841
 20
-39.22392763839179
 30
0.0
 11
49.78444559087803
 21
-39.22392763839179
 31
0.0
  0
SPLINE
  5
AE
330
7D
100
AcDbEntity
  8
Camada 1
 62
   250
420
  1907995
370
    15
100
AcDbSpline
210
0.0
220
0.0
230
1.0
 70
     9
 71
     3
 72
    17
 73
    13
 74
     0
 42
0.0000000001
 43
0.0000000001
 40
0.0
 40
0.0
 40
0.0
 40
0.0
 40
1.0
 40
1.0
 40
1.0
 40
2.0
 40
2.0
 40
2.0
 40
3.0
 40
3.0
 40
3.0
 40
4.0
 40
4.0
 40
4.0
 40
4.0
 10
49.55795662838254
 20
-39.22412143869387
 30
0.0
 10
49.55795662838254
 20
-38.37058251418632
 30
0.0
 10
48.8661531404074
 20
-37.67858219778396
 30
0.0
 10
48.01261421590403
 20
-37.67858219778396
 30
0.0
 10
47.15907226326203
 20
-37.67858219778396
 30
0.0
 10
46.46727180342552
 20
-38.37058251418632
 30
0.0
 10
46.46727180342552
 20
-39.22412143869387
 30
0.0
 10
46.46727180342552
 20
-40.077666419461
 30
0.0
 10
47.15907226326203
 20
-40.76946687930169
 30
0.0
 10
48.01261421590403
 20
-40.76946687930169
 30
0.0
 10
48.8661531404074
 20
-40.76946687930169
 30
0.0
 10
49.55795662838254
 20
-40.077666419461
 30
0.0
 10
49.55795662838254
 20
-39.22412143869387
 30
0.0
  0
SPLINE
  5
AF
330
7D
100
AcDbEntity
  8
Camada 1
 62
   250
420
  1907995
370
    15
100
AcDbSpline
210
0.0
220
0.0
230
1.0
 70
     9
 71
     3
 72
    17
 73
    13
 74
     0
 42
0.0000000001
 43
0.0000000001
 40
0.0
 40
0.0
 40
0.0
 40
0.0
 40
1.0
 40
1.0
 40
1.0
 40
2.0
 40
2.0
 40
2.0
 40
3.0
 40
3.0
 40
3.0
 40
4.0
 40
4.0
 40
4.0
 40
4.0
 10
49.43023314487187
 20
-39.22412143869387
 30
0.0
 10
49.43023314487187
 20
-38.44123483684072
 30
0.0
 10
48.79558257726193
 20
-37.80658729735753
 30
0.0
 10
48.01249309071588
 20
-37.80658729735753
 30
0.0
 10
47.22960346073246
 20
-37.80658729735753
 30
0.0
 10
46.59495592125023
 20
-38.44123483684072
 30
0.0
 10
46.59495592125023
 20
-39.22412143869387
 30
0.0
 10
46.59495592125023
 20
-40.00701409680724
 30
0.0
 10
47.22960346073246
 20
-40.64166163628978
 30
0.0
 10
48.01249309071588
 20
-40.64166163628978
 30
0.0
 10
48.79558257726193
 20
-40.64166163628978
 30
0.0
 10
49.43023314487187
 20
-40.00701409680724
 30
0.0
 10
49.43023314487187
 20
-39.22412143869387
 30
0.0
  0
LINE
  5
B0
330
7D
100
AcDbEntity
  8
Camada 1
 62
   250
420
  1907995
370
    15
100
AcDbLine
 10
33.71160390504928
 20
-67.22745961762107
 30
0.0
 11
33.77471012843483
 21
-67.05401440345173
 31
0.0
  0
LINE
  5
B1
330
7D
100
AcDbEntity
  8
Camada 1
 62
   250
420
  1907995
370
    15
100
AcDbLine
 10
58.98489993848218
 20
-70.53689350550552
 30
0.0
 11
50.03096563147922
 21
-70.85025042531157
 31
0.0
  0
LINE
  5
B2
330
7D
100
AcDbEntity
  8
Camada 1
 62
   250
420
  1907995
370
    15
100
AcDbLine
 10
59.00478566636647
 20
-70.06330915776191
 30
0.0
 11
49.72658106003469
 21
-70.387979170207
 31
0.0
  0
LINE
  5
B3
330
7D
100
AcDbEntity
  8
Camada 1
 62
   250
420
  1907995
370
    15
100
AcDbLine
 10
48.91661995034545
 20
-71.33459068982514
 30
0.0
 11
49.42941857797443
 21
-71.33459068982514
 31
0.0
  0
LINE
  5
B4
330
7D
100
AcDbEntity
  8
Camada 1
 62
   250
420
  1907995
370
    15
100
AcDbLine
 10
37.04023159316875
 20
-70.53689350550552
 30
0.0
 11
45.99416287205008
 21
-70.85025042531157
 31
0.0
  0
LINE
  5
B5
330
7D
100
AcDbEntity
  8
Camada 1
 62
   250
420
  1907995
370
    15
100
AcDbLine
 10
37.020367062199
 20
-70.06330915776191
 30
0.0
 11
46.29876849696088
 21
-70.387979170207
 31
0.0
  0
LINE
  5
B6
330
7D
100
AcDbEntity
  8
Camada 1
 62
   250
420
  1907995
370
    15
100
AcDbLine
 10
33.58227248465699
 20
-67.31823083414297
 30
0.0
 11
36.02560525188066
 21
-67.31823083414297
 31
0.0
  0
LINE
  5
B7
330
7D
100
AcDbEntity
  8
Camada 1
 62
   250
420
  1907995
370
    15
100
AcDbLine
 10
59.99944452027193
 20
-67.31823083414297
 30
0.0
 11
62.44277577342981
 21
-67.31823083414297
 31
0.0
  0
LINE
  5
B8
330
7D
100
AcDbEntity
  8
Camada 1
 62
   250
420
  1907995
370
    15
100
AcDbLine
 10
32.94052095284707
 20
-67.18040248175475
 30
0.0
 11
33.1153560785582
 21
-67.18040248175475
 31
0.0
  0
LINE
  5
B9
330
7D
100
AcDbEntity
  8
Camada 1
 62
   250
420
  1907995
370
    15
100
AcDbLine
 10
62.90969520766017
 20
-67.18040248175475
 30
0.0
 11
63.08452730524294
 21
-67.18040248175475
 31
0.0
  0
LINE
  5
BA
330
7D
100
AcDbEntity
  8
Camada 1
 62
   250
420
  1907995
370
    15
100
AcDbLine
 10
33.95946994931219
 20
-66.92426510115891
 30
0.0
 11
35.80447305086717
 21
-66.92426510115891
 31
0.0
  0
LINE
  5
BB
330
7D
100
AcDbEntity
  8
Camada 1
 62
   250
420
  1907995
370
    15
100
AcDbLine
 10
60.22057672128799
 20
-66.92426510115891
 30
0.0
 11
62.06557982284297
 21
-66.92426510115891
 31
0.0
  0
LINE
  5
BC
330
7D
100
AcDbEntity
  8
Camada 1
 62
   250
420
  1907995
370
    15
100
AcDbLine
 10
36.25097077825354
 20
-66.45176785198607
 30
0.0
 11
59.7742213159966
 21
-66.45176785198607
 31
0.0
  0
LINE
  5
BD
330
7D
100
AcDbEntity
  8
Camada 1
 62
   250
420
  1907995
370
    15
100
AcDbLine
 10
62.25051981743227
 20
-67.05395384085766
 30
0.0
 11
62.31362604082487
 21
-67.22740511128626
 31
0.0
  0
SPLINE
  5
BE
330
7D
100
AcDbEntity
  8
Camada 1
 62
   250
420
  1907995
370
    15
100
AcDbSpline
210
0.0
220
0.0
230
1.0
 70
     8
 71
     3
 72
     8
 73
     4
 74
     0
 42
0.0000000001
 43
0.0000000001
 40
0.0
 40
0.0
 40
0.0
 40
0.0
 40
1.0
 40
1.0
 40
1.0
 40
1.0
 10
46.54268434600206
 20
-70.66467755160897
 30
0.0
 10
46.5460576825085
 20
-70.66785405968627
 30
0.0
 10
46.55260449896839
 20
-70.67361053428712
 30
0.0
 10
46.55637452046788
 20
-70.67658718580307
 30
0.0
  0
SPLINE
  5
BF
330
7D
100
AcDbEntity
  8
Camada 1
 62
   250
420
  1907995
370
    15
100
AcDbSpline
210
0.0
220
0.0
230
1.0
 70
     8
 71
     3
 72
     8
 73
     4
 74
     0
 42
0.0000000001
 43
0.0000000001
 40
0.0
 40
0.0
 40
0.0
 40
0.0
 40
1.0
 40
1.0
 40
1.0
 40
1.0
 10
32.11889094527747
 20
-65.63073892816501
 30
0.0
 10
32.04645505421239
 20
-65.7289775125797
 30
0.0
 10
32.04645505421239
 20
-65.88634941418817
 30
0.0
 10
32.11889094527747
 20
-65.98438208578224
 30
0.0
  0
SPLINE
  5
C0
330
7D
100
AcDbEntity
  8
Camada 1
 62
   250
420
  1907995
370
    15
100
AcDbSpline
210
0.0
220
0.0
230
1.0
 70
     8
 71
     3
 72
     8
 73
     4
 74
     0
 42
0.0000000001
 43
0.0000000001
 40
0.0
 40
0.0
 40
0.0
 40
0.0
 40
1.0
 40
1.0
 40
1.0
 40
1.0
 10
32.11889094527747
 20
-66.27175765258098
 30
0.0
 10
32.04645505421239
 20
-66.36999623699438
 30
0.0
 10
32.04645505421239
 20
-66.52736813860413
 30
0.0
 10
32.11889094527747
 20
-66.62540081019819
 30
0.0
  0
SPLINE
  5
C1
330
7D
100
AcDbEntity
  8
Camada 1
 62
   250
420
  1907995
370
    15
100
AcDbSpline
210
0.0
220
0.0
230
1.0
 70
     8
 71
     3
 72
     8
 73
     4
 74
     0
 42
0.0000000001
 43
0.0000000001
 40
0.0
 40
0.0
 40
0.0
 40
0.0
 40
1.0
 40
1.0
 40
1.0
 40
1.0
 10
32.11889094527747
 20
-66.91273398318067
 30
0.0
 10
32.05538500876667
 20
-66.9972793649967
 30
0.0
 10
32.04625671171554
 20
-67.13956512433506
 30
0.0
 10
32.0982512130988
 20
-67.23165054915522
 30
0.0
  0
SPLINE
  5
C2
330
7D
100
AcDbEntity
  8
Camada 1
 62
   250
420
  1907995
370
    15
100
AcDbSpline
210
0.0
220
0.0
230
1.0
 70
     8
 71
     3
 72
     8
 73
     4
 74
     0
 42
0.0000000001
 43
0.0000000001
 40
0.0
 40
0.0
 40
0.0
 40
0.0
 40
1.0
 40
1.0
 40
1.0
 40
1.0
 10
32.11889094527747
 20
-66.27175765258098
 30
0.0
 10
32.17763211967233
 20
-66.19218445976795
 30
0.0
 10
32.17763211967233
 20
-66.06417936019373
 30
0.0
 10
32.11889094527747
 20
-65.98440025456007
 30
0.0
  0
SPLINE
  5
C3
330
7D
100
AcDbEntity
  8
Camada 1
 62
   250
420
  1907995
370
    15
100
AcDbSpline
210
0.0
220
0.0
230
1.0
 70
     8
 71
     3
 72
     8
 73
     4
 74
     0
 42
0.0000000001
 43
0.0000000001
 40
0.0
 40
0.0
 40
0.0
 40
0.0
 40
1.0
 40
1.0
 40
1.0
 40
1.0
 10
32.11889094527747
 20
-66.91273398318067
 30
0.0
 10
32.17763211967233
 20
-66.83316079036766
 30
0.0
 10
32.17763211967233
 20
-66.70515569079473
 30
0.0
 10
32.11889094527747
 20
-66.62537658515979
 30
0.0
  0
SPLINE
  5
C4
330
7D
100
AcDbEntity
  8
Camada 1
 62
   250
420
  1907995
370
    15
100
AcDbSpline
210
0.0
220
0.0
230
1.0
 70
     8
 71
     3
 72
     8
 73
     4
 74
     0
 42
0.0000000001
 43
0.0000000001
 40
0.0
 40
0.0
 40
0.0
 40
0.0
 40
1.0
 40
1.0
 40
1.0
 40
1.0
 10
32.11889094527747
 20
-65.63073892816501
 30
0.0
 10
32.18021208619394
 20
-65.54679917229361
 30
0.0
 10
32.17703709218179
 20
-65.41462736622363
 30
0.0
 10
32.11174607319869
 20
-65.33346137717781
 30
0.0
  0
SPLINE
  5
C5
330
7D
100
AcDbEntity
  8
Camada 1
 62
   250
420
  1907995
370
    15
100
AcDbSpline
210
0.0
220
0.0
230
1.0
 70
     8
 71
     3
 72
    11
 73
     7
 74
     0
 42
0.0000000001
 43
0.0000000001
 40
0.0
 40
0.0
 40
0.0
 40
0.0
 40
1.0
 40
1.0
 40
1.0
 40
2.0
 40
2.0
 40
2.0
 40
2.0
 10
32.29817287948468
 20
-64.95556290049275
 30
0.0
 10
32.16798752650899
 20
-64.95675598360285
 30
0.0
 10
32.06360183876225
 20
-65.06352178131241
 30
0.0
 10
32.06459506531292
 20
-65.19390699084754
 30
0.0
 10
32.06261012627801
 20
-65.23677319517966
 30
0.0
 10
32.08424157093772
 20
-65.30087264511717
 30
0.0
 10
32.11182631863574
 20
-65.33361883992292
 30
0.0
  0
SPLINE
  5
C6
330
7D
100
AcDbEntity
  8
Camada 1
 62
   250
420
  1907995
370
    15
100
AcDbSpline
210
0.0
220
0.0
230
1.0
 70
     8
 71
     3
 72
     8
 73
     4
 74
     0
 42
0.0000000001
 43
0.0000000001
 40
0.0
 40
0.0
 40
0.0
 40
0.0
 40
1.0
 40
1.0
 40
1.0
 40
1.0
 10
32.48856653570445
 20
-65.10912541491319
 30
0.0
 10
32.47149848252907
 20
-65.02240583595818
 30
0.0
 10
32.3869591569736
 20
-64.95393982296228
 30
0.0
 10
32.29844995335216
 20
-64.95552656293708
 30
0.0
  0
SPLINE
  5
C7
330
7D
100
AcDbEntity
  8
Camada 1
 62
   250
420
  1907995
370
    15
100
AcDbSpline
210
0.0
220
0.0
230
1.0
 70
     8
 71
     3
 72
     8
 73
     4
 74
     0
 42
0.0000000001
 43
0.0000000001
 40
0.0
 40
0.0
 40
0.0
 40
0.0
 40
1.0
 40
1.0
 40
1.0
 40
1.0
 10
33.95946994931219
 20
-66.92426510115891
 30
0.0
 10
33.8808824127222
 20
-66.92129147777324
 30
0.0
 10
33.79872319712636
 20
-66.97903791155614
 30
0.0
 10
33.77451178594119
 20
-67.05405679726798
 30
0.0
  0
SPLINE
  5
C8
330
7D
100
AcDbEntity
  8
Camada 1
 62
   250
420
  1907995
370
    15
100
AcDbSpline
210
0.0
220
0.0
230
1.0
 70
     8
 71
     3
 72
     8
 73
     4
 74
     0
 42
0.0000000001
 43
0.0000000001
 40
0.0
 40
0.0
 40
0.0
 40
0.0
 40
1.0
 40
1.0
 40
1.0
 40
1.0
 10
46.14127547016233
 20
-70.9246091787453
 30
0.0
 10
46.11190261186431
 20
-70.88253937252955
 30
0.0
 10
46.04542305196911
 20
-70.84899980773768
 30
0.0
 10
45.99422040651131
 20
-70.8501898627175
 30
0.0
  0
SPLINE
  5
C9
330
7D
100
AcDbEntity
  8
Camada 1
 62
   250
420
  1907995
370
    15
100
AcDbSpline
210
0.0
220
0.0
230
1.0
 70
     8
 71
     3
 72
     8
 73
     4
 74
     0
 42
0.0000000001
 43
0.0000000001
 40
0.0
 40
0.0
 40
0.0
 40
0.0
 40
1.0
 40
1.0
 40
1.0
 40
1.0
 10
46.59559182848867
 20
-71.33459068982514
 30
0.0
 10
46.59340854696011
 20
-71.29867101507237
 30
0.0
 10
46.56701234018124
 20
-71.25163810424318
 30
0.0
 10
46.53803919500912
 20
-71.23080154363151
 30
0.0
  0
SPLINE
  5
CA
330
7D
100
AcDbEntity
  8
Camada 1
 62
   250
420
  1907995
370
    15
100
AcDbSpline
210
0.0
220
0.0
230
1.0
 70
     8
 71
     3
 72
     8
 73
     4
 74
     0
 42
0.0000000001
 43
0.0000000001
 40
0.0
 40
0.0
 40
0.0
 40
0.0
 40
1.0
 40
1.0
 40
1.0
 40
1.0
 10
33.58227248465699
 20
-67.31823083414297
 30
0.0
 10
33.63704378098971
 20
-67.32021728724046
 30
0.0
 10
33.69459490040348
 20
-67.27993104943057
 30
0.0
 10
33.71166143951308
 20
-67.22754440525354
 30
0.0
  0
SPLINE
  5
CB
330
7D
100
AcDbEntity
  8
Camada 1
 62
   250
420
  1907995
370
    15
100
AcDbSpline
210
0.0
220
0.0
230
1.0
 70
     8
 71
     3
 72
     8
 73
     4
 74
     0
 42
0.0000000001
 43
0.0000000001
 40
0.0
 40
0.0
 40
0.0
 40
0.0
 40
1.0
 40
1.0
 40
1.0
 40
1.0
 10
46.38491575939797
 20
-70.43026397363423
 30
0.0
 10
46.36725267873525
 20
-70.4064507615066
 30
0.0
 10
46.32815649590261
 20
-70.38720396899873
 30
0.0
 10
46.29858680917352
 20
-70.38779748242349
 30
0.0
  0
SPLINE
  5
CC
330
7D
100
AcDbEntity
  8
Camada 1
 62
   250
420
  1907995
370
    15
100
AcDbSpline
210
0.0
220
0.0
230
1.0
 70
     8
 71
     3
 72
     8
 73
     4
 74
     0
 42
0.0000000001
 43
0.0000000001
 40
0.0
 40
0.0
 40
0.0
 40
0.0
 40
1.0
 40
1.0
 40
1.0
 40
1.0
 10
46.64347867190125
 20
-70.73604148474763
 30
0.0
 10
46.64784220682936
 20
-70.73862145127117
 30
0.0
 10
46.65617864795181
 20
-70.74378138431566
 30
0.0
 10
46.66054521101148
 20
-70.74616452240558
 30
0.0
  0
SPLINE
  5
CD
330
7D
100
AcDbEntity
  8
Camada 1
 62
   250
420
  1907995
370
    15
100
AcDbSpline
210
0.0
220
0.0
230
1.0
 70
     8
 71
     3
 72
     8
 73
     4
 74
     0
 42
0.0000000001
 43
0.0000000001
 40
0.0
 40
0.0
 40
0.0
 40
0.0
 40
1.0
 40
1.0
 40
1.0
 40
1.0
 10
49.47105536164336
 20
-70.67474002667285
 30
0.0
 10
49.47343547160619
 20
-70.67275660170564
 30
0.0
 10
49.47780203465882
 20
-70.6689865802023
 30
0.0
 10
49.47998531619058
 20
-70.66680329867374
 30
0.0
  0
SPLINE
  5
CE
330
7D
100
AcDbEntity
  8
Camada 1
 62
   250
420
  1907995
370
    15
100
AcDbSpline
210
0.0
220
0.0
230
1.0
 70
     8
 71
     3
 72
     8
 73
     4
 74
     0
 42
0.0000000001
 43
0.0000000001
 40
0.0
 40
0.0
 40
0.0
 40
0.0
 40
1.0
 40
1.0
 40
1.0
 40
1.0
 10
63.90618002378516
 20
-65.98441842333791
 30
0.0
 10
63.97861288671546
 20
-65.88638575174513
 30
0.0
 10
63.97861288671546
 20
-65.72901385013539
 30
0.0
 10
63.90618002378516
 20
-65.63078132197997
 30
0.0
  0
SPLINE
  5
CF
330
7D
100
AcDbEntity
  8
Camada 1
 62
   250
420
  1907995
370
    15
100
AcDbSpline
210
0.0
220
0.0
230
1.0
 70
     8
 71
     3
 72
     8
 73
     4
 74
     0
 42
0.0000000001
 43
0.0000000001
 40
0.0
 40
0.0
 40
0.0
 40
0.0
 40
1.0
 40
1.0
 40
1.0
 40
1.0
 10
63.90618002378516
 20
-66.62541292271675
 30
0.0
 10
63.97861288671546
 20
-66.52738025112397
 30
0.0
 10
63.97861288671546
 20
-66.37000834951422
 30
0.0
 10
63.90618002378516
 20
-66.2717758213588
 30
0.0
  0
SPLINE
  5
D0
330
7D
100
AcDbEntity
  8
Camada 1
 62
   250
420
  1907995
370
    15
100
AcDbSpline
210
0.0
220
0.0
230
1.0
 70
     8
 71
     3
 72
     8
 73
     4
 74
     0
 42
0.0000000001
 43
0.0000000001
 40
0.0
 40
0.0
 40
0.0
 40
0.0
 40
1.0
 40
1.0
 40
1.0
 40
1.0
 10
63.9266804619972
 20
-67.23152336770779
 30
0.0
 10
63.97886724961418
 20
-67.13964385570697
 30
0.0
 10
63.96974046663269
 20
-66.99735204010933
 30
0.0
 10
63.90623453012124
 20
-66.91261285799253
 30
0.0
  0
SPLINE
  5
D1
330
7D
100
AcDbEntity
  8
Camada 1
 62
   250
420
  1907995
370
    15
100
AcDbSpline
210
0.0
220
0.0
230
1.0
 70
     8
 71
     3
 72
     8
 73
     4
 74
     0
 42
0.0000000001
 43
0.0000000001
 40
0.0
 40
0.0
 40
0.0
 40
0.0
 40
1.0
 40
1.0
 40
1.0
 40
1.0
 10
63.90618002378516
 20
-65.98441842333791
 30
0.0
 10
63.84763416375559
 20
-66.06419752897285
 30
0.0
 10
63.84763416375559
 20
-66.19220262854579
 30
0.0
 10
63.90618002378516
 20
-66.27178187761808
 30
0.0
  0
SPLINE
  5
D2
330
7D
100
AcDbEntity
  8
Camada 1
 62
   250
420
  1907995
370
    15
100
AcDbSpline
210
0.0
220
0.0
230
1.0
 70
     8
 71
     3
 72
     8
 73
     4
 74
     0
 42
0.0000000001
 43
0.0000000001
 40
0.0
 40
0.0
 40
0.0
 40
0.0
 40
1.0
 40
1.0
 40
1.0
 40
1.0
 10
63.90618002378516
 20
-66.62541292271675
 30
0.0
 10
63.84763416375559
 20
-66.70519202835039
 30
0.0
 10
63.84763416375559
 20
-66.8331971279246
 30
0.0
 10
63.90618002378516
 20
-66.91277637699691
 30
0.0
  0
SPLINE
  5
D3
330
7D
100
AcDbEntity
  8
Camada 1
 62
   250
420
  1907995
370
    15
100
AcDbSpline
210
0.0
220
0.0
230
1.0
 70
     8
 71
     3
 72
     8
 73
     4
 74
     0
 42
0.0000000001
 43
0.0000000001
 40
0.0
 40
0.0
 40
0.0
 40
0.0
 40
1.0
 40
1.0
 40
1.0
 40
1.0
 10
63.91338091626195
 20
-65.3335158835126
 30
0.0
 10
63.84808838321308
 20
-65.4146879288177
 30
0.0
 10
63.84471504670727
 20
-65.54665382206704
 30
0.0
 10
63.90623453012124
 20
-65.63079949075909
 30
0.0
  0
SPLINE
  5
D4
330
7D
100
AcDbEntity
  8
Camada 1
 62
   250
420
  1907995
370
    15
100
AcDbSpline
210
0.0
220
0.0
230
1.0
 70
     8
 71
     3
 72
    11
 73
     7
 74
     0
 42
0.0000000001
 43
0.0000000001
 40
0.0
 40
0.0
 40
0.0
 40
0.0
 40
1.0
 40
1.0
 40
1.0
 40
2.0
 40
2.0
 40
2.0
 40
2.0
 10
63.91324162229468
 20
-65.3335158835126
 30
0.0
 10
63.99142793169683
 20
-65.22913625202322
 30
0.0
 10
63.97039454265281
 20
-65.08109098995503
 30
0.0
 10
63.86620265520237
 20
-65.00269876773353
 30
0.0
 10
63.83544291349539
 20
-64.97670530220635
 30
0.0
 10
63.77491665663145
 20
-64.95487248691695
 30
0.0
 10
63.73463041881772
 20
-64.95566585690434
 30
0.0
  0
SPLINE
  5
D5
330
7D
100
AcDbEntity
  8
Camada 1
 62
   250
420
  1907995
370
    15
100
AcDbSpline
210
0.0
220
0.0
230
1.0
 70
     8
 71
     3
 72
     8
 73
     4
 74
     0
 42
0.0000000001
 43
0.0000000001
 40
0.0
 40
0.0
 40
0.0
 40
0.0
 40
1.0
 40
1.0
 40
1.0
 40
1.0
 10
63.73466070011925
 20
-64.95570219446003
 30
0.0
 10
63.73247439045656
 20
-64.95550839415796
 30
0.0
 10
63.72850754052215
 20
-64.95550839415796
 30
0.0
 10
63.72652108742467
 20
-64.95550839415796
 30
0.0
  0
SPLINE
  5
D6
330
7D
100
AcDbEntity
  8
Camada 1
 62
   250
420
  1907995
370
    15
100
AcDbSpline
210
0.0
220
0.0
230
1.0
 70
     8
 71
     3
 72
     8
 73
     4
 74
     0
 42
0.0000000001
 43
0.0000000001
 40
0.0
 40
0.0
 40
0.0
 40
0.0
 40
1.0
 40
1.0
 40
1.0
 40
1.0
 10
63.72650291864939
 20
-64.95542360652549
 30
0.0
 10
63.63819054346286
 20
-64.95383686655197
 30
0.0
 10
63.55365121790484
 20
-65.02230287954787
 30
0.0
 10
63.53638482223517
 20
-65.10902851476216
 30
0.0
  0
SPLINE
  5
D7
330
7D
100
AcDbEntity
  8
Camada 1
 62
   250
420
  1907995
370
    15
100
AcDbSpline
210
0.0
220
0.0
230
1.0
 70
     8
 71
     3
 72
     8
 73
     4
 74
     0
 42
0.0000000001
 43
0.0000000001
 40
0.0
 40
0.0
 40
0.0
 40
0.0
 40
1.0
 40
1.0
 40
1.0
 40
1.0
 10
62.25051981743227
 20
-67.05395384085766
 30
0.0
 10
62.22630689218453
 20
-66.97894101140509
 30
0.0
 10
62.14414767658484
 20
-66.92138837792427
 30
0.0
 10
62.06556165406514
 20
-66.92416820100787
 30
0.0
  0
SPLINE
  5
D8
330
7D
100
AcDbEntity
  8
Camada 1
 62
   250
420
  1907995
370
    15
100
AcDbSpline
210
0.0
220
0.0
230
1.0
 70
     8
 71
     3
 72
     8
 73
     4
 74
     0
 42
0.0000000001
 43
0.0000000001
 40
0.0
 40
0.0
 40
0.0
 40
0.0
 40
1.0
 40
1.0
 40
1.0
 40
1.0
 10
50.03100499716517
 20
-70.85015049703155
 30
0.0
 10
49.97980235171059
 20
-70.84896044205045
 30
0.0
 10
49.91332279180513
 20
-70.88250000684232
 30
0.0
 10
49.88394993351416
 20
-70.92456981305933
 30
0.0
  0
SPLINE
  5
D9
330
7D
100
AcDbEntity
  8
Camada 1
 62
   250
420
  1907995
370
    15
100
AcDbSpline
210
0.0
220
0.0
230
1.0
 70
     8
 71
     3
 72
     8
 73
     4
 74
     0
 42
0.0000000001
 43
0.0000000001
 40
0.0
 40
0.0
 40
0.0
 40
0.0
 40
1.0
 40
1.0
 40
1.0
 40
1.0
 10
49.48712867420294
 20
-71.23079851550253
 30
0.0
 10
49.45795567247139
 20
-71.25163810424318
 30
0.0
 10
49.4317593222481
 20
-71.29867101507237
 30
0.0
 10
49.42937921229233
 20
-71.33459068982514
 30
0.0
  0
SPLINE
  5
DA
330
7D
100
AcDbEntity
  8
Camada 1
 62
   250
420
  1907995
370
    15
100
AcDbSpline
210
0.0
220
0.0
230
1.0
 70
     8
 71
     3
 72
     8
 73
     4
 74
     0
 42
0.0000000001
 43
0.0000000001
 40
0.0
 40
0.0
 40
0.0
 40
0.0
 40
1.0
 40
1.0
 40
1.0
 40
1.0
 10
62.31352914067513
 20
-67.22745961762107
 30
0.0
 10
62.33039582322209
 20
-67.27985231805738
 30
0.0
 10
62.38794845670164
 20
-67.32033841242989
 30
0.0
 10
62.44291506739966
 20
-67.31815210277105
 30
0.0
  0
SPLINE
  5
DB
330
7D
100
AcDbEntity
  8
Camada 1
 62
   250
420
  1907995
370
    15
100
AcDbSpline
210
0.0
220
0.0
230
1.0
 70
     8
 71
     3
 72
     8
 73
     4
 74
     0
 42
0.0000000001
 43
0.0000000001
 40
0.0
 40
0.0
 40
0.0
 40
0.0
 40
1.0
 40
1.0
 40
1.0
 40
1.0
 10
49.72650232866406
 20
-70.38793677639077
 30
0.0
 10
49.69673278537233
 20
-70.38714340640338
 30
0.0
 10
49.65783645910554
 20
-70.40639625517181
 30
0.0
 10
49.64017337844282
 20
-70.43040932386077
 30
0.0
  0
SPLINE
  5
DC
330
7D
100
AcDbEntity
  8
Camada 1
 62
   250
420
  1907995
370
    15
100
AcDbSpline
210
0.0
220
0.0
230
1.0
 70
     8
 71
     3
 72
     8
 73
     4
 74
     0
 42
0.0000000001
 43
0.0000000001
 40
0.0
 40
0.0
 40
0.0
 40
0.0
 40
1.0
 40
1.0
 40
1.0
 40
1.0
 10
36.00643719074855
 20
-67.10402093766787
 30
0.0
 10
36.08780000822928
 20
-68.00817202233584
 30
0.0
 10
36.16956253882437
 20
-68.91231705074324
 30
0.0
 10
36.25132506942972
 20
-69.81626222259059
 30
0.0
  0
SPLINE
  5
DD
330
7D
100
AcDbEntity
  8
Camada 1
 62
   250
420
  1907995
370
    15
100
AcDbSpline
210
0.0
220
0.0
230
1.0
 70
     8
 71
     3
 72
     8
 73
     4
 74
     0
 42
0.0000000001
 43
0.0000000001
 40
0.0
 40
0.0
 40
0.0
 40
0.0
 40
1.0
 40
1.0
 40
1.0
 40
1.0
 10
59.77378526531823
 20
-69.81641362907513
 30
0.0
 10
59.8555447677888
 20
-68.91226860066772
 30
0.0
 10
59.93730729839096
 20
-68.00812357225904
 30
0.0
 10
60.0186731439994
 20
-67.10397854385163
 30
0.0
  0
LINE
  5
DE
330
7D
100
AcDbEntity
  8
Camada 1
 62
   250
420
  1907995
370
    15
100
AcDbLine
 10
63.72650291864939
 20
-64.95542360652549
 30
0.0
 11
48.01251731575428
 21
-64.95562346308812
 31
0.0
  0
LINE
  5
DF
330
7D
100
AcDbEntity
  8
Camada 1
 62
   250
420
  1907995
370
    15
100
AcDbLine
 10
48.01257485021487
 20
-64.95556290049275
 30
0.0
 11
32.29819256232574
 21
-64.95536910019068
 31
0.0
  0
SPLINE
  5
E0
330
7D
100
AcDbEntity
  8
Camada 1
 62
   250
420
  1907995
370
    15
100
AcDbSpline
210
0.0
220
0.0
230
1.0
 70
     8
 71
     3
 72
    11
 73
     7
 74
     0
 42
0.0000000001
 43
0.0000000001
 40
0.0
 40
0.0
 40
0.0
 40
0.0
 40
1.0
 40
1.0
 40
1.0
 40
2.0
 40
2.0
 40
2.0
 40
2.0
 10
36.25136746324724
 20
-69.81641362907513
 30
0.0
 10
36.26863083078791
 20
-70.00593821206459
 30
0.0
 10
36.36408656398743
 20
-70.19446956850529
 30
0.0
 10
36.50895531797897
 20
-70.3254422352059
 30
0.0
 10
36.65442061352299
 20
-70.45702052784983
 30
0.0
 10
36.84989547141278
 20
-70.53024373263726
 30
0.0
 10
37.04021039626192
 20
-70.5367935772242
 30
0.0
  0
SPLINE
  5
E1
330
7D
100
AcDbEntity
  8
Camada 1
 62
   250
420
  1907995
370
    15
100
AcDbSpline
210
0.0
220
0.0
230
1.0
 70
     8
 71
     3
 72
    11
 73
     7
 74
     0
 42
0.0000000001
 43
0.0000000001
 40
0.0
 40
0.0
 40
0.0
 40
0.0
 40
1.0
 40
1.0
 40
1.0
 40
2.0
 40
2.0
 40
2.0
 40
2.0
 10
58.98489993848218
 20
-70.53689350550552
 30
0.0
 10
59.17541169176623
 20
-70.53014683248623
 30
0.0
 10
59.3706866930934
 20
-70.45711742800087
 30
0.0
 10
59.51615198864062
 20
-70.32554519161621
 30
0.0
 10
59.66122059919544
 20
-70.19456646865633
 30
0.0
 10
59.75647647583104
 20
-70.0060411684749
 30
0.0
 10
59.77374287149686
 20
-69.81651658548674
 30
0.0
  0
SPLINE
  5
E2
330
7D
100
AcDbEntity
  8
Camada 1
 62
   250
420
  1907995
370
    15
100
AcDbSpline
210
0.0
220
0.0
230
1.0
 70
     8
 71
     3
 72
    17
 73
    13
 74
     0
 42
0.0000000001
 43
0.0000000001
 40
0.0
 40
0.0
 40
0.0
 40
0.0
 40
1.0
 40
1.0
 40
1.0
 40
2.0
 40
2.0
 40
2.0
 40
3.0
 40
3.0
 40
3.0
 40
4.0
 40
4.0
 40
4.0
 40
4.0
 10
49.19173461990098
 20
-70.86247498499588
 30
0.0
 10
49.15402834861591
 20
-70.89145115829829
 30
0.0
 10
49.11810867385866
 20
-70.92260758499897
 30
0.0
 10
49.08397256751367
 20
-70.95574743666813
 30
0.0
 10
49.04983948929768
 20
-70.98908714489866
 30
0.0
 10
49.01749300761205
 20
-71.02480999121907
 30
0.0
 10
48.99109982896476
 20
-71.06469954403654
 30
0.0
 10
48.96510030717958
 20
-71.10399255529768
 30
0.0
 10
48.94486028812297
 20
-71.14745227305587
 30
0.0
 10
48.93275382549717
 20
-71.19309527234389
 30
0.0
 10
48.92064736287586
 20
-71.2391379847546
 30
0.0
 10
48.91687734137251
 20
-71.28716412213126
 30
0.0
 10
48.91668051293439
 20
-71.33459371795414
 30
0.0
  0
SPLINE
  5
E3
330
7D
100
AcDbEntity
  8
Camada 1
 62
   250
420
  1907995
370
    15
100
AcDbSpline
210
0.0
220
0.0
230
1.0
 70
     8
 71
     3
 72
     8
 73
     4
 74
     0
 42
0.0000000001
 43
0.0000000001
 40
0.0
 40
0.0
 40
0.0
 40
0.0
 40
1.0
 40
1.0
 40
1.0
 40
1.0
 10
49.56513935208086
 20
-70.54814603554921
 30
0.0
 10
49.5423163383672
 20
-70.59140892487504
 30
0.0
 10
49.51631984471361
 20
-70.6344749857698
 30
0.0
 10
49.48020031340012
 20
-70.66702132401292
 30
0.0
  0
SPLINE
  5
E4
330
7D
100
AcDbEntity
  8
Camada 1
 62
   250
420
  1907995
370
    15
100
AcDbSpline
210
0.0
220
0.0
230
1.0
 70
     8
 71
     3
 72
     8
 73
     4
 74
     0
 42
0.0000000001
 43
0.0000000001
 40
0.0
 40
0.0
 40
0.0
 40
0.0
 40
1.0
 40
1.0
 40
1.0
 40
1.0
 10
49.47105536164336
 20
-70.67474002667285
 30
0.0
 10
49.43930239338572
 20
-70.70133306188407
 30
0.0
 10
49.40357954706658
 20
-70.72296602061213
 30
0.0
 10
49.36785972887515
 20
-70.74419926621749
 30
0.0
  0
LINE
  5
E5
330
7D
100
AcDbEntity
  8
Camada 1
 62
   250
420
  1907995
370
    15
100
AcDbLine
 10
49.3678809257852
 20
-70.74419623808721
 30
0.0
 11
49.35001798855985
 21
-70.7549127891712
 31
0.0
  0
SPLINE
  5
E6
330
7D
100
AcDbEntity
  8
Camada 1
 62
   250
420
  1907995
370
    15
100
AcDbSpline
210
0.0
220
0.0
230
1.0
 70
     8
 71
     3
 72
     8
 73
     4
 74
     0
 42
0.0000000001
 43
0.0000000001
 40
0.0
 40
0.0
 40
0.0
 40
0.0
 40
1.0
 40
1.0
 40
1.0
 40
1.0
 10
49.34992108840624
 20
-70.75489462039207
 30
0.0
 10
49.2949484214451
 20
-70.78724413020285
 30
0.0
 10
49.24136566603154
 20
-70.82237043496951
 30
0.0
 10
49.1917527886801
 20
-70.86245681621804
 30
0.0
  0
SPLINE
  5
E7
330
7D
100
AcDbEntity
  8
Camada 1
 62
   250
420
  1907995
370
    15
100
AcDbSpline
210
0.0
220
0.0
230
1.0
 70
     8
 71
     3
 72
     8
 73
     4
 74
     0
 42
0.0000000001
 43
0.0000000001
 40
0.0
 40
0.0
 40
0.0
 40
0.0
 40
1.0
 40
1.0
 40
1.0
 40
1.0
 10
49.64015520966434
 20
-70.43026397363423
 30
0.0
 10
49.61038566637582
 20
-70.46618970464499
 30
0.0
 10
49.58676928267799
 20
-70.50686959931957
 30
0.0
 10
49.56513935208086
 20
-70.54814603554921
 30
0.0
  0
SPLINE
  5
E8
330
7D
100
AcDbEntity
  8
Camada 1
 62
   250
420
  1907995
370
    15
100
AcDbSpline
210
0.0
220
0.0
230
1.0
 70
     8
 71
     3
 72
    17
 73
    13
 74
     0
 42
0.0000000001
 43
0.0000000001
 40
0.0
 40
0.0
 40
0.0
 40
0.0
 40
1.0
 40
1.0
 40
1.0
 40
2.0
 40
2.0
 40
2.0
 40
3.0
 40
3.0
 40
3.0
 40
4.0
 40
4.0
 40
4.0
 40
4.0
 10
47.10852975009134
 20
-71.33459068982514
 30
0.0
 10
47.10832989352871
 20
-71.28716109400226
 30
0.0
 10
47.10436001546272
 20
-71.2391379847546
 30
0.0
 10
47.09225658096914
 20
-71.19309527234389
 30
0.0
 10
47.08015011834013
 20
-71.14745227305587
 30
0.0
 10
47.06010692771779
 20
-71.10418938373003
 30
0.0
 10
47.03411043406098
 20
-71.06489637246761
 30
0.0
 10
47.00771422728212
 20
-71.02480999121907
 30
0.0
 10
46.97536774559648
 20
-70.98928700146
 30
0.0
 10
46.94103481082428
 20
-70.95574743666813
 30
0.0
 10
46.90690173260445
 20
-70.92260758499897
 30
0.0
 10
46.87117888628466
 20
-70.89125130173695
 30
0.0
 10
46.83347564312795
 20
-70.86247498499588
 30
0.0
  0
SPLINE
  5
E9
330
7D
100
AcDbEntity
  8
Camada 1
 62
   250
420
  1907995
370
    15
100
AcDbSpline
210
0.0
220
0.0
230
1.0
 70
     8
 71
     3
 72
     8
 73
     4
 74
     0
 42
0.0000000001
 43
0.0000000001
 40
0.0
 40
0.0
 40
0.0
 40
0.0
 40
1.0
 40
1.0
 40
1.0
 40
1.0
 10
46.83341508053196
 20
-70.86247498499588
 30
0.0
 10
46.77923578356142
 20
-70.8190152672377
 30
0.0
 10
46.72029626666586
 20
-70.78170568094377
 30
0.0
 10
46.66056337978996
 20
-70.7461826911847
 30
0.0
  0
SPLINE
  5
EA
330
7D
100
AcDbEntity
  8
Camada 1
 62
   250
420
  1907995
370
    15
100
AcDbSpline
210
0.0
220
0.0
230
1.0
 70
     8
 71
     3
 72
     8
 73
     4
 74
     0
 42
0.0000000001
 43
0.0000000001
 40
0.0
 40
0.0
 40
0.0
 40
0.0
 40
1.0
 40
1.0
 40
1.0
 40
1.0
 10
46.64347867190125
 20
-70.73604148474763
 30
0.0
 10
46.61331244361583
 20
-70.7177848906595
 30
0.0
 10
46.58354592845888
 20
-70.6987349265827
 30
0.0
 10
46.55615952326153
 20
-70.67650845442988
 30
0.0
  0
SPLINE
  5
EB
330
7D
100
AcDbEntity
  8
Camada 1
 62
   250
420
  1907995
370
    15
100
AcDbSpline
210
0.0
220
0.0
230
1.0
 70
     8
 71
     3
 72
     8
 73
     4
 74
     0
 42
0.0000000001
 43
0.0000000001
 40
0.0
 40
0.0
 40
0.0
 40
0.0
 40
1.0
 40
1.0
 40
1.0
 40
1.0
 10
46.54268434600206
 20
-70.66467755160897
 30
0.0
 10
46.50735818467278
 20
-70.63272775492091
 30
0.0
 10
46.4821550610072
 20
-70.59045809214253
 30
0.0
 10
46.45992858884989
 20
-70.54818842936544
 30
0.0
  0
SPLINE
  5
EC
330
7D
100
AcDbEntity
  8
Camada 1
 62
   250
420
  1907995
370
    15
100
AcDbSpline
210
0.0
220
0.0
230
1.0
 70
     8
 71
     3
 72
     8
 73
     4
 74
     0
 42
0.0000000001
 43
0.0000000001
 40
0.0
 40
0.0
 40
0.0
 40
0.0
 40
1.0
 40
1.0
 40
1.0
 40
1.0
 10
46.46001034835594
 20
-70.54814603554921
 30
0.0
 10
46.43837738962723
 20
-70.50686959931957
 30
0.0
 10
46.41476100593261
 20
-70.46598984808364
 30
0.0
 10
46.38499449076924
 20
-70.43027002989351
 30
0.0
  0
SPLINE
  5
ED
330
7D
100
AcDbEntity
  8
Camada 1
 62
   250
420
  1907995
370
    15
100
AcDbSpline
210
0.0
220
0.0
230
1.0
 70
     8
 71
     3
 72
    11
 73
     7
 74
     0
 42
0.0000000001
 43
0.0000000001
 40
0.0
 40
0.0
 40
0.0
 40
0.0
 40
1.0
 40
1.0
 40
1.0
 40
2.0
 40
2.0
 40
2.0
 40
2.0
 10
46.14127547016233
 20
-70.9246091787453
 30
0.0
 10
46.21728152616428
 20
-71.02066145350114
 30
0.0
 10
46.32107067235725
 20
-71.09210411801299
 30
0.0
 10
46.4262497300946
 20
-71.15640342451185
 30
0.0
 10
46.4647493713677
 20
-71.18001678007811
 30
0.0
 10
46.5030521842123
 20
-71.20263993722463
 30
0.0
 10
46.53797863241633
 20
-71.23082274053963
 30
0.0
  0
SPLINE
  5
EE
330
7D
100
AcDbEntity
  8
Camada 1
 62
   250
420
  1907995
370
    15
100
AcDbSpline
210
0.0
220
0.0
230
1.0
 70
     8
 71
     3
 72
    11
 73
     7
 74
     0
 42
0.0000000001
 43
0.0000000001
 40
0.0
 40
0.0
 40
0.0
 40
0.0
 40
1.0
 40
1.0
 40
1.0
 40
2.0
 40
2.0
 40
2.0
 40
2.0
 10
49.48712867420294
 20
-71.23079851550253
 30
0.0
 10
49.52205512240697
 20
-71.20281859687786
 30
0.0
 10
49.56055476368327
 20
-71.18019543973133
 30
0.0
 10
49.59885454839631
 20
-71.15657905603608
 30
0.0
 10
49.70403360613044
 20
-71.09208292110487
 30
0.0
 10
49.80782578045563
 20
-71.02064025659304
 30
0.0
 10
49.88383183645372
 20
-70.92458798183717
 30
0.0
  0
SPLINE
  5
EF
330
7D
100
AcDbEntity
  8
Camada 1
 62
   250
420
  1907995
370
    15
100
AcDbSpline
210
0.0
220
0.0
230
1.0
 70
     8
 71
     3
 72
     8
 73
     4
 74
     0
 42
0.0000000001
 43
0.0000000001
 40
0.0
 40
0.0
 40
0.0
 40
0.0
 40
1.0
 40
1.0
 40
1.0
 40
1.0
 10
62.62956292715191
 20
-67.31823083414297
 30
0.0
 10
62.67560261143106
 20
-67.31823083414297
 30
0.0
 10
62.72580900221369
 20
-67.2934243954679
 30
0.0
 10
62.75398877739585
 20
-67.25691120728908
 30
0.0
  0
SPLINE
  5
F0
330
7D
100
AcDbEntity
  8
Camada 1
 62
   250
420
  1907995
370
    15
100
AcDbSpline
210
0.0
220
0.0
230
1.0
 70
     8
 71
     3
 72
     8
 73
     4
 74
     0
 42
0.0000000001
 43
0.0000000001
 40
0.0
 40
0.0
 40
0.0
 40
0.0
 40
1.0
 40
1.0
 40
1.0
 40
1.0
 10
33.27106099475674
 20
-67.25690515102979
 30
0.0
 10
33.29924076993826
 20
-67.29362425202925
 30
0.0
 10
33.34925033228661
 20
-67.31823083414297
 30
0.0
 10
33.39548987313224
 20
-67.31823083414297
 30
0.0
  0
SPLINE
  5
F1
330
7D
100
AcDbEntity
  8
Camada 1
 62
   250
420
  1907995
370
    15
100
AcDbSpline
210
0.0
220
0.0
230
1.0
 70
     8
 71
     3
 72
     8
 73
     4
 74
     0
 42
0.0000000001
 43
0.0000000001
 40
0.0
 40
0.0
 40
0.0
 40
0.0
 40
1.0
 40
1.0
 40
1.0
 40
1.0
 10
32.09841170397227
 20
-67.23152336770779
 30
0.0
 10
32.12321814264799
 20
-67.28074258819581
 30
0.0
 10
32.18374439951513
 20
-67.31824900292209
 30
0.0
 10
32.23871555240728
 20
-67.31824900292209
 30
0.0
  0
SPLINE
  5
F2
330
7D
100
AcDbEntity
  8
Camada 1
 62
   250
420
  1907995
370
    15
100
AcDbSpline
210
0.0
220
0.0
230
1.0
 70
     8
 71
     3
 72
     8
 73
     4
 74
     0
 42
0.0000000001
 43
0.0000000001
 40
0.0
 40
0.0
 40
0.0
 40
0.0
 40
1.0
 40
1.0
 40
1.0
 40
1.0
 10
63.78639326827489
 20
-67.31823083414297
 30
0.0
 10
63.8413598789729
 20
-67.31823083414297
 30
0.0
 10
63.90188613584069
 20
-67.28053061911463
 30
0.0
 10
63.92669257451576
 20
-67.23151125518923
 30
0.0
  0
SPLINE
  5
F3
330
7D
100
AcDbEntity
  8
Camada 1
 62
   250
420
  1907995
370
    15
100
AcDbSpline
210
0.0
220
0.0
230
1.0
 70
     8
 71
     3
 72
    11
 73
     7
 74
     0
 42
0.0000000001
 43
0.0000000001
 40
0.0
 40
0.0
 40
0.0
 40
0.0
 40
1.0
 40
1.0
 40
1.0
 40
2.0
 40
2.0
 40
2.0
 40
2.0
 10
35.80457297914463
 20
-66.92426510115891
 30
0.0
 10
35.85299277338341
 20
-66.92426510115891
 30
0.0
 10
35.90300233572854
 20
-66.94213106651389
 30
0.0
 10
35.9405117785896
 20
-66.97507106162172
 30
0.0
 10
35.97762150832153
 20
-67.0082109132896
 30
0.0
 10
36.00203126200355
 20
-67.0560371941049
 30
0.0
 10
36.00639782506323
 20
-67.10406333148411
 30
0.0
  0
SPLINE
  5
F4
330
7D
100
AcDbEntity
  8
Camada 1
 62
   250
420
  1907995
370
    15
100
AcDbSpline
210
0.0
220
0.0
230
1.0
 70
     8
 71
     3
 72
    11
 73
     7
 74
     0
 42
0.0000000001
 43
0.0000000001
 40
0.0
 40
0.0
 40
0.0
 40
0.0
 40
1.0
 40
1.0
 40
1.0
 40
2.0
 40
2.0
 40
2.0
 40
2.0
 10
60.01863377831345
 20
-67.10402093766787
 30
0.0
 10
60.02299731324155
 20
-67.05600085654923
 30
0.0
 10
60.04760692348685
 20
-67.00817457573265
 30
0.0
 10
60.08471665321814
 20
-66.97502866780547
 30
0.0
 10
60.12202623950951
 20
-66.942288529259
 30
0.0
 10
60.17203580185849
 20
-66.92422876360194
 30
0.0
 10
60.22065545266247
 20
-66.92422876360194
 30
0.0
  0
SPLINE
  5
F5
330
7D
100
AcDbEntity
  8
Camada 1
 62
   250
420
  1907995
370
    15
100
AcDbSpline
210
0.0
220
0.0
230
1.0
 70
     8
 71
     3
 72
     8
 73
     4
 74
     0
 42
0.0000000001
 43
0.0000000001
 40
0.0
 40
0.0
 40
0.0
 40
0.0
 40
1.0
 40
1.0
 40
1.0
 40
1.0
 10
62.75409173380872
 20
-67.25690515102979
 30
0.0
 10
62.78941183887488
 20
-67.2110653233107
 30
0.0
 10
62.85192454883502
 20
-67.18030558160371
 30
0.0
 10
62.90967703888105
 20
-67.18030558160371
 30
0.0
  0
SPLINE
  5
F6
330
7D
100
AcDbEntity
  8
Camada 1
 62
   250
420
  1907995
370
    15
100
AcDbSpline
210
0.0
220
0.0
230
1.0
 70
     8
 71
     3
 72
     8
 73
     4
 74
     0
 42
0.0000000001
 43
0.0000000001
 40
0.0
 40
0.0
 40
0.0
 40
0.0
 40
1.0
 40
1.0
 40
1.0
 40
1.0
 10
33.11545600683952
 20
-67.18040248175475
 30
0.0
 10
33.17320395468435
 20
-67.18040248175475
 30
0.0
 10
33.23571666465218
 20
-67.2111682797223
 30
0.0
 10
33.27104131191569
 20
-67.2570081074414
 30
0.0
  0
SPLINE
  5
F7
330
7D
100
AcDbEntity
  8
Camada 1
 62
   250
420
  1907995
370
    15
100
AcDbSpline
210
0.0
220
0.0
230
1.0
 70
     8
 71
     3
 72
    14
 73
    10
 74
     0
 42
0.0000000001
 43
0.0000000001
 40
0.0
 40
0.0
 40
0.0
 40
0.0
 40
1.0
 40
1.0
 40
1.0
 40
2.0
 40
2.0
 40
2.0
 40
3.0
 40
3.0
 40
3.0
 40
3.0
 10
34.00640293186005
 20
-66.45176785198607
 30
0.0
 10
33.82204131004602
 20
-66.45176785198607
 30
0.0
 10
33.63529806420275
 20
-66.4293475795299
 30
0.0
 10
33.4596680544423
 20
-66.36941483608817
 30
0.0
 10
33.28463458623112
 20
-66.30968194920907
 30
0.0
 10
33.12071284003634
 20
-66.21303616102716
 30
0.0
 10
32.98616243806996
 20
-66.08642400112568
 30
0.0
 10
32.71924642973154
 20
-65.83498627785755
 30
0.0
 10
32.56862120114045
 20
-65.46586332110553
 30
0.0
 10
32.48864526707573
 20
-65.10924654010263
 30
0.0
  0
SPLINE
  5
F8
330
7D
100
AcDbEntity
  8
Camada 1
 62
   250
420
  1907995
370
    15
100
AcDbSpline
210
0.0
220
0.0
230
1.0
 70
     8
 71
     3
 72
    14
 73
    10
 74
     0
 42
0.0000000001
 43
0.0000000001
 40
0.0
 40
0.0
 40
0.0
 40
0.0
 40
1.0
 40
1.0
 40
1.0
 40
2.0
 40
2.0
 40
2.0
 40
3.0
 40
3.0
 40
3.0
 40
3.0
 10
63.53650594741947
 20
-65.10912541491319
 30
0.0
 10
63.45632712866826
 20
-65.46594205247872
 30
0.0
 10
63.30570190007267
 20
-65.83506500923076
 30
0.0
 10
63.03898423423494
 20
-66.08630287593752
 30
0.0
 10
62.90463217476542
 20
-66.21291503583901
 30
0.0
 10
62.74051360013636
 20
-66.30956082401962
 30
0.0
 10
62.56548164599482
 20
-66.36929371090002
 30
0.0
 10
62.39004997872672
 20
-66.42922645434175
 30
0.0
 10
62.20310536225567
 20
-66.45185263961855
 30
0.0
 10
62.01874676857642
 20
-66.45185263961855
 30
0.0
  0
SPLINE
  5
F9
330
7D
100
AcDbEntity
  8
Camada 1
 62
   250
420
  1907995
370
    15
100
AcDbSpline
210
0.0
220
0.0
230
1.0
 70
     8
 71
     3
 72
    11
 73
     7
 74
     0
 42
0.0000000001
 43
0.0000000001
 40
0.0
 40
0.0
 40
0.0
 40
0.0
 40
1.0
 40
1.0
 40
1.0
 40
2.0
 40
2.0
 40
2.0
 40
2.0
 10
37.020367062199
 20
-70.06330915776191
 30
0.0
 10
36.95348778917149
 20
-70.06092904780101
 30
0.0
 10
36.88502177617944
 20
-70.03532923913853
 30
0.0
 10
36.83401898728749
 20
-69.98948941141944
 30
0.0
 10
36.78281936996125
 20
-69.94364352744106
 30
0.0
 10
36.74927980516618
 20
-69.87756368066536
 30
0.0
 10
36.74312967370706
 20
-69.81127792106903
 30
0.0
  0
SPLINE
  5
FA
330
7D
100
AcDbEntity
  8
Camada 1
 62
   250
420
  1907995
370
    15
100
AcDbSpline
210
0.0
220
0.0
230
1.0
 70
     8
 71
     3
 72
    11
 73
     7
 74
     0
 42
0.0000000001
 43
0.0000000001
 40
0.0
 40
0.0
 40
0.0
 40
0.0
 40
1.0
 40
1.0
 40
1.0
 40
2.0
 40
2.0
 40
2.0
 40
2.0
 10
59.28206242054693
 20
-69.81112045832263
 30
0.0
 10
59.27590926095239
 20
-69.8776060744816
 30
0.0
 10
59.2421728677269
 20
-69.94369197751659
 30
0.0
 10
59.19136993539436
 20
-69.98933194867433
 30
0.0
 10
59.14016728993914
 20
-70.03537163295476
 30
0.0
 10
59.07150444850961
 20
-70.06097144161724
 30
0.0
 10
59.00482503205115
 20
-70.06335760783743
 30
0.0
  0
SPLINE
  5
FB
330
7D
100
AcDbEntity
  8
Camada 1
 62
   250
420
  1907995
370
    15
100
AcDbSpline
210
0.0
220
0.0
230
1.0
 70
     8
 71
     3
 72
    11
 73
     7
 74
     0
 42
0.0000000001
 43
0.0000000001
 40
0.0
 40
0.0
 40
0.0
 40
0.0
 40
1.0
 40
1.0
 40
1.0
 40
2.0
 40
2.0
 40
2.0
 40
2.0
 10
59.77418195031193
 20
-66.45176785198607
 30
0.0
 10
59.72575912794159
 20
-66.45176785198607
 30
0.0
 10
59.67535288060275
 20
-66.46963381734107
 30
0.0
 10
59.63784343774491
 20
-66.50237395588625
 30
0.0
 10
59.60033702301991
 20
-66.53532000725208
 30
0.0
 10
59.57553058434355
 20
-66.58334614463
 30
0.0
 10
59.57116402128387
 20
-66.63156608231
 30
0.0
  0
SPLINE
  5
FC
330
7D
100
AcDbEntity
  8
Camada 1
 62
   250
420
  1907995
370
    15
100
AcDbSpline
210
0.0
220
0.0
230
1.0
 70
     8
 71
     3
 72
    11
 73
     7
 74
     0
 42
0.0000000001
 43
0.0000000001
 40
0.0
 40
0.0
 40
0.0
 40
0.0
 40
1.0
 40
1.0
 40
1.0
 40
2.0
 40
2.0
 40
2.0
 40
2.0
 10
36.45390694777812
 20
-66.63150551971593
 30
0.0
 10
36.44954038471844
 20
-66.58328558203592
 30
0.0
 10
36.42473394603951
 20
-66.53545930121935
 30
0.0
 10
36.38742435974815
 20
-66.50231944955146
 30
0.0
 10
36.34991794502187
 20
-66.46957325474699
 30
0.0
 10
36.29950866955532
 20
-66.45171334565128
 30
0.0
 10
36.2508890187507
 20
-66.45171334565128
 30
0.0
  0
SPLINE
  5
FD
330
7D
100
AcDbEntity
  8
Camada 1
 62
   250
420
  1907995
370
    15
100
AcDbSpline
210
0.0
220
0.0
230
1.0
 70
     8
 71
     3
 72
     8
 73
     4
 74
     0
 42
0.0000000001
 43
0.0000000001
 40
0.0
 40
0.0
 40
0.0
 40
0.0
 40
1.0
 40
1.0
 40
1.0
 40
1.0
 10
36.74306911110785
 20
-69.81112045832263
 30
0.0
 10
36.64642029479567
 20
-68.75119632453827
 30
0.0
 10
36.55017421974031
 20
-67.69145993479668
 30
0.0
 10
36.45392511655724
 20
-66.6315358010136
 30
0.0
  0
SPLINE
  5
FE
330
7D
100
AcDbEntity
  8
Camada 1
 62
   250
420
  1907995
370
    15
100
AcDbSpline
210
0.0
220
0.0
230
1.0
 70
     8
 71
     3
 72
     8
 73
     4
 74
     0
 42
0.0000000001
 43
0.0000000001
 40
0.0
 40
0.0
 40
0.0
 40
0.0
 40
1.0
 40
1.0
 40
1.0
 40
1.0
 10
32.78485540233769
 20
-67.25690515102979
 30
0.0
 10
32.82017853553157
 20
-67.2110653233107
 30
0.0
 10
32.8826912454962
 20
-67.18030558160371
 30
0.0
 10
32.94063904990687
 20
-67.18030558160371
 30
0.0
  0
SPLINE
  5
FF
330
7D
100
AcDbEntity
  8
Camada 1
 62
   250
420
  1907995
370
    15
100
AcDbSpline
210
0.0
220
0.0
230
1.0
 70
     8
 71
     3
 72
     8
 73
     4
 74
     0
 42
0.0000000001
 43
0.0000000001
 40
0.0
 40
0.0
 40
0.0
 40
0.0
 40
1.0
 40
1.0
 40
1.0
 40
1.0
 10
63.08463026164812
 20
-67.18040248175475
 30
0.0
 10
63.14217683887224
 20
-67.18040248175475
 30
0.0
 10
63.20508926196149
 20
-67.2111682797223
 30
0.0
 10
63.24021556672814
 20
-67.2570081074414
 30
0.0
  0
SPLINE
  5
100
330
7D
100
AcDbEntity
  8
Camada 1
 62
   250
420
  1907995
370
    15
100
AcDbSpline
210
0.0
220
0.0
230
1.0
 70
     8
 71
     3
 72
     8
 73
     4
 74
     0
 42
0.0000000001
 43
0.0000000001
 40
0.0
 40
0.0
 40
0.0
 40
0.0
 40
1.0
 40
1.0
 40
1.0
 40
1.0
 10
59.57116402128387
 20
-66.63150551971593
 30
0.0
 10
59.47511174652802
 20
-67.69143570975957
 30
0.0
 10
59.37866581491003
 20
-68.75116604324187
 30
0.0
 10
59.28202002672941
 20
-69.81109623328551
 30
0.0
  0
SPLINE
  5
101
330
7D
100
AcDbEntity
  8
Camada 1
 62
   250
420
  1907995
370
    15
100
AcDbSpline
210
0.0
220
0.0
230
1.0
 70
     8
 71
     3
 72
     8
 73
     4
 74
     0
 42
0.0000000001
 43
0.0000000001
 40
0.0
 40
0.0
 40
0.0
 40
0.0
 40
1.0
 40
1.0
 40
1.0
 40
1.0
 10
32.66038564421046
 20
-67.31823083414297
 30
0.0
 10
32.70662367099031
 20
-67.31823083414297
 30
0.0
 10
32.7564348908386
 20
-67.2934243954679
 30
0.0
 10
32.78481452258596
 20
-67.25691120728908
 30
0.0
  0
SPLINE
  5
102
330
7D
100
AcDbEntity
  8
Camada 1
 62
   250
420
  1907995
370
    15
100
AcDbSpline
210
0.0
220
0.0
230
1.0
 70
     8
 71
     3
 72
     8
 73
     4
 74
     0
 42
0.0000000001
 43
0.0000000001
 40
0.0
 40
0.0
 40
0.0
 40
0.0
 40
1.0
 40
1.0
 40
1.0
 40
1.0
 10
63.24023373549956
 20
-67.25690515102979
 30
0.0
 10
63.2686073109915
 20
-67.29362425202925
 30
0.0
 10
63.31861990146819
 20
-67.31823083414297
 30
0.0
 10
63.36465958574351
 20
-67.31823083414297
 30
0.0
  0
LINE
  5
103
330
7D
100
AcDbEntity
  8
Camada 1
 62
   250
420
  1907995
370
    15
100
AcDbLine
 10
32.29680265078522
 20
-64.95542360652549
 30
0.0
 11
32.29045114869448
 21
-64.95542360652549
 31
0.0
  0
LINE
  5
104
330
7D
100
AcDbEntity
  8
Camada 1
 62
   250
420
  1907995
370
    15
100
AcDbLine
 10
46.59559182848867
 20
-71.33459068982514
 30
0.0
 11
47.10839045612407
 21
-71.33459068982514
 31
0.0
  0
LINE
  5
105
330
7D
100
AcDbEntity
  8
Camada 1
 62
   250
420
  1907995
370
    15
100
AcDbLine
 10
47.10852975009134
 20
-71.33459068982514
 30
0.0
 11
48.91661995034545
 21
-71.33459068982514
 31
0.0
  0
LINE
  5
106
330
7D
100
AcDbEntity
  8
Camada 1
 62
   250
420
  1907995
370
    15
100
AcDbLine
 10
32.23875643215837
 20
-67.31823083414297
 30
0.0
 11
32.66026603308873
 21
-67.31823083414297
 31
0.0
  0
LINE
  5
107
330
7D
100
AcDbEntity
  8
Camada 1
 62
   250
420
  1907995
370
    15
100
AcDbLine
 10
32.66038564421046
 20
-67.31823083414297
 30
0.0
 11
33.39564733587415
 21
-67.31823083414297
 31
0.0
  0
LINE
  5
108
330
7D
100
AcDbEntity
  8
Camada 1
 62
   250
420
  1907995
370
    15
100
AcDbLine
 10
33.39558980140971
 20
-67.31823083414297
 30
0.0
 11
33.58233153318656
 21
-67.31823083414297
 31
0.0
  0
LINE
  5
109
330
7D
100
AcDbEntity
  8
Camada 1
 62
   250
420
  1907995
370
    15
100
AcDbLine
 10
62.4428181672499
 20
-67.31823083414297
 30
0.0
 11
62.6295568708952
 21
-67.31823083414297
 31
0.0
  0
LINE
  5
10A
330
7D
100
AcDbEntity
  8
Camada 1
 62
   250
420
  1907995
370
    15
100
AcDbLine
 10
62.62956292715191
 20
-67.31823083414297
 30
0.0
 11
63.36462324819039
 21
-67.31823083414297
 31
0.0
  0
LINE
  5
10B
330
7D
100
AcDbEntity
  8
Camada 1
 62
   250
420
  1907995
370
    15
100
AcDbLine
 10
63.36476254215638
 20
-67.31823083414297
 30
0.0
 11
63.78627214308673
 21
-67.31823083414297
 31
0.0
  0
LINE
  5
10C
330
7D
100
AcDbEntity
  8
Camada 1
 62
   250
420
  1907995
370
    15
100
AcDbLine
 10
59.77418195031193
 20
-66.45176785198607
 30
0.0
 11
62.01886183750529
 21
-66.45176785198607
 31
0.0
  0
LINE
  5
10D
330
7D
100
AcDbEntity
  8
Camada 1
 62
   250
420
  1907995
370
    15
100
AcDbLine
 10
34.00640293186005
 20
-66.45176785198607
 30
0.0
 11
36.25108584718177
 21
-66.45176785198607
 31
0.0
  0
LINE
  5
10E
330
7D
100
AcDbEntity
  8
Camada 1
 62
   250
420
  1907995
370
    15
100
AcDbLine
 10
46.59634583279075
 20
-70.44979541033464
 30
0.0
 11
46.59634583279075
 21
-70.43014890470407
 31
0.0
  0
LINE
  5
10F
330
7D
100
AcDbEntity
  8
Camada 1
 62
   250
420
  1907995
370
    15
100
AcDbLine
 10
49.11400252996082
 20
-70.60758216571592
 30
0.0
 11
46.91098970772701
 21
-70.60758216571592
 31
0.0
  0
LINE
  5
110
330
7D
100
AcDbEntity
  8
Camada 1
 62
   250
420
  1907995
370
    15
100
AcDbLine
 10
49.36970688800152
 20
-70.37099136247061
 30
0.0
 11
46.65528534967925
 21
-70.37099136247061
 31
0.0
  0
LINE
  5
111
330
7D
100
AcDbEntity
  8
Camada 1
 62
   250
420
  1907995
370
    15
100
AcDbLine
 10
49.42866457367235
 20
-70.44979541033464
 30
0.0
 11
49.42866457367235
 21
-70.43014890470407
 31
0.0
  0
SPLINE
  5
112
330
7D
100
AcDbEntity
  8
Camada 1
 62
   250
420
  1907995
370
    15
100
AcDbSpline
210
0.0
220
0.0
230
1.0
 70
     8
 71
     3
 72
     8
 73
     4
 74
     0
 42
0.0000000001
 43
0.0000000001
 40
0.0
 40
0.0
 40
0.0
 40
0.0
 40
1.0
 40
1.0
 40
1.0
 40
1.0
 10
49.42866457367235
 20
-70.42999144195767
 30
0.0
 10
49.42866457367235
 20
-70.39745115997511
 30
0.0
 10
49.40226836689348
 20
-70.37105192506597
 30
0.0
 10
49.36972202865228
 20
-70.37105192506597
 30
0.0
  0
SPLINE
  5
113
330
7D
100
AcDbEntity
  8
Camada 1
 62
   250
420
  1907995
370
    15
100
AcDbSpline
210
0.0
220
0.0
230
1.0
 70
     8
 71
     3
 72
     8
 73
     4
 74
     0
 42
0.0000000001
 43
0.0000000001
 40
0.0
 40
0.0
 40
0.0
 40
0.0
 40
1.0
 40
1.0
 40
1.0
 40
1.0
 10
46.65528534967925
 20
-70.37099136247061
 30
0.0
 10
46.62253915487863
 20
-70.37099136247061
 30
0.0
 10
46.59634280465918
 20
-70.3971907408184
 30
0.0
 10
46.59634280465918
 20
-70.43013073592622
 30
0.0
  0
SPLINE
  5
114
330
7D
100
AcDbEntity
  8
Camada 1
 62
   250
420
  1907995
370
    15
100
AcDbSpline
210
0.0
220
0.0
230
1.0
 70
     8
 71
     3
 72
    38
 73
    34
 74
     0
 42
0.0000000001
 43
0.0000000001
 40
0.0
 40
0.0
 40
0.0
 40
0.0
 40
1.0
 40
1.0
 40
1.0
 40
2.0
 40
2.0
 40
2.0
 40
3.0
 40
3.0
 40
3.0
 40
4.0
 40
4.0
 40
4.0
 40
5.0
 40
5.0
 40
5.0
 40
6.0
 40
6.0
 40
6.0
 40
7.0
 40
7.0
 40
7.0
 40
8.0
 40
8.0
 40
8.0
 40
9.0
 40
9.0
 40
9.0
 40
10.0
 40
10.0
 40
10.0
 40
11.0
 40
11.0
 40
11.0
 40
11.0
 10
46.91101090463706
 20
-70.60758216571592
 30
0.0
 10
46.90327100507158
 20
-70.60758216571592
 30
0.0
 10
46.89592779049274
 20
-70.60639211073611
 30
0.0
 10
46.88858457592417
 20
-70.60500522732396
 30
0.0
 10
46.88124136134533
 20
-70.60381214421386
 30
0.0
 10
46.87389814677355
 20
-70.60222540424034
 30
0.0
 10
46.86655493220177
 20
-70.60043880770421
 30
0.0
 10
46.85187153118207
 20
-70.59666878620086
 30
0.0
 10
46.83758178702901
 20
-70.5925020797051
 30
0.0
 10
46.82349189943471
 20
-70.58734214666059
 30
0.0
 10
46.79491543925951
 20
-70.57741896556399
 30
0.0
 10
46.76713234906462
 20
-70.56590904449388
 30
0.0
 10
46.73994277229772
 20
-70.55281238344898
 30
0.0
 10
46.7264494262604
 20
-70.54626253886202
 30
0.0
 10
46.71295608022243
 20
-70.53991255083771
 30
0.0
 10
46.69985639105046
 20
-70.53256933626336
 30
0.0
 10
46.68655987344357
 20
-70.52542597825165
 30
0.0
 10
46.67366004082717
 20
-70.51808276367729
 30
0.0
 10
46.66076323634939
 20
-70.51014603567819
 30
0.0
 10
46.65421339175795
 20
-70.50597932918242
 30
0.0
 10
46.64806023217112
 20
-70.50181262268537
 30
0.0
 10
46.64191010070493
 20
-70.49764591618961
 30
0.0
 10
46.63575694111104
 20
-70.49347315343329
 30
0.0
 10
46.62960378152035
 20
-70.48871293351147
 30
0.0
 10
46.62404716347894
 20
-70.48414651389302
 30
0.0
 10
46.61809386044447
 20
-70.4793862939712
 30
0.0
 10
46.61234041397904
 20
-70.47442621748804
 30
0.0
 10
46.60718048093582
 20
-70.46906642788091
 30
0.0
 10
46.60460051441036
 20
-70.46628660479602
 30
0.0
 10
46.60241723287859
 20
-70.46331298141035
 30
0.0
 10
46.60003712292282
 20
-70.4603333017654
 30
0.0
 10
46.59825052638155
 20
-70.4571598218171
 30
0.0
 10
46.59626407328791
 20
-70.45358662874611
 30
0.0
 10
46.59626407328791
 20
-70.44981357911247
 30
0.0
  0
SPLINE
  5
115
330
7D
100
AcDbEntity
  8
Camada 1
 62
   250
420
  1907995
370
    15
100
AcDbSpline
210
0.0
220
0.0
230
1.0
 70
     8
 71
     3
 72
    38
 73
    34
 74
     0
 42
0.0000000001
 43
0.0000000001
 40
0.0
 40
0.0
 40
0.0
 40
0.0
 40
1.0
 40
1.0
 40
1.0
 40
2.0
 40
2.0
 40
2.0
 40
3.0
 40
3.0
 40
3.0
 40
4.0
 40
4.0
 40
4.0
 40
5.0
 40
5.0
 40
5.0
 40
6.0
 40
6.0
 40
6.0
 40
7.0
 40
7.0
 40
7.0
 40
8.0
 40
8.0
 40
8.0
 40
9.0
 40
9.0
 40
9.0
 40
10.0
 40
10.0
 40
10.0
 40
11.0
 40
11.0
 40
11.0
 40
11.0
 10
49.42866457367235
 20
-70.44979541033464
 30
0.0
 10
49.42866457367235
 20
-70.45356845996827
 30
0.0
 10
49.42687797713813
 20
-70.45714165303927
 30
0.0
 10
49.42469469561343
 20
-70.46031513298628
 30
0.0
 10
49.42251141408551
 20
-70.46348861293458
 30
0.0
 10
49.42032813255375
 20
-70.46626843601818
 30
0.0
 10
49.41774816602829
 20
-70.46904825910179
 30
0.0
 10
49.41258823298763
 20
-70.47460184901099
 30
0.0
 10
49.40683478651579
 20
-70.47936812519208
 30
0.0
 10
49.4010783119156
 20
-70.48432820167525
 30
0.0
 10
49.39512500888433
 20
-70.48889462129499
 30
0.0
 10
49.38897184929044
 20
-70.49345498465545
 30
0.0
 10
49.38301854625918
 20
-70.49762774741049
 30
0.0
 10
49.37666855823037
 20
-70.5019882542096
 30
0.0
 10
49.37051539863968
 20
-70.5059611604033
 30
0.0
 10
49.36416541061472
 20
-70.51012786690034
 30
0.0
 10
49.35146543456095
 20
-70.51806459489945
 30
0.0
 10
49.33836877351989
 20
-70.52560463790488
 30
0.0
 10
49.32507225591365
 20
-70.53255116748552
 30
0.0
 10
49.31177573830996
 20
-70.53989438205859
 30
0.0
 10
49.29847922070371
 20
-70.54644422664553
 30
0.0
 10
49.28478601810633
 20
-70.55279421467114
 30
0.0
 10
49.25779629789949
 20
-70.56589087571603
 30
0.0
 10
49.22981335114198
 20
-70.57740079678615
 30
0.0
 10
49.2014367475294
 20
-70.58752080631382
 30
0.0
 10
49.18734685993832
 20
-70.59228405436591
 30
0.0
 10
49.17286028735033
 20
-70.59685047398438
 30
0.0
 10
49.15837068663078
 20
-70.60062049548772
 30
0.0
 10
49.15103050019056
 20
-70.60220723546123
 30
0.0
 10
49.14368728561878
 20
-70.60379397543602
 30
0.0
 10
49.13634407104315
 20
-70.60518388697719
 30
0.0
 10
49.12900085647137
 20
-70.60657379851962
 30
0.0
 10
49.12146081346468
 20
-70.60756702506836
 30
0.0
 10
49.11391774232641
 20
-70.60756702506836
 30
0.0
  0
LWPOLYLINE
  5
116
330
7D
100
AcDbEntity
  8
Camada 1
 62
   250
420
  1907995
370
    15
100
AcDbPolyline
 90
        4
 70
     1
 43
0.0
 10
33.82408529760667
 20
-67.36353771103266
 10
32.43492473175745
 20
-67.36353771103266
 10
32.43492473175745
 20
-67.4468900097373
 10
33.82408529760667
 20
-67.4468900097373
  0
LWPOLYLINE
  5
117
330
7D
100
AcDbEntity
  8
Camada 1
 62
   250
420
  1907995
370
    15
100
AcDbPolyline
 90
        4
 70
     1
 43
0.0
 10
32.01817686481534
 20
-67.36353771103266
 10
30.62901629896228
 20
-67.36353771103266
 10
30.62901629896228
 20
-67.4468900097373
 10
32.01817686481534
 20
-67.4468900097373
  0
LWPOLYLINE
  5
118
330
7D
100
AcDbEntity
  8
Camada 1
 62
   250
420
  1907995
370
    15
100
AcDbPolyline
 90
        7
 70
     1
 43
0.0
 10
30.21226843202337
 20
-67.36353771103266
 10
29.72328453058585
 20
-67.36353771103266
 10
29.72328453058585
 20
-67.4468900097373
 10
29.72328453058585
 20
-68.26371588950564
 10
29.80683214365643
 20
-68.26371588950564
 10
29.80683214365643
 20
-67.4468900097373
 10
30.21226843202337
 20
-67.4468900097373
  0
LWPOLYLINE
  5
119
330
7D
100
AcDbEntity
  8
Camada 1
 62
   250
420
  1907995
370
    15
100
AcDbPolyline
 90
        7
 70
     1
 43
0.0
 10
29.80683214365643
 20
-68.68046527051162
 10
29.72328453058585
 20
-68.68046527051162
 10
29.72328453058585
 20
-68.93864966679903
 10
29.80683214365643
 20
-68.93864966679903
 10
30.85445752857808
 20
-68.93864966679903
 10
30.85445752857808
 20
-68.85530342435238
 10
29.80683214365643
 20
-68.85530342435238
  0
LWPOLYLINE
  5
11A
330
7D
100
AcDbEntity
  8
Camada 1
 62
   250
420
  1907995
370
    15
100
AcDbPolyline
 90
        4
 70
     1
 43
0.0
 10
32.66036596137005
 20
-68.85530342435238
 10
31.27120539551698
 20
-68.85530342435238
 10
31.27120539551698
 20
-68.93864966679903
 10
32.66036596137005
 20
-68.93864966679903
  0
LWPOLYLINE
  5
11B
330
7D
100
AcDbEntity
  8
Camada 1
 62
   250
420
  1907995
370
    15
100
AcDbPolyline
 90
        4
 70
     1
 43
0.0
 10
34.46627439415817
 20
-68.85530342435238
 10
33.07711382831217
 20
-68.85530342435238
 10
33.07711382831217
 20
-68.93864966679903
 10
34.46627439415817
 20
-68.93864966679903
  0
LWPOLYLINE
  5
11C
330
7D
100
AcDbEntity
  8
Camada 1
 62
   250
420
  1907995
370
    15
100
AcDbPolyline
 90
        6
 70
     1
 43
0.0
 10
35.62999524446122
 20
-68.29646208431012
 10
35.54664294575592
 20
-68.29646208431012
 10
35.54664294575592
 20
-68.85530342435238
 10
34.88302377516607
 20
-68.85530342435238
 10
34.88302377516607
 20
-68.93864966679903
 10
35.62999524446122
 20
-68.93864966679903
  0
LWPOLYLINE
  5
11D
330
7D
100
AcDbEntity
  8
Camada 1
 62
   250
420
  1907995
370
    15
100
AcDbPolyline
 90
        6
 70
     1
 43
0.0
 10
35.62999524446122
 20
-67.36353771103266
 10
34.24083467861136
 20
-67.36353771103266
 10
34.24083467861136
 20
-67.4468900097373
 10
35.54664294575592
 20
-67.4468900097373
 10
35.54664294575592
 20
-67.8795128467415
 10
35.62999524446122
 20
-67.8795128467415
  0
LWPOLYLINE
  5
11E
330
7D
100
AcDbEntity
  8
Camada 1
 62
   250
420
  1907995
370
    15
100
AcDbPolyline
 90
        4
 70
     1
 43
0.0
 10
64.44455726317364
 20
-67.36367700499865
 10
63.05539669732057
 20
-67.36367700499865
 10
63.05539669732057
 20
-67.44702930370458
 10
64.44455726317364
 20
-67.44702930370458
  0
LWPOLYLINE
  5
11F
330
7D
100
AcDbEntity
  8
Camada 1
 62
   250
420
  1907995
370
    15
100
AcDbPolyline
 90
        4
 70
     1
 43
0.0
 10
62.63864731631588
 20
-67.36367700499865
 10
61.24948675047051
 20
-67.36367700499865
 10
61.24948675047051
 20
-67.44702930370458
 10
62.63864731631588
 20
-67.44702930370458
  0
LWPOLYLINE
  5
120
330
7D
100
AcDbEntity
  8
Camada 1
 62
   250
420
  1907995
370
    15
100
AcDbPolyline
 90
        7
 70
     1
 43
0.0
 10
60.83273736946197
 20
-67.36367700499865
 10
60.34395483864966
 20
-67.36367700499865
 10
60.34395483864966
 20
-67.44702930370458
 10
60.34395483864966
 20
-68.26385518347291
 10
60.42730108109504
 20
-68.26385518347291
 10
60.42730108109504
 20
-67.44702930370458
 10
60.83273736946197
 20
-67.44702930370458
  0
LWPOLYLINE
  5
121
330
7D
100
AcDbEntity
  8
Camada 1
 62
   250
420
  1907995
370
    15
100
AcDbPolyline
 90
        7
 70
     1
 43
0.0
 10
60.42730108109504
 20
-68.68060456447889
 10
60.34395483864966
 20
-68.68060456447889
 10
60.34395483864966
 20
-68.93878896076502
 10
60.42730108109504
 20
-68.93878896076502
 10
61.4749249519509
 20
-68.93878896076502
 10
61.4749249519509
 20
-68.85544271831967
 10
60.42730108109504
 20
-68.85544271831967
  0
LWPOLYLINE
  5
122
330
7D
100
AcDbEntity
  8
Camada 1
 62
   250
420
  1907995
370
    15
100
AcDbPolyline
 90
        4
 70
     1
 43
0.0
 10
63.2808348988048
 20
-68.85544271831967
 10
61.89167433295175
 20
-68.85544271831967
 10
61.89167433295175
 20
-68.93878896076502
 10
63.2808348988048
 20
-68.93878896076502
  0
LWPOLYLINE
  5
123
330
7D
100
AcDbEntity
  8
Camada 1
 62
   250
420
  1907995
370
    15
100
AcDbPolyline
 90
        4
 70
     1
 43
0.0
 10
65.08674484566256
 20
-68.85544271831967
 10
63.6975842798095
 20
-68.85544271831967
 10
63.6975842798095
 20
-68.93878896076502
 10
65.08674484566256
 20
-68.93878896076502
  0
LWPOLYLINE
  5
124
330
7D
100
AcDbEntity
  8
Camada 1
 62
   250
420
  1907995
370
    15
100
AcDbPolyline
 90
        6
 70
     1
 43
0.0
 10
66.25046721002753
 20
-68.29660137827739
 10
66.16711491132289
 20
-68.29660137827739
 10
66.16711491132289
 20
-68.85544271831967
 10
65.50349422666726
 20
-68.85544271831967
 10
65.50349422666726
 20
-68.93878896076502
 10
66.25046721002753
 20
-68.93878896076502
  0
LWPOLYLINE
  5
125
330
7D
100
AcDbEntity
  8
Camada 1
 62
   250
420
  1907995
370
    15
100
AcDbPolyline
 90
        6
 70
     1
 43
0.0
 10
66.25046721002753
 20
-67.36367700499865
 10
64.86130664417832
 20
-67.36367700499865
 10
64.86130664417832
 20
-67.44702930370458
 10
66.16711491132289
 20
-67.44702930370458
 10
66.16711491132289
 20
-67.87985199727012
 10
66.25046721002753
 20
-67.87985199727012
  0
ENDBLK
  5
80
330
7D
100
AcDbEntity
  8
0
100
AcDbBlockEnd
  0
ENDSEC
  0
SECTION
  2
ENTITIES
  0
INSERT
  5
7A
330
70
100
AcDbEntity
  8
Camada 1
100
AcDbBlockReference
  2
Block_0
 10
0.0
 20
0.0
 30
0.0
  0
ENDSEC
  0
SECTION
  2
OBJECTS
  0
DICTIONARY
  5
C
330
0
100
AcDbDictionary
281
     1
  3
ACAD_COLOR
350
63
  3
ACAD_DETAILVIEWSTYLE
350
6A
  3
ACAD_GROUP
350
D
  3
ACAD_LAYOUT
350
62
  3
ACAD_MATERIAL
350
10
  3
ACAD_MLEADERSTYLE
350
66
  3
ACAD_MLINESTYLE
350
5F
  3
ACAD_PLOTSETTINGS
350
61
  3
ACAD_PLOTSTYLENAME
350
E
  3
ACAD_SCALELIST
350
42
  3
ACAD_SECTIONVIEWSTYLE
350
68
  3
ACAD_TABLESTYLE
350
64
  3
ACAD_VISUALSTYLE
350
29
  3
ACDB_RECOMPOSE_DATA
350
12E
  3
AcDbVariableDictionary
350
126
  0
DICTIONARY
  5
63
102
{ACAD_REACTORS
330
C
102
}
330
C
100
AcDbDictionary
281
     1
  0
DICTIONARY
  5
6A
102
{ACAD_REACTORS
330
C
102
}
330
C
100
AcDbDictionary
281
     1
  3
Imperial24
350
6B
  0
DICTIONARY
  5
D
102
{ACAD_REACTORS
330
C
102
}
330
C
100
AcDbDictionary
281
     1
  0
DICTIONARY
  5
62
102
{ACAD_REACTORS
330
C
102
}
330
C
100
AcDbDictionary
281
     1
  3
Layout1
350
6F
  3
Layout2
350
77
  3
Model
350
73
  0
DICTIONARY
  5
10
102
{ACAD_REACTORS
330
C
102
}
330
C
100
AcDbDictionary
281
     1
  3
ByBlock
350
19
  3
ByLayer
350
11
  3
Global
350
21
  0
DICTIONARY
  5
66
102
{ACAD_REACTORS
330
C
102
}
330
C
100
AcDbDictionary
281
     1
  3
Standard
350
67
  0
DICTIONARY
  5
5F
102
{ACAD_REACTORS
330
C
102
}
330
C
100
AcDbDictionary
281
     1
  3
Standard
350
60
  0
DICTIONARY
  5
61
102
{ACAD_REACTORS
330
C
102
}
330
C
100
AcDbDictionary
281
     1
  0
ACDBDICTIONARYWDFLT
  5
E
102
{ACAD_REACTORS
330
C
102
}
330
C
100
AcDbDictionary
281
     1
  3
Normal
350
F
100
AcDbDictionaryWithDefault
340
F
  0
DICTIONARY
  5
42
102
{ACAD_REACTORS
330
C
102
}
330
C
100
AcDbDictionary
281
     1
  3
A0
350
43
  3
A1
350
44
  3
A2
350
45
  3
A3
350
46
  3
A4
350
47
  3
A5
350
48
  3
A6
350
49
  3
A7
350
4A
  3
A8
350
4B
  3
A9
350
4C
  3
B0
350
4D
  3
B1
350
4E
  3
B2
350
4F
  3
B3
350
50
  3
B4
350
51
  3
B5
350
52
  3
B6
350
53
  0
DICTIONARY
  5
68
102
{ACAD_REACTORS
330
C
102
}
330
C
100
AcDbDictionary
281
     1
  3
Imperial24
350
69
  0
DICTIONARY
  5
64
102
{ACAD_REACTORS
330
C
102
}
330
C
100
AcDbDictionary
281
     1
  3
Standard
350
65
  0
DICTIONARY
  5
29
102
{ACAD_REACTORS
330
C
102
}
330
C
100
AcDbDictionary
281
     1
  3
2dWireframe
350
2F
  3
Basic
350
2E
  3
Brighten
350
35
  3
ColorChange
350
39
  3
Conceptual
350
32
  3
Dim
350
34
  3
EdgeColorOff
350
41
  3
Facepattern
350
38
  3
Flat
350
2A
  3
FlatWithEdges
350
2B
  3
Gouraud
350
2C
  3
GouraudWithEdges
350
2D
  3
Hidden
350
31
  3
JitterOff
350
3F
  3
Linepattern
350
37
  3
OverhangOff
350
40
  3
Realistic
350
33
  3
Shaded
350
3E
  3
Shaded with edges
350
3D
  3
Shades of Gray
350
3A
  3
Sketchy
350
3B
  3
Thicken
350
36
  3
Wireframe
350
30
  3
X-Ray
350
3C
  0
XRECORD
  5
12E
102
{ACAD_REACTORS
330
C
102
}
330
C
100
AcDbXrecord
280
     1
 90
        1
330
65
  0
DICTIONARY
  5
126
102
{ACAD_REACTORS
330
C
102
}
330
C
100
AcDbDictionary
281
     1
  3
CANNOSCALE
350
12B
  3
CMLEADERSTYLE
350
128
  3
CTABLESTYLE
350
127
  3
CVIEWDETAILSTYLE
350
129
  3
CVIEWSECTIONSTYLE
350
12A
  0
ACDBDETAILVIEWSTYLE
  5
6B
102
{ACAD_REACTORS
330
6A
102
}
330
6A
100
AcDbModelDocViewStyle
 70
     0
  3
Imperial24
290
     1
300
Imperial24
 90
        0
100
AcDbDetailViewStyle
 70
     0
 71
     0
 90
        3
 71
     1
340
55
 62
   256
 40
0.24
340
0
 62
   256
 40
0.24
300

 40
0.36
280
     3
 71
     2
340
5D
 90
       25
 62
   256
 71
     3
340
55
 62
   256
 40
0.24
 90
        1
 40
0.75
 90
        1
300
%<\AcVar ViewType \f "%tc1">% %<\AcVar ViewDetailId>%\PSCALE %<\AcVar ViewScale \f "%sn">%
 71
     4
340
5D
 90
       25
 62
   256
340
5D
 90
       25
 62
   256
280
     0
  0
LAYOUT
  5
6F
102
{ACAD_REACTORS
330
62
102
}
330
62
100
AcDbPlotSettings
  1

  2

  4

  6

 40
0.0
 41
0.0
 42
0.0
 43
0.0
 44
0.0
 45
0.0
 46
0.0
 47
0.0
 48
0.0
 49
0.0
140
0.0
141
0.0
142
1.0
143
1.0
 70
   688
 72
     0
 73
     0
 74
     5
  7

 75
    16
147
1.0
 76
     0
 77
     2
 78
   300
148
0.0
149
0.0
100
AcDbLayout
  1
Layout1
 70
     1
 71
     1
 10
0.0
 20
0.0
 11
12.0
 21
9.0
 12
0.0
 22
0.0
 32
0.0
 14
0.0
 24
0.0
 34
0.0
 15
0.0
 25
0.0
 35
0.0
146
0.0
 13
0.0
 23
0.0
 33
0.0
 16
1.0
 26
0.0
 36
0.0
 17
0.0
 27
1.0
 37
0.0
 76
     0
330
6C
  0
LAYOUT
  5
77
102
{ACAD_REACTORS
330
62
102
}
330
62
100
AcDbPlotSettings
  1

  2

  4

  6

 40
0.0
 41
0.0
 42
0.0
 43
0.0
 44
0.0
 45
0.0
 46
0.0
 47
0.0
 48
0.0
 49
0.0
140
0.0
141
0.0
142
1.0
143
1.0
 70
   688
 72
     0
 73
     0
 74
     5
  7

 75
    16
147
1.0
 76
     0
 77
     2
 78
   300
148
0.0
149
0.0
100
AcDbLayout
  1
Layout2
 70
     1
 71
     2
 10
0.0
 20
0.0
 11
12.0
 21
9.0
 12
0.0
 22
0.0
 32
0.0
 14
0.0
 24
0.0
 34
0.0
 15
0.0
 25
0.0
 35
0.0
146
0.0
 13
0.0
 23
0.0
 33
0.0
 16
1.0
 26
0.0
 36
0.0
 17
0.0
 27
1.0
 37
0.0
 76
     0
330
74
  0
LAYOUT
  5
73
102
{ACAD_REACTORS
330
62
102
}
330
62
100
AcDbPlotSettings
  1

  2

  4

  6

 40
0.0
 41
0.0
 42
0.0
 43
0.0
 44
0.0
 45
0.0
 46
0.0
 47
0.0
 48
0.0
 49
0.0
140
0.0
141
0.0
142
1.0
143
1.0
 70
  1712
 72
     0
 73
     0
 74
     0
  7

 75
     0
147
1.0
 76
     0
 77
     2
 78
   300
148
0.0
149
0.0
100
AcDbLayout
  1
Model
 70
     1
 71
     0
 10
0.0
 20
0.0
 11
12.0
 21
9.0
 12
0.0
 22
0.0
 32
0.0
 14
0.0
 24
0.0
 34
0.0
 15
0.0
 25
0.0
 35
0.0
146
0.0
 13
0.0
 23
0.0
 33
0.0
 16
1.0
 26
0.0
 36
0.0
 17
0.0
 27
1.0
 37
0.0
 76
     0
330
70
  0
MATERIAL
  5
19
102
{ACAD_XDICTIONARY
360
1A
102
}
102
{ACAD_REACTORS
330
10
102
}
330
10
100
AcDbMaterial
  1
ByBlock
 72
     0
 43
0.0208333333333333
 43
0.0
 43
0.0
 43
0.0
 43
0.0
 43
0.0208333333333333
 43
0.0
 43
0.0
 43
0.0
 43
0.0
 43
1.0
 43
0.0
 43
0.0
 43
0.0
 43
0.0
 43
1.0
 77
     0
 47
0.0208333333333333
 47
0.0
 47
0.0
 47
0.0
 47
0.0
 47
0.0208333333333333
 47
0.0
 47
0.0
 47
0.0
 47
0.0
 47
1.0
 47
0.0
 47
0.0
 47
0.0
 47
0.0
 47
1.0
171
     0
 49
0.0208333333333333
 49
0.0
 49
0.0
 49
0.0
 49
0.0
 49
0.0208333333333333
 49
0.0
 49
0.0
 49
0.0
 49
0.0
 49
1.0
 49
0.0
 49
0.0
 49
0.0
 49
0.0
 49
1.0
175
     0
142
0.0208333333333333
142
0.0
142
0.0
142
0.0
142
0.0
142
0.0208333333333333
142
0.0
142
0.0
142
0.0
142
0.0
142
1.0
142
0.0
142
0.0
142
0.0
142
0.0
142
1.0
179
     0
144
0.0208333333333333
144
0.0
144
0.0
144
0.0
144
0.0
144
0.0208333333333333
144
0.0
144
0.0
144
0.0
144
0.0
144
1.0
144
0.0
144
0.0
144
0.0
144
0.0
144
1.0
147
0.0208333333333333
147
0.0
147
0.0
147
0.0
147
0.0
147
0.0208333333333333
147
0.0
147
0.0
147
0.0
147
0.0
147
1.0
147
0.0
147
0.0
147
0.0
147
0.0
147
1.0
  0
MATERIAL
  5
11
102
{ACAD_XDICTIONARY
360
12
102
}
102
{ACAD_REACTORS
330
10
102
}
330
10
100
AcDbMaterial
  1
ByLayer
 72
     0
 43
0.0208333333333333
 43
0.0
 43
0.0
 43
0.0
 43
0.0
 43
0.0208333333333333
 43
0.0
 43
0.0
 43
0.0
 43
0.0
 43
1.0
 43
0.0
 43
0.0
 43
0.0
 43
0.0
 43
1.0
 77
     0
 47
0.0208333333333333
 47
0.0
 47
0.0
 47
0.0
 47
0.0
 47
0.0208333333333333
 47
0.0
 47
0.0
 47
0.0
 47
0.0
 47
1.0
 47
0.0
 47
0.0
 47
0.0
 47
0.0
 47
1.0
171
     0
 49
0.0208333333333333
 49
0.0
 49
0.0
 49
0.0
 49
0.0
 49
0.0208333333333333
 49
0.0
 49
0.0
 49
0.0
 49
0.0
 49
1.0
 49
0.0
 49
0.0
 49
0.0
 49
0.0
 49
1.0
175
     0
142
0.0208333333333333
142
0.0
142
0.0
142
0.0
142
0.0
142
0.0208333333333333
142
0.0
142
0.0
142
0.0
142
0.0
142
1.0
142
0.0
142
0.0
142
0.0
142
0.0
142
1.0
179
     0
144
0.0208333333333333
144
0.0
144
0.0
144
0.0
144
0.0
144
0.0208333333333333
144
0.0
144
0.0
144
0.0
144
0.0
144
1.0
144
0.0
144
0.0
144
0.0
144
0.0
144
1.0
147
0.0208333333333333
147
0.0
147
0.0
147
0.0
147
0.0
147
0.0208333333333333
147
0.0
147
0.0
147
0.0
147
0.0
147
1.0
147
0.0
147
0.0
147
0.0
147
0.0
147
1.0
  0
MATERIAL
  5
21
102
{ACAD_XDICTIONARY
360
22
102
}
102
{ACAD_REACTORS
330
10
102
}
330
10
100
AcDbMaterial
  1
Global
 72
     0
 43
0.0208333333333333
 43
0.0
 43
0.0
 43
0.0
 43
0.0
 43
0.0208333333333333
 43
0.0
 43
0.0
 43
0.0
 43
0.0
 43
1.0
 43
0.0
 43
0.0
 43
0.0
 43
0.0
 43
1.0
 77
     0
 47
0.0208333333333333
 47
0.0
 47
0.0
 47
0.0
 47
0.0
 47
0.0208333333333333
 47
0.0
 47
0.0
 47
0.0
 47
0.0
 47
1.0
 47
0.0
 47
0.0
 47
0.0
 47
0.0
 47
1.0
171
     0
 49
0.0208333333333333
 49
0.0
 49
0.0
 49
0.0
 49
0.0
 49
0.0208333333333333
 49
0.0
 49
0.0
 49
0.0
 49
0.0
 49
1.0
 49
0.0
 49
0.0
 49
0.0
 49
0.0
 49
1.0
175
     0
142
0.0208333333333333
142
0.0
142
0.0
142
0.0
142
0.0
142
0.0208333333333333
142
0.0
142
0.0
142
0.0
142
0.0
142
1.0
142
0.0
142
0.0
142
0.0
142
0.0
142
1.0
179
     0
144
0.0208333333333333
144
0.0
144
0.0
144
0.0
144
0.0
144
0.0208333333333333
144
0.0
144
0.0
144
0.0
144
0.0
144
1.0
144
0.0
144
0.0
144
0.0
144
0.0
144
1.0
147
0.0208333333333333
147
0.0
147
0.0
147
0.0
147
0.0
147
0.0208333333333333
147
0.0
147
0.0
147
0.0
147
0.0
147
1.0
147
0.0
147
0.0
147
0.0
147
0.0
147
1.0
  0
MLEADERSTYLE
  5
67
102
{ACAD_REACTORS
330
66
102
}
330
66
100
AcDbMLeaderStyle
179
     2
170
     2
171
     1
172
     0
 90
        2
 40
0.0
 41
0.0
173
     1
 91
-1056964608
340
5B
 92
       -2
290
     1
 42
0.09
291
     1
 43
0.36
  3
Standard
 44
0.18
300

342
55
174
     1
178
     6
175
     1
176
     0
 93
-1056964608
 45
0.18
292
     0
297
     0
 46
0.18
 94
-1056964608
 47
1.0
 49
1.0
140
1.0
293
     1
141
0.0
294
     1
177
     0
142
1.0
295
     1
296
     0
143
0.125
271
     0
272
     9
273
     9
298
     1
  0
MLINESTYLE
  5
60
102
{ACAD_REACTORS
330
5F
102
}
330
5F
100
AcDbMlineStyle
  2
STANDARD
 70
     0
  3

 62
   256
 51
90.0
 52
90.0
 71
     2
 49
0.5
 62
   256
  6
BYLAYER
 49
-0.5
 62
   256
  6
BYLAYER
  0
ACDBPLACEHOLDER
  5
F
102
{ACAD_REACTORS
330
E
102
}
330
E
  0
SCALE
  5
43
102
{ACAD_REACTORS
330
42
102
}
330
42
100
AcDbScale
 70
     0
300
1:1
140
1.0
141
1.0
290
     1
  0
SCALE
  5
44
102
{ACAD_REACTORS
330
42
102
}
330
42
100
AcDbScale
 70
     0
300
1/128" = 1'-0"
140
0.0078125
141
12.0
290
     0
  0
SCALE
  5
45
102
{ACAD_REACTORS
330
42
102
}
330
42
100
AcDbScale
 70
     0
300
1/64" = 1'-0"
140
0.015625
141
12.0
290
     0
  0
SCALE
  5
46
102
{ACAD_REACTORS
330
42
102
}
330
42
100
AcDbScale
 70
     0
300
1/32" = 1'-0"
140
0.03125
141
12.0
290
     0
  0
SCALE
  5
47
102
{ACAD_REACTORS
330
42
102
}
330
42
100
AcDbScale
 70
     0
300
1/16" = 1'-0"
140
0.0625
141
12.0
290
     0
  0
SCALE
  5
48
102
{ACAD_REACTORS
330
42
102
}
330
42
100
AcDbScale
 70
     0
300
3/32" = 1'-0"
140
0.09375
141
12.0
290
     0
  0
SCALE
  5
49
102
{ACAD_REACTORS
330
42
102
}
330
42
100
AcDbScale
 70
     0
300
1/8" = 1'-0"
140
0.125
141
12.0
290
     0
  0
SCALE
  5
4A
102
{ACAD_REACTORS
330
42
102
}
330
42
100
AcDbScale
 70
     0
300
3/16" = 1'-0"
140
0.1875
141
12.0
290
     0
  0
SCALE
  5
4B
102
{ACAD_REACTORS
330
42
102
}
330
42
100
AcDbScale
 70
     0
300
1/4" = 1'-0"
140
0.25
141
12.0
290
     0
  0
SCALE
  5
4C
102
{ACAD_REACTORS
330
42
102
}
330
42
100
AcDbScale
 70
     0
300
3/8" = 1'-0"
140
0.375
141
12.0
290
     0
  0
SCALE
  5
4D
102
{ACAD_REACTORS
330
42
102
}
330
42
100
AcDbScale
 70
     0
300
1/2" = 1'-0"
140
0.5
141
12.0
290
     0
  0
SCALE
  5
4E
102
{ACAD_REACTORS
330
42
102
}
330
42
100
AcDbScale
 70
     0
300
3/4" = 1'-0"
140
0.75
141
12.0
290
     0
  0
SCALE
  5
4F
102
{ACAD_REACTORS
330
42
102
}
330
42
100
AcDbScale
 70
     0
300
1" = 1'-0"
140
1.0
141
12.0
290
     0
  0
SCALE
  5
50
102
{ACAD_REACTORS
330
42
102
}
330
42
100
AcDbScale
 70
     0
300
1-1/2" = 1'-0"
140
1.5
141
12.0
290
     0
  0
SCALE
  5
51
102
{ACAD_REACTORS
330
42
102
}
330
42
100
AcDbScale
 70
     0
300
3" = 1'-0"
140
3.0
141
12.0
290
     0
  0
SCALE
  5
52
102
{ACAD_REACTORS
330
42
102
}
330
42
100
AcDbScale
 70
     0
300
6" = 1'-0"
140
6.0
141
12.0
290
     0
  0
SCALE
  5
53
102
{ACAD_REACTORS
330
42
102
}
330
42
100
AcDbScale
 70
     0
300
1'-0" = 1'-0"
140
12.0
141
12.0
290
     0
  0
ACDBSECTIONVIEWSTYLE
  5
69
102
{ACAD_REACTORS
330
68
102
}
330
68
100
AcDbModelDocViewStyle
 70
     0
  3
Imperial24
290
     1
300
Imperial24
 90
        0
100
AcDbSectionViewStyle
 70
     0
 71
     0
 90
       78
 71
     1
340
55
 62
   256
 40
0.24
340
0
340
0
 62
   256
 40
0.24
300
I, O, Q, S, X, Z
 40
0.48
 90
        3
 40
0.18
 90
        1
 71
     2
340
5D
 90
       25
 62
   256
340
5D
 90
       50
 62
   256
 40
0.24
 40
0.0
 40
0.24
 71
     3
340
55
 62
   256
 40
0.24
 90
        1
 40
0.75
 90
        1
300
%<\AcVar ViewType \f "%tc1">% %<\AcVar ViewSectionStartId>%-%<\AcVar ViewSectionEndId>%\PSCALE %<\AcVar ViewScale \f "%sn">%
 71
     4
 62
   256
 62
   257
300
ANSI31
 40
1.0
 90
        0
290
     0
290
     0
 90
        6
 40
0.0
 40
1.570796326794896
 40
0.2617993877991494
 40
1.308996938995747
 40
-0.2617993877991494
 40
1.832595714594046
  0
TABLESTYLE
  5
65
102
{ACAD_XDICTIONARY
360
12C
102
}
102
{ACAD_REACTORS
330
64
102
}
330
64
100
AcDbTableStyle
280
     0
  3
Standard
 70
     0
 71
     0
 40
0.06
 41
0.06
280
     0
281
     0
  7
Standard
140
0.18
170
     2
 62
     0
 63
     7
283
     0
 90
      512
 91
        0
  1

274
    -2
284
     1
 64
     0
275
    -2
285
     1
 65
     0
276
    -2
286
     1
 66
     0
277
    -2
287
     1
 67
     0
278
    -2
288
     1
 68
     0
279
    -2
289
     1
 69
     0
  7
Standard
140
0.25
170
     5
 62
     0
 63
     7
283
     0
 90
      512
 91
        0
  1

274
    -2
284
     1
 64
     0
275
    -2
285
     1
 65
     0
276
    -2
286
     1
 66
     0
277
    -2
287
     1
 67
     0
278
    -2
288
     1
 68
     0
279
    -2
289
     1
 69
     0
  7
Standard
140
0.18
170
     5
 62
     0
 63
     7
283
     0
 90
      512
 91
        0
  1

274
    -2
284
     1
 64
     0
275
    -2
285
     1
 65
     0
276
    -2
286
     1
 66
     0
277
    -2
287
     1
 67
     0
278
    -2
288
     1
 68
     0
279
    -2
289
     1
 69
     0
  0
VISUALSTYLE
  5
2F
102
{ACAD_REACTORS
330
29
102
}
330
29
100
AcDbVisualStyle
  2
2dWireframe
 70
     4
177
     3
291
     0
 70
    58
 90
        0
176
     1
 90
        2
176
     1
 90
        0
176
     1
 90
        0
176
     1
 40
0.6
176
     1
 40
30.0
176
     1
 62
     7
420
 16777215
176
     1
 90
        1
176
     1
 90
        4
176
     1
 62
     7
176
     1
 62
   257
176
     1
 90
        1
176
     1
 90
        1
176
     1
 40
1.0
176
     1
 90
        0
176
     1
 62
   257
176
     1
 40
1.0
176
     1
 90
        1
176
     1
 90
        6
176
     1
 90
        2
176
     1
 62
     7
176
     1
 90
        5
176
     1
 90
        0
176
     1
 90
        0
176
     1
290
     0
176
     1
 90
        1
176
     1
 40
0.0
176
     1
 90
        0
176
     1
290
     1
176
     1
290
     1
176
     1
290
     0
176
     1
290
     0
176
     1
290
     0
176
     1
290
     0
176
     1
290
     0
176
     1
290
     0
176
     1
290
     0
176
     1
 90
       50
176
     1
 40
0.0
176
     1
 40
1.0
176
     1
 90
        0
176
     1
 62
    18
420
        0
176
     1
 90
       50
176
     1
 90
        3
176
     1
 62
     5
420
      255
176
     1
290
     0
176
     1
 90
       50
176
     1
 90
       50
176
     1
 90
       50
176
     1
290
     0
176
     1
 90
       50
176
     1
 62
   256
176
     0
 40
1.0
176
     0
 90
        2
176
     1
  1
strokes_ogs.tif
176
     1
290
     0
176
     1
 40
1.0
176
     1
 40
1.0
176
     1
  0
VISUALSTYLE
  5
2E
102
{ACAD_REACTORS
330
29
102
}
330
29
100
AcDbVisualStyle
  2
Basic
 70
     7
177
     3
291
     1
 70
    58
 90
        1
176
     1
 90
        0
176
     1
 90
        1
176
     1
 90
        0
176
     1
 40
0.6
176
     1
 40
30.0
176
     1
 62
     7
420
 16777215
176
     1
 90
        0
176
     1
 90
        4
176
     1
 62
     7
176
     1
 62
   257
176
     1
 90
        1
176
     1
 90
        1
176
     1
 40
1.0
176
     1
 90
        8
176
     1
 62
     7
176
     1
 40
1.0
176
     1
 90
        1
176
     1
 90
        6
176
     1
 90
        2
176
     1
 62
     7
176
     1
 90
        5
176
     1
 90
        0
176
     1
 90
        0
176
     1
290
     0
176
     1
 90
        1
176
     1
 40
0.0
176
     1
 90
        0
176
     1
290
     0
176
     1
290
     1
176
     1
290
     1
176
     1
290
     0
176
     1
290
     0
176
     1
290
     0
176
     1
290
     0
176
     1
290
     0
176
     1
290
     0
176
     1
 90
       50
176
     1
 40
0.0
176
     1
 40
1.0
176
     1
 90
        0
176
     1
 62
    18
420
        0
176
     1
 90
       50
176
     1
 90
        3
176
     1
 62
     5
420
      255
176
     1
290
     0
176
     1
 90
       50
176
     1
 90
       50
176
     1
 90
       50
176
     1
290
     0
176
     1
 90
       50
176
     1
 62
   256
176
     0
 40
1.0
176
     0
 90
        2
176
     1
  1
strokes_ogs.tif
176
     1
290
     0
176
     1
 40
1.0
176
     1
 40
1.0
176
     1
  0
VISUALSTYLE
  5
35
102
{ACAD_REACTORS
330
29
102
}
330
29
100
AcDbVisualStyle
  2
Brighten
 70
    12
177
     3
291
     1
 70
    58
 90
        2
176
     1
 90
        2
176
     1
 90
        0
176
     1
 90
        0
176
     1
 40
0.6
176
     1
 40
30.0
176
     1
 62
     7
420
 16777215
176
     1
 90
        1
176
     1
 90
        4
176
     1
 62
     7
176
     1
 62
   257
176
     1
 90
        1
176
     1
 90
        1
176
     1
 40
1.0
176
     1
 90
        8
176
     1
 62
     7
176
     1
 40
1.0
176
     1
 90
        1
176
     1
 90
        6
176
     1
 90
        2
176
     1
 62
     7
176
     1
 90
        5
176
     1
 90
        0
176
     1
 90
        0
176
     1
290
     0
176
     1
 90
        1
176
     1
 40
50.0
176
     1
 90
        0
176
     1
290
     0
176
     1
290
     1
176
     1
290
     1
176
     1
290
     0
176
     1
290
     0
176
     1
290
     0
176
     1
290
     0
176
     1
290
     0
176
     1
290
     0
176
     1
 90
       50
176
     1
 40
0.0
176
     1
 40
1.0
176
     1
 90
        0
176
     1
 62
    18
420
        0
176
     1
 90
       50
176
     1
 90
        3
176
     1
 62
     5
420
      255
176
     1
290
     0
176
     1
 90
       50
176
     1
 90
       50
176
     1
 90
       50
176
     1
290
     0
176
     1
 90
       50
176
     1
 62
   256
176
     0
 40
1.0
176
     0
 90
        2
176
     1
  1
strokes_ogs.tif
176
     1
290
     0
176
     1
 40
1.0
176
     1
 40
1.0
176
     1
  0
VISUALSTYLE
  5
39
102
{ACAD_REACTORS
330
29
102
}
330
29
100
AcDbVisualStyle
  2
ColorChange
 70
    16
177
     3
291
     1
 70
    58
 90
        2
176
     1
 90
        2
176
     1
 90
        3
176
     1
 90
        0
176
     1
 40
0.6
176
     1
 40
30.0
176
     1
 62
     8
420
  8421504
176
     1
 90
        1
176
     1
 90
        4
176
     1
 62
     7
176
     1
 62
   257
176
     1
 90
        1
176
     1
 90
        1
176
     1
 40
1.0
176
     1
 90
        8
176
     1
 62
     8
420
  8421504
176
     1
 40
1.0
176
     1
 90
        1
176
     1
 90
        6
176
     1
 90
        2
176
     1
 62
     7
176
     1
 90
        5
176
     1
 90
        0
176
     1
 90
        0
176
     1
290
     0
176
     1
 90
        1
176
     1
 40
0.0
176
     1
 90
        0
176
     1
290
     0
176
     1
290
     1
176
     1
290
     1
176
     1
290
     0
176
     1
290
     0
176
     1
290
     0
176
     1
290
     0
176
     1
290
     0
176
     1
290
     0
176
     1
 90
       50
176
     1
 40
0.0
176
     1
 40
1.0
176
     1
 90
        0
176
     1
 62
    18
420
        0
176
     1
 90
       50
176
     1
 90
        3
176
     1
 62
     5
420
      255
176
     1
290
     0
176
     1
 90
       50
176
     1
 90
       50
176
     1
 90
       50
176
     1
290
     0
176
     1
 90
       50
176
     1
 62
   256
176
     0
 40
1.0
176
     0
 90
        2
176
     1
  1
strokes_ogs.tif
176
     1
290
     0
176
     1
 40
1.0
176
     1
 40
1.0
176
     1
  0
VISUALSTYLE
  5
32
102
{ACAD_REACTORS
330
29
102
}
330
29
100
AcDbVisualStyle
  2
Conceptual
 70
     9
177
     3
291
     0
 70
    58
 90
        3
176
     1
 90
        2
176
     1
 90
        0
176
     1
 90
        0
176
     1
 40
0.6
176
     1
 40
30.0
176
     1
 62
     7
420
 16777215
176
     1
 90
        2
176
     1
 90
        2
176
     1
 62
     7
176
     1
 62
   257
176
     1
 90
        1
176
     1
 90
        1
176
     1
 40
179.0
176
     1
 90
        8
176
     1
 62
     7
176
     1
 40
1.0
176
     1
 90
        1
176
     1
 90
        6
176
     1
 90
        2
176
     1
 62
     7
176
     1
 90
        3
176
     1
 90
        0
176
     1
 90
        0
176
     1
290
     0
176
     1
 90
        1
176
     1
 40
0.0
176
     1
 90
        0
176
     1
290
     0
176
     1
290
     1
176
     1
290
     1
176
     1
290
     0
176
     1
290
     0
176
     1
290
     0
176
     1
290
     0
176
     1
290
     0
176
     1
290
     0
176
     1
 90
       50
176
     1
 40
0.0
176
     1
 40
1.0
176
     1
 90
        0
176
     1
 62
    18
420
        0
176
     1
 90
       50
176
     1
 90
        3
176
     1
 62
     5
420
      255
176
     1
290
     0
176
     1
 90
       50
176
     1
 90
       50
176
     1
 90
       50
176
     1
290
     0
176
     1
 90
       50
176
     1
 62
   256
176
     0
 40
1.0
176
     0
 90
        2
176
     1
  1
strokes_ogs.tif
176
     1
290
     0
176
     1
 40
1.0
176
     1
 40
1.0
176
     1
  0
VISUALSTYLE
  5
34
102
{ACAD_REACTORS
330
29
102
}
330
29
100
AcDbVisualStyle
  2
Dim
 70
    11
177
     3
291
     1
 70
    58
 90
        2
176
     1
 90
        2
176
     1
 90
        0
176
     1
 90
        0
176
     1
 40
0.6
176
     1
 40
30.0
176
     1
 62
     7
420
 16777215
176
     1
 90
        1
176
     1
 90
        4
176
     1
 62
     7
176
     1
 62
   257
176
     1
 90
        1
176
     1
 90
        1
176
     1
 40
1.0
176
     1
 90
        8
176
     1
 62
     7
176
     1
 40
1.0
176
     1
 90
        1
176
     1
 90
        6
176
     1
 90
        2
176
     1
 62
     7
176
     1
 90
        5
176
     1
 90
        0
176
     1
 90
        0
176
     1
290
     0
176
     1
 90
        1
176
     1
 40
-50.0
176
     1
 90
        0
176
     1
290
     0
176
     1
290
     1
176
     1
290
     1
176
     1
290
     0
176
     1
290
     0
176
     1
290
     0
176
     1
290
     0
176
     1
290
     0
176
     1
290
     0
176
     1
 90
       50
176
     1
 40
0.0
176
     1
 40
1.0
176
     1
 90
        0
176
     1
 62
    18
420
        0
176
     1
 90
       50
176
     1
 90
        3
176
     1
 62
     5
420
      255
176
     1
290
     0
176
     1
 90
       50
176
     1
 90
       50
176
     1
 90
       50
176
     1
290
     0
176
     1
 90
       50
176
     1
 62
   256
176
     0
 40
1.0
176
     0
 90
        2
176
     1
  1
strokes_ogs.tif
176
     1
290
     0
176
     1
 40
1.0
176
     1
 40
1.0
176
     1
  0
VISUALSTYLE
  5
41
102
{ACAD_REACTORS
330
29
102
}
330
29
100
AcDbVisualStyle
  2
EdgeColorOff
 70
    22
177
     3
291
     1
 70
    58
 90
        2
176
     0
 90
        2
176
     0
 90
        0
176
     0
 90
        0
176
     0
 40
0.6
176
     0
 40
30.0
176
     0
 62
     7
420
 16777215
176
     0
 90
        1
176
     0
 90
        4
176
     0
 62
     7
176
     0
 62
   257
176
     0
 90
        1
176
     0
 90
        1
176
     0
 40
1.0
176
     0
 90
        8
176
     2
 62
     7
176
     0
 40
1.0
176
     0
 90
        1
176
     0
 90
        6
176
     0
 90
        2
176
     0
 62
     7
176
     0
 90
        5
176
     0
 90
        0
176
     0
 90
        0
176
     0
290
     0
176
     0
 90
        1
176
     0
 40
0.0
176
     0
 90
        0
176
     0
290
     0
176
     0
290
     1
176
     0
290
     1
176
     0
290
     0
176
     0
290
     0
176
     0
290
     0
176
     0
290
     0
176
     0
290
     0
176
     0
290
     0
176
     0
 90
       50
176
     0
 40
0.0
176
     0
 40
1.0
176
     0
 90
        0
176
     0
 62
    18
420
        0
176
     0
 90
       50
176
     0
 90
        3
176
     0
 62
     5
420
      255
176
     0
290
     0
176
     0
 90
       50
176
     0
 90
       50
176
     0
 90
       50
176
     0
290
     0
176
     0
 90
       50
176
     0
 62
   256
176
     0
 40
1.0
176
     0
 90
        2
176
     0
  1
strokes_ogs.tif
176
     0
290
     0
176
     0
 40
1.0
176
     0
 40
1.0
176
     0
  0
VISUALSTYLE
  5
38
102
{ACAD_REACTORS
330
29
102
}
330
29
100
AcDbVisualStyle
  2
Facepattern
 70
    15
177
     3
291
     1
 70
    58
 90
        2
176
     1
 90
        2
176
     1
 90
        0
176
     1
 90
        0
176
     1
 40
0.6
176
     1
 40
30.0
176
     1
 62
     7
420
 16777215
176
     1
 90
        1
176
     1
 90
        4
176
     1
 62
     7
176
     1
 62
   257
176
     1
 90
        1
176
     1
 90
        1
176
     1
 40
1.0
176
     1
 90
        8
176
     1
 62
     7
176
     1
 40
1.0
176
     1
 90
        1
176
     1
 90
        6
176
     1
 90
        2
176
     1
 62
     7
176
     1
 90
        5
176
     1
 90
        0
176
     1
 90
        0
176
     1
290
     0
176
     1
 90
        1
176
     1
 40
0.0
176
     1
 90
        0
176
     1
290
     0
176
     1
290
     1
176
     1
290
     1
176
     1
290
     0
176
     1
290
     0
176
     1
290
     0
176
     1
290
     0
176
     1
290
     0
176
     1
290
     0
176
     1
 90
       50
176
     1
 40
0.0
176
     1
 40
1.0
176
     1
 90
        0
176
     1
 62
    18
420
        0
176
     1
 90
       50
176
     1
 90
        3
176
     1
 62
     5
420
      255
176
     1
290
     0
176
     1
 90
       50
176
     1
 90
       50
176
     1
 90
       50
176
     1
290
     0
176
     1
 90
       50
176
     1
 62
   256
176
     0
 40
1.0
176
     0
 90
        2
176
     1
  1
strokes_ogs.tif
176
     1
290
     0
176
     1
 40
1.0
176
     1
 40
1.0
176
     1
  0
VISUALSTYLE
  5
2A
102
{ACAD_REACTORS
330
29
102
}
330
29
100
AcDbVisualStyle
  2
Flat
 70
     0
177
     3
291
     1
 70
    58
 90
        2
176
     1
 90
        1
176
     1
 90
        1
176
     1
 90
        2
176
     1
 40
0.6
176
     1
 40
30.0
176
     1
 62
     7
420
 16777215
176
     1
 90
        0
176
     1
 90
        0
176
     1
 62
     7
176
     1
 62
   257
176
     1
 90
        1
176
     1
 90
        1
176
     1
 40
1.0
176
     1
 90
        8
176
     1
 62
     7
176
     1
 40
1.0
176
     1
 90
        1
176
     1
 90
        6
176
     1
 90
        2
176
     1
 62
     7
176
     1
 90
        5
176
     1
 90
        0
176
     1
 90
        0
176
     1
290
     0
176
     1
 90
       13
176
     1
 40
0.0
176
     1
 90
        0
176
     1
290
     0
176
     1
290
     1
176
     1
290
     1
176
     1
290
     0
176
     1
290
     0
176
     1
290
     0
176
     1
290
     0
176
     1
290
     0
176
     1
290
     0
176
     1
 90
       50
176
     1
 40
0.0
176
     1
 40
1.0
176
     1
 90
        0
176
     1
 62
    18
420
        0
176
     1
 90
       50
176
     1
 90
        3
176
     1
 62
     5
420
      255
176
     1
290
     0
176
     1
 90
       50
176
     1
 90
       50
176
     1
 90
       50
176
     1
290
     0
176
     1
 90
       50
176
     1
 62
   256
176
     0
 40
1.0
176
     0
 90
        2
176
     1
  1
strokes_ogs.tif
176
     1
290
     0
176
     1
 40
1.0
176
     1
 40
1.0
176
     1
  0
VISUALSTYLE
  5
2B
102
{ACAD_REACTORS
330
29
102
}
330
29
100
AcDbVisualStyle
  2
FlatWithEdges
 70
     1
177
     3
291
     1
 70
    58
 90
        2
176
     1
 90
        1
176
     1
 90
        1
176
     1
 90
        2
176
     1
 40
0.6
176
     1
 40
30.0
176
     1
 62
     7
420
 16777215
176
     1
 90
        1
176
     1
 90
        0
176
     1
 62
     7
176
     1
 62
   257
176
     1
 90
        1
176
     1
 90
        1
176
     1
 40
1.0
176
     1
 90
        0
176
     1
 62
   257
176
     1
 40
1.0
176
     1
 90
        1
176
     1
 90
        6
176
     1
 90
        2
176
     1
 62
     7
176
     1
 90
        5
176
     1
 90
        0
176
     1
 90
        0
176
     1
290
     0
176
     1
 90
       13
176
     1
 40
0.0
176
     1
 90
        0
176
     1
290
     0
176
     1
290
     1
176
     1
290
     1
176
     1
290
     0
176
     1
290
     0
176
     1
290
     0
176
     1
290
     0
176
     1
290
     0
176
     1
290
     0
176
     1
 90
       50
176
     1
 40
0.0
176
     1
 40
1.0
176
     1
 90
        0
176
     1
 62
    18
420
        0
176
     1
 90
       50
176
     1
 90
        3
176
     1
 62
     5
420
      255
176
     1
290
     0
176
     1
 90
       50
176
     1
 90
       50
176
     1
 90
       50
176
     1
290
     0
176
     1
 90
       50
176
     1
 62
   256
176
     0
 40
1.0
176
     0
 90
        2
176
     1
  1
strokes_ogs.tif
176
     1
290
     0
176
     1
 40
1.0
176
     1
 40
1.0
176
     1
  0
VISUALSTYLE
  5
2C
102
{ACAD_REACTORS
330
29
102
}
330
29
100
AcDbVisualStyle
  2
Gouraud
 70
     2
177
     3
291
     1
 70
    58
 90
        2
176
     1
 90
        2
176
     1
 90
        1
176
     1
 90
        2
176
     1
 40
0.6
176
     1
 40
30.0
176
     1
 62
     7
420
 16777215
176
     1
 90
        0
176
     1
 90
        0
176
     1
 62
     7
176
     1
 62
   257
176
     1
 90
        1
176
     1
 90
        1
176
     1
 40
1.0
176
     1
 90
        0
176
     1
 62
     7
176
     1
 40
1.0
176
     1
 90
        1
176
     1
 90
        6
176
     1
 90
        2
176
     1
 62
     7
176
     1
 90
        5
176
     1
 90
        0
176
     1
 90
        0
176
     1
290
     0
176
     1
 90
       13
176
     1
 40
0.0
176
     1
 90
        0
176
     1
290
     0
176
     1
290
     1
176
     1
290
     1
176
     1
290
     0
176
     1
290
     0
176
     1
290
     0
176
     1
290
     0
176
     1
290
     0
176
     1
290
     0
176
     1
 90
       50
176
     1
 40
0.0
176
     1
 40
1.0
176
     1
 90
        0
176
     1
 62
    18
420
        0
176
     1
 90
       50
176
     1
 90
        3
176
     1
 62
     5
420
      255
176
     1
290
     0
176
     1
 90
       50
176
     1
 90
       50
176
     1
 90
       50
176
     1
290
     0
176
     1
 90
       50
176
     1
 62
   256
176
     0
 40
1.0
176
     0
 90
        2
176
     1
  1
strokes_ogs.tif
176
     1
290
     0
176
     1
 40
1.0
176
     1
 40
1.0
176
     1
  0
VISUALSTYLE
  5
2D
102
{ACAD_REACTORS
330
29
102
}
330
29
100
AcDbVisualStyle
  2
GouraudWithEdges
 70
     3
177
     3
291
     1
 70
    58
 90
        2
176
     1
 90
        2
176
     1
 90
        1
176
     1
 90
        2
176
     1
 40
0.6
176
     1
 40
30.0
176
     1
 62
     7
420
 16777215
176
     1
 90
        1
176
     1
 90
        0
176
     1
 62
     7
176
     1
 62
   257
176
     1
 90
        1
176
     1
 90
        1
176
     1
 40
1.0
176
     1
 90
        0
176
     1
 62
   257
176
     1
 40
1.0
176
     1
 90
        1
176
     1
 90
        6
176
     1
 90
        2
176
     1
 62
     7
176
     1
 90
        5
176
     1
 90
        0
176
     1
 90
        0
176
     1
290
     0
176
     1
 90
       13
176
     1
 40
0.0
176
     1
 90
        0
176
     1
290
     0
176
     1
290
     1
176
     1
290
     1
176
     1
290
     0
176
     1
290
     0
176
     1
290
     0
176
     1
290
     0
176
     1
290
     0
176
     1
290
     0
176
     1
 90
       50
176
     1
 40
0.0
176
     1
 40
1.0
176
     1
 90
        0
176
     1
 62
    18
420
        0
176
     1
 90
       50
176
     1
 90
        3
176
     1
 62
     5
420
      255
176
     1
290
     0
176
     1
 90
       50
176
     1
 90
       50
176
     1
 90
       50
176
     1
290
     0
176
     1
 90
       50
176
     1
 62
   256
176
     0
 40
1.0
176
     0
 90
        2
176
     1
  1
strokes_ogs.tif
176
     1
290
     0
176
     1
 40
1.0
176
     1
 40
1.0
176
     1
  0
VISUALSTYLE
  5
31
102
{ACAD_REACTORS
330
29
102
}
330
29
100
AcDbVisualStyle
  2
Hidden
 70
     6
177
     3
291
     0
 70
    58
 90
        1
176
     1
 90
        2
176
     1
 90
        2
176
     1
 90
        0
176
     1
 40
0.6
176
     1
 40
30.0
176
     1
 62
     7
420
 16777215
176
     1
 90
        2
176
     1
 90
        2
176
     1
 62
     7
176
     1
 62
   257
176
     1
 90
        2
176
     1
 90
        1
176
     1
 40
40.0
176
     1
 90
        0
176
     1
 62
   257
176
     1
 40
1.0
176
     1
 90
        1
176
     1
 90
        6
176
     1
 90
        2
176
     1
 62
     7
176
     1
 90
        3
176
     1
 90
        0
176
     1
 90
        0
176
     1
290
     0
176
     1
 90
        1
176
     1
 40
0.0
176
     1
 90
        0
176
     1
290
     0
176
     1
290
     1
176
     1
290
     1
176
     1
290
     0
176
     1
290
     0
176
     1
290
     0
176
     1
290
     0
176
     1
290
     0
176
     1
290
     0
176
     1
 90
       50
176
     1
 40
0.0
176
     1
 40
1.0
176
     1
 90
        0
176
     1
 62
    18
420
        0
176
     1
 90
       50
176
     1
 90
        3
176
     1
 62
     5
420
      255
176
     1
290
     0
176
     1
 90
       50
176
     1
 90
       50
176
     1
 90
       50
176
     1
290
     0
176
     1
 90
       50
176
     1
 62
   256
176
     0
 40
1.0
176
     0
 90
        2
176
     1
  1
strokes_ogs.tif
176
     1
290
     0
176
     1
 40
1.0
176
     1
 40
1.0
176
     1
  0
VISUALSTYLE
  5
3F
102
{ACAD_REACTORS
330
29
102
}
330
29
100
AcDbVisualStyle
  2
JitterOff
 70
    20
177
     3
291
     1
 70
    58
 90
        2
176
     0
 90
        2
176
     0
 90
        0
176
     0
 90
        0
176
     0
 40
0.6
176
     0
 40
30.0
176
     0
 62
     7
420
 16777215
176
     0
 90
        1
176
     0
 90
        4
176
     0
 62
     7
176
     0
 62
   257
176
     0
 90
        1
176
     0
 90
        1
176
     0
 40
1.0
176
     0
 90
       10
176
     2
 62
     7
176
     0
 40
1.0
176
     0
 90
        1
176
     0
 90
        6
176
     0
 90
        2
176
     0
 62
     7
176
     0
 90
        5
176
     0
 90
        0
176
     0
 90
        0
176
     0
290
     0
176
     0
 90
        1
176
     0
 40
0.0
176
     0
 90
        0
176
     0
290
     0
176
     0
290
     1
176
     0
290
     1
176
     0
290
     0
176
     0
290
     0
176
     0
290
     0
176
     0
290
     0
176
     0
290
     0
176
     0
290
     0
176
     0
 90
       50
176
     0
 40
0.0
176
     0
 40
1.0
176
     0
 90
        0
176
     0
 62
    18
420
        0
176
     0
 90
       50
176
     0
 90
        3
176
     0
 62
     5
420
      255
176
     0
290
     0
176
     0
 90
       50
176
     0
 90
       50
176
     0
 90
       50
176
     0
290
     0
176
     0
 90
       50
176
     0
 62
   256
176
     0
 40
1.0
176
     0
 90
        2
176
     0
  1
strokes_ogs.tif
176
     0
290
     0
176
     0
 40
1.0
176
     0
 40
1.0
176
     0
  0
VISUALSTYLE
  5
37
102
{ACAD_REACTORS
330
29
102
}
330
29
100
AcDbVisualStyle
  2
Linepattern
 70
    14
177
     3
291
     1
 70
    58
 90
        2
176
     1
 90
        2
176
     1
 90
        0
176
     1
 90
        0
176
     1
 40
0.6
176
     1
 40
30.0
176
     1
 62
     7
420
 16777215
176
     1
 90
        1
176
     1
 90
        4
176
     1
 62
     7
176
     1
 62
   257
176
     1
 90
        7
176
     1
 90
        7
176
     1
 40
1.0
176
     1
 90
        8
176
     1
 62
     7
176
     1
 40
1.0
176
     1
 90
        1
176
     1
 90
        6
176
     1
 90
        2
176
     1
 62
     7
176
     1
 90
        5
176
     1
 90
        0
176
     1
 90
        0
176
     1
290
     0
176
     1
 90
        1
176
     1
 40
0.0
176
     1
 90
        0
176
     1
290
     0
176
     1
290
     1
176
     1
290
     1
176
     1
290
     0
176
     1
290
     0
176
     1
290
     0
176
     1
290
     0
176
     1
290
     0
176
     1
290
     0
176
     1
 90
       50
176
     1
 40
0.0
176
     1
 40
1.0
176
     1
 90
        0
176
     1
 62
    18
420
        0
176
     1
 90
       50
176
     1
 90
        3
176
     1
 62
     5
420
      255
176
     1
290
     0
176
     1
 90
       50
176
     1
 90
       50
176
     1
 90
       50
176
     1
290
     0
176
     1
 90
       50
176
     1
 62
   256
176
     0
 40
1.0
176
     0
 90
        2
176
     1
  1
strokes_ogs.tif
176
     1
290
     0
176
     1
 40
1.0
176
     1
 40
1.0
176
     1
  0
VISUALSTYLE
  5
40
102
{ACAD_REACTORS
330
29
102
}
330
29
100
AcDbVisualStyle
  2
OverhangOff
 70
    21
177
     3
291
     1
 70
    58
 90
        2
176
     0
 90
        2
176
     0
 90
        0
176
     0
 90
        0
176
     0
 40
0.6
176
     0
 40
30.0
176
     0
 62
     7
420
 16777215
176
     0
 90
        1
176
     0
 90
        4
176
     0
 62
     7
176
     0
 62
   257
176
     0
 90
        1
176
     0
 90
        1
176
     0
 40
1.0
176
     0
 90
        9
176
     2
 62
     7
176
     0
 40
1.0
176
     0
 90
        1
176
     0
 90
        6
176
     0
 90
        2
176
     0
 62
     7
176
     0
 90
        5
176
     0
 90
        0
176
     0
 90
        0
176
     0
290
     0
176
     0
 90
        1
176
     0
 40
0.0
176
     0
 90
        0
176
     0
290
     0
176
     0
290
     1
176
     0
290
     1
176
     0
290
     0
176
     0
290
     0
176
     0
290
     0
176
     0
290
     0
176
     0
290
     0
176
     0
290
     0
176
     0
 90
       50
176
     0
 40
0.0
176
     0
 40
1.0
176
     0
 90
        0
176
     0
 62
    18
420
        0
176
     0
 90
       50
176
     0
 90
        3
176
     0
 62
     5
420
      255
176
     0
290
     0
176
     0
 90
       50
176
     0
 90
       50
176
     0
 90
       50
176
     0
290
     0
176
     0
 90
       50
176
     0
 62
   256
176
     0
 40
1.0
176
     0
 90
        2
176
     0
  1
strokes_ogs.tif
176
     0
290
     0
176
     0
 40
1.0
176
     0
 40
1.0
176
     0
  0
VISUALSTYLE
  5
33
102
{ACAD_REACTORS
330
29
102
}
330
29
100
AcDbVisualStyle
  2
Realistic
 70
     8
177
     3
291
     0
 70
    58
 90
        2
176
     1
 90
        3
176
     1
 90
        0
176
     1
 90
        2
176
     1
 40
0.6
176
     1
 40
30.0
176
     1
 62
     7
420
 16777215
176
     1
 90
        0
176
     1
 90
        0
176
     1
 62
     7
176
     1
 62
   257
176
     1
 90
        1
176
     1
 90
        1
176
     1
 40
1.0
176
     1
 90
        8
176
     1
 62
   257
176
     1
 40
1.0
176
     1
 90
        1
176
     1
 90
        6
176
     1
 90
        2
176
     1
 62
     7
176
     1
 90
        3
176
     1
 90
        0
176
     1
 90
        0
176
     1
290
     0
176
     1
 90
       13
176
     1
 40
0.0
176
     1
 90
        0
176
     1
290
     0
176
     1
290
     1
176
     1
290
     1
176
     1
290
     0
176
     1
290
     0
176
     1
290
     0
176
     1
290
     0
176
     1
290
     0
176
     1
290
     0
176
     1
 90
       50
176
     1
 40
0.0
176
     1
 40
1.0
176
     1
 90
        0
176
     1
 62
    18
420
        0
176
     1
 90
       50
176
     1
 90
        3
176
     1
 62
     5
420
      255
176
     1
290
     0
176
     1
 90
       50
176
     1
 90
       50
176
     1
 90
       50
176
     1
290
     0
176
     1
 90
       50
176
     1
 62
   256
176
     0
 40
1.0
176
     0
 90
        2
176
     1
  1
strokes_ogs.tif
176
     1
290
     0
176
     1
 40
1.0
176
     1
 40
1.0
176
     1
  0
VISUALSTYLE
  5
3E
102
{ACAD_REACTORS
330
29
102
}
330
29
100
AcDbVisualStyle
  2
Shaded
 70
    27
177
     3
291
     0
 70
    58
 90
        2
176
     1
 90
        2
176
     1
 90
        1
176
     1
 90
        2
176
     1
 40
0.6
176
     1
 40
30.0
176
     1
 62
     7
420
 16777215
176
     1
 90
        0
176
     1
 90
        4
176
     1
 62
     7
176
     1
 62
   257
176
     1
 90
        1
176
     1
 90
        1
176
     1
 40
1.0
176
     1
 90
        8
176
     1
 62
   257
176
     1
 40
1.0
176
     1
 90
        1
176
     1
 90
        6
176
     1
 90
        2
176
     1
 62
     8
420
  7895160
176
     1
 90
        3
176
     1
 90
        0
176
     1
 90
        0
176
     1
290
     0
176
     1
 90
        5
176
     1
 40
0.0
176
     1
 90
        0
176
     1
290
     0
176
     1
290
     1
176
     1
290
     1
176
     1
290
     0
176
     1
290
     0
176
     1
290
     0
176
     1
290
     0
176
     1
290
     0
176
     1
290
     0
176
     1
 90
       50
176
     1
 40
0.0
176
     1
 40
1.0
176
     1
 90
        0
176
     1
 62
    18
420
        0
176
     1
 90
       50
176
     1
 90
        3
176
     1
 62
     5
420
      255
176
     1
290
     0
176
     1
 90
       50
176
     1
 90
       50
176
     1
 90
       50
176
     1
290
     0
176
     1
 90
       50
176
     1
 62
   256
176
     0
 40
1.0
176
     0
 90
        2
176
     1
  1
strokes_ogs.tif
176
     1
290
     0
176
     1
 40
1.0
176
     1
 40
1.0
176
     1
  0
VISUALSTYLE
  5
3D
102
{ACAD_REACTORS
330
29
102
}
330
29
100
AcDbVisualStyle
  2
Shaded with edges
 70
    26
177
     3
291
     0
 70
    58
 90
        2
176
     1
 90
        2
176
     1
 90
        1
176
     1
 90
        2
176
     1
 40
0.6
176
     1
 40
30.0
176
     1
 62
     7
420
 16777215
176
     1
 90
        1
176
     1
 90
        2
176
     1
 62
     7
176
     1
 62
   257
176
     1
 90
        2
176
     1
 90
        1
176
     1
 40
1.0
176
     1
 90
        8
176
     1
 62
   257
176
     1
 40
1.0
176
     1
 90
        1
176
     1
 90
        6
176
     1
 90
        2
176
     1
 62
     7
176
     1
 90
        3
176
     1
 90
        0
176
     1
 90
        0
176
     1
290
     0
176
     1
 90
        5
176
     1
 40
0.0
176
     1
 90
        0
176
     1
290
     0
176
     1
290
     1
176
     1
290
     1
176
     1
290
     0
176
     1
290
     0
176
     1
290
     0
176
     1
290
     0
176
     1
290
     0
176
     1
290
     0
176
     1
 90
       50
176
     1
 40
0.0
176
     1
 40
1.0
176
     1
 90
        0
176
     1
 62
    18
420
        0
176
     1
 90
       50
176
     1
 90
        3
176
     1
 62
     5
420
      255
176
     1
290
     0
176
     1
 90
       50
176
     1
 90
       50
176
     1
 90
       50
176
     1
290
     0
176
     1
 90
       50
176
     1
 62
   256
176
     0
 40
1.0
176
     0
 90
        2
176
     1
  1
strokes_ogs.tif
176
     1
290
     0
176
     1
 40
1.0
176
     1
 40
1.0
176
     1
  0
VISUALSTYLE
  5
3A
102
{ACAD_REACTORS
330
29
102
}
330
29
100
AcDbVisualStyle
  2
Shades of Gray
 70
    23
177
     3
291
     0
 70
    58
 90
        2
176
     1
 90
        2
176
     1
 90
        3
176
     1
 90
        0
176
     1
 40
0.6
176
     1
 40
30.0
176
     1
 62
     7
420
 16777215
176
     1
 90
        2
176
     1
 90
        2
176
     1
 62
     7
176
     1
 62
     7
176
     1
 90
        1
176
     1
 90
        1
176
     1
 40
40.0
176
     1
 90
        8
176
     1
 62
     7
176
     1
 40
1.0
176
     1
 90
        1
176
     1
 90
        6
176
     1
 90
        2
176
     1
 62
     7
176
     1
 90
        3
176
     1
 90
        0
176
     1
 90
        0
176
     1
290
     0
176
     1
 90
        1
176
     1
 40
0.0
176
     1
 90
        0
176
     1
290
     0
176
     1
290
     1
176
     1
290
     1
176
     1
290
     0
176
     1
290
     0
176
     1
290
     0
176
     1
290
     0
176
     1
290
     0
176
     1
290
     0
176
     1
 90
       50
176
     1
 40
0.0
176
     1
 40
1.0
176
     1
 90
        0
176
     1
 62
    18
420
        0
176
     1
 90
       50
176
     1
 90
        3
176
     1
 62
     5
420
      255
176
     1
290
     0
176
     1
 90
       50
176
     1
 90
       50
176
     1
 90
       50
176
     1
290
     0
176
     1
 90
       50
176
     1
 62
   256
176
     0
 40
1.0
176
     0
 90
        2
176
     1
  1
strokes_ogs.tif
176
     1
290
     0
176
     1
 40
1.0
176
     1
 40
1.0
176
     1
  0
VISUALSTYLE
  5
3B
102
{ACAD_REACTORS
330
29
102
}
330
29
100
AcDbVisualStyle
  2
Sketchy
 70
    24
177
     3
291
     0
 70
    58
 90
        1
176
     1
 90
        2
176
     1
 90
        2
176
     1
 90
        0
176
     1
 40
0.6
176
     1
 40
30.0
176
     1
 62
     7
420
 16777215
176
     1
 90
        2
176
     1
 90
        2
176
     1
 62
     7
176
     1
 62
     7
176
     1
 90
        1
176
     1
 90
        1
176
     1
 40
40.0
176
     1
 90
       11
176
     1
 62
     7
176
     1
 40
1.0
176
     1
 90
        1
176
     1
 90
        6
176
     1
 90
        2
176
     1
 62
     7
176
     1
 90
        6
176
     1
 90
        0
176
     1
 90
        0
176
     1
290
     0
176
     1
 90
        1
176
     1
 40
0.0
176
     1
 90
        0
176
     1
290
     0
176
     1
290
     1
176
     1
290
     1
176
     1
290
     0
176
     1
290
     0
176
     1
290
     0
176
     1
290
     0
176
     1
290
     0
176
     1
290
     0
176
     1
 90
       50
176
     1
 40
0.0
176
     1
 40
1.0
176
     1
 90
        0
176
     1
 62
    18
420
        0
176
     1
 90
       50
176
     1
 90
        3
176
     1
 62
     5
420
      255
176
     1
290
     0
176
     1
 90
       50
176
     1
 90
       50
176
     1
 90
       50
176
     1
290
     0
176
     1
 90
       50
176
     1
 62
   256
176
     0
 40
1.0
176
     0
 90
        2
176
     1
  1
strokes_ogs.tif
176
     1
290
     0
176
     1
 40
1.0
176
     1
 40
1.0
176
     1
  0
VISUALSTYLE
  5
36
102
{ACAD_REACTORS
330
29
102
}
330
29
100
AcDbVisualStyle
  2
Thicken
 70
    13
177
     3
291
     1
 70
    58
 90
        2
176
     1
 90
        2
176
     1
 90
        0
176
     1
 90
        0
176
     1
 40
0.6
176
     1
 40
30.0
176
     1
 62
     7
420
 16777215
176
     1
 90
        1
176
     1
 90
        4
176
     1
 62
     7
176
     1
 62
   257
176
     1
 90
        1
176
     1
 90
        1
176
     1
 40
1.0
176
     1
 90
       12
176
     1
 62
     7
176
     1
 40
1.0
176
     1
 90
        1
176
     1
 90
        6
176
     1
 90
        2
176
     1
 62
     7
176
     1
 90
        5
176
     1
 90
        0
176
     1
 90
        0
176
     1
290
     0
176
     1
 90
        1
176
     1
 40
0.0
176
     1
 90
        0
176
     1
290
     0
176
     1
290
     1
176
     1
290
     1
176
     1
290
     0
176
     1
290
     0
176
     1
290
     0
176
     1
290
     0
176
     1
290
     0
176
     1
290
     0
176
     1
 90
       50
176
     1
 40
0.0
176
     1
 40
1.0
176
     1
 90
        0
176
     1
 62
    18
420
        0
176
     1
 90
       50
176
     1
 90
        3
176
     1
 62
     5
420
      255
176
     1
290
     0
176
     1
 90
       50
176
     1
 90
       50
176
     1
 90
       50
176
     1
290
     0
176
     1
 90
       50
176
     1
 62
   256
176
     0
 40
1.0
176
     0
 90
        2
176
     1
  1
strokes_ogs.tif
176
     1
290
     0
176
     1
 40
1.0
176
     1
 40
1.0
176
     1
  0
VISUALSTYLE
  5
30
102
{ACAD_REACTORS
330
29
102
}
330
29
100
AcDbVisualStyle
  2
Wireframe
 70
     5
177
     3
291
     0
 70
    58
 90
        0
176
     1
 90
        2
176
     1
 90
        0
176
     1
 90
        0
176
     1
 40
0.6
176
     1
 40
30.0
176
     1
 62
     7
420
 16777215
176
     1
 90
        1
176
     1
 90
        4
176
     1
 62
     7
176
     1
 62
   257
176
     1
 90
        1
176
     1
 90
        1
176
     1
 40
1.0
176
     1
 90
        0
176
     1
 62
   257
176
     1
 40
1.0
176
     1
 90
        1
176
     1
 90
        6
176
     1
 90
        2
176
     1
 62
     7
176
     1
 90
        3
176
     1
 90
        0
176
     1
 90
        0
176
     1
290
     0
176
     1
 90
        1
176
     1
 40
0.0
176
     1
 90
        0
176
     1
290
     0
176
     1
290
     1
176
     1
290
     1
176
     1
290
     0
176
     1
290
     0
176
     1
290
     0
176
     1
290
     0
176
     1
290
     0
176
     1
290
     0
176
     1
 90
       50
176
     1
 40
0.0
176
     1
 40
1.0
176
     1
 90
        0
176
     1
 62
    18
420
        0
176
     1
 90
       50
176
     1
 90
        3
176
     1
 62
     5
420
      255
176
     1
290
     0
176
     1
 90
       50
176
     1
 90
       50
176
     1
 90
       50
176
     1
290
     0
176
     1
 90
       50
176
     1
 62
   256
176
     0
 40
1.0
176
     0
 90
        2
176
     1
  1
strokes_ogs.tif
176
     1
290
     0
176
     1
 40
1.0
176
     1
 40
1.0
176
     1
  0
VISUALSTYLE
  5
3C
102
{ACAD_REACTORS
330
29
102
}
330
29
100
AcDbVisualStyle
  2
X-Ray
 70
    25
177
     3
291
     0
 70
    58
 90
        2
176
     1
 90
        2
176
     1
 90
        1
176
     1
 90
        1
176
     1
 40
0.5
176
     1
 40
30.0
176
     1
 62
     7
420
 16777215
176
     1
 90
        1
176
     1
 90
        0
176
     1
 62
     7
176
     1
 62
   257
176
     1
 90
        1
176
     1
 90
        1
176
     1
 40
1.0
176
     1
 90
        8
176
     1
 62
     7
176
     1
 40
1.0
176
     1
 90
        1
176
     1
 90
        6
176
     1
 90
        2
176
     1
 62
     7
176
     1
 90
        3
176
     1
 90
        0
176
     1
 90
        0
176
     1
290
     0
176
     1
 90
       13
176
     1
 40
0.0
176
     1
 90
        0
176
     1
290
     0
176
     1
290
     1
176
     1
290
     1
176
     1
290
     0
176
     1
290
     0
176
     1
290
     0
176
     1
290
     0
176
     1
290
     0
176
     1
290
     0
176
     1
 90
       50
176
     1
 40
0.0
176
     1
 40
1.0
176
     1
 90
        0
176
     1
 62
    18
420
        0
176
     1
 90
       50
176
     1
 90
        3
176
     1
 62
     5
420
      255
176
     1
290
     0
176
     1
 90
       50
176
     1
 90
       50
176
     1
 90
       50
176
     1
290
     0
176
     1
 90
       50
176
     1
 62
   256
176
     0
 40
1.0
176
     0
 90
        2
176
     1
  1
strokes_ogs.tif
176
     1
290
     0
176
     1
 40
1.0
176
     1
 40
1.0
176
     1
  0
DICTIONARYVAR
  5
12B
102
{ACAD_REACTORS
330
126
102
}
330
126
100
DictionaryVariables
280
     0
  1
1:1
  0
DICTIONARYVAR
  5
128
102
{ACAD_REACTORS
330
126
102
}
330
126
100
DictionaryVariables
280
     0
  1
STANDARD
  0
DICTIONARYVAR
  5
127
102
{ACAD_REACTORS
330
126
102
}
330
126
100
DictionaryVariables
280
     0
  1
STANDARD
  0
DICTIONARYVAR
  5
129
102
{ACAD_REACTORS
330
126
102
}
330
126
100
DictionaryVariables
280
     0
  1
Imperial24
  0
DICTIONARYVAR
  5
12A
102
{ACAD_REACTORS
330
126
102
}
330
126
100
DictionaryVariables
280
     0
  1
Imperial24
  0
DICTIONARY
  5
1A
330
19
100
AcDbDictionary
280
     1
281
     1
  3
BUMPTILE
360
1C
  3
DIFFUSETILE
360
1B
  3
OPACITYTILE
360
1F
  3
REFLECTIONTILE
360
1E
  3
REFRACTIONTILE
360
20
  3
SPECULARTILE
360
1D
  0
DICTIONARY
  5
12
330
11
100
AcDbDictionary
280
     1
281
     1
  3
BUMPTILE
360
14
  3
DIFFUSETILE
360
13
  3
OPACITYTILE
360
17
  3
REFLECTIONTILE
360
16
  3
REFRACTIONTILE
360
18
  3
SPECULARTILE
360
15
  0
DICTIONARY
  5
22
330
21
100
AcDbDictionary
280
     1
281
     1
  3
BUMPTILE
360
24
  3
DIFFUSETILE
360
23
  3
OPACITYTILE
360
27
  3
REFLECTIONTILE
360
26
  3
REFRACTIONTILE
360
28
  3
SPECULARTILE
360
25
  0
DICTIONARY
  5
12C
330
65
100
AcDbDictionary
280
     1
281
     1
  3
ACAD_ROUNDTRIP_2008_TABLESTYLE_CELLSTYLEMAP
360
12D
  0
XRECORD
  5
1C
102
{ACAD_REACTORS
330
1A
102
}
330
1A
100
AcDbXrecord
280
     1
270
     1
271
     1
  0
XRECORD
  5
1B
102
{ACAD_REACTORS
330
1A
102
}
330
1A
100
AcDbXrecord
280
     1
270
     1
271
     1
  0
XRECORD
  5
1F
102
{ACAD_REACTORS
330
1A
102
}
330
1A
100
AcDbXrecord
280
     1
270
     1
271
     1
  0
XRECORD
  5
1E
102
{ACAD_REACTORS
330
1A
102
}
330
1A
100
AcDbXrecord
280
     1
270
     1
271
     1
  0
XRECORD
  5
20
102
{ACAD_REACTORS
330
1A
102
}
330
1A
100
AcDbXrecord
280
     1
270
     1
271
     1
  0
XRECORD
  5
1D
102
{ACAD_REACTORS
330
1A
102
}
330
1A
100
AcDbXrecord
280
     1
270
     1
271
     1
  0
XRECORD
  5
14
102
{ACAD_REACTORS
330
12
102
}
330
12
100
AcDbXrecord
280
     1
270
     1
271
     1
  0
XRECORD
  5
13
102
{ACAD_REACTORS
330
12
102
}
330
12
100
AcDbXrecord
280
     1
270
     1
271
     1
  0
XRECORD
  5
17
102
{ACAD_REACTORS
330
12
102
}
330
12
100
AcDbXrecord
280
     1
270
     1
271
     1
  0
XRECORD
  5
16
102
{ACAD_REACTORS
330
12
102
}
330
12
100
AcDbXrecord
280
     1
270
     1
271
     1
  0
XRECORD
  5
18
102
{ACAD_REACTORS
330
12
102
}
330
12
100
AcDbXrecord
280
     1
270
     1
271
     1
  0
XRECORD
  5
15
102
{ACAD_REACTORS
330
12
102
}
330
12
100
AcDbXrecord
280
     1
270
     1
271
     1
  0
XRECORD
  5
24
102
{ACAD_REACTORS
330
22
102
}
330
22
100
AcDbXrecord
280
     1
270
     1
271
     1
  0
XRECORD
  5
23
102
{ACAD_REACTORS
330
22
102
}
330
22
100
AcDbXrecord
280
     1
270
     1
271
     1
  0
XRECORD
  5
27
102
{ACAD_REACTORS
330
22
102
}
330
22
100
AcDbXrecord
280
     1
270
     1
271
     1
  0
XRECORD
  5
26
102
{ACAD_REACTORS
330
22
102
}
330
22
100
AcDbXrecord
280
     1
270
     1
271
     1
  0
XRECORD
  5
28
102
{ACAD_REACTORS
330
22
102
}
330
22
100
AcDbXrecord
280
     1
270
     1
271
     1
  0
XRECORD
  5
25
102
{ACAD_REACTORS
330
22
102
}
330
22
100
AcDbXrecord
280
     1
270
     1
271
     1
  0
CELLSTYLEMAP
  5
12D
102
{ACAD_REACTORS
330
12C
102
}
330
12C
100
AcDbCellStyleMap
 90
        3
300
CELLSTYLE
  1
TABLEFORMAT_BEGIN
 90
        5
170
     1
 91
        0
 92
    32768
 62
   257
 93
        1
300
CONTENTFORMAT
  1
CONTENTFORMAT_BEGIN
 90
        0
 91
        0
 92
      512
 93
        0
300

 40
0.0
140
1.0
 94
        5
 62
     0
340
55
144
0.25
309
CONTENTFORMAT_END
171
     0
 94
        0
309
TABLEFORMAT_END
  1
CELLSTYLE_BEGIN
 90
        1
 91
        1
300
_TITLE
309
CELLSTYLE_END
300
CELLSTYLE
  1
TABLEFORMAT_BEGIN
 90
        5
170
     1
 91
        0
 92
        0
 62
   257
 93
        1
300
CONTENTFORMAT
  1
CONTENTFORMAT_BEGIN
 90
        0
 91
        0
 92
      512
 93
        0
300

 40
0.0
140
1.0
 94
        5
 62
     0
340
55
144
0.18
309
CONTENTFORMAT_END
171
     0
 94
        0
309
TABLEFORMAT_END
  1
CELLSTYLE_BEGIN
 90
        2
 91
        1
300
_HEADER
309
CELLSTYLE_END
300
CELLSTYLE
  1
TABLEFORMAT_BEGIN
 90
        5
170
     1
 91
        0
 92
        0
 62
   257
 93
        1
300
CONTENTFORMAT
  1
CONTENTFORMAT_BEGIN
 90
        0
 91
        0
 92
      512
 93
        0
300

 40
0.0
140
1.0
 94
        2
 62
     0
340
55
144
0.18
309
CONTENTFORMAT_END
171
     0
 94
        0
309
TABLEFORMAT_END
  1
CELLSTYLE_BEGIN
 90
        3
 91
        2
300
_DATA
309
CELLSTYLE_END
  0
ENDSEC
  0
EOF
