  0
SECTION
  2
HEADER
  9
$ACADVER
  1
AC1032
  9
$ACADMAINTVER
 90
      228
  9
$DWGCODEPAGE
  3
ANSI_1252
  9
$REQUIREDVERSIONS
160
                 0
  9
$INSBASE
 10
0.0
 20
0.0
 30
0.0
  9
$EXTMIN
 10
1.000000000000000E+20
 20
1.000000000000000E+20
 30
1.000000000000000E+20
  9
$EXTMAX
 10
-1.000000000000000E+20
 20
-1.000000000000000E+20
 30
-1.000000000000000E+20
  9
$LIMMIN
 10
0.0
 20
0.0
  9
$LIMMAX
 10
12.0
 20
9.0
  9
$ORTHOMODE
 70
     0
  9
$REGENMODE
 70
     1
  9
$FILLMODE
 70
     1
  9
$QTEXTMODE
 70
     0
  9
$MIRRTEXT
 70
     0
  9
$LTSCALE
 40
1.0
  9
$ATTMODE
 70
     1
  9
$TEXTSIZE
 40
0.2
  9
$TRACEWID
 40
0.05
  9
$TEXTSTYLE
  7
Standard
  9
$CLAYER
  8
0
  9
$CELTYPE
  6
ByLayer
  9
$CECOLOR
 62
   256
  9
$CELTSCALE
 40
1.0
  9
$DISPSILH
 70
     0
  9
$DIMSCALE
 40
1.0
  9
$DIMASZ
 40
0.18
  9
$DIMEXO
 40
0.0625
  9
$DIMDLI
 40
0.38
  9
$DIMRND
 40
0.0
  9
$DIMDLE
 40
0.0
  9
$DIMEXE
 40
0.18
  9
$DIMTP
 40
0.0
  9
$DIMTM
 40
0.0
  9
$DIMTXT
 40
0.18
  9
$DIMCEN
 40
0.09
  9
$DIMTSZ
 40
0.0
  9
$DIMTOL
 70
     0
  9
$DIMLIM
 70
     0
  9
$DIMTIH
 70
     1
  9
$DIMTOH
 70
     1
  9
$DIMSE1
 70
     0
  9
$DIMSE2
 70
     0
  9
$DIMTAD
 70
     0
  9
$DIMZIN
 70
     0
  9
$DIMBLK
  1

  9
$DIMASO
 70
     1
  9
$DIMSHO
 70
     1
  9
$DIMPOST
  1

  9
$DIMAPOST
  1

  9
$DIMALT
 70
     0
  9
$DIMALTD
 70
     2
  9
$DIMALTF
 40
25.4
  9
$DIMLFAC
 40
1.0
  9
$DIMTOFL
 70
     0
  9
$DIMTVP
 40
0.0
  9
$DIMTIX
 70
     0
  9
$DIMSOXD
 70
     0
  9
$DIMSAH
 70
     0
  9
$DIMBLK1
  1

  9
$DIMBLK2
  1

  9
$DIMSTYLE
  2
Standard
  9
$DIMCLRD
 70
     0
  9
$DIMCLRE
 70
     0
  9
$DIMCLRT
 70
     0
  9
$DIMTFAC
 40
1.0
  9
$DIMGAP
 40
0.09
  9
$DIMJUST
 70
     0
  9
$DIMSD1
 70
     0
  9
$DIMSD2
 70
     0
  9
$DIMTOLJ
 70
     1
  9
$DIMTZIN
 70
     0
  9
$DIMALTZ
 70
     0
  9
$DIMALTTZ
 70
     0
  9
$DIMUPT
 70
     0
  9
$DIMDEC
 70
     4
  9
$DIMTDEC
 70
     4
  9
$DIMALTU
 70
     2
  9
$DIMALTTD
 70
     2
  9
$DIMTXSTY
  7
Standard
  9
$DIMAUNIT
 70
     0
  9
$DIMADEC
 70
     0
  9
$DIMALTRND
 40
0.0
  9
$DIMAZIN
 70
     0
  9
$DIMDSEP
 70
    46
  9
$DIMATFIT
 70
     3
  9
$DIMFRAC
 70
     0
  9
$DIMLDRBLK
  1

  9
$DIMLUNIT
 70
     2
  9
$DIMLWD
 70
    -2
  9
$DIMLWE
 70
    -2
  9
$DIMTMOVE
 70
     0
  9
$DIMFXL
 40
1.0
  9
$DIMFXLON
 70
     0
  9
$DIMJOGANG
 40
0.7853981633974483
  9
$DIMTFILL
 70
     0
  9
$DIMTFILLCLR
 70
     0
  9
$DIMARCSYM
 70
     0
  9
$DIMLTYPE
  6

  9
$DIMLTEX1
  6

  9
$DIMLTEX2
  6

  9
$DIMTXTDIRECTION
 70
     0
  9
$LUNITS
 70
     2
  9
$LUPREC
 70
     4
  9
$SKETCHINC
 40
0.1
  9
$FILLETRAD
 40
0.0
  9
$AUNITS
 70
     0
  9
$AUPREC
 70
     0
  9
$MENU
  1
.
  9
$ELEVATION
 40
0.0
  9
$PELEVATION
 40
0.0
  9
$THICKNESS
 40
0.0
  9
$LIMCHECK
 70
     0
  9
$CHAMFERA
 40
0.0
  9
$CHAMFERB
 40
0.0
  9
$CHAMFERC
 40
0.0
  9
$CHAMFERD
 40
0.0
  9
$SKPOLY
 70
     0
  9
$TDCREATE
 40
2460255.750243056
  9
$TDUCREATE
 40
2460255.750243056
  9
$TDUPDATE
 40
2460255.750243056
  9
$TDUUPDATE
 40
2460255.750243056
  9
$TDINDWG
 40
0.0000000000
  9
$TDUSRTIMER
 40
0.0000000000
  9
$USRTIMER
 70
     1
  9
$ANGBASE
 50
0.0
  9
$ANGDIR
 70
     0
  9
$PDMODE
 70
     0
  9
$PDSIZE
 40
0.0
  9
$PLINEWID
 40
0.0
  9
$SPLFRAME
 70
     0
  9
$SPLINETYPE
 70
     6
  9
$SPLINESEGS
 70
     8
  9
$HANDSEED
  5
120
  9
$SURFTAB1
 70
     6
  9
$SURFTAB2
 70
     6
  9
$SURFTYPE
 70
     6
  9
$SURFU
 70
     6
  9
$SURFV
 70
     6
  9
$UCSBASE
  2

  9
$UCSNAME
  2

  9
$UCSORG
 10
0.0
 20
0.0
 30
0.0
  9
$UCSXDIR
 10
1.0
 20
0.0
 30
0.0
  9
$UCSYDIR
 10
0.0
 20
1.0
 30
0.0
  9
$UCSORTHOREF
  2

  9
$UCSORTHOVIEW
 70
     0
  9
$UCSORGTOP
 10
0.0
 20
0.0
 30
0.0
  9
$UCSORGBOTTOM
 10
0.0
 20
0.0
 30
0.0
  9
$UCSORGLEFT
 10
0.0
 20
0.0
 30
0.0
  9
$UCSORGRIGHT
 10
0.0
 20
0.0
 30
0.0
  9
$UCSORGFRONT
 10
0.0
 20
0.0
 30
0.0
  9
$UCSORGBACK
 10
0.0
 20
0.0
 30
0.0
  9
$PUCSBASE
  2

  9
$PUCSNAME
  2

  9
$PUCSORG
 10
0.0
 20
0.0
 30
0.0
  9
$PUCSXDIR
 10
1.0
 20
0.0
 30
0.0
  9
$PUCSYDIR
 10
0.0
 20
1.0
 30
0.0
  9
$PUCSORTHOREF
  2

  9
$PUCSORTHOVIEW
 70
     0
  9
$PUCSORGTOP
 10
0.0
 20
0.0
 30
0.0
  9
$PUCSORGBOTTOM
 10
0.0
 20
0.0
 30
0.0
  9
$PUCSORGLEFT
 10
0.0
 20
0.0
 30
0.0
  9
$PUCSORGRIGHT
 10
0.0
 20
0.0
 30
0.0
  9
$PUCSORGFRONT
 10
0.0
 20
0.0
 30
0.0
  9
$PUCSORGBACK
 10
0.0
 20
0.0
 30
0.0
  9
$USERI1
 70
     0
  9
$USERI2
 70
     0
  9
$USERI3
 70
     0
  9
$USERI4
 70
     0
  9
$USERI5
 70
     0
  9
$USERR1
 40
0.0
  9
$USERR2
 40
0.0
  9
$USERR3
 40
0.0
  9
$USERR4
 40
0.0
  9
$USERR5
 40
0.0
  9
$WORLDVIEW
 70
     1
  9
$SHADEDGE
 70
     3
  9
$SHADEDIF
 70
    70
  9
$TILEMODE
 70
     1
  9
$MAXACTVP
 70
    64
  9
$PINSBASE
 10
0.0
 20
0.0
 30
0.0
  9
$PLIMCHECK
 70
     0
  9
$PEXTMIN
 10
1.000000000000000E+20
 20
1.000000000000000E+20
 30
1.000000000000000E+20
  9
$PEXTMAX
 10
-1.000000000000000E+20
 20
-1.000000000000000E+20
 30
-1.000000000000000E+20
  9
$PLIMMIN
 10
0.0
 20
0.0
  9
$PLIMMAX
 10
12.0
 20
9.0
  9
$UNITMODE
 70
     0
  9
$VISRETAIN
 70
     1
  9
$PLINEGEN
 70
     0
  9
$PSLTSCALE
 70
     1
  9
$TREEDEPTH
 70
  3020
  9
$CMLSTYLE
  2
Standard
  9
$CMLJUST
 70
     0
  9
$CMLSCALE
 40
1.0
  9
$PROXYGRAPHICS
 70
     1
  9
$MEASUREMENT
 70
     0
  9
$CELWEIGHT
370
    -1
  9
$ENDCAPS
280
     0
  9
$JOINSTYLE
280
     0
  9
$LWDISPLAY
290
     1
  9
$INSUNITS
 70
     4
  9
$HYPERLINKBASE
  1

  9
$STYLESHEET
  1

  9
$XEDIT
290
     1
  9
$CEPSNTYPE
380
     0
  9
$PSTYLEMODE
290
     1
  9
$FINGERPRINTGUID
  2
{9879C171-D28D-764B-B270-55865EA2037F}
  9
$VERSIONGUID
  2
{E5A47C20-9D2B-074E-96F5-34CD1A71D38A}
  9
$EXTNAMES
290
     1
  9
$PSVPSCALE
 40
0.0
  9
$OLESTARTUP
290
     0
  9
$SORTENTS
280
   127
  9
$INDEXCTL
280
     0
  9
$HIDETEXT
280
     1
  9
$XCLIPFRAME
280
     2
  9
$HALOGAP
280
     0
  9
$OBSCOLOR
 70
   257
  9
$OBSLTYPE
280
     0
  9
$INTERSECTIONDISPLAY
280
     0
  9
$INTERSECTIONCOLOR
 70
   257
  9
$DIMASSOC
280
     2
  9
$PROJECTNAME
  1

  9
$CAMERADISPLAY
290
     0
  9
$LENSLENGTH
 40
50.0
  9
$CAMERAHEIGHT
 40
0.0
  9
$STEPSPERSEC
 40
2.0
  9
$STEPSIZE
 40
6.0
  9
$3DDWFPREC
 40
2.0
  9
$PSOLWIDTH
 40
0.25
  9
$PSOLHEIGHT
 40
4.0
  9
$LOFTANG1
 40
1.570796326794896
  9
$LOFTANG2
 40
1.570796326794896
  9
$LOFTMAG1
 40
0.0
  9
$LOFTMAG2
 40
0.0
  9
$LOFTPARAM
 70
     7
  9
$LOFTNORMALS
280
     1
  9
$LATITUDE
 40
37.795
  9
$LONGITUDE
 40
-122.394
  9
$NORTHDIRECTION
 40
0.0
  9
$TIMEZONE
 70
 -8000
  9
$LIGHTGLYPHDISPLAY
280
     1
  9
$TILEMODELIGHTSYNCH
280
     1
  9
$CMATERIAL
347
11
  9
$SOLIDHIST
280
     0
  9
$SHOWHIST
280
     1
  9
$DWFFRAME
280
     2
  9
$DGNFRAME
280
     0
  9
$REALWORLDSCALE
290
     1
  9
$INTERFERECOLOR
 62
     1
  9
$INTERFEREOBJVS
345
33
  9
$INTERFEREVPVS
346
30
  9
$CSHADOW
280
     0
  9
$SHADOWPLANELOCATION
 40
0.0
  0
ENDSEC
  0
SECTION
  2
CLASSES
  0
CLASS
  1
ACDBDICTIONARYWDFLT
  2
AcDbDictionaryWithDefault
  3
ObjectDBX Classes
 90
        0
 91
        1
280
     0
281
     0
  0
CLASS
  1
MATERIAL
  2
AcDbMaterial
  3
ObjectDBX Classes
 90
     1153
 91
        3
280
     0
281
     0
  0
CLASS
  1
VISUALSTYLE
  2
AcDbVisualStyle
  3
ObjectDBX Classes
 90
     4095
 91
       24
280
     0
281
     0
  0
CLASS
  1
SCALE
  2
AcDbScale
  3
ObjectDBX Classes
 90
     1153
 91
       17
280
     0
281
     0
  0
CLASS
  1
TABLESTYLE
  2
AcDbTableStyle
  3
ObjectDBX Classes
 90
     4095
 91
        1
280
     0
281
     0
  0
CLASS
  1
MLEADERSTYLE
  2
AcDbMLeaderStyle
  3
ACDB_MLEADERSTYLE_CLASS
 90
     4095
 91
        1
280
     0
281
     0
  0
CLASS
  1
ACDBSECTIONVIEWSTYLE
  2
AcDbSectionViewStyle
  3
ObjectDBX Classes
 90
     1025
 91
        1
280
     0
281
     0
  0
CLASS
  1
ACDBDETAILVIEWSTYLE
  2
AcDbDetailViewStyle
  3
ObjectDBX Classes
 90
     1025
 91
        1
280
     0
281
     0
  0
CLASS
  1
DICTIONARYVAR
  2
AcDbDictionaryVar
  3
ObjectDBX Classes
 90
        0
 91
        5
280
     0
281
     0
  0
CLASS
  1
CELLSTYLEMAP
  2
AcDbCellStyleMap
  3
ObjectDBX Classes
 90
     1152
 91
        1
280
     0
281
     0
  0
ENDSEC
  0
SECTION
  2
TABLES
  0
TABLE
  2
VPORT
  5
8
330
0
100
AcDbSymbolTable
 70
     1
  0
VPORT
  5
57
330
8
100
AcDbSymbolTableRecord
100
AcDbViewportTableRecord
  2
*Active
 70
     0
 10
0.0
 20
0.0
 11
1.0
 21
1.0
 12
0.0
 22
0.0
 13
0.0
 23
0.0
 14
1.0
 24
1.0
 15
0.0
 25
0.0
 16
0.0
 26
0.0
 36
1.0
 17
49.99999998749986
 27
-49.99999998749986
 37
0.0
 40
101.9999999744997
 41
1.0
 42
50.0
 43
0.0
 44
0.0
 50
0.0
 51
0.0
 71
     0
 72
   100
 73
     1
 74
     1
 75
     0
 76
     0
 77
     0
 78
     0
281
     0
 65
     1
110
0.0
120
0.0
130
0.0
111
1.0
121
0.0
131
0.0
112
0.0
122
1.0
132
0.0
 79
     0
146
0.0
 60
     3
 61
     5
292
     1
282
     1
141
0.0
142
0.0
 63
   250
421
  3355443
  0
ENDTAB
  0
TABLE
  2
LTYPE
  5
5
330
0
100
AcDbSymbolTable
 70
    12
  0
LTYPE
  5
5B
330
5
100
AcDbSymbolTableRecord
100
AcDbLinetypeTableRecord
  2
ByBlock
 70
     0
  3

 72
    65
 73
     0
 40
0.0
  0
LTYPE
  5
5C
330
5
100
AcDbSymbolTableRecord
100
AcDbLinetypeTableRecord
  2
ByLayer
 70
     0
  3

 72
    65
 73
     0
 40
0.0
  0
LTYPE
  5
5D
330
5
100
AcDbSymbolTableRecord
100
AcDbLinetypeTableRecord
  2
Continuous
 70
     0
  3
Solid line
 72
    65
 73
     0
 40
0.0
  0
LTYPE
  5
9B
330
5
100
AcDbSymbolTableRecord
100
AcDbLinetypeTableRecord
  2
AI-Linetype-0
 70
     0
  3
Adobe Illustrator Linetype No. 0
 72
    65
 73
     2
 40
1.728611060213692
 49
0.9877777607090781
 74
     0
 49
-0.7408332995046144
 74
     0
  0
LTYPE
  5
9D
330
5
100
AcDbSymbolTableRecord
100
AcDbLinetypeTableRecord
  2
AI-Linetype-1
 70
     0
  3
Adobe Illustrator Linetype No. 1
 72
    65
 73
     2
 40
1.234722179859153
 49
0.7408332995046144
 74
     0
 49
-0.4938888803545391
 74
     0
  0
LTYPE
  5
9F
330
5
100
AcDbSymbolTableRecord
100
AcDbLinetypeTableRecord
  2
AI-Linetype-2
 70
     0
  3
Adobe Illustrator Linetype No. 2
 72
    65
 73
     2
 40
1.234722179859153
 49
0.7408332995046144
 74
     0
 49
-0.4938888803545391
 74
     0
  0
LTYPE
  5
A3
330
5
100
AcDbSymbolTableRecord
100
AcDbLinetypeTableRecord
  2
AI-Linetype-3
 70
     0
  3
Adobe Illustrator Linetype No. 3
 72
    65
 73
     2
 40
1.234722200886347
 49
0.9877777607090781
 74
     0
 49
-0.2469444401772695
 74
     0
  0
LTYPE
  5
A5
330
5
100
AcDbSymbolTableRecord
100
AcDbLinetypeTableRecord
  2
AI-Linetype-4
 70
     0
  3
Adobe Illustrator Linetype No. 4
 72
    65
 73
     2
 40
1.234722200886347
 49
0.9877777607090781
 74
     0
 49
-0.2469444401772695
 74
     0
  0
LTYPE
  5
10B
330
5
100
AcDbSymbolTableRecord
100
AcDbLinetypeTableRecord
  2
AI-Linetype-5
 70
     0
  3
Adobe Illustrator Linetype No. 5
 72
    65
 73
     2
 40
0.9877777396818839
 49
0.7408332995046144
 74
     0
 49
-0.2469444401772695
 74
     0
  0
LTYPE
  5
10D
330
5
100
AcDbSymbolTableRecord
100
AcDbLinetypeTableRecord
  2
AI-Linetype-6
 70
     0
  3
Adobe Illustrator Linetype No. 6
 72
    65
 73
     2
 40
1.002241673649461
 49
0.7517694590596468
 74
     0
 49
-0.2504722145898143
 74
     0
  0
LTYPE
  5
10F
330
5
100
AcDbSymbolTableRecord
100
AcDbLinetypeTableRecord
  2
AI-Linetype-7
 70
     0
  3
Adobe Illustrator Linetype No. 7
 72
    65
 73
     2
 40
0.8643055301068462
 49
0.3704166497523072
 74
     0
 49
-0.4938888803545391
 74
     0
  0
LTYPE
  5
111
330
5
100
AcDbSymbolTableRecord
100
AcDbLinetypeTableRecord
  2
AI-Linetype-8
 70
     0
  3
Adobe Illustrator Linetype No. 8
 72
    65
 73
     2
 40
1.111249991311309
 49
0.6173611109567708
 74
     0
 49
-0.4938888803545391
 74
     0
  0
LTYPE
  5
113
330
5
100
AcDbSymbolTableRecord
100
AcDbLinetypeTableRecord
  2
AI-Linetype-9
 70
     0
  3
Adobe Illustrator Linetype No. 9
 72
    65
 73
     2
 40
0.8643055301068462
 49
0.3704166497523072
 74
     0
 49
-0.4938888803545391
 74
     0
  0
LTYPE
  5
115
330
5
100
AcDbSymbolTableRecord
100
AcDbLinetypeTableRecord
  2
AI-Linetype-10
 70
     0
  3
Adobe Illustrator Linetype No. 10
 72
    65
 73
     2
 40
1.111249991311309
 49
0.6173611109567708
 74
     0
 49
-0.4938888803545391
 74
     0
  0
ENDTAB
  0
TABLE
  2
LAYER
  5
2
330
0
100
AcDbSymbolTable
 70
     2
  0
LAYER
  5
54
330
2
100
AcDbSymbolTableRecord
100
AcDbLayerTableRecord
  2
0
 70
     0
 62
     7
  6
Continuous
370
    -3
390
F
347
21
348
0
  0
LAYER
  5
78
330
2
100
AcDbSymbolTableRecord
100
AcDbLayerTableRecord
  2
Camada 1
 70
     0
 62
     7
  6
Continuous
370
     0
390
F
347
21
348
0
  0
ENDTAB
  0
TABLE
  2
STYLE
  5
3
330
0
100
AcDbSymbolTable
 70
     2
  0
STYLE
  5
55
330
3
100
AcDbSymbolTableRecord
100
AcDbTextStyleTableRecord
  2
Standard
 70
     0
 40
0.0
 41
1.0
 50
0.0
 71
     0
 42
0.2
  3
txt
  4

  0
STYLE
  5
5A
330
3
100
AcDbSymbolTableRecord
100
AcDbTextStyleTableRecord
  2
Annotative
 70
     0
 40
0.0
 41
1.0
 50
0.0
 71
     0
 42
0.2
  3
txt
  4

1001
AcadAnnotative
1000
AnnotativeData
1002
{
1070
     1
1070
     1
1002
}
  0
ENDTAB
  0
TABLE
  2
VIEW
  5
6
330
0
100
AcDbSymbolTable
 70
     0
  0
ENDTAB
  0
TABLE
  2
UCS
  5
7
330
0
100
AcDbSymbolTable
 70
     0
  0
ENDTAB
  0
TABLE
  2
APPID
  5
9
330
0
100
AcDbSymbolTable
 70
     2
  0
APPID
  5
56
330
9
100
AcDbSymbolTableRecord
100
AcDbRegAppTableRecord
  2
ACAD
 70
     0
  0
APPID
  5
5E
330
9
100
AcDbSymbolTableRecord
100
AcDbRegAppTableRecord
  2
AcadAnnotative
 70
     0
  0
ENDTAB
  0
TABLE
  2
DIMSTYLE
  5
A
330
0
100
AcDbSymbolTable
 70
     2
100
AcDbDimStyleTable
 71
     0
  0
DIMSTYLE
105
58
330
A
100
AcDbSymbolTableRecord
100
AcDbDimStyleTableRecord
  2
Standard
 70
     0
340
55
  0
DIMSTYLE
105
59
330
A
100
AcDbSymbolTableRecord
100
AcDbDimStyleTableRecord
  2
Annotative
 70
     0
340
55
1001
AcadAnnotative
1000
AnnotativeData
1002
{
1070
     1
1070
     1
1002
}
  0
ENDTAB
  0
TABLE
  2
BLOCK_RECORD
  5
1
330
0
100
AcDbSymbolTable
 70
     2
  0
BLOCK_RECORD
  5
70
330
1
100
AcDbSymbolTableRecord
100
AcDbBlockTableRecord
  2
*Model_Space
340
73
 70
     0
280
     1
281
     0
  0
BLOCK_RECORD
  5
6C
330
1
100
AcDbSymbolTableRecord
100
AcDbBlockTableRecord
  2
*Paper_Space
340
6F
 70
     0
280
     1
281
     0
  0
BLOCK_RECORD
  5
74
330
1
100
AcDbSymbolTableRecord
100
AcDbBlockTableRecord
  2
*Paper_Space0
340
77
 70
     0
280
     1
281
     0
  0
BLOCK_RECORD
  5
79
330
1
100
AcDbSymbolTableRecord
100
AcDbBlockTableRecord
  2
Block_0
340
0
102
{BLKREFS
331
7A
102
}
 70
     0
280
     1
281
     0
  0
ENDTAB
  0
ENDSEC
  0
SECTION
  2
BLOCKS
  0
BLOCK
  5
71
330
70
100
AcDbEntity
  8
0
100
AcDbBlockBegin
  2
*Model_Space
 70
     0
 10
0.0
 20
0.0
 30
0.0
  3
*Model_Space
  1

  0
ENDBLK
  5
72
330
70
100
AcDbEntity
  8
0
100
AcDbBlockEnd
  0
BLOCK
  5
6D
330
6C
100
AcDbEntity
 67
     1
  8
0
100
AcDbBlockBegin
  2
*Paper_Space
 70
     0
 10
0.0
 20
0.0
 30
0.0
  3
*Paper_Space
  1

  0
ENDBLK
  5
6E
330
6C
100
AcDbEntity
 67
     1
  8
0
100
AcDbBlockEnd
  0
BLOCK
  5
75
330
74
100
AcDbEntity
 67
     1
  8
0
100
AcDbBlockBegin
  2
*Paper_Space0
 70
     0
 10
0.0
 20
0.0
 30
0.0
  3
*Paper_Space0
  1

  0
ENDBLK
  5
76
330
74
100
AcDbEntity
 67
     1
  8
0
100
AcDbBlockEnd
  0
BLOCK
  5
7B
330
79
100
AcDbEntity
  8
0
100
AcDbBlockBegin
  2
Block_0
 70
     0
 10
0.0
 20
0.0
 30
0.0
  3
Block_0
  1

  0
LINE
  5
7D
330
79
100
AcDbEntity
  8
Camada 1
 62
    18
420
        0
370
    15
100
AcDbLine
 10
32.08832589866925
 20
-32.73471819861697
 30
0.0
 11
63.17983659489294
 21
-32.73471819861697
 31
0.0
  0
SPLINE
  5
7E
330
79
100
AcDbEntity
  8
Camada 1
 62
    18
420
        0
370
    15
100
AcDbSpline
210
0.0
220
0.0
230
1.0
 70
     8
 71
     3
 72
     8
 73
     4
 74
     0
 42
0.0000000001
 43
0.0000000001
 40
0.0
 40
0.0
 40
0.0
 40
0.0
 40
1.0
 40
1.0
 40
1.0
 40
1.0
 10
42.70507195034782
 20
-39.34915705593411
 30
0.0
 10
39.7841589801458
 20
-39.34876902722495
 30
0.0
 10
36.86716062264769
 20
-39.56863803306499
 30
0.0
 10
33.97911219167722
 20
-40.00681796023682
 30
0.0
  0
SPLINE
  5
7F
330
79
100
AcDbEntity
  8
Camada 1
 62
    18
420
        0
370
    15
100
AcDbSpline
210
0.0
220
0.0
230
1.0
 70
     8
 71
     3
 72
     8
 73
     4
 74
     0
 42
0.0000000001
 43
0.0000000001
 40
0.0
 40
0.0
 40
0.0
 40
0.0
 40
1.0
 40
1.0
 40
1.0
 40
1.0
 10
51.43101379999746
 20
-40.0067761725297
 30
0.0
 10
48.54296387660797
 20
-39.56860221503014
 30
0.0
 10
45.62616102588666
 20
-39.3487332091901
 30
0.0
 10
42.70505404133039
 20
-39.34912123789926
 30
0.0
  0
SPLINE
  5
80
330
79
100
AcDbEntity
  8
Camada 1
 62
    18
420
        0
370
    15
100
AcDbSpline
210
0.0
220
0.0
230
1.0
 70
     8
 71
     3
 72
     8
 73
     4
 74
     0
 42
0.0000000001
 43
0.0000000001
 40
0.0
 40
0.0
 40
0.0
 40
0.0
 40
1.0
 40
1.0
 40
1.0
 40
1.0
 10
51.57878110204261
 20
-39.00246832866166
 30
0.0
 10
45.69783291326593
 20
-38.09306036765897
 30
0.0
 10
39.71223338168453
 20
-38.09306036765897
 30
0.0
 10
33.83148517693662
 20
-39.00246832866166
 30
0.0
  0
SPLINE
  5
81
330
79
100
AcDbEntity
  8
Camada 1
 62
    18
420
        0
370
    15
100
AcDbSpline
210
0.0
220
0.0
230
1.0
 70
     8
 71
     3
 72
     8
 73
     4
 74
     0
 42
0.0000000001
 43
0.0000000001
 40
0.0
 40
0.0
 40
0.0
 40
0.0
 40
1.0
 40
1.0
 40
1.0
 40
1.0
 10
33.05499346535319
 20
-48.03323359272501
 30
0.0
 10
33.17705535784402
 20
-48.68463231063275
 30
0.0
 10
33.69954198412833
 20
-49.18638327967664
 30
0.0
 10
34.35524035861299
 20
-49.28223234046135
 30
0.0
  0
SPLINE
  5
82
330
79
100
AcDbEntity
  8
Camada 1
 62
    18
420
        0
370
    15
100
AcDbSpline
210
0.0
220
0.0
230
1.0
 70
     8
 71
     3
 72
     8
 73
     4
 74
     0
 42
0.0000000001
 43
0.0000000001
 40
0.0
 40
0.0
 40
0.0
 40
0.0
 40
1.0
 40
1.0
 40
1.0
 40
1.0
 10
52.35523251833508
 20
-48.03323359272501
 30
0.0
 10
52.76210748320554
 20
-45.85741931913537
 30
0.0
 10
52.89180061575518
 20
-43.63895770559481
 30
0.0
 10
52.74117781161022
 20
-41.43066841390214
 30
0.0
  0
SPLINE
  5
83
330
79
100
AcDbEntity
  8
Camada 1
 62
    18
420
        0
370
    15
100
AcDbSpline
210
0.0
220
0.0
230
1.0
 70
     8
 71
     3
 72
     8
 73
     4
 74
     0
 42
0.0000000001
 43
0.0000000001
 40
0.0
 40
0.0
 40
0.0
 40
0.0
 40
1.0
 40
1.0
 40
1.0
 40
1.0
 10
33.97919278225403
 20
-40.0067761725297
 30
0.0
 10
33.26285298264926
 20
-40.1159316331956
 30
0.0
 10
32.71826215171825
 20
-40.70766347501097
 30
0.0
 10
32.66896758150124
 20
-41.43065647455697
 30
0.0
  0
SPLINE
  5
84
330
79
100
AcDbEntity
  8
Camada 1
 62
    18
420
        0
370
    15
100
AcDbSpline
210
0.0
220
0.0
230
1.0
 70
     8
 71
     3
 72
     8
 73
     4
 74
     0
 42
0.0000000001
 43
0.0000000001
 40
0.0
 40
0.0
 40
0.0
 40
0.0
 40
1.0
 40
1.0
 40
1.0
 40
1.0
 10
32.08832589866925
 20
-32.73471819861697
 30
0.0
 10
32.03296614124701
 20
-32.73471819861697
 30
0.0
 10
31.98543262440026
 20
-32.77423743020621
 30
0.0
 10
31.97486928900773
 20
-32.828615176512
 30
0.0
  0
SPLINE
  5
85
330
79
100
AcDbEntity
  8
Camada 1
 62
    18
420
        0
370
    15
100
AcDbSpline
210
0.0
220
0.0
230
1.0
 70
     8
 71
     3
 72
     8
 73
     4
 74
     0
 42
0.0000000001
 43
0.0000000001
 40
0.0
 40
0.0
 40
0.0
 40
0.0
 40
1.0
 40
1.0
 40
1.0
 40
1.0
 10
34.21342034274528
 20
-50.27933478968765
 30
0.0
 10
39.84397808288437
 20
-51.11167427941833
 30
0.0
 10
45.56628222642099
 20
-51.11167427941833
 30
0.0
 10
51.19684145897911
 20
-50.27933478968765
 30
0.0
  0
SPLINE
  5
86
330
79
100
AcDbEntity
  8
Camada 1
 62
    18
420
        0
370
    15
100
AcDbSpline
210
0.0
220
0.0
230
1.0
 70
     8
 71
     3
 72
     8
 73
     4
 74
     0
 42
0.0000000001
 43
0.0000000001
 40
0.0
 40
0.0
 40
0.0
 40
0.0
 40
1.0
 40
1.0
 40
1.0
 40
1.0
 10
34.35322559416457
 20
-49.28232785522073
 30
0.0
 10
39.89106387429806
 20
-50.09041256580498
 30
0.0
 10
45.51692795947689
 20
-50.09041256580498
 30
0.0
 10
51.05496323880301
 20
-49.28232785522073
 30
0.0
  0
SPLINE
  5
87
330
79
100
AcDbEntity
  8
Camada 1
 62
    18
420
        0
370
    15
100
AcDbSpline
210
0.0
220
0.0
230
1.0
 70
     8
 71
     3
 72
     8
 73
     4
 74
     0
 42
0.0000000001
 43
0.0000000001
 40
0.0
 40
0.0
 40
0.0
 40
0.0
 40
1.0
 40
1.0
 40
1.0
 40
1.0
 10
51.05492443593203
 20
-49.28232785522073
 30
0.0
 10
51.7106213180012
 20
-49.18647879443603
 30
0.0
 10
52.23310794428294
 20
-48.6845308262011
 30
0.0
 10
52.35516983677634
 20
-48.03333507715602
 30
0.0
  0
SPLINE
  5
88
330
79
100
AcDbEntity
  8
Camada 1
 62
    18
420
        0
370
    15
100
AcDbSpline
210
0.0
220
0.0
230
1.0
 70
     8
 71
     3
 72
     8
 73
     4
 74
     0
 42
0.0000000001
 43
0.0000000001
 40
0.0
 40
0.0
 40
0.0
 40
0.0
 40
1.0
 40
1.0
 40
1.0
 40
1.0
 10
32.66887057432187
 20
-41.43057289914275
 30
0.0
 10
32.51844229078615
 20
-43.63886219083542
 30
0.0
 10
32.64813491708209
 20
-45.85752080356702
 30
0.0
 10
33.05501286678675
 20
-48.03314404763757
 30
0.0
  0
SPLINE
  5
89
330
79
100
AcDbEntity
  8
Camada 1
 62
    18
420
        0
370
    15
100
AcDbSpline
210
0.0
220
0.0
230
1.0
 70
     8
 71
     3
 72
     8
 73
     4
 74
     0
 42
0.0000000001
 43
0.0000000001
 40
0.0
 40
0.0
 40
0.0
 40
0.0
 40
1.0
 40
1.0
 40
1.0
 40
1.0
 10
52.74127631120509
 20
-41.43057289914275
 30
0.0
 10
52.69178474179898
 20
-40.70778286845971
 30
0.0
 10
52.14719540328411
 20
-40.11585402745365
 30
0.0
 10
51.43104961803359
 20
-40.00669856678775
 30
0.0
  0
SPLINE
  5
8A
330
79
100
AcDbEntity
  8
Camada 1
 62
    18
420
        0
370
    15
100
AcDbSpline
210
0.0
220
0.0
230
1.0
 70
     8
 71
     3
 72
     8
 73
     4
 74
     0
 42
0.0000000001
 43
0.0000000001
 40
0.0
 40
0.0
 40
0.0
 40
0.0
 40
1.0
 40
1.0
 40
1.0
 40
1.0
 10
63.29392002016304
 20
-32.82892559947919
 30
0.0
 10
63.28374769831579
 20
-32.77435085398238
 30
0.0
 10
63.23601718227931
 20
-32.73464059287501
 30
0.0
 10
63.18046341049832
 20
-32.73464059287501
 30
0.0
  0
LINE
  5
8B
330
79
100
AcDbEntity
  8
Camada 1
 62
    18
420
        0
370
    15
100
AcDbLine
 10
58.54033850304525
 20
-47.46978605895678
 30
0.0
 11
61.81296367988458
 21
-47.05391479771364
 31
0.0
  0
SPLINE
  5
8C
330
79
100
AcDbEntity
  8
Camada 1
 62
    18
420
        0
370
    15
100
AcDbSpline
210
0.0
220
0.0
230
1.0
 70
     8
 71
     3
 72
     8
 73
     4
 74
     0
 42
0.0000000001
 43
0.0000000001
 40
0.0
 40
0.0
 40
0.0
 40
0.0
 40
1.0
 40
1.0
 40
1.0
 40
1.0
 10
31.61327727447614
 20
-48.30208973065229
 30
0.0
 10
31.85212088418185
 20
-49.57045409580214
 30
0.0
 10
32.86892474489855
 20
-50.54794020137322
 30
0.0
 10
34.1456988861054
 20
-50.73651021458159
 30
0.0
  0
SPLINE
  5
8D
330
79
100
AcDbEntity
  8
Camada 1
 62
    18
420
        0
370
    15
100
AcDbSpline
210
0.0
220
0.0
230
1.0
 70
     8
 71
     3
 72
     8
 73
     4
 74
     0
 42
0.0000000001
 43
0.0000000001
 40
0.0
 40
0.0
 40
0.0
 40
0.0
 40
1.0
 40
1.0
 40
1.0
 40
1.0
 10
32.06753203712492
 20
-48.2165085064742
 30
0.0
 10
32.26999198569404
 20
-49.29121669749207
 30
0.0
 10
33.13167241549541
 20
-50.11944905257976
 30
0.0
 10
34.21341885032593
 20
-50.27946015280899
 30
0.0
  0
SPLINE
  5
8E
330
79
100
AcDbEntity
  8
Camada 1
 62
    18
420
        0
370
    15
100
AcDbSpline
210
0.0
220
0.0
230
1.0
 70
     8
 71
     3
 72
     8
 73
     4
 74
     0
 42
0.0000000001
 43
0.0000000001
 40
0.0
 40
0.0
 40
0.0
 40
0.0
 40
1.0
 40
1.0
 40
1.0
 40
1.0
 10
64.04881494925738
 20
-44.53342357646577
 30
0.0
 10
64.2716150642668
 20
-40.61605885133444
 30
0.0
 10
64.01848901323313
 20
-36.6861637837396
 30
0.0
 10
63.29491695545887
 20
-32.82963002082782
 30
0.0
  0
SPLINE
  5
8F
330
79
100
AcDbEntity
  8
Camada 1
 62
    18
420
        0
370
    15
100
AcDbSpline
210
0.0
220
0.0
230
1.0
 70
     8
 71
     3
 72
     8
 73
     4
 74
     0
 42
0.0000000001
 43
0.0000000001
 40
0.0
 40
0.0
 40
0.0
 40
0.0
 40
1.0
 40
1.0
 40
1.0
 40
1.0
 10
53.34267305271043
 20
-48.2165085064742
 30
0.0
 10
53.76813160789934
 20
-45.95794860311712
 30
0.0
 10
53.90369391463075
 20
-43.65459227772968
 30
0.0
 10
53.74602889567263
 20
-41.361796302898
 30
0.0
  0
SPLINE
  5
90
330
79
100
AcDbEntity
  8
Camada 1
 62
    18
420
        0
370
    15
100
AcDbSpline
210
0.0
220
0.0
230
1.0
 70
     8
 71
     3
 72
     8
 73
     4
 74
     0
 42
0.0000000001
 43
0.0000000001
 40
0.0
 40
0.0
 40
0.0
 40
0.0
 40
1.0
 40
1.0
 40
1.0
 40
1.0
 10
33.83142548021273
 20
-39.00246832866166
 30
0.0
 10
32.64639326514923
 20
-39.18576115142828
 30
0.0
 10
31.74637261406739
 20
-40.16539633907847
 30
0.0
 10
31.66401949026394
 20
-41.3617724242083
 30
0.0
  0
SPLINE
  5
91
330
79
100
AcDbEntity
  8
Camada 1
 62
    18
420
        0
370
    15
100
AcDbSpline
210
0.0
220
0.0
230
1.0
 70
     8
 71
     3
 72
     8
 73
     4
 74
     0
 42
0.0000000001
 43
0.0000000001
 40
0.0
 40
0.0
 40
0.0
 40
0.0
 40
1.0
 40
1.0
 40
1.0
 40
1.0
 10
34.14581678713768
 20
-50.73660572934033
 30
0.0
 10
39.82117094930649
 20
-51.57559543417483
 30
0.0
 10
45.58905354196595
 20
-51.57559543417483
 30
0.0
 10
51.26440919655123
 20
-50.73660572934033
 30
0.0
  0
SPLINE
  5
92
330
79
100
AcDbEntity
  8
Camada 1
 62
    18
420
        0
370
    15
100
AcDbSpline
210
0.0
220
0.0
230
1.0
 70
     8
 71
     3
 72
     8
 73
     4
 74
     0
 42
0.0000000001
 43
0.0000000001
 40
0.0
 40
0.0
 40
0.0
 40
0.0
 40
1.0
 40
1.0
 40
1.0
 40
1.0
 10
58.54033850304525
 20
-47.46978605895678
 30
0.0
 10
56.42907131277315
 20
-47.63136718303878
 30
0.0
 10
54.4359588643764
 20
-48.50732706932876
 30
0.0
 10
52.88923762760514
 20
-49.95330709874917
 30
0.0
  0
SPLINE
  5
93
330
79
100
AcDbEntity
  8
Camada 1
 62
    18
420
        0
370
    15
100
AcDbSpline
210
0.0
220
0.0
230
1.0
 70
     8
 71
     3
 72
     8
 73
     4
 74
     0
 42
0.0000000001
 43
0.0000000001
 40
0.0
 40
0.0
 40
0.0
 40
0.0
 40
1.0
 40
1.0
 40
1.0
 40
1.0
 10
51.26438830269831
 20
-50.73660572934033
 30
0.0
 10
51.87294268146537
 20
-50.64662485656984
 30
0.0
 10
52.43983173139669
 20
-50.37354816022278
 30
0.0
 10
52.88916002186319
 20
-49.95317576595557
 30
0.0
  0
SPLINE
  5
94
330
79
100
AcDbEntity
  8
Camada 1
 62
    18
420
        0
370
    15
100
AcDbSpline
210
0.0
220
0.0
230
1.0
 70
     8
 71
     3
 72
     8
 73
     4
 74
     0
 42
0.0000000001
 43
0.0000000001
 40
0.0
 40
0.0
 40
0.0
 40
0.0
 40
1.0
 40
1.0
 40
1.0
 40
1.0
 10
51.19680564094426
 20
-50.27933478968765
 30
0.0
 10
52.27874609012904
 20
-50.11932368945843
 30
0.0
 10
53.14023250557487
 20
-49.29128833356113
 30
0.0
 10
53.3426909617285
 20
-48.21658611221617
 30
0.0
  0
SPLINE
  5
95
330
79
100
AcDbEntity
  8
Camada 1
 62
    18
420
        0
370
    15
100
AcDbSpline
210
0.0
220
0.0
230
1.0
 70
     8
 71
     3
 72
     8
 73
     4
 74
     0
 42
0.0000000001
 43
0.0000000001
 40
0.0
 40
0.0
 40
0.0
 40
0.0
 40
1.0
 40
1.0
 40
1.0
 40
1.0
 10
31.97399025474034
 20
-32.82920020441154
 30
0.0
 10
31.21657164661872
 20
-36.77513578186719
 30
0.0
 10
30.95131820601136
 20
-40.79969791510246
 30
0.0
 10
31.18468613366879
 20
-44.81076858861134
 30
0.0
  0
SPLINE
  5
96
330
79
100
AcDbEntity
  8
Camada 1
 62
    18
420
        0
370
    15
100
AcDbSpline
210
0.0
220
0.0
230
1.0
 70
     8
 71
     3
 72
     8
 73
     4
 74
     0
 42
0.0000000001
 43
0.0000000001
 40
0.0
 40
0.0
 40
0.0
 40
0.0
 40
1.0
 40
1.0
 40
1.0
 40
1.0
 10
31.18470553510556
 20
-44.81089992140493
 30
0.0
 10
31.25297470919273
 20
-45.98263319868014
 30
0.0
 10
31.39596776569695
 20
-47.14868931745799
 30
0.0
 10
31.61329518349357
 20
-48.3020300339287
 30
0.0
  0
SPLINE
  5
97
330
79
100
AcDbEntity
  8
Camada 1
 62
    18
420
        0
370
    15
100
AcDbSpline
210
0.0
220
0.0
230
1.0
 70
     8
 71
     3
 72
     8
 73
     4
 74
     0
 42
0.0000000001
 43
0.0000000001
 40
0.0
 40
0.0
 40
0.0
 40
0.0
 40
1.0
 40
1.0
 40
1.0
 40
1.0
 10
31.66415679272594
 20
-41.3617724242083
 30
0.0
 10
31.50649028135233
 20
-43.65456839903998
 30
0.0
 10
31.64205109566375
 20
-45.95792472442807
 30
0.0
 10
32.06751263568751
 20
-48.21649059745678
 30
0.0
  0
SPLINE
  5
98
330
79
100
AcDbEntity
  8
Camada 1
 62
    18
420
        0
370
    15
100
AcDbSpline
210
0.0
220
0.0
230
1.0
 70
     8
 71
     3
 72
     8
 73
     4
 74
     0
 42
0.0000000001
 43
0.0000000001
 40
0.0
 40
0.0
 40
0.0
 40
0.0
 40
1.0
 40
1.0
 40
1.0
 40
1.0
 10
61.81294577086653
 20
-47.0539924034556
 30
0.0
 10
63.05216022546606
 20
-46.83314437133394
 30
0.0
 10
63.97741169713563
 20
-45.79012917132982
 30
0.0
 10
64.04881494925738
 20
-44.5333101526896
 30
0.0
  0
SPLINE
  5
99
330
79
100
AcDbEntity
  8
Camada 1
 62
    18
420
        0
370
    15
100
AcDbSpline
210
0.0
220
0.0
230
1.0
 70
     8
 71
     3
 72
     8
 73
     4
 74
     0
 42
0.0000000001
 43
0.0000000001
 40
0.0
 40
0.0
 40
0.0
 40
0.0
 40
1.0
 40
1.0
 40
1.0
 40
1.0
 10
53.74604978952555
 20
-41.3617724242083
 30
0.0
 10
53.6636951733021
 20
-40.16539633907847
 30
0.0
 10
52.76386853657516
 20
-39.18576115142828
 30
0.0
 10
51.57864379957675
 20
-39.00247429833392
 30
0.0
  0
SPLINE
  5
9A
330
79
100
AcDbEntity
  8
Camada 1
  6
AI-Linetype-0
 62
    18
420
        0
370
    15
100
AcDbSpline
210
0.0
220
0.0
230
1.0
 70
     9
 71
     3
 72
    17
 73
    13
 74
     0
 42
0.0000000001
 43
0.0000000001
 40
0.0
 40
0.0
 40
0.0
 40
0.0
 40
1.0
 40
1.0
 40
1.0
 40
2.0
 40
2.0
 40
2.0
 40
3.0
 40
3.0
 40
3.0
 40
4.0
 40
4.0
 40
4.0
 40
4.0
 10
43.59785735842339
 20
-42.43821778990803
 30
0.0
 10
43.59785735842339
 20
-41.94507508853023
 30
0.0
 10
43.19821465172498
 20
-41.54543536666666
 30
0.0
 10
42.70546296389182
 20
-41.54543536666666
 30
0.0
 10
42.2123202625153
 20
-41.54543536666666
 30
0.0
 10
41.81248354145878
 20
-41.94507508853023
 30
0.0
 10
41.81248354145878
 20
-42.43821778990803
 30
0.0
 10
41.81248354145878
 20
-42.93136646095811
 30
0.0
 10
42.2123202625153
 20
-43.33100618282166
 30
0.0
 10
42.70546296389182
 20
-43.33100618282166
 30
0.0
 10
43.19821465172498
 20
-43.33100618282166
 30
0.0
 10
43.59785735842339
 20
-42.93136646095811
 30
0.0
 10
43.59785735842339
 20
-42.43821778990803
 30
0.0
  0
LINE
  5
9C
330
79
100
AcDbEntity
  8
Camada 1
  6
AI-Linetype-1
 62
    18
420
        0
370
    15
100
AcDbLine
 10
42.7051316470717
 20
-40.88572686471488
 30
0.0
 11
42.7051316470717
 21
-43.99110271348197
 31
0.0
  0
LINE
  5
9E
330
79
100
AcDbEntity
  8
Camada 1
  6
AI-Linetype-2
 62
    18
420
        0
370
    15
100
AcDbLine
 10
41.15264072187598
 20
-42.43829539564999
 30
0.0
 11
44.25781957145333
 21
-42.43829539564999
 31
0.0
  0
SPLINE
  5
A0
330
79
100
AcDbEntity
  8
Camada 1
 62
    18
420
        0
370
    15
100
AcDbSpline
210
0.0
220
0.0
230
1.0
 70
     9
 71
     3
 72
    17
 73
    13
 74
     0
 42
0.0000000001
 43
0.0000000001
 40
0.0
 40
0.0
 40
0.0
 40
0.0
 40
1.0
 40
1.0
 40
1.0
 40
2.0
 40
2.0
 40
2.0
 40
3.0
 40
3.0
 40
3.0
 40
4.0
 40
4.0
 40
4.0
 40
4.0
 10
44.10150369846856
 20
-42.4387073030482
 30
0.0
 10
44.10150369846856
 20
-41.66759874359107
 30
0.0
 10
43.47671181065222
 20
-41.04222182787325
 30
0.0
 10
42.70599127990233
 20
-41.04222182787325
 30
0.0
 10
41.93507374996268
 20
-41.04222182787325
 30
0.0
 10
41.31008784779144
 20
-41.66759874359107
 30
0.0
 10
41.31008784779144
 20
-42.4387073030482
 30
0.0
 10
41.31008784779144
 20
-43.20982183217823
 30
0.0
 10
41.93507374996268
 20
-43.8351987478954
 30
0.0
 10
42.70599127990233
 20
-43.8351987478954
 30
0.0
 10
43.47671181065222
 20
-43.8351987478954
 30
0.0
 10
44.10150369846856
 20
-43.20982183217823
 30
0.0
 10
44.10150369846856
 20
-42.4387073030482
 30
0.0
  0
CIRCLE
  5
A1
330
79
100
AcDbEntity
  8
Camada 1
 62
    18
420
        0
370
    15
100
AcDbCircle
 10
42.70526894953756
 20
-35.45183998329193
 30
0.0
 40
0.6791718727551152
  0
LINE
  5
A2
330
79
100
AcDbEntity
  8
Camada 1
  6
AI-Linetype-3
 62
    18
420
        0
370
    15
100
AcDbLine
 10
41.73486586032207
 20
-35.45183849087395
 30
0.0
 11
43.67555264530207
 21
-35.45183849087395
 31
0.0
  0
LINE
  5
A4
330
79
100
AcDbEntity
  8
Camada 1
  6
AI-Linetype-4
 62
    18
420
        0
370
    15
100
AcDbLine
 10
42.7051316470717
 20
-34.48137868977197
 30
0.0
 11
42.70532566142661
 21
-36.42207144442359
 31
0.0
  0
SPLINE
  5
A6
330
79
100
AcDbEntity
  8
Camada 1
 62
    18
420
        0
370
    15
100
AcDbSpline
210
0.0
220
0.0
230
1.0
 70
     8
 71
     3
 72
    11
 73
     7
 74
     0
 42
0.0000000001
 43
0.0000000001
 40
0.0
 40
0.0
 40
0.0
 40
0.0
 40
1.0
 40
1.0
 40
1.0
 40
2.0
 40
2.0
 40
2.0
 40
2.0
 10
42.70520925281367
 20
-38.44747385107623
 30
0.0
 10
42.74276446216743
 20
-38.44747385107623
 30
0.0
 10
42.78032265635924
 20
-38.44826184783908
 30
0.0
 10
42.81807784973759
 20
-38.44962890282921
 30
0.0
 10
42.91529695034919
 20
-38.45315100957167
 30
0.0
 10
43.01310406369841
 20
-38.46097128047555
 30
0.0
 10
43.10836809658228
 20
-38.4801458683703
 30
0.0
  0
SPLINE
  5
A7
330
79
100
AcDbEntity
  8
Camada 1
 62
    18
420
        0
370
    15
100
AcDbSpline
210
0.0
220
0.0
230
1.0
 70
     8
 71
     3
 72
    38
 73
    34
 74
     0
 42
0.0000000001
 43
0.0000000001
 40
0.0
 40
0.0
 40
0.0
 40
0.0
 40
1.0
 40
1.0
 40
1.0
 40
2.0
 40
2.0
 40
2.0
 40
3.0
 40
3.0
 40
3.0
 40
4.0
 40
4.0
 40
4.0
 40
5.0
 40
5.0
 40
5.0
 40
6.0
 40
6.0
 40
6.0
 40
7.0
 40
7.0
 40
7.0
 40
8.0
 40
8.0
 40
8.0
 40
9.0
 40
9.0
 40
9.0
 40
10.0
 40
10.0
 40
10.0
 40
11.0
 40
11.0
 40
11.0
 40
11.0
 10
43.10850838388619
 20
-38.48002647492123
 30
0.0
 10
43.13784932395528
 20
-38.48570363341731
 30
0.0
 10
43.16719026402437
 20
-38.49255084771184
 30
0.0
 10
43.19496714991294
 20
-38.50311119826825
 30
0.0
 10
43.20494545740593
 20
-38.50683030420174
 30
0.0
 10
43.21452976651621
 20
-38.51113443803478
 30
0.0
 10
43.22352904772823
 20
-38.51602359976801
 30
0.0
 10
43.23017926283237
 20
-38.5197367360286
 30
0.0
 10
43.23624445003825
 20
-38.52365284115312
 30
0.0
 10
43.24132762612703
 20
-38.52952102916733
 30
0.0
 10
43.24484973286693
 20
-38.53343116461895
 30
0.0
 10
43.24778382687691
 20
-38.53812929683341
 30
0.0
 10
43.24798082606665
 20
-38.54301845856632
 30
0.0
 10
43.24837183961067
 20
-38.5477106211082
 30
0.0
 10
43.24621977269639
 20
-38.55259978284144
 30
0.0
 10
43.24328567868704
 20
-38.55651588796532
 30
0.0
 10
43.23937255839864
 20
-38.56238407597952
 30
0.0
 10
43.23370136957612
 20
-38.56609721224011
 30
0.0
 10
43.22783019672514
 20
-38.56981631817425
 30
0.0
 10
43.21922491389647
 20
-38.57470547990684
 30
0.0
 10
43.21042263187421
 20
-38.57881261454949
 30
0.0
 10
43.20122933630793
 20
-38.58233472129195
 30
0.0
 10
43.17442849186612
 20
-38.59250704313888
 30
0.0
 10
43.14645460678395
 20
-38.59915725824398
 30
0.0
 10
43.11828670735137
 20
-38.604440418358
 30
0.0
 10
43.079361458172
 20
-38.61187266055271
 30
0.0
 10
43.04023622496097
 20
-38.61735281985776
 30
0.0
 10
43.00111397659185
 20
-38.62184798320957
 30
0.0
 10
42.95397147328912
 20
-38.62673714494216
 30
0.0
 10
42.90682896998638
 20
-38.63025925168462
 30
0.0
 10
42.8594894674939
 20
-38.63261130262799
 30
0.0
 10
42.8080428303594
 20
-38.63495738389941
 30
0.0
 10
42.75679319241402
 20
-38.63632443888922
 30
0.0
 10
42.70514955608978
 20
-38.63632443888922
 30
0.0
  0
SPLINE
  5
A8
330
79
100
AcDbEntity
  8
Camada 1
 62
    18
420
        0
370
    15
100
AcDbSpline
210
0.0
220
0.0
230
1.0
 70
     8
 71
     3
 72
    38
 73
    34
 74
     0
 42
0.0000000001
 43
0.0000000001
 40
0.0
 40
0.0
 40
0.0
 40
0.0
 40
1.0
 40
1.0
 40
1.0
 40
2.0
 40
2.0
 40
2.0
 40
3.0
 40
3.0
 40
3.0
 40
4.0
 40
4.0
 40
4.0
 40
5.0
 40
5.0
 40
5.0
 40
6.0
 40
6.0
 40
6.0
 40
7.0
 40
7.0
 40
7.0
 40
8.0
 40
8.0
 40
8.0
 40
9.0
 40
9.0
 40
9.0
 40
10.0
 40
10.0
 40
10.0
 40
11.0
 40
11.0
 40
11.0
 40
11.0
 10
42.70520925281367
 20
-38.63620504544079
 30
0.0
 10
42.65395663003022
 20
-38.63620504544079
 30
0.0
 10
42.60231597854083
 20
-38.63503498964105
 30
0.0
 10
42.5508693414057
 20
-38.63249190917956
 30
0.0
 10
42.50372385326811
 20
-38.63014582790846
 30
0.0
 10
42.45638733561112
 20
-38.62682072035639
 30
0.0
 10
42.40924483230839
 20
-38.62173455943276
 30
0.0
 10
42.37011959910057
 20
-38.61743042559972
 30
0.0
 10
42.33119434992119
 20
-38.61195026629468
 30
0.0
 10
42.29226611590633
 20
-38.60451802409995
 30
0.0
 10
42.26390121727695
 20
-38.59904383446717
 30
0.0
 10
42.23573331784437
 20
-38.59258464888116
 30
0.0
 10
42.20912947259167
 20
-38.5820242983254
 30
0.0
 10
42.20013317621513
 20
-38.57869919077332
 30
0.0
 10
42.19113389500376
 20
-38.57459205613067
 30
0.0
 10
42.18272262652936
 20
-38.56969692472517
 30
0.0
 10
42.17685443851323
 20
-38.56618078765497
 30
0.0
 10
42.17098625050095
 20
-38.56206768334006
 30
0.0
 10
42.16687613102345
 20
-38.55659349370728
 30
0.0
 10
42.16413903620706
 20
-38.55248635906463
 30
0.0
 10
42.16218396847932
 20
-38.54759719733204
 30
0.0
 10
42.16237798283358
 20
-38.54289906511758
 30
0.0
 10
42.16276899638145
 20
-38.53800990338434
 30
0.0
 10
42.16570309038758
 20
-38.53331774084214
 30
0.0
 10
42.16902819793772
 20
-38.52940163571826
 30
0.0
 10
42.17431135805495
 20
-38.52373044689509
 30
0.0
 10
42.18057055961187
 20
-38.51962331225244
 30
0.0
 10
42.18682976117136
 20
-38.51590420631893
 30
0.0
 10
42.19602305673828
 20
-38.51081804539532
 30
0.0
 10
42.20561035068342
 20
-38.5069079099437
 30
0.0
 10
42.21558567334155
 20
-38.50318880400988
 30
0.0
 10
42.24355955841987
 20
-38.4926284534538
 30
0.0
 10
42.27290049849218
 20
-38.48578123915959
 30
0.0
 10
42.30224143856126
 20
-38.47991305114506
 30
0.0
  0
SPLINE
  5
A9
330
79
100
AcDbEntity
  8
Camada 1
 62
    18
420
        0
370
    15
100
AcDbSpline
210
0.0
220
0.0
230
1.0
 70
     8
 71
     3
 72
    11
 73
     7
 74
     0
 42
0.0000000001
 43
0.0000000001
 40
0.0
 40
0.0
 40
0.0
 40
0.0
 40
1.0
 40
1.0
 40
1.0
 40
2.0
 40
2.0
 40
2.0
 40
2.0
 10
42.30224442339675
 20
-38.47996677819734
 30
0.0
 10
42.33021532363959
 20
-38.47429558937353
 30
0.0
 10
42.35818920872111
 20
-38.47018845473151
 30
0.0
 10
42.38635710815369
 20
-38.46627831927989
 30
0.0
 10
42.49198747723972
 20
-38.4523868914982
 30
0.0
 10
42.59879387179709
 20
-38.44749772976592
 30
0.0
 10
42.70520925281367
 20
-38.44749772976592
 30
0.0
  0
LINE
  5
AA
330
79
100
AcDbEntity
  8
Camada 1
 62
    18
420
        0
370
    15
100
AcDbLine
 10
53.59935702852204
 20
-72.94445284506465
 30
0.0
 11
51.4501406305122
 21
-72.94445284506465
 31
0.0
  0
LINE
  5
AB
330
79
100
AcDbEntity
  8
Camada 1
 62
    18
420
        0
370
    15
100
AcDbLine
 10
64.08058554600987
 20
-72.52042104158848
 30
0.0
 11
63.20931782226273
 21
-72.52042104158848
 31
0.0
  0
LINE
  5
AC
330
79
100
AcDbEntity
  8
Camada 1
 62
    18
420
        0
370
    15
100
AcDbLine
 10
31.98155979940284
 20
-72.52042104158848
 30
0.0
 11
31.14922030966992
 21
-72.52042104158848
 31
0.0
  0
LINE
  5
AD
330
79
100
AcDbEntity
  8
Camada 1
 62
    18
420
        0
370
    15
100
AcDbLine
 10
64.07363684728626
 20
-72.22731310935059
 30
0.0
 11
63.2019781099919
 21
-72.22731310935059
 31
0.0
  0
LINE
  5
AE
330
79
100
AcDbEntity
  8
Camada 1
 62
    18
420
        0
370
    15
100
AcDbLine
 10
31.98877862580717
 20
-72.22731310935059
 30
0.0
 11
31.1562436293045
 21
-72.22731310935059
 31
0.0
  0
LINE
  5
AF
330
79
100
AcDbEntity
  8
Camada 1
 62
    18
420
        0
370
    15
100
AcDbLine
 10
64.07363684728626
 20
-71.87870811722331
 30
0.0
 11
63.2019781099919
 21
-71.87870811722331
 31
0.0
  0
LINE
  5
B0
330
79
100
AcDbEntity
  8
Camada 1
 62
    18
420
        0
370
    15
100
AcDbLine
 10
31.98877862580717
 20
-71.87870811722331
 30
0.0
 11
31.1562436293045
 21
-71.87870811722331
 31
0.0
  0
LINE
  5
B1
330
79
100
AcDbEntity
  8
Camada 1
 62
    18
420
        0
370
    15
100
AcDbLine
 10
64.07363684728626
 20
-71.59547700804676
 30
0.0
 11
63.2019781099919
 21
-71.59547700804676
 31
0.0
  0
LINE
  5
B2
330
79
100
AcDbEntity
  8
Camada 1
 62
    18
420
        0
370
    15
100
AcDbLine
 10
31.98877862580717
 20
-71.59547700804676
 30
0.0
 11
31.1562436293045
 21
-71.59547700804676
 31
0.0
  0
LINE
  5
B3
330
79
100
AcDbEntity
  8
Camada 1
 62
    18
420
        0
370
    15
100
AcDbLine
 10
64.07363684728626
 20
-71.2468720159195
 30
0.0
 11
63.2019781099919
 21
-71.2468720159195
 31
0.0
  0
LINE
  5
B4
330
79
100
AcDbEntity
  8
Camada 1
 62
    18
420
        0
370
    15
100
AcDbLine
 10
31.98877862580717
 20
-71.2468720159195
 30
0.0
 11
31.1562436293045
 21
-71.2468720159195
 31
0.0
  0
LINE
  5
B5
330
79
100
AcDbEntity
  8
Camada 1
 62
    18
420
        0
370
    15
100
AcDbLine
 10
64.07363684728626
 20
-70.9636468764152
 30
0.0
 11
63.2019781099919
 21
-70.9636468764152
 31
0.0
  0
LINE
  5
B6
330
79
100
AcDbEntity
  8
Camada 1
 62
    18
420
        0
370
    15
100
AcDbLine
 10
31.98877862580717
 20
-70.9636468764152
 30
0.0
 11
31.1562436293045
 21
-70.9636468764152
 31
0.0
  0
LINE
  5
B7
330
79
100
AcDbEntity
  8
Camada 1
 62
    18
420
        0
370
    15
100
AcDbLine
 10
64.07363684728626
 20
-70.61504188428791
 30
0.0
 11
63.2019781099919
 21
-70.61504188428791
 31
0.0
  0
LINE
  5
B8
330
79
100
AcDbEntity
  8
Camada 1
 62
    18
420
        0
370
    15
100
AcDbLine
 10
31.98877862580717
 20
-70.61504188428791
 30
0.0
 11
31.1562436293045
 21
-70.61504188428791
 31
0.0
  0
LINE
  5
B9
330
79
100
AcDbEntity
  8
Camada 1
 62
    18
420
        0
370
    15
100
AcDbLine
 10
64.07363684728626
 20
-70.33182868412943
 30
0.0
 11
63.2019781099919
 21
-70.33182868412943
 31
0.0
  0
LINE
  5
BA
330
79
100
AcDbEntity
  8
Camada 1
 62
    18
420
        0
370
    15
100
AcDbLine
 10
31.98877862580717
 20
-70.33182868412943
 30
0.0
 11
31.1562436293045
 21
-70.33182868412943
 31
0.0
  0
LINE
  5
BB
330
79
100
AcDbEntity
  8
Camada 1
 62
    18
420
        0
370
    15
100
AcDbLine
 10
64.07363684728626
 20
-69.98322369200216
 30
0.0
 11
63.2019781099919
 21
-69.98322369200216
 31
0.0
  0
LINE
  5
BC
330
79
100
AcDbEntity
  8
Camada 1
 62
    18
420
        0
370
    15
100
AcDbLine
 10
31.98877862580717
 20
-69.98322369200216
 30
0.0
 11
31.1562436293045
 21
-69.98322369200216
 31
0.0
  0
LINE
  5
BD
330
79
100
AcDbEntity
  8
Camada 1
 62
    18
420
        0
370
    15
100
AcDbLine
 10
64.07363684728626
 20
-69.69999855249787
 30
0.0
 11
63.2019781099919
 21
-69.69999855249787
 31
0.0
  0
LINE
  5
BE
330
79
100
AcDbEntity
  8
Camada 1
 62
    18
420
        0
370
    15
100
AcDbLine
 10
31.98877862580717
 20
-69.69999855249787
 30
0.0
 11
31.1562436293045
 21
-69.69999855249787
 31
0.0
  0
LINE
  5
BF
330
79
100
AcDbEntity
  8
Camada 1
 62
    18
420
        0
370
    15
100
AcDbLine
 10
64.07363684728626
 20
-69.35136968168027
 30
0.0
 11
63.2019781099919
 21
-69.35136968168027
 31
0.0
  0
LINE
  5
C0
330
79
100
AcDbEntity
  8
Camada 1
 62
    18
420
        0
370
    15
100
AcDbLine
 10
31.98877862580717
 20
-69.35136968168027
 30
0.0
 11
31.1562436293045
 21
-69.35136968168027
 31
0.0
  0
LINE
  5
C1
330
79
100
AcDbEntity
  8
Camada 1
 62
    18
420
        0
370
    15
100
AcDbLine
 10
64.07363684728626
 20
-69.06802514872819
 30
0.0
 11
63.2019781099919
 21
-69.06802514872819
 31
0.0
  0
LINE
  5
C2
330
79
100
AcDbEntity
  8
Camada 1
 62
    18
420
        0
370
    15
100
AcDbLine
 10
31.98877862580717
 20
-69.06802514872819
 30
0.0
 11
31.1562436293045
 21
-69.06802514872819
 31
0.0
  0
LINE
  5
C3
330
79
100
AcDbEntity
  8
Camada 1
 62
    18
420
        0
370
    15
100
AcDbLine
 10
64.07363684728626
 20
-68.71942015660092
 30
0.0
 11
63.2019781099919
 21
-68.71942015660092
 31
0.0
  0
LINE
  5
C4
330
79
100
AcDbEntity
  8
Camada 1
 62
    18
420
        0
370
    15
100
AcDbLine
 10
31.98877862580717
 20
-68.71942015660092
 30
0.0
 11
31.1562436293045
 21
-68.71942015660092
 31
0.0
  0
LINE
  5
C5
330
79
100
AcDbEntity
  8
Camada 1
 62
    18
420
        0
370
    15
100
AcDbLine
 10
64.08058554600987
 20
-68.42642863297597
 30
0.0
 11
63.20931782226273
 21
-68.42642863297597
 31
0.0
  0
LINE
  5
C6
330
79
100
AcDbEntity
  8
Camada 1
 62
    18
420
        0
370
    15
100
AcDbLine
 10
31.98155979940284
 20
-68.42642863297597
 30
0.0
 11
31.14922030966992
 21
-68.42642863297597
 31
0.0
  0
LINE
  5
C7
330
79
100
AcDbEntity
  8
Camada 1
 62
    18
420
        0
370
    15
100
AcDbLine
 10
32.16788223093242
 20
-68.05388525434139
 30
0.0
 11
63.02289390630022
 21
-68.05388525434139
 31
0.0
  0
SPLINE
  5
C8
330
79
100
AcDbEntity
  8
Camada 1
 62
    18
420
        0
370
    15
100
AcDbSpline
210
0.0
220
0.0
230
1.0
 70
     8
 71
     3
 72
     8
 73
     4
 74
     0
 42
0.0000000001
 43
0.0000000001
 40
0.0
 40
0.0
 40
0.0
 40
0.0
 40
1.0
 40
1.0
 40
1.0
 40
1.0
 10
31.98877862580717
 20
-70.61504188428791
 30
0.0
 10
31.91698734497627
 20
-70.7202872095022
 30
0.0
 10
31.91698734497627
 20
-70.85858661104743
 30
0.0
 10
31.98877862580717
 20
-70.96362896739842
 30
0.0
  0
SPLINE
  5
C9
330
79
100
AcDbEntity
  8
Camada 1
 62
    18
420
        0
370
    15
100
AcDbSpline
210
0.0
220
0.0
230
1.0
 70
     8
 71
     3
 72
     8
 73
     4
 74
     0
 42
0.0000000001
 43
0.0000000001
 40
0.0
 40
0.0
 40
0.0
 40
0.0
 40
1.0
 40
1.0
 40
1.0
 40
1.0
 10
31.98877862580717
 20
-71.2468720159195
 30
0.0
 10
31.91698734497627
 20
-71.35211734113376
 30
0.0
 10
31.91698734497627
 20
-71.490416742679
 30
0.0
 10
31.98877862580717
 20
-71.59545909902998
 30
0.0
  0
SPLINE
  5
CA
330
79
100
AcDbEntity
  8
Camada 1
 62
    18
420
        0
370
    15
100
AcDbSpline
210
0.0
220
0.0
230
1.0
 70
     8
 71
     3
 72
     8
 73
     4
 74
     0
 42
0.0000000001
 43
0.0000000001
 40
0.0
 40
0.0
 40
0.0
 40
0.0
 40
1.0
 40
1.0
 40
1.0
 40
1.0
 10
31.98877862580717
 20
-71.87870811722331
 30
0.0
 10
31.91698734497627
 20
-71.98395045760145
 30
0.0
 10
31.91698734497627
 20
-72.12224985914669
 30
0.0
 10
31.98877862580717
 20
-72.2272952003338
 30
0.0
  0
SPLINE
  5
CB
330
79
100
AcDbEntity
  8
Camada 1
 62
    18
420
        0
370
    15
100
AcDbSpline
210
0.0
220
0.0
230
1.0
 70
     8
 71
     3
 72
    11
 73
     7
 74
     0
 42
0.0000000001
 43
0.0000000001
 40
0.0
 40
0.0
 40
0.0
 40
0.0
 40
1.0
 40
1.0
 40
1.0
 40
2.0
 40
2.0
 40
2.0
 40
2.0
 10
31.98155979940284
 20
-72.52042104158848
 30
0.0
 10
31.90448685087406
 20
-72.62331431585875
 30
0.0
 10
31.92522250811384
 20
-72.76924295878846
 30
0.0
 10
32.02811578238732
 20
-72.84651141408764
 30
0.0
 10
32.06841107139231
 20
-72.87663736608344
 30
0.0
 10
32.11751162725827
 20
-72.89306888949018
 30
0.0
 10
32.16797923811115
 20
-72.89306888949018
 30
0.0
  0
SPLINE
  5
CC
330
79
100
AcDbEntity
  8
Camada 1
 62
    18
420
        0
370
    15
100
AcDbSpline
210
0.0
220
0.0
230
1.0
 70
     8
 71
     3
 72
     8
 73
     4
 74
     0
 42
0.0000000001
 43
0.0000000001
 40
0.0
 40
0.0
 40
0.0
 40
0.0
 40
1.0
 40
1.0
 40
1.0
 40
1.0
 10
31.98877862580717
 20
-68.71942015660092
 30
0.0
 10
31.91698734497627
 20
-68.82466548181518
 30
0.0
 10
31.91698734497627
 20
-68.96296488335915
 30
0.0
 10
31.98877862580717
 20
-69.06800723971013
 30
0.0
  0
SPLINE
  5
CD
330
79
100
AcDbEntity
  8
Camada 1
 62
    18
420
        0
370
    15
100
AcDbSpline
210
0.0
220
0.0
230
1.0
 70
     8
 71
     3
 72
     8
 73
     4
 74
     0
 42
0.0000000001
 43
0.0000000001
 40
0.0
 40
0.0
 40
0.0
 40
0.0
 40
1.0
 40
1.0
 40
1.0
 40
1.0
 10
31.98877862580717
 20
-69.35136968168027
 30
0.0
 10
31.91698734497627
 20
-69.45661500689453
 30
0.0
 10
31.91698734497627
 20
-69.59471740924874
 30
0.0
 10
31.98877862580717
 20
-69.69995676479077
 30
0.0
  0
SPLINE
  5
CE
330
79
100
AcDbEntity
  8
Camada 1
 62
    18
420
        0
370
    15
100
AcDbSpline
210
0.0
220
0.0
230
1.0
 70
     8
 71
     3
 72
     8
 73
     4
 74
     0
 42
0.0000000001
 43
0.0000000001
 40
0.0
 40
0.0
 40
0.0
 40
0.0
 40
1.0
 40
1.0
 40
1.0
 40
1.0
 10
31.98877862580717
 20
-69.98322369200216
 30
0.0
 10
31.91698734497627
 20
-70.08846901721644
 30
0.0
 10
31.91698734497627
 20
-70.22676841876038
 30
0.0
 10
31.98877862580717
 20
-70.33181077511137
 30
0.0
  0
SPLINE
  5
CF
330
79
100
AcDbEntity
  8
Camada 1
 62
    18
420
        0
370
    15
100
AcDbSpline
210
0.0
220
0.0
230
1.0
 70
     8
 71
     3
 72
    11
 73
     7
 74
     0
 42
0.0000000001
 43
0.0000000001
 40
0.0
 40
0.0
 40
0.0
 40
0.0
 40
1.0
 40
1.0
 40
1.0
 40
2.0
 40
2.0
 40
2.0
 40
2.0
 10
32.16788223093242
 20
-68.05388525434139
 30
0.0
 10
32.039362645273
 20
-68.05388525434139
 30
0.0
 10
31.93490531682285
 20
-68.15815155327534
 30
0.0
 10
31.93490531682285
 20
-68.28666666168185
 30
0.0
 10
31.93490531682285
 20
-68.33714024220828
 30
0.0
 10
31.95133684022766
 20
-68.38623482840005
 30
0.0
 10
31.98146129980412
 20
-68.42653608707923
 30
0.0
  0
SPLINE
  5
D0
330
79
100
AcDbEntity
  8
Camada 1
 62
    18
420
        0
370
    15
100
AcDbSpline
210
0.0
220
0.0
230
1.0
 70
     8
 71
     3
 72
     8
 73
     4
 74
     0
 42
0.0000000001
 43
0.0000000001
 40
0.0
 40
0.0
 40
0.0
 40
0.0
 40
1.0
 40
1.0
 40
1.0
 40
1.0
 10
63.20204079155449
 20
-72.22731310935059
 30
0.0
 10
63.27382908754607
 20
-72.12207375380986
 30
0.0
 10
63.27382908754607
 20
-71.98397135145565
 30
0.0
 10
63.20204079155449
 20
-71.87872901107751
 30
0.0
  0
SPLINE
  5
D1
330
79
100
AcDbEntity
  8
Camada 1
 62
    18
420
        0
370
    15
100
AcDbSpline
210
0.0
220
0.0
230
1.0
 70
     8
 71
     3
 72
     8
 73
     4
 74
     0
 42
0.0000000001
 43
0.0000000001
 40
0.0
 40
0.0
 40
0.0
 40
0.0
 40
1.0
 40
1.0
 40
1.0
 40
1.0
 10
63.20204079155449
 20
-70.9636468764152
 30
0.0
 10
63.27382908754607
 20
-70.85840752087446
 30
0.0
 10
63.27382908754607
 20
-70.72010811932923
 30
0.0
 10
63.20204079155449
 20
-70.61506576297825
 30
0.0
  0
SPLINE
  5
D2
330
79
100
AcDbEntity
  8
Camada 1
 62
    18
420
        0
370
    15
100
AcDbSpline
210
0.0
220
0.0
230
1.0
 70
     8
 71
     3
 72
     8
 73
     4
 74
     0
 42
0.0000000001
 43
0.0000000001
 40
0.0
 40
0.0
 40
0.0
 40
0.0
 40
1.0
 40
1.0
 40
1.0
 40
1.0
 10
63.20204079155449
 20
-71.59547700804676
 30
0.0
 10
63.27382908754607
 20
-71.49023765250475
 30
0.0
 10
63.27382908754607
 20
-71.3519382509608
 30
0.0
 10
63.20204079155449
 20
-71.24689589460982
 30
0.0
  0
SPLINE
  5
D3
330
79
100
AcDbEntity
  8
Camada 1
 62
    18
420
        0
370
    15
100
AcDbSpline
210
0.0
220
0.0
230
1.0
 70
     8
 71
     3
 72
    11
 73
     7
 74
     0
 42
0.0000000001
 43
0.0000000001
 40
0.0
 40
0.0
 40
0.0
 40
0.0
 40
1.0
 40
1.0
 40
1.0
 40
2.0
 40
2.0
 40
2.0
 40
2.0
 10
63.02291778498799
 20
-72.89296740505789
 30
0.0
 10
63.15143587823191
 20
-72.89296740505789
 30
0.0
 10
63.25589320668463
 20
-72.78870707579748
 30
0.0
 10
63.25589320668463
 20
-72.66018898255485
 30
0.0
 10
63.25589320668463
 20
-72.60971838686455
 30
0.0
 10
63.2394616832766
 20
-72.56062081583666
 30
0.0
 10
63.2093357312808
 20
-72.52032254199233
 30
0.0
  0
SPLINE
  5
D4
330
79
100
AcDbEntity
  8
Camada 1
 62
    18
420
        0
370
    15
100
AcDbSpline
210
0.0
220
0.0
230
1.0
 70
     8
 71
     3
 72
     8
 73
     4
 74
     0
 42
0.0000000001
 43
0.0000000001
 40
0.0
 40
0.0
 40
0.0
 40
0.0
 40
1.0
 40
1.0
 40
1.0
 40
1.0
 10
53.59935702852204
 20
-72.94445284506465
 30
0.0
 10
53.64786658681427
 20
-72.94445284506465
 30
0.0
 10
53.69501207495249
 20
-72.92606625393211
 30
0.0
 10
53.73080921577082
 20
-72.89320320711991
 30
0.0
  0
SPLINE
  5
D5
330
79
100
AcDbEntity
  8
Camada 1
 62
    18
420
        0
370
    15
100
AcDbSpline
210
0.0
220
0.0
230
1.0
 70
     8
 71
     3
 72
     8
 73
     4
 74
     0
 42
0.0000000001
 43
0.0000000001
 40
0.0
 40
0.0
 40
0.0
 40
0.0
 40
1.0
 40
1.0
 40
1.0
 40
1.0
 10
51.31861382235888
 20
-72.89324200999089
 30
0.0
 10
51.35441096317721
 20
-72.92610804163921
 30
0.0
 10
51.40135646728698
 20
-72.94449463277176
 30
0.0
 10
51.45006600960509
 20
-72.94449463277176
 30
0.0
  0
SPLINE
  5
D6
330
79
100
AcDbEntity
  8
Camada 1
 62
    18
420
        0
370
    15
100
AcDbSpline
210
0.0
220
0.0
230
1.0
 70
     8
 71
     3
 72
     8
 73
     4
 74
     0
 42
0.0000000001
 43
0.0000000001
 40
0.0
 40
0.0
 40
0.0
 40
0.0
 40
1.0
 40
1.0
 40
1.0
 40
1.0
 10
63.20204079155449
 20
-69.69999855249787
 30
0.0
 10
63.27382908754607
 20
-69.59475919695586
 30
0.0
 10
63.27382908754607
 20
-69.45645979541062
 30
0.0
 10
63.20204079155449
 20
-69.35141743906092
 30
0.0
  0
SPLINE
  5
D7
330
79
100
AcDbEntity
  8
Camada 1
 62
    18
420
        0
370
    15
100
AcDbSpline
210
0.0
220
0.0
230
1.0
 70
     8
 71
     3
 72
     8
 73
     4
 74
     0
 42
0.0000000001
 43
0.0000000001
 40
0.0
 40
0.0
 40
0.0
 40
0.0
 40
1.0
 40
1.0
 40
1.0
 40
1.0
 10
63.20204079155449
 20
-70.33182868412943
 30
0.0
 10
63.27382908754607
 20
-70.22658932858742
 30
0.0
 10
63.27382908754607
 20
-70.08828992704218
 30
0.0
 10
63.20204079155449
 20
-69.9832475706912
 30
0.0
  0
SPLINE
  5
D8
330
79
100
AcDbEntity
  8
Camada 1
 62
    18
420
        0
370
    15
100
AcDbSpline
210
0.0
220
0.0
230
1.0
 70
     8
 71
     3
 72
     8
 73
     4
 74
     0
 42
0.0000000001
 43
0.0000000001
 40
0.0
 40
0.0
 40
0.0
 40
0.0
 40
1.0
 40
1.0
 40
1.0
 40
1.0
 10
63.20204079155449
 20
-69.06802514872819
 30
0.0
 10
63.27382908754607
 20
-68.96278579318618
 30
0.0
 10
63.27382908754607
 20
-68.82468339083198
 30
0.0
 10
63.20204079155449
 20
-68.71944403528996
 30
0.0
  0
SPLINE
  5
D9
330
79
100
AcDbEntity
  8
Camada 1
 62
    18
420
        0
370
    15
100
AcDbSpline
210
0.0
220
0.0
230
1.0
 70
     8
 71
     3
 72
    11
 73
     7
 74
     0
 42
0.0000000001
 43
0.0000000001
 40
0.0
 40
0.0
 40
0.0
 40
0.0
 40
1.0
 40
1.0
 40
1.0
 40
2.0
 40
2.0
 40
2.0
 40
2.0
 10
63.20925812553884
 20
-68.42642863297597
 30
0.0
 10
63.28632958164827
 20
-68.32354132837796
 30
0.0
 10
63.26559392440785
 20
-68.17761268544697
 30
0.0
 10
63.16270065013886
 20
-68.10034124531295
 30
0.0
 10
63.12220836194091
 20
-68.07021827815326
 30
0.0
 10
63.07330480526791
 20
-68.0537837699104
 30
0.0
 10
63.02283719441118
 20
-68.0537837699104
 30
0.0
  0
SPLINE
  5
DA
330
79
100
AcDbEntity
  8
Camada 1
 62
    18
420
        0
370
    15
100
AcDbSpline
210
0.0
220
0.0
230
1.0
 70
     8
 71
     3
 72
    11
 73
     7
 74
     0
 42
0.0000000001
 43
0.0000000001
 40
0.0
 40
0.0
 40
0.0
 40
0.0
 40
1.0
 40
1.0
 40
1.0
 40
2.0
 40
2.0
 40
2.0
 40
2.0
 10
63.20204079155449
 20
-71.87870811722331
 30
0.0
 10
63.17347889373857
 20
-71.83821881386148
 30
0.0
 10
63.15704737033055
 20
-71.78774821817248
 30
0.0
 10
63.15704737033055
 20
-71.737083608126
 30
0.0
 10
63.15704737033055
 20
-71.68661599727184
 30
0.0
 10
63.17347889373857
 20
-71.63614838641767
 30
0.0
 10
63.20204079155449
 20
-71.59545909902998
 30
0.0
  0
SPLINE
  5
DB
330
79
100
AcDbEntity
  8
Camada 1
 62
    18
420
        0
370
    15
100
AcDbSpline
210
0.0
220
0.0
230
1.0
 70
     8
 71
     3
 72
    11
 73
     7
 74
     0
 42
0.0000000001
 43
0.0000000001
 40
0.0
 40
0.0
 40
0.0
 40
0.0
 40
1.0
 40
1.0
 40
1.0
 40
2.0
 40
2.0
 40
2.0
 40
2.0
 10
31.98155979940284
 20
-68.42642863297597
 30
0.0
 10
32.01305280638942
 20
-68.46711792036495
 30
0.0
 10
32.03241842379973
 20
-68.51934658459002
 30
0.0
 10
32.03359295685559
 20
-68.57177224800612
 30
0.0
 10
32.03496150426186
 20
-68.62419791142222
 30
0.0
 10
32.01833447408344
 20
-68.67720860273789
 30
0.0
 10
31.9887965348246
 20
-68.71946194430804
 30
0.0
  0
SPLINE
  5
DC
330
79
100
AcDbEntity
  8
Camada 1
 62
    18
420
        0
370
    15
100
AcDbSpline
210
0.0
220
0.0
230
1.0
 70
     8
 71
     3
 72
    11
 73
     7
 74
     0
 42
0.0000000001
 43
0.0000000001
 40
0.0
 40
0.0
 40
0.0
 40
0.0
 40
1.0
 40
1.0
 40
1.0
 40
2.0
 40
2.0
 40
2.0
 40
2.0
 10
31.98877862580717
 20
-69.06802514872819
 30
0.0
 10
32.01733753878376
 20
-69.10871443611589
 30
0.0
 10
32.03376906219178
 20
-69.15918204697006
 30
0.0
 10
32.03376906219178
 20
-69.20965562749647
 30
0.0
 10
32.03376906219178
 20
-69.26012323835192
 30
0.0
 10
32.01733753878376
 20
-69.31059084920609
 30
0.0
 10
31.98877862580717
 20
-69.35128013659379
 30
0.0
  0
SPLINE
  5
DD
330
79
100
AcDbEntity
  8
Camada 1
 62
    18
420
        0
370
    15
100
AcDbSpline
210
0.0
220
0.0
230
1.0
 70
     8
 71
     3
 72
    11
 73
     7
 74
     0
 42
0.0000000001
 43
0.0000000001
 40
0.0
 40
0.0
 40
0.0
 40
0.0
 40
1.0
 40
1.0
 40
1.0
 40
2.0
 40
2.0
 40
2.0
 40
2.0
 10
31.98877862580717
 20
-69.69999855249787
 30
0.0
 10
32.01733753878376
 20
-69.74049084069583
 30
0.0
 10
32.03376906219178
 20
-69.79115545074101
 30
0.0
 10
32.03376906219178
 20
-69.84162903126744
 30
0.0
 10
32.03376906219178
 20
-69.8920966421216
 30
0.0
 10
32.01733753878376
 20
-69.94256425297577
 30
0.0
 10
31.98877862580717
 20
-69.98325354036476
 30
0.0
  0
SPLINE
  5
DE
330
79
100
AcDbEntity
  8
Camada 1
 62
    18
420
        0
370
    15
100
AcDbSpline
210
0.0
220
0.0
230
1.0
 70
     8
 71
     3
 72
    11
 73
     7
 74
     0
 42
0.0000000001
 43
0.0000000001
 40
0.0
 40
0.0
 40
0.0
 40
0.0
 40
1.0
 40
1.0
 40
1.0
 40
2.0
 40
2.0
 40
2.0
 40
2.0
 10
31.98877862580717
 20
-70.33182868412943
 30
0.0
 10
32.01733753878376
 20
-70.37232097232738
 30
0.0
 10
32.03376906219178
 20
-70.4229855823713
 30
0.0
 10
32.03376906219178
 20
-70.473459162899
 30
0.0
 10
32.03376906219178
 20
-70.52392677375317
 30
0.0
 10
32.01733753878376
 20
-70.57439438460733
 30
0.0
 10
31.98877862580717
 20
-70.61508367199504
 30
0.0
  0
SPLINE
  5
DF
330
79
100
AcDbEntity
  8
Camada 1
 62
    18
420
        0
370
    15
100
AcDbSpline
210
0.0
220
0.0
230
1.0
 70
     8
 71
     3
 72
    11
 73
     7
 74
     0
 42
0.0000000001
 43
0.0000000001
 40
0.0
 40
0.0
 40
0.0
 40
0.0
 40
1.0
 40
1.0
 40
1.0
 40
2.0
 40
2.0
 40
2.0
 40
2.0
 10
31.98877862580717
 20
-70.9636468764152
 30
0.0
 10
32.01733753878376
 20
-71.00413916461315
 30
0.0
 10
32.03376906219178
 20
-71.05480377465834
 30
0.0
 10
32.03376906219178
 20
-71.10527735518477
 30
0.0
 10
32.03376906219178
 20
-71.15574496603894
 30
0.0
 10
32.01733753878376
 20
-71.20621257689309
 30
0.0
 10
31.98877862580717
 20
-71.24690186428208
 30
0.0
  0
SPLINE
  5
E0
330
79
100
AcDbEntity
  8
Camada 1
 62
    18
420
        0
370
    15
100
AcDbSpline
210
0.0
220
0.0
230
1.0
 70
     8
 71
     3
 72
    11
 73
     7
 74
     0
 42
0.0000000001
 43
0.0000000001
 40
0.0
 40
0.0
 40
0.0
 40
0.0
 40
1.0
 40
1.0
 40
1.0
 40
2.0
 40
2.0
 40
2.0
 40
2.0
 10
31.98877862580717
 20
-71.59547700804676
 30
0.0
 10
32.01733753878376
 20
-71.63616629543574
 30
0.0
 10
32.03376906219178
 20
-71.68643989193501
 30
0.0
 10
32.03376906219178
 20
-71.7371045019802
 30
0.0
 10
32.03376906219178
 20
-71.78757211283437
 30
0.0
 10
32.01733753878376
 20
-71.83803972368853
 30
0.0
 10
31.98877862580717
 20
-71.87872901107751
 30
0.0
  0
SPLINE
  5
E1
330
79
100
AcDbEntity
  8
Camada 1
 62
    18
420
        0
370
    15
100
AcDbSpline
210
0.0
220
0.0
230
1.0
 70
     8
 71
     3
 72
    11
 73
     7
 74
     0
 42
0.0000000001
 43
0.0000000001
 40
0.0
 40
0.0
 40
0.0
 40
0.0
 40
1.0
 40
1.0
 40
1.0
 40
2.0
 40
2.0
 40
2.0
 40
2.0
 10
31.98877862580717
 20
-72.22731310935059
 30
0.0
 10
32.01811956587562
 20
-72.26956645091944
 30
0.0
 10
32.0349421028283
 20
-72.32258012707251
 30
0.0
 10
32.03376906219178
 20
-72.37500280565249
 30
0.0
 10
32.03240051478167
 20
-72.42762248342349
 30
0.0
 10
32.01303340495201
 20
-72.47965713329367
 30
0.0
 10
31.98154039796543
 20
-72.52054043503754
 30
0.0
  0
SPLINE
  5
E2
330
79
100
AcDbEntity
  8
Camada 1
 62
    18
420
        0
370
    15
100
AcDbSpline
210
0.0
220
0.0
230
1.0
 70
     8
 71
     3
 72
    11
 73
     7
 74
     0
 42
0.0000000001
 43
0.0000000001
 40
0.0
 40
0.0
 40
0.0
 40
0.0
 40
1.0
 40
1.0
 40
1.0
 40
2.0
 40
2.0
 40
2.0
 40
2.0
 10
63.20204079155449
 20
-69.98322369200216
 30
0.0
 10
63.17347889373857
 20
-69.94273737347647
 30
0.0
 10
63.15704737033055
 20
-69.89207276343129
 30
0.0
 10
63.15704737033055
 20
-69.84159918290486
 30
0.0
 10
63.15704737033055
 20
-69.79113157205069
 30
0.0
 10
63.17347889373857
 20
-69.74066396119653
 30
0.0
 10
63.20204079155449
 20
-69.69997467380754
 30
0.0
  0
SPLINE
  5
E3
330
79
100
AcDbEntity
  8
Camada 1
 62
    18
420
        0
370
    15
100
AcDbSpline
210
0.0
220
0.0
230
1.0
 70
     8
 71
     3
 72
    11
 73
     7
 74
     0
 42
0.0000000001
 43
0.0000000001
 40
0.0
 40
0.0
 40
0.0
 40
0.0
 40
1.0
 40
1.0
 40
1.0
 40
2.0
 40
2.0
 40
2.0
 40
2.0
 10
63.20925812553884
 20
-72.52042104158848
 30
0.0
 10
63.17776213371805
 20
-72.47973473903563
 30
0.0
 10
63.1583965163039
 20
-72.42750607481055
 30
0.0
 10
63.15702647647763
 20
-72.37508041139445
 30
0.0
 10
63.15565942148751
 20
-72.32265773281447
 30
0.0
 10
63.17248195843889
 20
-72.26945004230779
 30
0.0
 10
63.20201989770158
 20
-72.22719670073765
 30
0.0
  0
SPLINE
  5
E4
330
79
100
AcDbEntity
  8
Camada 1
 62
    18
420
        0
370
    15
100
AcDbSpline
210
0.0
220
0.0
230
1.0
 70
     8
 71
     3
 72
    11
 73
     7
 74
     0
 42
0.0000000001
 43
0.0000000001
 40
0.0
 40
0.0
 40
0.0
 40
0.0
 40
1.0
 40
1.0
 40
1.0
 40
2.0
 40
2.0
 40
2.0
 40
2.0
 10
63.20204079155449
 20
-70.61504188428791
 30
0.0
 10
63.17347889373857
 20
-70.57455556576224
 30
0.0
 10
63.15704737033055
 20
-70.52389095571832
 30
0.0
 10
63.15704737033055
 20
-70.4734173751919
 30
0.0
 10
63.15704737033055
 20
-70.42294976433773
 30
0.0
 10
63.17347889373857
 20
-70.37248215348357
 30
0.0
 10
63.20204079155449
 20
-70.33179286609459
 30
0.0
  0
SPLINE
  5
E5
330
79
100
AcDbEntity
  8
Camada 1
 62
    18
420
        0
370
    15
100
AcDbSpline
210
0.0
220
0.0
230
1.0
 70
     8
 71
     3
 72
    11
 73
     7
 74
     0
 42
0.0000000001
 43
0.0000000001
 40
0.0
 40
0.0
 40
0.0
 40
0.0
 40
1.0
 40
1.0
 40
1.0
 40
2.0
 40
2.0
 40
2.0
 40
2.0
 10
63.20204079155449
 20
-68.71942015660092
 30
0.0
 10
63.17250285229181
 20
-68.67717278470433
 30
0.0
 10
63.15567733050428
 20
-68.62435312290616
 30
0.0
 10
63.15704737033055
 20
-68.57173642997128
 30
0.0
 10
63.15841741015681
 20
-68.51931076655517
 30
0.0
 10
63.17758901321607
 20
-68.46708210232882
 30
0.0
 10
63.2092760345569
 20
-68.42639281494112
 30
0.0
  0
SPLINE
  5
E6
330
79
100
AcDbEntity
  8
Camada 1
 62
    18
420
        0
370
    15
100
AcDbSpline
210
0.0
220
0.0
230
1.0
 70
     8
 71
     3
 72
    11
 73
     7
 74
     0
 42
0.0000000001
 43
0.0000000001
 40
0.0
 40
0.0
 40
0.0
 40
0.0
 40
1.0
 40
1.0
 40
1.0
 40
2.0
 40
2.0
 40
2.0
 40
2.0
 10
63.20204079155449
 20
-69.35136968168027
 30
0.0
 10
63.17347889373857
 20
-69.31068636396483
 30
0.0
 10
63.15704737033055
 20
-69.26021875311068
 30
0.0
 10
63.15704737033055
 20
-69.20974517258425
 30
0.0
 10
63.15704737033055
 20
-69.15927756173008
 30
0.0
 10
63.17347889373857
 20
-69.10880995087592
 30
0.0
 10
63.20204079155449
 20
-69.06812066348694
 30
0.0
  0
SPLINE
  5
E7
330
79
100
AcDbEntity
  8
Camada 1
 62
    18
420
        0
370
    15
100
AcDbSpline
210
0.0
220
0.0
230
1.0
 70
     8
 71
     3
 72
    11
 73
     7
 74
     0
 42
0.0000000001
 43
0.0000000001
 40
0.0
 40
0.0
 40
0.0
 40
0.0
 40
1.0
 40
1.0
 40
1.0
 40
2.0
 40
2.0
 40
2.0
 40
2.0
 10
63.20204079155449
 20
-71.2468720159195
 30
0.0
 10
63.17347889373857
 20
-71.2063856973938
 30
0.0
 10
63.15704737033055
 20
-71.15591211686737
 30
0.0
 10
63.15704737033055
 20
-71.10524750682218
 30
0.0
 10
63.15704737033055
 20
-71.05477989596801
 30
0.0
 10
63.17347889373857
 20
-71.00431228511386
 30
0.0
 10
63.20204079155449
 20
-70.96362299772614
 30
0.0
  0
LINE
  5
E8
330
79
100
AcDbEntity
  8
Camada 1
 62
    18
420
        0
370
    15
100
AcDbLine
 10
31.33587704285896
 20
-72.89296740505789
 30
0.0
 11
32.16782402662788
 21
-72.89296740505789
 31
0.0
  0
LINE
  5
E9
330
79
100
AcDbEntity
  8
Camada 1
 62
    18
420
        0
370
    15
100
AcDbLine
 10
63.02291778498799
 20
-72.89296740505789
 30
0.0
 11
63.87168581329023
 21
-72.89296740505789
 31
0.0
  0
LINE
  5
EA
330
79
100
AcDbEntity
  8
Camada 1
 62
    18
420
        0
370
    15
100
AcDbLine
 10
31.33587704285896
 20
-68.05388525434139
 30
0.0
 11
32.16782402662788
 21
-68.05388525434139
 31
0.0
  0
LINE
  5
EB
330
79
100
AcDbEntity
  8
Camada 1
 62
    18
420
        0
370
    15
100
AcDbLine
 10
63.02291778498799
 20
-68.05388525434139
 30
0.0
 11
63.87168581329023
 21
-68.05388525434139
 31
0.0
  0
SPLINE
  5
EC
330
79
100
AcDbEntity
  8
Camada 1
 62
    18
420
        0
370
    15
100
AcDbSpline
210
0.0
220
0.0
230
1.0
 70
     8
 71
     3
 72
     8
 73
     4
 74
     0
 42
0.0000000001
 43
0.0000000001
 40
0.0
 40
0.0
 40
0.0
 40
0.0
 40
1.0
 40
1.0
 40
1.0
 40
1.0
 10
31.15622422786708
 20
-71.87870811722331
 30
0.0
 10
31.08482396058403
 20
-71.98395045760145
 30
0.0
 10
31.08482396058403
 20
-72.12205285995565
 30
0.0
 10
31.15622422786708
 20
-72.2272952003338
 30
0.0
  0
SPLINE
  5
ED
330
79
100
AcDbEntity
  8
Camada 1
 62
    18
420
        0
370
    15
100
AcDbSpline
210
0.0
220
0.0
230
1.0
 70
     8
 71
     3
 72
     8
 73
     4
 74
     0
 42
0.0000000001
 43
0.0000000001
 40
0.0
 40
0.0
 40
0.0
 40
0.0
 40
1.0
 40
1.0
 40
1.0
 40
1.0
 10
31.15622422786708
 20
-71.2468720159195
 30
0.0
 10
31.08482396058403
 20
-71.35211734113376
 30
0.0
 10
31.08482396058403
 20
-71.49021974348797
 30
0.0
 10
31.15622422786708
 20
-71.59545909902998
 30
0.0
  0
SPLINE
  5
EE
330
79
100
AcDbEntity
  8
Camada 1
 62
    18
420
        0
370
    15
100
AcDbSpline
210
0.0
220
0.0
230
1.0
 70
     8
 71
     3
 72
     8
 73
     4
 74
     0
 42
0.0000000001
 43
0.0000000001
 40
0.0
 40
0.0
 40
0.0
 40
0.0
 40
1.0
 40
1.0
 40
1.0
 40
1.0
 10
31.15622422786708
 20
-70.61504188428791
 30
0.0
 10
31.08482396058403
 20
-70.7202872095022
 30
0.0
 10
31.08482396058403
 20
-70.8583896118564
 30
0.0
 10
31.15622422786708
 20
-70.96362896739842
 30
0.0
  0
SPLINE
  5
EF
330
79
100
AcDbEntity
  8
Camada 1
 62
    18
420
        0
370
    15
100
AcDbSpline
210
0.0
220
0.0
230
1.0
 70
     8
 71
     3
 72
     8
 73
     4
 74
     0
 42
0.0000000001
 43
0.0000000001
 40
0.0
 40
0.0
 40
0.0
 40
0.0
 40
1.0
 40
1.0
 40
1.0
 40
1.0
 10
31.14920240065186
 20
-72.52042104158848
 30
0.0
 10
31.21375396122488
 20
-72.4341562899147
 30
0.0
 10
31.21668805523102
 20
-72.3165925456086
 30
0.0
 10
31.1562436293045
 20
-72.22719670073765
 30
0.0
  0
SPLINE
  5
F0
330
79
100
AcDbEntity
  8
Camada 1
 62
    18
420
        0
370
    15
100
AcDbSpline
210
0.0
220
0.0
230
1.0
 70
     8
 71
     3
 72
     8
 73
     4
 74
     0
 42
0.0000000001
 43
0.0000000001
 40
0.0
 40
0.0
 40
0.0
 40
0.0
 40
1.0
 40
1.0
 40
1.0
 40
1.0
 10
31.15622422786708
 20
-71.87870811722331
 30
0.0
 10
31.21412557333211
 20
-71.79322539264011
 30
0.0
 10
31.21412557333211
 20
-71.68113882280292
 30
0.0
 10
31.15622422786708
 20
-71.59545909902998
 30
0.0
  0
SPLINE
  5
F1
330
79
100
AcDbEntity
  8
Camada 1
 62
    18
420
        0
370
    15
100
AcDbSpline
210
0.0
220
0.0
230
1.0
 70
     8
 71
     3
 72
     8
 73
     4
 74
     0
 42
0.0000000001
 43
0.0000000001
 40
0.0
 40
0.0
 40
0.0
 40
0.0
 40
1.0
 40
1.0
 40
1.0
 40
1.0
 10
31.15622422786708
 20
-71.2468720159195
 30
0.0
 10
31.21412557333211
 20
-71.16139227617242
 30
0.0
 10
31.21412557333211
 20
-71.04910870714547
 30
0.0
 10
31.15622422786708
 20
-70.96362299772614
 30
0.0
  0
SPLINE
  5
F2
330
79
100
AcDbEntity
  8
Camada 1
 62
    18
420
        0
370
    15
100
AcDbSpline
210
0.0
220
0.0
230
1.0
 70
     8
 71
     3
 72
    11
 73
     7
 74
     0
 42
0.0000000001
 43
0.0000000001
 40
0.0
 40
0.0
 40
0.0
 40
0.0
 40
1.0
 40
1.0
 40
1.0
 40
2.0
 40
2.0
 40
2.0
 40
2.0
 10
31.14920240065186
 20
-72.52042104158848
 30
0.0
 10
31.07212945212757
 20
-72.62331431585875
 30
0.0
 10
31.09286510936735
 20
-72.76924295878846
 30
0.0
 10
31.19575838363698
 20
-72.84651141408764
 30
0.0
 10
31.23625067183493
 20
-72.87663736608344
 30
0.0
 10
31.28515422850793
 20
-72.89306888949018
 30
0.0
 10
31.33562183936081
 20
-72.89306888949018
 30
0.0
  0
SPLINE
  5
F3
330
79
100
AcDbEntity
  8
Camada 1
 62
    18
420
        0
370
    15
100
AcDbSpline
210
0.0
220
0.0
230
1.0
 70
     8
 71
     3
 72
     8
 73
     4
 74
     0
 42
0.0000000001
 43
0.0000000001
 40
0.0
 40
0.0
 40
0.0
 40
0.0
 40
1.0
 40
1.0
 40
1.0
 40
1.0
 10
31.15622422786708
 20
-69.98322369200216
 30
0.0
 10
31.08482396058403
 20
-70.08846901721644
 30
0.0
 10
31.08482396058403
 20
-70.22657141957065
 30
0.0
 10
31.15622422786708
 20
-70.33181077511137
 30
0.0
  0
SPLINE
  5
F4
330
79
100
AcDbEntity
  8
Camada 1
 62
    18
420
        0
370
    15
100
AcDbSpline
210
0.0
220
0.0
230
1.0
 70
     8
 71
     3
 72
     8
 73
     4
 74
     0
 42
0.0000000001
 43
0.0000000001
 40
0.0
 40
0.0
 40
0.0
 40
0.0
 40
1.0
 40
1.0
 40
1.0
 40
1.0
 10
31.15622422786708
 20
-69.35136968168027
 30
0.0
 10
31.08482396058403
 20
-69.45661500689453
 30
0.0
 10
31.08482396058403
 20
-69.59471740924874
 30
0.0
 10
31.15622422786708
 20
-69.69995676479077
 30
0.0
  0
SPLINE
  5
F5
330
79
100
AcDbEntity
  8
Camada 1
 62
    18
420
        0
370
    15
100
AcDbSpline
210
0.0
220
0.0
230
1.0
 70
     8
 71
     3
 72
     8
 73
     4
 74
     0
 42
0.0000000001
 43
0.0000000001
 40
0.0
 40
0.0
 40
0.0
 40
0.0
 40
1.0
 40
1.0
 40
1.0
 40
1.0
 10
31.15622422786708
 20
-68.71942015660092
 30
0.0
 10
31.08482396058403
 20
-68.82466548181518
 30
0.0
 10
31.08482396058403
 20
-68.96276788416812
 30
0.0
 10
31.15622422786708
 20
-69.06800723971013
 30
0.0
  0
SPLINE
  5
F6
330
79
100
AcDbEntity
  8
Camada 1
 62
    18
420
        0
370
    15
100
AcDbSpline
210
0.0
220
0.0
230
1.0
 70
     8
 71
     3
 72
     8
 73
     4
 74
     0
 42
0.0000000001
 43
0.0000000001
 40
0.0
 40
0.0
 40
0.0
 40
0.0
 40
1.0
 40
1.0
 40
1.0
 40
1.0
 10
31.15622422786708
 20
-70.61504188428791
 30
0.0
 10
31.21412557333211
 20
-70.52956214454084
 30
0.0
 10
31.21412557333211
 20
-70.41727857551392
 30
0.0
 10
31.15622422786708
 20
-70.33179286609459
 30
0.0
  0
SPLINE
  5
F7
330
79
100
AcDbEntity
  8
Camada 1
 62
    18
420
        0
370
    15
100
AcDbSpline
210
0.0
220
0.0
230
1.0
 70
     8
 71
     3
 72
     8
 73
     4
 74
     0
 42
0.0000000001
 43
0.0000000001
 40
0.0
 40
0.0
 40
0.0
 40
0.0
 40
1.0
 40
1.0
 40
1.0
 40
1.0
 10
31.15622422786708
 20
-69.98322369200216
 30
0.0
 10
31.21412557333211
 20
-69.89774395225509
 30
0.0
 10
31.21412557333211
 20
-69.78546038322687
 30
0.0
 10
31.15622422786708
 20
-69.69997467380754
 30
0.0
  0
SPLINE
  5
F8
330
79
100
AcDbEntity
  8
Camada 1
 62
    18
420
        0
370
    15
100
AcDbSpline
210
0.0
220
0.0
230
1.0
 70
     8
 71
     3
 72
     8
 73
     4
 74
     0
 42
0.0000000001
 43
0.0000000001
 40
0.0
 40
0.0
 40
0.0
 40
0.0
 40
1.0
 40
1.0
 40
1.0
 40
1.0
 10
31.15622422786708
 20
-69.35136968168027
 30
0.0
 10
31.21412557333211
 20
-69.2658899419332
 30
0.0
 10
31.21412557333211
 20
-69.15360637290627
 30
0.0
 10
31.15622422786708
 20
-69.06812066348694
 30
0.0
  0
SPLINE
  5
F9
330
79
100
AcDbEntity
  8
Camada 1
 62
    18
420
        0
370
    15
100
AcDbSpline
210
0.0
220
0.0
230
1.0
 70
     8
 71
     3
 72
     8
 73
     4
 74
     0
 42
0.0000000001
 43
0.0000000001
 40
0.0
 40
0.0
 40
0.0
 40
0.0
 40
1.0
 40
1.0
 40
1.0
 40
1.0
 10
31.15622422786708
 20
-68.71942015660092
 30
0.0
 10
31.21666865379745
 20
-68.63041831011074
 30
0.0
 10
31.21393006656171
 20
-68.51266055145103
 30
0.0
 10
31.14918150679895
 20
-68.42639281494112
 30
0.0
  0
SPLINE
  5
FA
330
79
100
AcDbEntity
  8
Camada 1
 62
    18
420
        0
370
    15
100
AcDbSpline
210
0.0
220
0.0
230
1.0
 70
     8
 71
     3
 72
    11
 73
     7
 74
     0
 42
0.0000000001
 43
0.0000000001
 40
0.0
 40
0.0
 40
0.0
 40
0.0
 40
1.0
 40
1.0
 40
1.0
 40
2.0
 40
2.0
 40
2.0
 40
2.0
 10
31.3355442336227
 20
-68.05388525434139
 30
0.0
 10
31.20702464796007
 20
-68.05388525434139
 30
0.0
 10
31.10256731950992
 20
-68.15815155327534
 30
0.0
 10
31.10256731950992
 20
-68.28666666168185
 30
0.0
 10
31.10256731950992
 20
-68.33714024220828
 30
0.0
 10
31.11899884291409
 20
-68.38623482840005
 30
0.0
 10
31.1491233024944
 20
-68.42653608707923
 30
0.0
  0
SPLINE
  5
FB
330
79
100
AcDbEntity
  8
Camada 1
 62
    18
420
        0
370
    15
100
AcDbSpline
210
0.0
220
0.0
230
1.0
 70
     8
 71
     3
 72
     8
 73
     4
 74
     0
 42
0.0000000001
 43
0.0000000001
 40
0.0
 40
0.0
 40
0.0
 40
0.0
 40
1.0
 40
1.0
 40
1.0
 40
1.0
 10
64.07363684728626
 20
-72.22731310935059
 30
0.0
 10
64.14503412973447
 20
-72.12207375380986
 30
0.0
 10
64.14503412973447
 20
-71.98397135145565
 30
0.0
 10
64.07363684728626
 20
-71.87872901107751
 30
0.0
  0
SPLINE
  5
FC
330
79
100
AcDbEntity
  8
Camada 1
 62
    18
420
        0
370
    15
100
AcDbSpline
210
0.0
220
0.0
230
1.0
 70
     8
 71
     3
 72
     8
 73
     4
 74
     0
 42
0.0000000001
 43
0.0000000001
 40
0.0
 40
0.0
 40
0.0
 40
0.0
 40
1.0
 40
1.0
 40
1.0
 40
1.0
 10
64.07363684728626
 20
-71.59547700804676
 30
0.0
 10
64.14503412973447
 20
-71.49023765250475
 30
0.0
 10
64.14503412973447
 20
-71.35213525015053
 30
0.0
 10
64.07363684728626
 20
-71.24689589460982
 30
0.0
  0
SPLINE
  5
FD
330
79
100
AcDbEntity
  8
Camada 1
 62
    18
420
        0
370
    15
100
AcDbSpline
210
0.0
220
0.0
230
1.0
 70
     8
 71
     3
 72
     8
 73
     4
 74
     0
 42
0.0000000001
 43
0.0000000001
 40
0.0
 40
0.0
 40
0.0
 40
0.0
 40
1.0
 40
1.0
 40
1.0
 40
1.0
 10
64.07363684728626
 20
-70.9636468764152
 30
0.0
 10
64.14503412973447
 20
-70.85840752087446
 30
0.0
 10
64.14503412973447
 20
-70.72030511852026
 30
0.0
 10
64.07363684728626
 20
-70.61506576297825
 30
0.0
  0
SPLINE
  5
FE
330
79
100
AcDbEntity
  8
Camada 1
 62
    18
420
        0
370
    15
100
AcDbSpline
210
0.0
220
0.0
230
1.0
 70
     8
 71
     3
 72
     8
 73
     4
 74
     0
 42
0.0000000001
 43
0.0000000001
 40
0.0
 40
0.0
 40
0.0
 40
0.0
 40
1.0
 40
1.0
 40
1.0
 40
1.0
 10
64.07363684728626
 20
-72.22731310935059
 30
0.0
 10
64.01318794410105
 20
-72.31651493986793
 30
0.0
 10
64.01592802375614
 20
-72.43427568336376
 30
0.0
 10
64.0806750911002
 20
-72.52054043503754
 30
0.0
  0
SPLINE
  5
FF
330
79
100
AcDbEntity
  8
Camada 1
 62
    18
420
        0
370
    15
100
AcDbSpline
210
0.0
220
0.0
230
1.0
 70
     8
 71
     3
 72
     8
 73
     4
 74
     0
 42
0.0000000001
 43
0.0000000001
 40
0.0
 40
0.0
 40
0.0
 40
0.0
 40
1.0
 40
1.0
 40
1.0
 40
1.0
 10
64.07363684728626
 20
-71.59547700804676
 30
0.0
 10
64.0155340253728
 20
-71.68096271746609
 30
0.0
 10
64.0155340253728
 20
-71.79324330165818
 30
0.0
 10
64.07363684728626
 20
-71.87872901107751
 30
0.0
  0
SPLINE
  5
100
330
79
100
AcDbEntity
  8
Camada 1
 62
    18
420
        0
370
    15
100
AcDbSpline
210
0.0
220
0.0
230
1.0
 70
     8
 71
     3
 72
     8
 73
     4
 74
     0
 42
0.0000000001
 43
0.0000000001
 40
0.0
 40
0.0
 40
0.0
 40
0.0
 40
1.0
 40
1.0
 40
1.0
 40
1.0
 10
64.07363684728626
 20
-70.9636468764152
 30
0.0
 10
64.0155340253728
 20
-71.04913258583453
 30
0.0
 10
64.0155340253728
 20
-71.16141615486275
 30
0.0
 10
64.07363684728626
 20
-71.24690186428208
 30
0.0
  0
SPLINE
  5
101
330
79
100
AcDbEntity
  8
Camada 1
 62
    18
420
        0
370
    15
100
AcDbSpline
210
0.0
220
0.0
230
1.0
 70
     8
 71
     3
 72
    11
 73
     7
 74
     0
 42
0.0000000001
 43
0.0000000001
 40
0.0
 40
0.0
 40
0.0
 40
0.0
 40
1.0
 40
1.0
 40
1.0
 40
2.0
 40
2.0
 40
2.0
 40
2.0
 10
63.89424222062674
 20
-72.89296740505789
 30
0.0
 10
64.02275732903196
 20
-72.89296740505789
 30
0.0
 10
64.12721465748211
 20
-72.78870707579748
 30
0.0
 10
64.12721465748211
 20
-72.66018898255485
 30
0.0
 10
64.12721465748211
 20
-72.60971838686455
 30
0.0
 10
64.11078611891278
 20
-72.56062081583666
 30
0.0
 10
64.08065718208213
 20
-72.52032254199233
 30
0.0
  0
SPLINE
  5
102
330
79
100
AcDbEntity
  8
Camada 1
 62
    18
420
        0
370
    15
100
AcDbSpline
210
0.0
220
0.0
230
1.0
 70
     8
 71
     3
 72
     8
 73
     4
 74
     0
 42
0.0000000001
 43
0.0000000001
 40
0.0
 40
0.0
 40
0.0
 40
0.0
 40
1.0
 40
1.0
 40
1.0
 40
1.0
 10
64.07363684728626
 20
-70.33182868412943
 30
0.0
 10
64.14503412973447
 20
-70.22658932858742
 30
0.0
 10
64.14503412973447
 20
-70.08848692623321
 30
0.0
 10
64.07363684728626
 20
-69.9832475706912
 30
0.0
  0
SPLINE
  5
103
330
79
100
AcDbEntity
  8
Camada 1
 62
    18
420
        0
370
    15
100
AcDbSpline
210
0.0
220
0.0
230
1.0
 70
     8
 71
     3
 72
     8
 73
     4
 74
     0
 42
0.0000000001
 43
0.0000000001
 40
0.0
 40
0.0
 40
0.0
 40
0.0
 40
1.0
 40
1.0
 40
1.0
 40
1.0
 10
64.07363684728626
 20
-69.69999855249787
 30
0.0
 10
64.14503412973447
 20
-69.59475919695586
 30
0.0
 10
64.14503412973447
 20
-69.45665679460166
 30
0.0
 10
64.07363684728626
 20
-69.35141743906092
 30
0.0
  0
SPLINE
  5
104
330
79
100
AcDbEntity
  8
Camada 1
 62
    18
420
        0
370
    15
100
AcDbSpline
210
0.0
220
0.0
230
1.0
 70
     8
 71
     3
 72
     8
 73
     4
 74
     0
 42
0.0000000001
 43
0.0000000001
 40
0.0
 40
0.0
 40
0.0
 40
0.0
 40
1.0
 40
1.0
 40
1.0
 40
1.0
 10
64.07363684728626
 20
-69.06802514872819
 30
0.0
 10
64.14503412973447
 20
-68.96278579318618
 30
0.0
 10
64.14503412973447
 20
-68.82468339083198
 30
0.0
 10
64.07363684728626
 20
-68.71944403528996
 30
0.0
  0
SPLINE
  5
105
330
79
100
AcDbEntity
  8
Camada 1
 62
    18
420
        0
370
    15
100
AcDbSpline
210
0.0
220
0.0
230
1.0
 70
     8
 71
     3
 72
     8
 73
     4
 74
     0
 42
0.0000000001
 43
0.0000000001
 40
0.0
 40
0.0
 40
0.0
 40
0.0
 40
1.0
 40
1.0
 40
1.0
 40
1.0
 10
64.07363684728626
 20
-70.33182868412943
 30
0.0
 10
64.0155340253728
 20
-70.41731439354876
 30
0.0
 10
64.0155340253728
 20
-70.52959796257571
 30
0.0
 10
64.07363684728626
 20
-70.61508367199504
 30
0.0
  0
SPLINE
  5
106
330
79
100
AcDbEntity
  8
Camada 1
 62
    18
420
        0
370
    15
100
AcDbSpline
210
0.0
220
0.0
230
1.0
 70
     8
 71
     3
 72
     8
 73
     4
 74
     0
 42
0.0000000001
 43
0.0000000001
 40
0.0
 40
0.0
 40
0.0
 40
0.0
 40
1.0
 40
1.0
 40
1.0
 40
1.0
 10
64.07363684728626
 20
-69.69999855249787
 30
0.0
 10
64.0155340253728
 20
-69.7854842619172
 30
0.0
 10
64.0155340253728
 20
-69.89757083175439
 30
0.0
 10
64.07363684728626
 20
-69.98325354036476
 30
0.0
  0
SPLINE
  5
107
330
79
100
AcDbEntity
  8
Camada 1
 62
    18
420
        0
370
    15
100
AcDbSpline
210
0.0
220
0.0
230
1.0
 70
     8
 71
     3
 72
     8
 73
     4
 74
     0
 42
0.0000000001
 43
0.0000000001
 40
0.0
 40
0.0
 40
0.0
 40
0.0
 40
1.0
 40
1.0
 40
1.0
 40
1.0
 10
64.07363684728626
 20
-69.06802514872819
 30
0.0
 10
64.0155340253728
 20
-69.15351085814752
 30
0.0
 10
64.0155340253728
 20
-69.26579442717574
 30
0.0
 10
64.07363684728626
 20
-69.35128013659379
 30
0.0
  0
SPLINE
  5
108
330
79
100
AcDbEntity
  8
Camada 1
 62
    18
420
        0
370
    15
100
AcDbSpline
210
0.0
220
0.0
230
1.0
 70
     8
 71
     3
 72
     8
 73
     4
 74
     0
 42
0.0000000001
 43
0.0000000001
 40
0.0
 40
0.0
 40
0.0
 40
0.0
 40
1.0
 40
1.0
 40
1.0
 40
1.0
 10
64.08058554600987
 20
-68.42642863297597
 30
0.0
 10
64.01602950818586
 20
-68.51269636948588
 30
0.0
 10
64.01309839901585
 20
-68.63026309862682
 30
0.0
 10
64.07354133252623
 20
-68.71946194430804
 30
0.0
  0
SPLINE
  5
109
330
79
100
AcDbEntity
  8
Camada 1
 62
    18
420
        0
370
    15
100
AcDbSpline
210
0.0
220
0.0
230
1.0
 70
     8
 71
     3
 72
    11
 73
     7
 74
     0
 42
0.0000000001
 43
0.0000000001
 40
0.0
 40
0.0
 40
0.0
 40
0.0
 40
1.0
 40
1.0
 40
1.0
 40
2.0
 40
2.0
 40
2.0
 40
2.0
 10
64.08058554600987
 20
-68.42642863297597
 30
0.0
 10
64.15765401728446
 20
-68.32354132837796
 30
0.0
 10
64.13692134487888
 20
-68.17761268544697
 30
0.0
 10
64.03402807060989
 20
-68.10034124531295
 30
0.0
 10
63.99353578241194
 20
-68.07021827815326
 30
0.0
 10
63.94463222573894
 20
-68.0537837699104
 30
0.0
 10
63.89416461488607
 20
-68.0537837699104
 30
0.0
  0
SPLINE
  5
10A
330
79
100
AcDbEntity
  8
Camada 1
  6
AI-Linetype-5
 62
    18
420
        0
370
    15
100
AcDbSpline
210
0.0
220
0.0
230
1.0
 70
    11
 71
     3
 72
    26
 73
    22
 74
     0
 42
0.0000000001
 43
0.0000000001
 40
0.0
 40
0.0
 40
0.0
 40
0.0
 40
1.0
 40
1.0
 40
1.0
 40
2.0
 40
2.0
 40
2.0
 40
3.0
 40
3.0
 40
3.0
 40
4.0
 40
4.0
 40
4.0
 40
5.0
 40
5.0
 40
5.0
 40
6.0
 40
6.0
 40
6.0
 40
7.0
 40
7.0
 40
7.0
 40
7.0
 10
58.15490063193027
 20
-70.39078516920061
 30
0.0
 10
58.15490063193027
 20
-70.39078516920061
 30
0.0
 10
58.15490063193027
 20
-70.39078516920061
 30
0.0
 10
58.15490063193027
 20
-70.39078516920061
 30
0.0
 10
58.38004981304884
 20
-70.39078516920061
 30
0.0
 10
58.56275462307849
 20
-70.20828034319683
 30
0.0
 10
58.56275462307849
 20
-69.98312817724213
 30
0.0
 10
58.56275462307849
 20
-69.75817301047975
 30
0.0
 10
58.38004981304884
 20
-69.57566221480243
 30
0.0
 10
58.15490063193027
 20
-69.57566221480243
 30
0.0
 10
58.15490063193027
 20
-69.57566221480243
 30
0.0
 10
57.76660627254726
 20
-69.57566221480243
 30
0.0
 10
57.76660627254726
 20
-69.57566221480243
 30
0.0
 10
57.54145410659512
 20
-69.57566221480243
 30
0.0
 10
57.35894629575393
 20
-69.75817301047975
 30
0.0
 10
57.35894629575393
 20
-69.98312817724213
 30
0.0
 10
57.35894629575393
 20
-70.20828034319683
 30
0.0
 10
57.54145410659512
 20
-70.39078516920061
 30
0.0
 10
57.76660627254726
 20
-70.39078516920061
 30
0.0
 10
57.76660627254726
 20
-70.39078516920061
 30
0.0
 10
58.15490063193027
 20
-70.39078516920061
 30
0.0
 10
58.15490063193027
 20
-70.39078516920061
 30
0.0
  0
SPLINE
  5
10C
330
79
100
AcDbEntity
  8
Camada 1
  6
AI-Linetype-6
 62
    18
420
        0
370
    15
100
AcDbSpline
210
0.0
220
0.0
230
1.0
 70
     9
 71
     3
 72
    23
 73
    19
 74
     0
 42
0.0000000001
 43
0.0000000001
 40
0.0
 40
0.0
 40
0.0
 40
0.0
 40
1.0
 40
1.0
 40
1.0
 40
2.0
 40
2.0
 40
2.0
 40
3.0
 40
3.0
 40
3.0
 40
4.0
 40
4.0
 40
4.0
 40
5.0
 40
5.0
 40
5.0
 40
6.0
 40
6.0
 40
6.0
 40
6.0
 10
46.89454330005266
 20
-70.39078516920061
 30
0.0
 10
46.66919413490628
 20
-70.39078516920061
 30
0.0
 10
46.48668632406637
 20
-70.20828034319683
 30
0.0
 10
46.48668632406637
 20
-69.98312817724213
 30
0.0
 10
46.48668632406637
 20
-69.75817301047975
 30
0.0
 10
46.66919413490628
 20
-69.57566221480243
 30
0.0
 10
46.89454330005266
 20
-69.57566221480243
 30
0.0
 10
46.89454330005266
 20
-69.57566221480243
 30
0.0
 10
47.28264066024271
 20
-69.57566221480243
 30
0.0
 10
47.28264066024271
 20
-69.57566221480243
 30
0.0
 10
47.50798684054974
 20
-69.57566221480243
 30
0.0
 10
47.69030063703604
 20
-69.75817301047975
 30
0.0
 10
47.69030063703604
 20
-69.98312817724213
 30
0.0
 10
47.69030063703604
 20
-70.20828034319683
 30
0.0
 10
47.50798684054974
 20
-70.39078516920061
 30
0.0
 10
47.28264066024271
 20
-70.39078516920061
 30
0.0
 10
47.28264066024271
 20
-70.39078516920061
 30
0.0
 10
46.89454330005266
 20
-70.39078516920061
 30
0.0
 10
46.89454330005266
 20
-70.39078516920061
 30
0.0
  0
LINE
  5
10E
330
79
100
AcDbEntity
  8
Camada 1
  6
AI-Linetype-7
 62
    18
420
        0
370
    15
100
AcDbLine
 10
57.96092806515882
 20
-69.40097765970318
 30
0.0
 11
57.96092806515882
 21
-70.56546972430115
 31
0.0
  0
LINE
  5
110
330
79
100
AcDbEntity
  8
Camada 1
  6
AI-Linetype-8
 62
    18
420
        0
370
    15
100
AcDbLine
 10
58.73710786135827
 20
-69.98322369200216
 30
0.0
 11
57.1845154517322
 21
-69.98322369200216
 31
0.0
  0
LINE
  5
112
330
79
100
AcDbEntity
  8
Camada 1
  6
AI-Linetype-9
 62
    18
420
        0
370
    15
100
AcDbLine
 10
47.08870988117644
 20
-69.40097765970318
 30
0.0
 11
47.08870988117644
 21
-70.56546972430115
 31
0.0
  0
LINE
  5
114
330
79
100
AcDbEntity
  8
Camada 1
  6
AI-Linetype-10
 62
    18
420
        0
370
    15
100
AcDbLine
 10
47.86486878352299
 20
-69.98322369200216
 30
0.0
 11
46.31227637389755
 21
-69.98322369200216
 31
0.0
  0
LINE
  5
116
330
79
100
AcDbEntity
  8
Camada 1
 62
    18
420
        0
370
    15
100
AcDbLine
 10
32.16788223093242
 20
-72.89296740505789
 30
0.0
 11
63.02289390630022
 21
-72.89296740505789
 31
0.0
  0
ENDBLK
  5
7C
330
79
100
AcDbEntity
  8
0
100
AcDbBlockEnd
  0
ENDSEC
  0
SECTION
  2
ENTITIES
  0
INSERT
  5
7A
330
70
100
AcDbEntity
  8
Camada 1
100
AcDbBlockReference
  2
Block_0
 10
0.0
 20
0.0
 30
0.0
  0
ENDSEC
  0
SECTION
  2
OBJECTS
  0
DICTIONARY
  5
C
330
0
100
AcDbDictionary
281
     1
  3
ACAD_COLOR
350
63
  3
ACAD_DETAILVIEWSTYLE
350
6A
  3
ACAD_GROUP
350
D
  3
ACAD_LAYOUT
350
62
  3
ACAD_MATERIAL
350
10
  3
ACAD_MLEADERSTYLE
350
66
  3
ACAD_MLINESTYLE
350
5F
  3
ACAD_PLOTSETTINGS
350
61
  3
ACAD_PLOTSTYLENAME
350
E
  3
ACAD_SCALELIST
350
42
  3
ACAD_SECTIONVIEWSTYLE
350
68
  3
ACAD_TABLESTYLE
350
64
  3
ACAD_VISUALSTYLE
350
29
  3
ACDB_RECOMPOSE_DATA
350
11F
  3
AcDbVariableDictionary
350
117
  0
DICTIONARY
  5
63
102
{ACAD_REACTORS
330
C
102
}
330
C
100
AcDbDictionary
281
     1
  0
DICTIONARY
  5
6A
102
{ACAD_REACTORS
330
C
102
}
330
C
100
AcDbDictionary
281
     1
  3
Imperial24
350
6B
  0
DICTIONARY
  5
D
102
{ACAD_REACTORS
330
C
102
}
330
C
100
AcDbDictionary
281
     1
  0
DICTIONARY
  5
62
102
{ACAD_REACTORS
330
C
102
}
330
C
100
AcDbDictionary
281
     1
  3
Layout1
350
6F
  3
Layout2
350
77
  3
Model
350
73
  0
DICTIONARY
  5
10
102
{ACAD_REACTORS
330
C
102
}
330
C
100
AcDbDictionary
281
     1
  3
ByBlock
350
19
  3
ByLayer
350
11
  3
Global
350
21
  0
DICTIONARY
  5
66
102
{ACAD_REACTORS
330
C
102
}
330
C
100
AcDbDictionary
281
     1
  3
Standard
350
67
  0
DICTIONARY
  5
5F
102
{ACAD_REACTORS
330
C
102
}
330
C
100
AcDbDictionary
281
     1
  3
Standard
350
60
  0
DICTIONARY
  5
61
102
{ACAD_REACTORS
330
C
102
}
330
C
100
AcDbDictionary
281
     1
  0
ACDBDICTIONARYWDFLT
  5
E
102
{ACAD_REACTORS
330
C
102
}
330
C
100
AcDbDictionary
281
     1
  3
Normal
350
F
100
AcDbDictionaryWithDefault
340
F
  0
DICTIONARY
  5
42
102
{ACAD_REACTORS
330
C
102
}
330
C
100
AcDbDictionary
281
     1
  3
A0
350
43
  3
A1
350
44
  3
A2
350
45
  3
A3
350
46
  3
A4
350
47
  3
A5
350
48
  3
A6
350
49
  3
A7
350
4A
  3
A8
350
4B
  3
A9
350
4C
  3
B0
350
4D
  3
B1
350
4E
  3
B2
350
4F
  3
B3
350
50
  3
B4
350
51
  3
B5
350
52
  3
B6
350
53
  0
DICTIONARY
  5
68
102
{ACAD_REACTORS
330
C
102
}
330
C
100
AcDbDictionary
281
     1
  3
Imperial24
350
69
  0
DICTIONARY
  5
64
102
{ACAD_REACTORS
330
C
102
}
330
C
100
AcDbDictionary
281
     1
  3
Standard
350
65
  0
DICTIONARY
  5
29
102
{ACAD_REACTORS
330
C
102
}
330
C
100
AcDbDictionary
281
     1
  3
2dWireframe
350
2F
  3
Basic
350
2E
  3
Brighten
350
35
  3
ColorChange
350
39
  3
Conceptual
350
32
  3
Dim
350
34
  3
EdgeColorOff
350
41
  3
Facepattern
350
38
  3
Flat
350
2A
  3
FlatWithEdges
350
2B
  3
Gouraud
350
2C
  3
GouraudWithEdges
350
2D
  3
Hidden
350
31
  3
JitterOff
350
3F
  3
Linepattern
350
37
  3
OverhangOff
350
40
  3
Realistic
350
33
  3
Shaded
350
3E
  3
Shaded with edges
350
3D
  3
Shades of Gray
350
3A
  3
Sketchy
350
3B
  3
Thicken
350
36
  3
Wireframe
350
30
  3
X-Ray
350
3C
  0
XRECORD
  5
11F
102
{ACAD_REACTORS
330
C
102
}
330
C
100
AcDbXrecord
280
     1
 90
        1
330
65
  0
DICTIONARY
  5
117
102
{ACAD_REACTORS
330
C
102
}
330
C
100
AcDbDictionary
281
     1
  3
CANNOSCALE
350
11C
  3
CMLEADERSTYLE
350
119
  3
CTABLESTYLE
350
118
  3
CVIEWDETAILSTYLE
350
11A
  3
CVIEWSECTIONSTYLE
350
11B
  0
ACDBDETAILVIEWSTYLE
  5
6B
102
{ACAD_REACTORS
330
6A
102
}
330
6A
100
AcDbModelDocViewStyle
 70
     0
  3
Imperial24
290
     1
300
Imperial24
 90
        0
100
AcDbDetailViewStyle
 70
     0
 71
     0
 90
        3
 71
     1
340
55
 62
   256
 40
0.24
340
0
 62
   256
 40
0.24
300

 40
0.36
280
     3
 71
     2
340
5D
 90
       25
 62
   256
 71
     3
340
55
 62
   256
 40
0.24
 90
        1
 40
0.75
 90
        1
300
%<\AcVar ViewType \f "%tc1">% %<\AcVar ViewDetailId>%\PSCALE %<\AcVar ViewScale \f "%sn">%
 71
     4
340
5D
 90
       25
 62
   256
340
5D
 90
       25
 62
   256
280
     0
  0
LAYOUT
  5
6F
102
{ACAD_REACTORS
330
62
102
}
330
62
100
AcDbPlotSettings
  1

  2

  4

  6

 40
0.0
 41
0.0
 42
0.0
 43
0.0
 44
0.0
 45
0.0
 46
0.0
 47
0.0
 48
0.0
 49
0.0
140
0.0
141
0.0
142
1.0
143
1.0
 70
   688
 72
     0
 73
     0
 74
     5
  7

 75
    16
147
1.0
 76
     0
 77
     2
 78
   300
148
0.0
149
0.0
100
AcDbLayout
  1
Layout1
 70
     1
 71
     1
 10
0.0
 20
0.0
 11
12.0
 21
9.0
 12
0.0
 22
0.0
 32
0.0
 14
0.0
 24
0.0
 34
0.0
 15
0.0
 25
0.0
 35
0.0
146
0.0
 13
0.0
 23
0.0
 33
0.0
 16
1.0
 26
0.0
 36
0.0
 17
0.0
 27
1.0
 37
0.0
 76
     0
330
6C
  0
LAYOUT
  5
77
102
{ACAD_REACTORS
330
62
102
}
330
62
100
AcDbPlotSettings
  1

  2

  4

  6

 40
0.0
 41
0.0
 42
0.0
 43
0.0
 44
0.0
 45
0.0
 46
0.0
 47
0.0
 48
0.0
 49
0.0
140
0.0
141
0.0
142
1.0
143
1.0
 70
   688
 72
     0
 73
     0
 74
     5
  7

 75
    16
147
1.0
 76
     0
 77
     2
 78
   300
148
0.0
149
0.0
100
AcDbLayout
  1
Layout2
 70
     1
 71
     2
 10
0.0
 20
0.0
 11
12.0
 21
9.0
 12
0.0
 22
0.0
 32
0.0
 14
0.0
 24
0.0
 34
0.0
 15
0.0
 25
0.0
 35
0.0
146
0.0
 13
0.0
 23
0.0
 33
0.0
 16
1.0
 26
0.0
 36
0.0
 17
0.0
 27
1.0
 37
0.0
 76
     0
330
74
  0
LAYOUT
  5
73
102
{ACAD_REACTORS
330
62
102
}
330
62
100
AcDbPlotSettings
  1

  2

  4

  6

 40
0.0
 41
0.0
 42
0.0
 43
0.0
 44
0.0
 45
0.0
 46
0.0
 47
0.0
 48
0.0
 49
0.0
140
0.0
141
0.0
142
1.0
143
1.0
 70
  1712
 72
     0
 73
     0
 74
     0
  7

 75
     0
147
1.0
 76
     0
 77
     2
 78
   300
148
0.0
149
0.0
100
AcDbLayout
  1
Model
 70
     1
 71
     0
 10
0.0
 20
0.0
 11
12.0
 21
9.0
 12
0.0
 22
0.0
 32
0.0
 14
0.0
 24
0.0
 34
0.0
 15
0.0
 25
0.0
 35
0.0
146
0.0
 13
0.0
 23
0.0
 33
0.0
 16
1.0
 26
0.0
 36
0.0
 17
0.0
 27
1.0
 37
0.0
 76
     0
330
70
  0
MATERIAL
  5
19
102
{ACAD_XDICTIONARY
360
1A
102
}
102
{ACAD_REACTORS
330
10
102
}
330
10
100
AcDbMaterial
  1
ByBlock
 72
     0
 43
0.0208333333333333
 43
0.0
 43
0.0
 43
0.0
 43
0.0
 43
0.0208333333333333
 43
0.0
 43
0.0
 43
0.0
 43
0.0
 43
1.0
 43
0.0
 43
0.0
 43
0.0
 43
0.0
 43
1.0
 77
     0
 47
0.0208333333333333
 47
0.0
 47
0.0
 47
0.0
 47
0.0
 47
0.0208333333333333
 47
0.0
 47
0.0
 47
0.0
 47
0.0
 47
1.0
 47
0.0
 47
0.0
 47
0.0
 47
0.0
 47
1.0
171
     0
 49
0.0208333333333333
 49
0.0
 49
0.0
 49
0.0
 49
0.0
 49
0.0208333333333333
 49
0.0
 49
0.0
 49
0.0
 49
0.0
 49
1.0
 49
0.0
 49
0.0
 49
0.0
 49
0.0
 49
1.0
175
     0
142
0.0208333333333333
142
0.0
142
0.0
142
0.0
142
0.0
142
0.0208333333333333
142
0.0
142
0.0
142
0.0
142
0.0
142
1.0
142
0.0
142
0.0
142
0.0
142
0.0
142
1.0
179
     0
144
0.0208333333333333
144
0.0
144
0.0
144
0.0
144
0.0
144
0.0208333333333333
144
0.0
144
0.0
144
0.0
144
0.0
144
1.0
144
0.0
144
0.0
144
0.0
144
0.0
144
1.0
147
0.0208333333333333
147
0.0
147
0.0
147
0.0
147
0.0
147
0.0208333333333333
147
0.0
147
0.0
147
0.0
147
0.0
147
1.0
147
0.0
147
0.0
147
0.0
147
0.0
147
1.0
  0
MATERIAL
  5
11
102
{ACAD_XDICTIONARY
360
12
102
}
102
{ACAD_REACTORS
330
10
102
}
330
10
100
AcDbMaterial
  1
ByLayer
 72
     0
 43
0.0208333333333333
 43
0.0
 43
0.0
 43
0.0
 43
0.0
 43
0.0208333333333333
 43
0.0
 43
0.0
 43
0.0
 43
0.0
 43
1.0
 43
0.0
 43
0.0
 43
0.0
 43
0.0
 43
1.0
 77
     0
 47
0.0208333333333333
 47
0.0
 47
0.0
 47
0.0
 47
0.0
 47
0.0208333333333333
 47
0.0
 47
0.0
 47
0.0
 47
0.0
 47
1.0
 47
0.0
 47
0.0
 47
0.0
 47
0.0
 47
1.0
171
     0
 49
0.0208333333333333
 49
0.0
 49
0.0
 49
0.0
 49
0.0
 49
0.0208333333333333
 49
0.0
 49
0.0
 49
0.0
 49
0.0
 49
1.0
 49
0.0
 49
0.0
 49
0.0
 49
0.0
 49
1.0
175
     0
142
0.0208333333333333
142
0.0
142
0.0
142
0.0
142
0.0
142
0.0208333333333333
142
0.0
142
0.0
142
0.0
142
0.0
142
1.0
142
0.0
142
0.0
142
0.0
142
0.0
142
1.0
179
     0
144
0.0208333333333333
144
0.0
144
0.0
144
0.0
144
0.0
144
0.0208333333333333
144
0.0
144
0.0
144
0.0
144
0.0
144
1.0
144
0.0
144
0.0
144
0.0
144
0.0
144
1.0
147
0.0208333333333333
147
0.0
147
0.0
147
0.0
147
0.0
147
0.0208333333333333
147
0.0
147
0.0
147
0.0
147
0.0
147
1.0
147
0.0
147
0.0
147
0.0
147
0.0
147
1.0
  0
MATERIAL
  5
21
102
{ACAD_XDICTIONARY
360
22
102
}
102
{ACAD_REACTORS
330
10
102
}
330
10
100
AcDbMaterial
  1
Global
 72
     0
 43
0.0208333333333333
 43
0.0
 43
0.0
 43
0.0
 43
0.0
 43
0.0208333333333333
 43
0.0
 43
0.0
 43
0.0
 43
0.0
 43
1.0
 43
0.0
 43
0.0
 43
0.0
 43
0.0
 43
1.0
 77
     0
 47
0.0208333333333333
 47
0.0
 47
0.0
 47
0.0
 47
0.0
 47
0.0208333333333333
 47
0.0
 47
0.0
 47
0.0
 47
0.0
 47
1.0
 47
0.0
 47
0.0
 47
0.0
 47
0.0
 47
1.0
171
     0
 49
0.0208333333333333
 49
0.0
 49
0.0
 49
0.0
 49
0.0
 49
0.0208333333333333
 49
0.0
 49
0.0
 49
0.0
 49
0.0
 49
1.0
 49
0.0
 49
0.0
 49
0.0
 49
0.0
 49
1.0
175
     0
142
0.0208333333333333
142
0.0
142
0.0
142
0.0
142
0.0
142
0.0208333333333333
142
0.0
142
0.0
142
0.0
142
0.0
142
1.0
142
0.0
142
0.0
142
0.0
142
0.0
142
1.0
179
     0
144
0.0208333333333333
144
0.0
144
0.0
144
0.0
144
0.0
144
0.0208333333333333
144
0.0
144
0.0
144
0.0
144
0.0
144
1.0
144
0.0
144
0.0
144
0.0
144
0.0
144
1.0
147
0.0208333333333333
147
0.0
147
0.0
147
0.0
147
0.0
147
0.0208333333333333
147
0.0
147
0.0
147
0.0
147
0.0
147
1.0
147
0.0
147
0.0
147
0.0
147
0.0
147
1.0
  0
MLEADERSTYLE
  5
67
102
{ACAD_REACTORS
330
66
102
}
330
66
100
AcDbMLeaderStyle
179
     2
170
     2
171
     1
172
     0
 90
        2
 40
0.0
 41
0.0
173
     1
 91
-1056964608
340
5B
 92
       -2
290
     1
 42
0.09
291
     1
 43
0.36
  3
Standard
 44
0.18
300

342
55
174
     1
178
     6
175
     1
176
     0
 93
-1056964608
 45
0.18
292
     0
297
     0
 46
0.18
 94
-1056964608
 47
1.0
 49
1.0
140
1.0
293
     1
141
0.0
294
     1
177
     0
142
1.0
295
     1
296
     0
143
0.125
271
     0
272
     9
273
     9
298
     1
  0
MLINESTYLE
  5
60
102
{ACAD_REACTORS
330
5F
102
}
330
5F
100
AcDbMlineStyle
  2
STANDARD
 70
     0
  3

 62
   256
 51
90.0
 52
90.0
 71
     2
 49
0.5
 62
   256
  6
BYLAYER
 49
-0.5
 62
   256
  6
BYLAYER
  0
ACDBPLACEHOLDER
  5
F
102
{ACAD_REACTORS
330
E
102
}
330
E
  0
SCALE
  5
43
102
{ACAD_REACTORS
330
42
102
}
330
42
100
AcDbScale
 70
     0
300
1:1
140
1.0
141
1.0
290
     1
  0
SCALE
  5
44
102
{ACAD_REACTORS
330
42
102
}
330
42
100
AcDbScale
 70
     0
300
1/128" = 1'-0"
140
0.0078125
141
12.0
290
     0
  0
SCALE
  5
45
102
{ACAD_REACTORS
330
42
102
}
330
42
100
AcDbScale
 70
     0
300
1/64" = 1'-0"
140
0.015625
141
12.0
290
     0
  0
SCALE
  5
46
102
{ACAD_REACTORS
330
42
102
}
330
42
100
AcDbScale
 70
     0
300
1/32" = 1'-0"
140
0.03125
141
12.0
290
     0
  0
SCALE
  5
47
102
{ACAD_REACTORS
330
42
102
}
330
42
100
AcDbScale
 70
     0
300
1/16" = 1'-0"
140
0.0625
141
12.0
290
     0
  0
SCALE
  5
48
102
{ACAD_REACTORS
330
42
102
}
330
42
100
AcDbScale
 70
     0
300
3/32" = 1'-0"
140
0.09375
141
12.0
290
     0
  0
SCALE
  5
49
102
{ACAD_REACTORS
330
42
102
}
330
42
100
AcDbScale
 70
     0
300
1/8" = 1'-0"
140
0.125
141
12.0
290
     0
  0
SCALE
  5
4A
102
{ACAD_REACTORS
330
42
102
}
330
42
100
AcDbScale
 70
     0
300
3/16" = 1'-0"
140
0.1875
141
12.0
290
     0
  0
SCALE
  5
4B
102
{ACAD_REACTORS
330
42
102
}
330
42
100
AcDbScale
 70
     0
300
1/4" = 1'-0"
140
0.25
141
12.0
290
     0
  0
SCALE
  5
4C
102
{ACAD_REACTORS
330
42
102
}
330
42
100
AcDbScale
 70
     0
300
3/8" = 1'-0"
140
0.375
141
12.0
290
     0
  0
SCALE
  5
4D
102
{ACAD_REACTORS
330
42
102
}
330
42
100
AcDbScale
 70
     0
300
1/2" = 1'-0"
140
0.5
141
12.0
290
     0
  0
SCALE
  5
4E
102
{ACAD_REACTORS
330
42
102
}
330
42
100
AcDbScale
 70
     0
300
3/4" = 1'-0"
140
0.75
141
12.0
290
     0
  0
SCALE
  5
4F
102
{ACAD_REACTORS
330
42
102
}
330
42
100
AcDbScale
 70
     0
300
1" = 1'-0"
140
1.0
141
12.0
290
     0
  0
SCALE
  5
50
102
{ACAD_REACTORS
330
42
102
}
330
42
100
AcDbScale
 70
     0
300
1-1/2" = 1'-0"
140
1.5
141
12.0
290
     0
  0
SCALE
  5
51
102
{ACAD_REACTORS
330
42
102
}
330
42
100
AcDbScale
 70
     0
300
3" = 1'-0"
140
3.0
141
12.0
290
     0
  0
SCALE
  5
52
102
{ACAD_REACTORS
330
42
102
}
330
42
100
AcDbScale
 70
     0
300
6" = 1'-0"
140
6.0
141
12.0
290
     0
  0
SCALE
  5
53
102
{ACAD_REACTORS
330
42
102
}
330
42
100
AcDbScale
 70
     0
300
1'-0" = 1'-0"
140
12.0
141
12.0
290
     0
  0
ACDBSECTIONVIEWSTYLE
  5
69
102
{ACAD_REACTORS
330
68
102
}
330
68
100
AcDbModelDocViewStyle
 70
     0
  3
Imperial24
290
     1
300
Imperial24
 90
        0
100
AcDbSectionViewStyle
 70
     0
 71
     0
 90
       78
 71
     1
340
55
 62
   256
 40
0.24
340
0
340
0
 62
   256
 40
0.24
300
I, O, Q, S, X, Z
 40
0.48
 90
        3
 40
0.18
 90
        1
 71
     2
340
5D
 90
       25
 62
   256
340
5D
 90
       50
 62
   256
 40
0.24
 40
0.0
 40
0.24
 71
     3
340
55
 62
   256
 40
0.24
 90
        1
 40
0.75
 90
        1
300
%<\AcVar ViewType \f "%tc1">% %<\AcVar ViewSectionStartId>%-%<\AcVar ViewSectionEndId>%\PSCALE %<\AcVar ViewScale \f "%sn">%
 71
     4
 62
   256
 62
   257
300
ANSI31
 40
1.0
 90
        0
290
     0
290
     0
 90
        6
 40
0.0
 40
1.570796326794896
 40
0.2617993877991494
 40
1.308996938995747
 40
-0.2617993877991494
 40
1.832595714594046
  0
TABLESTYLE
  5
65
102
{ACAD_XDICTIONARY
360
11D
102
}
102
{ACAD_REACTORS
330
64
102
}
330
64
100
AcDbTableStyle
280
     0
  3
Standard
 70
     0
 71
     0
 40
0.06
 41
0.06
280
     0
281
     0
  7
Standard
140
0.18
170
     2
 62
     0
 63
     7
283
     0
 90
      512
 91
        0
  1

274
    -2
284
     1
 64
     0
275
    -2
285
     1
 65
     0
276
    -2
286
     1
 66
     0
277
    -2
287
     1
 67
     0
278
    -2
288
     1
 68
     0
279
    -2
289
     1
 69
     0
  7
Standard
140
0.25
170
     5
 62
     0
 63
     7
283
     0
 90
      512
 91
        0
  1

274
    -2
284
     1
 64
     0
275
    -2
285
     1
 65
     0
276
    -2
286
     1
 66
     0
277
    -2
287
     1
 67
     0
278
    -2
288
     1
 68
     0
279
    -2
289
     1
 69
     0
  7
Standard
140
0.18
170
     5
 62
     0
 63
     7
283
     0
 90
      512
 91
        0
  1

274
    -2
284
     1
 64
     0
275
    -2
285
     1
 65
     0
276
    -2
286
     1
 66
     0
277
    -2
287
     1
 67
     0
278
    -2
288
     1
 68
     0
279
    -2
289
     1
 69
     0
  0
VISUALSTYLE
  5
2F
102
{ACAD_REACTORS
330
29
102
}
330
29
100
AcDbVisualStyle
  2
2dWireframe
 70
     4
177
     3
291
     0
 70
    58
 90
        0
176
     1
 90
        2
176
     1
 90
        0
176
     1
 90
        0
176
     1
 40
0.6
176
     1
 40
30.0
176
     1
 62
     7
420
 16777215
176
     1
 90
        1
176
     1
 90
        4
176
     1
 62
     7
176
     1
 62
   257
176
     1
 90
        1
176
     1
 90
        1
176
     1
 40
1.0
176
     1
 90
        0
176
     1
 62
   257
176
     1
 40
1.0
176
     1
 90
        1
176
     1
 90
        6
176
     1
 90
        2
176
     1
 62
     7
176
     1
 90
        5
176
     1
 90
        0
176
     1
 90
        0
176
     1
290
     0
176
     1
 90
        1
176
     1
 40
0.0
176
     1
 90
        0
176
     1
290
     1
176
     1
290
     1
176
     1
290
     0
176
     1
290
     0
176
     1
290
     0
176
     1
290
     0
176
     1
290
     0
176
     1
290
     0
176
     1
290
     0
176
     1
 90
       50
176
     1
 40
0.0
176
     1
 40
1.0
176
     1
 90
        0
176
     1
 62
    18
420
        0
176
     1
 90
       50
176
     1
 90
        3
176
     1
 62
     5
420
      255
176
     1
290
     0
176
     1
 90
       50
176
     1
 90
       50
176
     1
 90
       50
176
     1
290
     0
176
     1
 90
       50
176
     1
 62
   256
176
     0
 40
1.0
176
     0
 90
        2
176
     1
  1
strokes_ogs.tif
176
     1
290
     0
176
     1
 40
1.0
176
     1
 40
1.0
176
     1
  0
VISUALSTYLE
  5
2E
102
{ACAD_REACTORS
330
29
102
}
330
29
100
AcDbVisualStyle
  2
Basic
 70
     7
177
     3
291
     1
 70
    58
 90
        1
176
     1
 90
        0
176
     1
 90
        1
176
     1
 90
        0
176
     1
 40
0.6
176
     1
 40
30.0
176
     1
 62
     7
420
 16777215
176
     1
 90
        0
176
     1
 90
        4
176
     1
 62
     7
176
     1
 62
   257
176
     1
 90
        1
176
     1
 90
        1
176
     1
 40
1.0
176
     1
 90
        8
176
     1
 62
     7
176
     1
 40
1.0
176
     1
 90
        1
176
     1
 90
        6
176
     1
 90
        2
176
     1
 62
     7
176
     1
 90
        5
176
     1
 90
        0
176
     1
 90
        0
176
     1
290
     0
176
     1
 90
        1
176
     1
 40
0.0
176
     1
 90
        0
176
     1
290
     0
176
     1
290
     1
176
     1
290
     1
176
     1
290
     0
176
     1
290
     0
176
     1
290
     0
176
     1
290
     0
176
     1
290
     0
176
     1
290
     0
176
     1
 90
       50
176
     1
 40
0.0
176
     1
 40
1.0
176
     1
 90
        0
176
     1
 62
    18
420
        0
176
     1
 90
       50
176
     1
 90
        3
176
     1
 62
     5
420
      255
176
     1
290
     0
176
     1
 90
       50
176
     1
 90
       50
176
     1
 90
       50
176
     1
290
     0
176
     1
 90
       50
176
     1
 62
   256
176
     0
 40
1.0
176
     0
 90
        2
176
     1
  1
strokes_ogs.tif
176
     1
290
     0
176
     1
 40
1.0
176
     1
 40
1.0
176
     1
  0
VISUALSTYLE
  5
35
102
{ACAD_REACTORS
330
29
102
}
330
29
100
AcDbVisualStyle
  2
Brighten
 70
    12
177
     3
291
     1
 70
    58
 90
        2
176
     1
 90
        2
176
     1
 90
        0
176
     1
 90
        0
176
     1
 40
0.6
176
     1
 40
30.0
176
     1
 62
     7
420
 16777215
176
     1
 90
        1
176
     1
 90
        4
176
     1
 62
     7
176
     1
 62
   257
176
     1
 90
        1
176
     1
 90
        1
176
     1
 40
1.0
176
     1
 90
        8
176
     1
 62
     7
176
     1
 40
1.0
176
     1
 90
        1
176
     1
 90
        6
176
     1
 90
        2
176
     1
 62
     7
176
     1
 90
        5
176
     1
 90
        0
176
     1
 90
        0
176
     1
290
     0
176
     1
 90
        1
176
     1
 40
50.0
176
     1
 90
        0
176
     1
290
     0
176
     1
290
     1
176
     1
290
     1
176
     1
290
     0
176
     1
290
     0
176
     1
290
     0
176
     1
290
     0
176
     1
290
     0
176
     1
290
     0
176
     1
 90
       50
176
     1
 40
0.0
176
     1
 40
1.0
176
     1
 90
        0
176
     1
 62
    18
420
        0
176
     1
 90
       50
176
     1
 90
        3
176
     1
 62
     5
420
      255
176
     1
290
     0
176
     1
 90
       50
176
     1
 90
       50
176
     1
 90
       50
176
     1
290
     0
176
     1
 90
       50
176
     1
 62
   256
176
     0
 40
1.0
176
     0
 90
        2
176
     1
  1
strokes_ogs.tif
176
     1
290
     0
176
     1
 40
1.0
176
     1
 40
1.0
176
     1
  0
VISUALSTYLE
  5
39
102
{ACAD_REACTORS
330
29
102
}
330
29
100
AcDbVisualStyle
  2
ColorChange
 70
    16
177
     3
291
     1
 70
    58
 90
        2
176
     1
 90
        2
176
     1
 90
        3
176
     1
 90
        0
176
     1
 40
0.6
176
     1
 40
30.0
176
     1
 62
     8
420
  8421504
176
     1
 90
        1
176
     1
 90
        4
176
     1
 62
     7
176
     1
 62
   257
176
     1
 90
        1
176
     1
 90
        1
176
     1
 40
1.0
176
     1
 90
        8
176
     1
 62
     8
420
  8421504
176
     1
 40
1.0
176
     1
 90
        1
176
     1
 90
        6
176
     1
 90
        2
176
     1
 62
     7
176
     1
 90
        5
176
     1
 90
        0
176
     1
 90
        0
176
     1
290
     0
176
     1
 90
        1
176
     1
 40
0.0
176
     1
 90
        0
176
     1
290
     0
176
     1
290
     1
176
     1
290
     1
176
     1
290
     0
176
     1
290
     0
176
     1
290
     0
176
     1
290
     0
176
     1
290
     0
176
     1
290
     0
176
     1
 90
       50
176
     1
 40
0.0
176
     1
 40
1.0
176
     1
 90
        0
176
     1
 62
    18
420
        0
176
     1
 90
       50
176
     1
 90
        3
176
     1
 62
     5
420
      255
176
     1
290
     0
176
     1
 90
       50
176
     1
 90
       50
176
     1
 90
       50
176
     1
290
     0
176
     1
 90
       50
176
     1
 62
   256
176
     0
 40
1.0
176
     0
 90
        2
176
     1
  1
strokes_ogs.tif
176
     1
290
     0
176
     1
 40
1.0
176
     1
 40
1.0
176
     1
  0
VISUALSTYLE
  5
32
102
{ACAD_REACTORS
330
29
102
}
330
29
100
AcDbVisualStyle
  2
Conceptual
 70
     9
177
     3
291
     0
 70
    58
 90
        3
176
     1
 90
        2
176
     1
 90
        0
176
     1
 90
        0
176
     1
 40
0.6
176
     1
 40
30.0
176
     1
 62
     7
420
 16777215
176
     1
 90
        2
176
     1
 90
        2
176
     1
 62
     7
176
     1
 62
   257
176
     1
 90
        1
176
     1
 90
        1
176
     1
 40
179.0
176
     1
 90
        8
176
     1
 62
     7
176
     1
 40
1.0
176
     1
 90
        1
176
     1
 90
        6
176
     1
 90
        2
176
     1
 62
     7
176
     1
 90
        3
176
     1
 90
        0
176
     1
 90
        0
176
     1
290
     0
176
     1
 90
        1
176
     1
 40
0.0
176
     1
 90
        0
176
     1
290
     0
176
     1
290
     1
176
     1
290
     1
176
     1
290
     0
176
     1
290
     0
176
     1
290
     0
176
     1
290
     0
176
     1
290
     0
176
     1
290
     0
176
     1
 90
       50
176
     1
 40
0.0
176
     1
 40
1.0
176
     1
 90
        0
176
     1
 62
    18
420
        0
176
     1
 90
       50
176
     1
 90
        3
176
     1
 62
     5
420
      255
176
     1
290
     0
176
     1
 90
       50
176
     1
 90
       50
176
     1
 90
       50
176
     1
290
     0
176
     1
 90
       50
176
     1
 62
   256
176
     0
 40
1.0
176
     0
 90
        2
176
     1
  1
strokes_ogs.tif
176
     1
290
     0
176
     1
 40
1.0
176
     1
 40
1.0
176
     1
  0
VISUALSTYLE
  5
34
102
{ACAD_REACTORS
330
29
102
}
330
29
100
AcDbVisualStyle
  2
Dim
 70
    11
177
     3
291
     1
 70
    58
 90
        2
176
     1
 90
        2
176
     1
 90
        0
176
     1
 90
        0
176
     1
 40
0.6
176
     1
 40
30.0
176
     1
 62
     7
420
 16777215
176
     1
 90
        1
176
     1
 90
        4
176
     1
 62
     7
176
     1
 62
   257
176
     1
 90
        1
176
     1
 90
        1
176
     1
 40
1.0
176
     1
 90
        8
176
     1
 62
     7
176
     1
 40
1.0
176
     1
 90
        1
176
     1
 90
        6
176
     1
 90
        2
176
     1
 62
     7
176
     1
 90
        5
176
     1
 90
        0
176
     1
 90
        0
176
     1
290
     0
176
     1
 90
        1
176
     1
 40
-50.0
176
     1
 90
        0
176
     1
290
     0
176
     1
290
     1
176
     1
290
     1
176
     1
290
     0
176
     1
290
     0
176
     1
290
     0
176
     1
290
     0
176
     1
290
     0
176
     1
290
     0
176
     1
 90
       50
176
     1
 40
0.0
176
     1
 40
1.0
176
     1
 90
        0
176
     1
 62
    18
420
        0
176
     1
 90
       50
176
     1
 90
        3
176
     1
 62
     5
420
      255
176
     1
290
     0
176
     1
 90
       50
176
     1
 90
       50
176
     1
 90
       50
176
     1
290
     0
176
     1
 90
       50
176
     1
 62
   256
176
     0
 40
1.0
176
     0
 90
        2
176
     1
  1
strokes_ogs.tif
176
     1
290
     0
176
     1
 40
1.0
176
     1
 40
1.0
176
     1
  0
VISUALSTYLE
  5
41
102
{ACAD_REACTORS
330
29
102
}
330
29
100
AcDbVisualStyle
  2
EdgeColorOff
 70
    22
177
     3
291
     1
 70
    58
 90
        2
176
     0
 90
        2
176
     0
 90
        0
176
     0
 90
        0
176
     0
 40
0.6
176
     0
 40
30.0
176
     0
 62
     7
420
 16777215
176
     0
 90
        1
176
     0
 90
        4
176
     0
 62
     7
176
     0
 62
   257
176
     0
 90
        1
176
     0
 90
        1
176
     0
 40
1.0
176
     0
 90
        8
176
     2
 62
     7
176
     0
 40
1.0
176
     0
 90
        1
176
     0
 90
        6
176
     0
 90
        2
176
     0
 62
     7
176
     0
 90
        5
176
     0
 90
        0
176
     0
 90
        0
176
     0
290
     0
176
     0
 90
        1
176
     0
 40
0.0
176
     0
 90
        0
176
     0
290
     0
176
     0
290
     1
176
     0
290
     1
176
     0
290
     0
176
     0
290
     0
176
     0
290
     0
176
     0
290
     0
176
     0
290
     0
176
     0
290
     0
176
     0
 90
       50
176
     0
 40
0.0
176
     0
 40
1.0
176
     0
 90
        0
176
     0
 62
    18
420
        0
176
     0
 90
       50
176
     0
 90
        3
176
     0
 62
     5
420
      255
176
     0
290
     0
176
     0
 90
       50
176
     0
 90
       50
176
     0
 90
       50
176
     0
290
     0
176
     0
 90
       50
176
     0
 62
   256
176
     0
 40
1.0
176
     0
 90
        2
176
     0
  1
strokes_ogs.tif
176
     0
290
     0
176
     0
 40
1.0
176
     0
 40
1.0
176
     0
  0
VISUALSTYLE
  5
38
102
{ACAD_REACTORS
330
29
102
}
330
29
100
AcDbVisualStyle
  2
Facepattern
 70
    15
177
     3
291
     1
 70
    58
 90
        2
176
     1
 90
        2
176
     1
 90
        0
176
     1
 90
        0
176
     1
 40
0.6
176
     1
 40
30.0
176
     1
 62
     7
420
 16777215
176
     1
 90
        1
176
     1
 90
        4
176
     1
 62
     7
176
     1
 62
   257
176
     1
 90
        1
176
     1
 90
        1
176
     1
 40
1.0
176
     1
 90
        8
176
     1
 62
     7
176
     1
 40
1.0
176
     1
 90
        1
176
     1
 90
        6
176
     1
 90
        2
176
     1
 62
     7
176
     1
 90
        5
176
     1
 90
        0
176
     1
 90
        0
176
     1
290
     0
176
     1
 90
        1
176
     1
 40
0.0
176
     1
 90
        0
176
     1
290
     0
176
     1
290
     1
176
     1
290
     1
176
     1
290
     0
176
     1
290
     0
176
     1
290
     0
176
     1
290
     0
176
     1
290
     0
176
     1
290
     0
176
     1
 90
       50
176
     1
 40
0.0
176
     1
 40
1.0
176
     1
 90
        0
176
     1
 62
    18
420
        0
176
     1
 90
       50
176
     1
 90
        3
176
     1
 62
     5
420
      255
176
     1
290
     0
176
     1
 90
       50
176
     1
 90
       50
176
     1
 90
       50
176
     1
290
     0
176
     1
 90
       50
176
     1
 62
   256
176
     0
 40
1.0
176
     0
 90
        2
176
     1
  1
strokes_ogs.tif
176
     1
290
     0
176
     1
 40
1.0
176
     1
 40
1.0
176
     1
  0
VISUALSTYLE
  5
2A
102
{ACAD_REACTORS
330
29
102
}
330
29
100
AcDbVisualStyle
  2
Flat
 70
     0
177
     3
291
     1
 70
    58
 90
        2
176
     1
 90
        1
176
     1
 90
        1
176
     1
 90
        2
176
     1
 40
0.6
176
     1
 40
30.0
176
     1
 62
     7
420
 16777215
176
     1
 90
        0
176
     1
 90
        0
176
     1
 62
     7
176
     1
 62
   257
176
     1
 90
        1
176
     1
 90
        1
176
     1
 40
1.0
176
     1
 90
        8
176
     1
 62
     7
176
     1
 40
1.0
176
     1
 90
        1
176
     1
 90
        6
176
     1
 90
        2
176
     1
 62
     7
176
     1
 90
        5
176
     1
 90
        0
176
     1
 90
        0
176
     1
290
     0
176
     1
 90
       13
176
     1
 40
0.0
176
     1
 90
        0
176
     1
290
     0
176
     1
290
     1
176
     1
290
     1
176
     1
290
     0
176
     1
290
     0
176
     1
290
     0
176
     1
290
     0
176
     1
290
     0
176
     1
290
     0
176
     1
 90
       50
176
     1
 40
0.0
176
     1
 40
1.0
176
     1
 90
        0
176
     1
 62
    18
420
        0
176
     1
 90
       50
176
     1
 90
        3
176
     1
 62
     5
420
      255
176
     1
290
     0
176
     1
 90
       50
176
     1
 90
       50
176
     1
 90
       50
176
     1
290
     0
176
     1
 90
       50
176
     1
 62
   256
176
     0
 40
1.0
176
     0
 90
        2
176
     1
  1
strokes_ogs.tif
176
     1
290
     0
176
     1
 40
1.0
176
     1
 40
1.0
176
     1
  0
VISUALSTYLE
  5
2B
102
{ACAD_REACTORS
330
29
102
}
330
29
100
AcDbVisualStyle
  2
FlatWithEdges
 70
     1
177
     3
291
     1
 70
    58
 90
        2
176
     1
 90
        1
176
     1
 90
        1
176
     1
 90
        2
176
     1
 40
0.6
176
     1
 40
30.0
176
     1
 62
     7
420
 16777215
176
     1
 90
        1
176
     1
 90
        0
176
     1
 62
     7
176
     1
 62
   257
176
     1
 90
        1
176
     1
 90
        1
176
     1
 40
1.0
176
     1
 90
        0
176
     1
 62
   257
176
     1
 40
1.0
176
     1
 90
        1
176
     1
 90
        6
176
     1
 90
        2
176
     1
 62
     7
176
     1
 90
        5
176
     1
 90
        0
176
     1
 90
        0
176
     1
290
     0
176
     1
 90
       13
176
     1
 40
0.0
176
     1
 90
        0
176
     1
290
     0
176
     1
290
     1
176
     1
290
     1
176
     1
290
     0
176
     1
290
     0
176
     1
290
     0
176
     1
290
     0
176
     1
290
     0
176
     1
290
     0
176
     1
 90
       50
176
     1
 40
0.0
176
     1
 40
1.0
176
     1
 90
        0
176
     1
 62
    18
420
        0
176
     1
 90
       50
176
     1
 90
        3
176
     1
 62
     5
420
      255
176
     1
290
     0
176
     1
 90
       50
176
     1
 90
       50
176
     1
 90
       50
176
     1
290
     0
176
     1
 90
       50
176
     1
 62
   256
176
     0
 40
1.0
176
     0
 90
        2
176
     1
  1
strokes_ogs.tif
176
     1
290
     0
176
     1
 40
1.0
176
     1
 40
1.0
176
     1
  0
VISUALSTYLE
  5
2C
102
{ACAD_REACTORS
330
29
102
}
330
29
100
AcDbVisualStyle
  2
Gouraud
 70
     2
177
     3
291
     1
 70
    58
 90
        2
176
     1
 90
        2
176
     1
 90
        1
176
     1
 90
        2
176
     1
 40
0.6
176
     1
 40
30.0
176
     1
 62
     7
420
 16777215
176
     1
 90
        0
176
     1
 90
        0
176
     1
 62
     7
176
     1
 62
   257
176
     1
 90
        1
176
     1
 90
        1
176
     1
 40
1.0
176
     1
 90
        0
176
     1
 62
     7
176
     1
 40
1.0
176
     1
 90
        1
176
     1
 90
        6
176
     1
 90
        2
176
     1
 62
     7
176
     1
 90
        5
176
     1
 90
        0
176
     1
 90
        0
176
     1
290
     0
176
     1
 90
       13
176
     1
 40
0.0
176
     1
 90
        0
176
     1
290
     0
176
     1
290
     1
176
     1
290
     1
176
     1
290
     0
176
     1
290
     0
176
     1
290
     0
176
     1
290
     0
176
     1
290
     0
176
     1
290
     0
176
     1
 90
       50
176
     1
 40
0.0
176
     1
 40
1.0
176
     1
 90
        0
176
     1
 62
    18
420
        0
176
     1
 90
       50
176
     1
 90
        3
176
     1
 62
     5
420
      255
176
     1
290
     0
176
     1
 90
       50
176
     1
 90
       50
176
     1
 90
       50
176
     1
290
     0
176
     1
 90
       50
176
     1
 62
   256
176
     0
 40
1.0
176
     0
 90
        2
176
     1
  1
strokes_ogs.tif
176
     1
290
     0
176
     1
 40
1.0
176
     1
 40
1.0
176
     1
  0
VISUALSTYLE
  5
2D
102
{ACAD_REACTORS
330
29
102
}
330
29
100
AcDbVisualStyle
  2
GouraudWithEdges
 70
     3
177
     3
291
     1
 70
    58
 90
        2
176
     1
 90
        2
176
     1
 90
        1
176
     1
 90
        2
176
     1
 40
0.6
176
     1
 40
30.0
176
     1
 62
     7
420
 16777215
176
     1
 90
        1
176
     1
 90
        0
176
     1
 62
     7
176
     1
 62
   257
176
     1
 90
        1
176
     1
 90
        1
176
     1
 40
1.0
176
     1
 90
        0
176
     1
 62
   257
176
     1
 40
1.0
176
     1
 90
        1
176
     1
 90
        6
176
     1
 90
        2
176
     1
 62
     7
176
     1
 90
        5
176
     1
 90
        0
176
     1
 90
        0
176
     1
290
     0
176
     1
 90
       13
176
     1
 40
0.0
176
     1
 90
        0
176
     1
290
     0
176
     1
290
     1
176
     1
290
     1
176
     1
290
     0
176
     1
290
     0
176
     1
290
     0
176
     1
290
     0
176
     1
290
     0
176
     1
290
     0
176
     1
 90
       50
176
     1
 40
0.0
176
     1
 40
1.0
176
     1
 90
        0
176
     1
 62
    18
420
        0
176
     1
 90
       50
176
     1
 90
        3
176
     1
 62
     5
420
      255
176
     1
290
     0
176
     1
 90
       50
176
     1
 90
       50
176
     1
 90
       50
176
     1
290
     0
176
     1
 90
       50
176
     1
 62
   256
176
     0
 40
1.0
176
     0
 90
        2
176
     1
  1
strokes_ogs.tif
176
     1
290
     0
176
     1
 40
1.0
176
     1
 40
1.0
176
     1
  0
VISUALSTYLE
  5
31
102
{ACAD_REACTORS
330
29
102
}
330
29
100
AcDbVisualStyle
  2
Hidden
 70
     6
177
     3
291
     0
 70
    58
 90
        1
176
     1
 90
        2
176
     1
 90
        2
176
     1
 90
        0
176
     1
 40
0.6
176
     1
 40
30.0
176
     1
 62
     7
420
 16777215
176
     1
 90
        2
176
     1
 90
        2
176
     1
 62
     7
176
     1
 62
   257
176
     1
 90
        2
176
     1
 90
        1
176
     1
 40
40.0
176
     1
 90
        0
176
     1
 62
   257
176
     1
 40
1.0
176
     1
 90
        1
176
     1
 90
        6
176
     1
 90
        2
176
     1
 62
     7
176
     1
 90
        3
176
     1
 90
        0
176
     1
 90
        0
176
     1
290
     0
176
     1
 90
        1
176
     1
 40
0.0
176
     1
 90
        0
176
     1
290
     0
176
     1
290
     1
176
     1
290
     1
176
     1
290
     0
176
     1
290
     0
176
     1
290
     0
176
     1
290
     0
176
     1
290
     0
176
     1
290
     0
176
     1
 90
       50
176
     1
 40
0.0
176
     1
 40
1.0
176
     1
 90
        0
176
     1
 62
    18
420
        0
176
     1
 90
       50
176
     1
 90
        3
176
     1
 62
     5
420
      255
176
     1
290
     0
176
     1
 90
       50
176
     1
 90
       50
176
     1
 90
       50
176
     1
290
     0
176
     1
 90
       50
176
     1
 62
   256
176
     0
 40
1.0
176
     0
 90
        2
176
     1
  1
strokes_ogs.tif
176
     1
290
     0
176
     1
 40
1.0
176
     1
 40
1.0
176
     1
  0
VISUALSTYLE
  5
3F
102
{ACAD_REACTORS
330
29
102
}
330
29
100
AcDbVisualStyle
  2
JitterOff
 70
    20
177
     3
291
     1
 70
    58
 90
        2
176
     0
 90
        2
176
     0
 90
        0
176
     0
 90
        0
176
     0
 40
0.6
176
     0
 40
30.0
176
     0
 62
     7
420
 16777215
176
     0
 90
        1
176
     0
 90
        4
176
     0
 62
     7
176
     0
 62
   257
176
     0
 90
        1
176
     0
 90
        1
176
     0
 40
1.0
176
     0
 90
       10
176
     2
 62
     7
176
     0
 40
1.0
176
     0
 90
        1
176
     0
 90
        6
176
     0
 90
        2
176
     0
 62
     7
176
     0
 90
        5
176
     0
 90
        0
176
     0
 90
        0
176
     0
290
     0
176
     0
 90
        1
176
     0
 40
0.0
176
     0
 90
        0
176
     0
290
     0
176
     0
290
     1
176
     0
290
     1
176
     0
290
     0
176
     0
290
     0
176
     0
290
     0
176
     0
290
     0
176
     0
290
     0
176
     0
290
     0
176
     0
 90
       50
176
     0
 40
0.0
176
     0
 40
1.0
176
     0
 90
        0
176
     0
 62
    18
420
        0
176
     0
 90
       50
176
     0
 90
        3
176
     0
 62
     5
420
      255
176
     0
290
     0
176
     0
 90
       50
176
     0
 90
       50
176
     0
 90
       50
176
     0
290
     0
176
     0
 90
       50
176
     0
 62
   256
176
     0
 40
1.0
176
     0
 90
        2
176
     0
  1
strokes_ogs.tif
176
     0
290
     0
176
     0
 40
1.0
176
     0
 40
1.0
176
     0
  0
VISUALSTYLE
  5
37
102
{ACAD_REACTORS
330
29
102
}
330
29
100
AcDbVisualStyle
  2
Linepattern
 70
    14
177
     3
291
     1
 70
    58
 90
        2
176
     1
 90
        2
176
     1
 90
        0
176
     1
 90
        0
176
     1
 40
0.6
176
     1
 40
30.0
176
     1
 62
     7
420
 16777215
176
     1
 90
        1
176
     1
 90
        4
176
     1
 62
     7
176
     1
 62
   257
176
     1
 90
        7
176
     1
 90
        7
176
     1
 40
1.0
176
     1
 90
        8
176
     1
 62
     7
176
     1
 40
1.0
176
     1
 90
        1
176
     1
 90
        6
176
     1
 90
        2
176
     1
 62
     7
176
     1
 90
        5
176
     1
 90
        0
176
     1
 90
        0
176
     1
290
     0
176
     1
 90
        1
176
     1
 40
0.0
176
     1
 90
        0
176
     1
290
     0
176
     1
290
     1
176
     1
290
     1
176
     1
290
     0
176
     1
290
     0
176
     1
290
     0
176
     1
290
     0
176
     1
290
     0
176
     1
290
     0
176
     1
 90
       50
176
     1
 40
0.0
176
     1
 40
1.0
176
     1
 90
        0
176
     1
 62
    18
420
        0
176
     1
 90
       50
176
     1
 90
        3
176
     1
 62
     5
420
      255
176
     1
290
     0
176
     1
 90
       50
176
     1
 90
       50
176
     1
 90
       50
176
     1
290
     0
176
     1
 90
       50
176
     1
 62
   256
176
     0
 40
1.0
176
     0
 90
        2
176
     1
  1
strokes_ogs.tif
176
     1
290
     0
176
     1
 40
1.0
176
     1
 40
1.0
176
     1
  0
VISUALSTYLE
  5
40
102
{ACAD_REACTORS
330
29
102
}
330
29
100
AcDbVisualStyle
  2
OverhangOff
 70
    21
177
     3
291
     1
 70
    58
 90
        2
176
     0
 90
        2
176
     0
 90
        0
176
     0
 90
        0
176
     0
 40
0.6
176
     0
 40
30.0
176
     0
 62
     7
420
 16777215
176
     0
 90
        1
176
     0
 90
        4
176
     0
 62
     7
176
     0
 62
   257
176
     0
 90
        1
176
     0
 90
        1
176
     0
 40
1.0
176
     0
 90
        9
176
     2
 62
     7
176
     0
 40
1.0
176
     0
 90
        1
176
     0
 90
        6
176
     0
 90
        2
176
     0
 62
     7
176
     0
 90
        5
176
     0
 90
        0
176
     0
 90
        0
176
     0
290
     0
176
     0
 90
        1
176
     0
 40
0.0
176
     0
 90
        0
176
     0
290
     0
176
     0
290
     1
176
     0
290
     1
176
     0
290
     0
176
     0
290
     0
176
     0
290
     0
176
     0
290
     0
176
     0
290
     0
176
     0
290
     0
176
     0
 90
       50
176
     0
 40
0.0
176
     0
 40
1.0
176
     0
 90
        0
176
     0
 62
    18
420
        0
176
     0
 90
       50
176
     0
 90
        3
176
     0
 62
     5
420
      255
176
     0
290
     0
176
     0
 90
       50
176
     0
 90
       50
176
     0
 90
       50
176
     0
290
     0
176
     0
 90
       50
176
     0
 62
   256
176
     0
 40
1.0
176
     0
 90
        2
176
     0
  1
strokes_ogs.tif
176
     0
290
     0
176
     0
 40
1.0
176
     0
 40
1.0
176
     0
  0
VISUALSTYLE
  5
33
102
{ACAD_REACTORS
330
29
102
}
330
29
100
AcDbVisualStyle
  2
Realistic
 70
     8
177
     3
291
     0
 70
    58
 90
        2
176
     1
 90
        3
176
     1
 90
        0
176
     1
 90
        2
176
     1
 40
0.6
176
     1
 40
30.0
176
     1
 62
     7
420
 16777215
176
     1
 90
        0
176
     1
 90
        0
176
     1
 62
     7
176
     1
 62
   257
176
     1
 90
        1
176
     1
 90
        1
176
     1
 40
1.0
176
     1
 90
        8
176
     1
 62
   257
176
     1
 40
1.0
176
     1
 90
        1
176
     1
 90
        6
176
     1
 90
        2
176
     1
 62
     7
176
     1
 90
        3
176
     1
 90
        0
176
     1
 90
        0
176
     1
290
     0
176
     1
 90
       13
176
     1
 40
0.0
176
     1
 90
        0
176
     1
290
     0
176
     1
290
     1
176
     1
290
     1
176
     1
290
     0
176
     1
290
     0
176
     1
290
     0
176
     1
290
     0
176
     1
290
     0
176
     1
290
     0
176
     1
 90
       50
176
     1
 40
0.0
176
     1
 40
1.0
176
     1
 90
        0
176
     1
 62
    18
420
        0
176
     1
 90
       50
176
     1
 90
        3
176
     1
 62
     5
420
      255
176
     1
290
     0
176
     1
 90
       50
176
     1
 90
       50
176
     1
 90
       50
176
     1
290
     0
176
     1
 90
       50
176
     1
 62
   256
176
     0
 40
1.0
176
     0
 90
        2
176
     1
  1
strokes_ogs.tif
176
     1
290
     0
176
     1
 40
1.0
176
     1
 40
1.0
176
     1
  0
VISUALSTYLE
  5
3E
102
{ACAD_REACTORS
330
29
102
}
330
29
100
AcDbVisualStyle
  2
Shaded
 70
    27
177
     3
291
     0
 70
    58
 90
        2
176
     1
 90
        2
176
     1
 90
        1
176
     1
 90
        2
176
     1
 40
0.6
176
     1
 40
30.0
176
     1
 62
     7
420
 16777215
176
     1
 90
        0
176
     1
 90
        4
176
     1
 62
     7
176
     1
 62
   257
176
     1
 90
        1
176
     1
 90
        1
176
     1
 40
1.0
176
     1
 90
        8
176
     1
 62
   257
176
     1
 40
1.0
176
     1
 90
        1
176
     1
 90
        6
176
     1
 90
        2
176
     1
 62
     8
420
  7895160
176
     1
 90
        3
176
     1
 90
        0
176
     1
 90
        0
176
     1
290
     0
176
     1
 90
        5
176
     1
 40
0.0
176
     1
 90
        0
176
     1
290
     0
176
     1
290
     1
176
     1
290
     1
176
     1
290
     0
176
     1
290
     0
176
     1
290
     0
176
     1
290
     0
176
     1
290
     0
176
     1
290
     0
176
     1
 90
       50
176
     1
 40
0.0
176
     1
 40
1.0
176
     1
 90
        0
176
     1
 62
    18
420
        0
176
     1
 90
       50
176
     1
 90
        3
176
     1
 62
     5
420
      255
176
     1
290
     0
176
     1
 90
       50
176
     1
 90
       50
176
     1
 90
       50
176
     1
290
     0
176
     1
 90
       50
176
     1
 62
   256
176
     0
 40
1.0
176
     0
 90
        2
176
     1
  1
strokes_ogs.tif
176
     1
290
     0
176
     1
 40
1.0
176
     1
 40
1.0
176
     1
  0
VISUALSTYLE
  5
3D
102
{ACAD_REACTORS
330
29
102
}
330
29
100
AcDbVisualStyle
  2
Shaded with edges
 70
    26
177
     3
291
     0
 70
    58
 90
        2
176
     1
 90
        2
176
     1
 90
        1
176
     1
 90
        2
176
     1
 40
0.6
176
     1
 40
30.0
176
     1
 62
     7
420
 16777215
176
     1
 90
        1
176
     1
 90
        2
176
     1
 62
     7
176
     1
 62
   257
176
     1
 90
        2
176
     1
 90
        1
176
     1
 40
1.0
176
     1
 90
        8
176
     1
 62
   257
176
     1
 40
1.0
176
     1
 90
        1
176
     1
 90
        6
176
     1
 90
        2
176
     1
 62
     7
176
     1
 90
        3
176
     1
 90
        0
176
     1
 90
        0
176
     1
290
     0
176
     1
 90
        5
176
     1
 40
0.0
176
     1
 90
        0
176
     1
290
     0
176
     1
290
     1
176
     1
290
     1
176
     1
290
     0
176
     1
290
     0
176
     1
290
     0
176
     1
290
     0
176
     1
290
     0
176
     1
290
     0
176
     1
 90
       50
176
     1
 40
0.0
176
     1
 40
1.0
176
     1
 90
        0
176
     1
 62
    18
420
        0
176
     1
 90
       50
176
     1
 90
        3
176
     1
 62
     5
420
      255
176
     1
290
     0
176
     1
 90
       50
176
     1
 90
       50
176
     1
 90
       50
176
     1
290
     0
176
     1
 90
       50
176
     1
 62
   256
176
     0
 40
1.0
176
     0
 90
        2
176
     1
  1
strokes_ogs.tif
176
     1
290
     0
176
     1
 40
1.0
176
     1
 40
1.0
176
     1
  0
VISUALSTYLE
  5
3A
102
{ACAD_REACTORS
330
29
102
}
330
29
100
AcDbVisualStyle
  2
Shades of Gray
 70
    23
177
     3
291
     0
 70
    58
 90
        2
176
     1
 90
        2
176
     1
 90
        3
176
     1
 90
        0
176
     1
 40
0.6
176
     1
 40
30.0
176
     1
 62
     7
420
 16777215
176
     1
 90
        2
176
     1
 90
        2
176
     1
 62
     7
176
     1
 62
     7
176
     1
 90
        1
176
     1
 90
        1
176
     1
 40
40.0
176
     1
 90
        8
176
     1
 62
     7
176
     1
 40
1.0
176
     1
 90
        1
176
     1
 90
        6
176
     1
 90
        2
176
     1
 62
     7
176
     1
 90
        3
176
     1
 90
        0
176
     1
 90
        0
176
     1
290
     0
176
     1
 90
        1
176
     1
 40
0.0
176
     1
 90
        0
176
     1
290
     0
176
     1
290
     1
176
     1
290
     1
176
     1
290
     0
176
     1
290
     0
176
     1
290
     0
176
     1
290
     0
176
     1
290
     0
176
     1
290
     0
176
     1
 90
       50
176
     1
 40
0.0
176
     1
 40
1.0
176
     1
 90
        0
176
     1
 62
    18
420
        0
176
     1
 90
       50
176
     1
 90
        3
176
     1
 62
     5
420
      255
176
     1
290
     0
176
     1
 90
       50
176
     1
 90
       50
176
     1
 90
       50
176
     1
290
     0
176
     1
 90
       50
176
     1
 62
   256
176
     0
 40
1.0
176
     0
 90
        2
176
     1
  1
strokes_ogs.tif
176
     1
290
     0
176
     1
 40
1.0
176
     1
 40
1.0
176
     1
  0
VISUALSTYLE
  5
3B
102
{ACAD_REACTORS
330
29
102
}
330
29
100
AcDbVisualStyle
  2
Sketchy
 70
    24
177
     3
291
     0
 70
    58
 90
        1
176
     1
 90
        2
176
     1
 90
        2
176
     1
 90
        0
176
     1
 40
0.6
176
     1
 40
30.0
176
     1
 62
     7
420
 16777215
176
     1
 90
        2
176
     1
 90
        2
176
     1
 62
     7
176
     1
 62
     7
176
     1
 90
        1
176
     1
 90
        1
176
     1
 40
40.0
176
     1
 90
       11
176
     1
 62
     7
176
     1
 40
1.0
176
     1
 90
        1
176
     1
 90
        6
176
     1
 90
        2
176
     1
 62
     7
176
     1
 90
        6
176
     1
 90
        0
176
     1
 90
        0
176
     1
290
     0
176
     1
 90
        1
176
     1
 40
0.0
176
     1
 90
        0
176
     1
290
     0
176
     1
290
     1
176
     1
290
     1
176
     1
290
     0
176
     1
290
     0
176
     1
290
     0
176
     1
290
     0
176
     1
290
     0
176
     1
290
     0
176
     1
 90
       50
176
     1
 40
0.0
176
     1
 40
1.0
176
     1
 90
        0
176
     1
 62
    18
420
        0
176
     1
 90
       50
176
     1
 90
        3
176
     1
 62
     5
420
      255
176
     1
290
     0
176
     1
 90
       50
176
     1
 90
       50
176
     1
 90
       50
176
     1
290
     0
176
     1
 90
       50
176
     1
 62
   256
176
     0
 40
1.0
176
     0
 90
        2
176
     1
  1
strokes_ogs.tif
176
     1
290
     0
176
     1
 40
1.0
176
     1
 40
1.0
176
     1
  0
VISUALSTYLE
  5
36
102
{ACAD_REACTORS
330
29
102
}
330
29
100
AcDbVisualStyle
  2
Thicken
 70
    13
177
     3
291
     1
 70
    58
 90
        2
176
     1
 90
        2
176
     1
 90
        0
176
     1
 90
        0
176
     1
 40
0.6
176
     1
 40
30.0
176
     1
 62
     7
420
 16777215
176
     1
 90
        1
176
     1
 90
        4
176
     1
 62
     7
176
     1
 62
   257
176
     1
 90
        1
176
     1
 90
        1
176
     1
 40
1.0
176
     1
 90
       12
176
     1
 62
     7
176
     1
 40
1.0
176
     1
 90
        1
176
     1
 90
        6
176
     1
 90
        2
176
     1
 62
     7
176
     1
 90
        5
176
     1
 90
        0
176
     1
 90
        0
176
     1
290
     0
176
     1
 90
        1
176
     1
 40
0.0
176
     1
 90
        0
176
     1
290
     0
176
     1
290
     1
176
     1
290
     1
176
     1
290
     0
176
     1
290
     0
176
     1
290
     0
176
     1
290
     0
176
     1
290
     0
176
     1
290
     0
176
     1
 90
       50
176
     1
 40
0.0
176
     1
 40
1.0
176
     1
 90
        0
176
     1
 62
    18
420
        0
176
     1
 90
       50
176
     1
 90
        3
176
     1
 62
     5
420
      255
176
     1
290
     0
176
     1
 90
       50
176
     1
 90
       50
176
     1
 90
       50
176
     1
290
     0
176
     1
 90
       50
176
     1
 62
   256
176
     0
 40
1.0
176
     0
 90
        2
176
     1
  1
strokes_ogs.tif
176
     1
290
     0
176
     1
 40
1.0
176
     1
 40
1.0
176
     1
  0
VISUALSTYLE
  5
30
102
{ACAD_REACTORS
330
29
102
}
330
29
100
AcDbVisualStyle
  2
Wireframe
 70
     5
177
     3
291
     0
 70
    58
 90
        0
176
     1
 90
        2
176
     1
 90
        0
176
     1
 90
        0
176
     1
 40
0.6
176
     1
 40
30.0
176
     1
 62
     7
420
 16777215
176
     1
 90
        1
176
     1
 90
        4
176
     1
 62
     7
176
     1
 62
   257
176
     1
 90
        1
176
     1
 90
        1
176
     1
 40
1.0
176
     1
 90
        0
176
     1
 62
   257
176
     1
 40
1.0
176
     1
 90
        1
176
     1
 90
        6
176
     1
 90
        2
176
     1
 62
     7
176
     1
 90
        3
176
     1
 90
        0
176
     1
 90
        0
176
     1
290
     0
176
     1
 90
        1
176
     1
 40
0.0
176
     1
 90
        0
176
     1
290
     0
176
     1
290
     1
176
     1
290
     1
176
     1
290
     0
176
     1
290
     0
176
     1
290
     0
176
     1
290
     0
176
     1
290
     0
176
     1
290
     0
176
     1
 90
       50
176
     1
 40
0.0
176
     1
 40
1.0
176
     1
 90
        0
176
     1
 62
    18
420
        0
176
     1
 90
       50
176
     1
 90
        3
176
     1
 62
     5
420
      255
176
     1
290
     0
176
     1
 90
       50
176
     1
 90
       50
176
     1
 90
       50
176
     1
290
     0
176
     1
 90
       50
176
     1
 62
   256
176
     0
 40
1.0
176
     0
 90
        2
176
     1
  1
strokes_ogs.tif
176
     1
290
     0
176
     1
 40
1.0
176
     1
 40
1.0
176
     1
  0
VISUALSTYLE
  5
3C
102
{ACAD_REACTORS
330
29
102
}
330
29
100
AcDbVisualStyle
  2
X-Ray
 70
    25
177
     3
291
     0
 70
    58
 90
        2
176
     1
 90
        2
176
     1
 90
        1
176
     1
 90
        1
176
     1
 40
0.5
176
     1
 40
30.0
176
     1
 62
     7
420
 16777215
176
     1
 90
        1
176
     1
 90
        0
176
     1
 62
     7
176
     1
 62
   257
176
     1
 90
        1
176
     1
 90
        1
176
     1
 40
1.0
176
     1
 90
        8
176
     1
 62
     7
176
     1
 40
1.0
176
     1
 90
        1
176
     1
 90
        6
176
     1
 90
        2
176
     1
 62
     7
176
     1
 90
        3
176
     1
 90
        0
176
     1
 90
        0
176
     1
290
     0
176
     1
 90
       13
176
     1
 40
0.0
176
     1
 90
        0
176
     1
290
     0
176
     1
290
     1
176
     1
290
     1
176
     1
290
     0
176
     1
290
     0
176
     1
290
     0
176
     1
290
     0
176
     1
290
     0
176
     1
290
     0
176
     1
 90
       50
176
     1
 40
0.0
176
     1
 40
1.0
176
     1
 90
        0
176
     1
 62
    18
420
        0
176
     1
 90
       50
176
     1
 90
        3
176
     1
 62
     5
420
      255
176
     1
290
     0
176
     1
 90
       50
176
     1
 90
       50
176
     1
 90
       50
176
     1
290
     0
176
     1
 90
       50
176
     1
 62
   256
176
     0
 40
1.0
176
     0
 90
        2
176
     1
  1
strokes_ogs.tif
176
     1
290
     0
176
     1
 40
1.0
176
     1
 40
1.0
176
     1
  0
DICTIONARYVAR
  5
11C
102
{ACAD_REACTORS
330
117
102
}
330
117
100
DictionaryVariables
280
     0
  1
1:1
  0
DICTIONARYVAR
  5
119
102
{ACAD_REACTORS
330
117
102
}
330
117
100
DictionaryVariables
280
     0
  1
STANDARD
  0
DICTIONARYVAR
  5
118
102
{ACAD_REACTORS
330
117
102
}
330
117
100
DictionaryVariables
280
     0
  1
STANDARD
  0
DICTIONARYVAR
  5
11A
102
{ACAD_REACTORS
330
117
102
}
330
117
100
DictionaryVariables
280
     0
  1
Imperial24
  0
DICTIONARYVAR
  5
11B
102
{ACAD_REACTORS
330
117
102
}
330
117
100
DictionaryVariables
280
     0
  1
Imperial24
  0
DICTIONARY
  5
1A
330
19
100
AcDbDictionary
280
     1
281
     1
  3
BUMPTILE
360
1C
  3
DIFFUSETILE
360
1B
  3
OPACITYTILE
360
1F
  3
REFLECTIONTILE
360
1E
  3
REFRACTIONTILE
360
20
  3
SPECULARTILE
360
1D
  0
DICTIONARY
  5
12
330
11
100
AcDbDictionary
280
     1
281
     1
  3
BUMPTILE
360
14
  3
DIFFUSETILE
360
13
  3
OPACITYTILE
360
17
  3
REFLECTIONTILE
360
16
  3
REFRACTIONTILE
360
18
  3
SPECULARTILE
360
15
  0
DICTIONARY
  5
22
330
21
100
AcDbDictionary
280
     1
281
     1
  3
BUMPTILE
360
24
  3
DIFFUSETILE
360
23
  3
OPACITYTILE
360
27
  3
REFLECTIONTILE
360
26
  3
REFRACTIONTILE
360
28
  3
SPECULARTILE
360
25
  0
DICTIONARY
  5
11D
330
65
100
AcDbDictionary
280
     1
281
     1
  3
ACAD_ROUNDTRIP_2008_TABLESTYLE_CELLSTYLEMAP
360
11E
  0
XRECORD
  5
1C
102
{ACAD_REACTORS
330
1A
102
}
330
1A
100
AcDbXrecord
280
     1
270
     1
271
     1
  0
XRECORD
  5
1B
102
{ACAD_REACTORS
330
1A
102
}
330
1A
100
AcDbXrecord
280
     1
270
     1
271
     1
  0
XRECORD
  5
1F
102
{ACAD_REACTORS
330
1A
102
}
330
1A
100
AcDbXrecord
280
     1
270
     1
271
     1
  0
XRECORD
  5
1E
102
{ACAD_REACTORS
330
1A
102
}
330
1A
100
AcDbXrecord
280
     1
270
     1
271
     1
  0
XRECORD
  5
20
102
{ACAD_REACTORS
330
1A
102
}
330
1A
100
AcDbXrecord
280
     1
270
     1
271
     1
  0
XRECORD
  5
1D
102
{ACAD_REACTORS
330
1A
102
}
330
1A
100
AcDbXrecord
280
     1
270
     1
271
     1
  0
XRECORD
  5
14
102
{ACAD_REACTORS
330
12
102
}
330
12
100
AcDbXrecord
280
     1
270
     1
271
     1
  0
XRECORD
  5
13
102
{ACAD_REACTORS
330
12
102
}
330
12
100
AcDbXrecord
280
     1
270
     1
271
     1
  0
XRECORD
  5
17
102
{ACAD_REACTORS
330
12
102
}
330
12
100
AcDbXrecord
280
     1
270
     1
271
     1
  0
XRECORD
  5
16
102
{ACAD_REACTORS
330
12
102
}
330
12
100
AcDbXrecord
280
     1
270
     1
271
     1
  0
XRECORD
  5
18
102
{ACAD_REACTORS
330
12
102
}
330
12
100
AcDbXrecord
280
     1
270
     1
271
     1
  0
XRECORD
  5
15
102
{ACAD_REACTORS
330
12
102
}
330
12
100
AcDbXrecord
280
     1
270
     1
271
     1
  0
XRECORD
  5
24
102
{ACAD_REACTORS
330
22
102
}
330
22
100
AcDbXrecord
280
     1
270
     1
271
     1
  0
XRECORD
  5
23
102
{ACAD_REACTORS
330
22
102
}
330
22
100
AcDbXrecord
280
     1
270
     1
271
     1
  0
XRECORD
  5
27
102
{ACAD_REACTORS
330
22
102
}
330
22
100
AcDbXrecord
280
     1
270
     1
271
     1
  0
XRECORD
  5
26
102
{ACAD_REACTORS
330
22
102
}
330
22
100
AcDbXrecord
280
     1
270
     1
271
     1
  0
XRECORD
  5
28
102
{ACAD_REACTORS
330
22
102
}
330
22
100
AcDbXrecord
280
     1
270
     1
271
     1
  0
XRECORD
  5
25
102
{ACAD_REACTORS
330
22
102
}
330
22
100
AcDbXrecord
280
     1
270
     1
271
     1
  0
CELLSTYLEMAP
  5
11E
102
{ACAD_REACTORS
330
11D
102
}
330
11D
100
AcDbCellStyleMap
 90
        3
300
CELLSTYLE
  1
TABLEFORMAT_BEGIN
 90
        5
170
     1
 91
        0
 92
    32768
 62
   257
 93
        1
300
CONTENTFORMAT
  1
CONTENTFORMAT_BEGIN
 90
        0
 91
        0
 92
      512
 93
        0
300

 40
0.0
140
1.0
 94
        5
 62
     0
340
55
144
0.25
309
CONTENTFORMAT_END
171
     0
 94
        0
309
TABLEFORMAT_END
  1
CELLSTYLE_BEGIN
 90
        1
 91
        1
300
_TITLE
309
CELLSTYLE_END
300
CELLSTYLE
  1
TABLEFORMAT_BEGIN
 90
        5
170
     1
 91
        0
 92
        0
 62
   257
 93
        1
300
CONTENTFORMAT
  1
CONTENTFORMAT_BEGIN
 90
        0
 91
        0
 92
      512
 93
        0
300

 40
0.0
140
1.0
 94
        5
 62
     0
340
55
144
0.18
309
CONTENTFORMAT_END
171
     0
 94
        0
309
TABLEFORMAT_END
  1
CELLSTYLE_BEGIN
 90
        2
 91
        1
300
_HEADER
309
CELLSTYLE_END
300
CELLSTYLE
  1
TABLEFORMAT_BEGIN
 90
        5
170
     1
 91
        0
 92
        0
 62
   257
 93
        1
300
CONTENTFORMAT
  1
CONTENTFORMAT_BEGIN
 90
        0
 91
        0
 92
      512
 93
        0
300

 40
0.0
140
1.0
 94
        2
 62
     0
340
55
144
0.18
309
CONTENTFORMAT_END
171
     0
 94
        0
309
TABLEFORMAT_END
  1
CELLSTYLE_BEGIN
 90
        3
 91
        2
300
_DATA
309
CELLSTYLE_END
  0
ENDSEC
  0
EOF
