  0
SECTION
  2
HEADER
  9
$ACADVER
  1
AC1032
  9
$ACADMAINTVER
 90
      327
  9
$DWGCODEPAGE
  3
ANSI_1252
  9
$REQUIREDVERSIONS
160
                 0
  9
$INSBASE
 10
0.0
 20
0.0
 30
0.0
  9
$EXTMIN
 10
1.000000000000000E+20
 20
1.000000000000000E+20
 30
1.000000000000000E+20
  9
$EXTMAX
 10
-1.000000000000000E+20
 20
-1.000000000000000E+20
 30
-1.000000000000000E+20
  9
$LIMMIN
 10
0.0
 20
0.0
  9
$LIMMAX
 10
12.0
 20
9.0
  9
$ORTHOMODE
 70
     0
  9
$REGENMODE
 70
     1
  9
$FILLMODE
 70
     1
  9
$QTEXTMODE
 70
     0
  9
$MIRRTEXT
 70
     0
  9
$LTSCALE
 40
1.0
  9
$ATTMODE
 70
     1
  9
$TEXTSIZE
 40
0.2
  9
$TRACEWID
 40
0.05
  9
$TEXTSTYLE
  7
Standard
  9
$CLAYER
  8
0
  9
$CELTYPE
  6
ByLayer
  9
$CECOLOR
 62
   256
  9
$CELTSCALE
 40
1.0
  9
$DISPSILH
 70
     0
  9
$DIMSCALE
 40
1.0
  9
$DIMASZ
 40
0.18
  9
$DIMEXO
 40
0.0625
  9
$DIMDLI
 40
0.38
  9
$DIMRND
 40
0.0
  9
$DIMDLE
 40
0.0
  9
$DIMEXE
 40
0.18
  9
$DIMTP
 40
0.0
  9
$DIMTM
 40
0.0
  9
$DIMTXT
 40
0.18
  9
$DIMCEN
 40
0.09
  9
$DIMTSZ
 40
0.0
  9
$DIMTOL
 70
     0
  9
$DIMLIM
 70
     0
  9
$DIMTIH
 70
     1
  9
$DIMTOH
 70
     1
  9
$DIMSE1
 70
     0
  9
$DIMSE2
 70
     0
  9
$DIMTAD
 70
     0
  9
$DIMZIN
 70
     0
  9
$DIMBLK
  1

  9
$DIMASO
 70
     1
  9
$DIMSHO
 70
     1
  9
$DIMPOST
  1

  9
$DIMAPOST
  1

  9
$DIMALT
 70
     0
  9
$DIMALTD
 70
     2
  9
$DIMALTF
 40
25.4
  9
$DIMLFAC
 40
1.0
  9
$DIMTOFL
 70
     0
  9
$DIMTVP
 40
0.0
  9
$DIMTIX
 70
     0
  9
$DIMSOXD
 70
     0
  9
$DIMSAH
 70
     0
  9
$DIMBLK1
  1

  9
$DIMBLK2
  1

  9
$DIMSTYLE
  2
Standard
  9
$DIMCLRD
 70
     0
  9
$DIMCLRE
 70
     0
  9
$DIMCLRT
 70
     0
  9
$DIMTFAC
 40
1.0
  9
$DIMGAP
 40
0.09
  9
$DIMJUST
 70
     0
  9
$DIMSD1
 70
     0
  9
$DIMSD2
 70
     0
  9
$DIMTOLJ
 70
     1
  9
$DIMTZIN
 70
     0
  9
$DIMALTZ
 70
     0
  9
$DIMALTTZ
 70
     0
  9
$DIMUPT
 70
     0
  9
$DIMDEC
 70
     4
  9
$DIMTDEC
 70
     4
  9
$DIMALTU
 70
     2
  9
$DIMALTTD
 70
     2
  9
$DIMTXSTY
  7
Standard
  9
$DIMAUNIT
 70
     0
  9
$DIMADEC
 70
     0
  9
$DIMALTRND
 40
0.0
  9
$DIMAZIN
 70
     0
  9
$DIMDSEP
 70
    46
  9
$DIMATFIT
 70
     3
  9
$DIMFRAC
 70
     0
  9
$DIMLDRBLK
  1

  9
$DIMLUNIT
 70
     2
  9
$DIMLWD
 70
    -2
  9
$DIMLWE
 70
    -2
  9
$DIMTMOVE
 70
     0
  9
$DIMFXL
 40
1.0
  9
$DIMFXLON
 70
     0
  9
$DIMJOGANG
 40
0.7853981633974483
  9
$DIMTFILL
 70
     0
  9
$DIMTFILLCLR
 70
     0
  9
$DIMARCSYM
 70
     0
  9
$DIMLTYPE
  6

  9
$DIMLTEX1
  6

  9
$DIMLTEX2
  6

  9
$DIMTXTDIRECTION
 70
     0
  9
$LUNITS
 70
     2
  9
$LUPREC
 70
     4
  9
$SKETCHINC
 40
0.1
  9
$FILLETRAD
 40
0.0
  9
$AUNITS
 70
     0
  9
$AUPREC
 70
     0
  9
$MENU
  1
.
  9
$ELEVATION
 40
0.0
  9
$PELEVATION
 40
0.0
  9
$THICKNESS
 40
0.0
  9
$LIMCHECK
 70
     0
  9
$CHAMFERA
 40
0.0
  9
$CHAMFERB
 40
0.0
  9
$CHAMFERC
 40
0.0
  9
$CHAMFERD
 40
0.0
  9
$SKPOLY
 70
     0
  9
$TDCREATE
 40
2460672.740659722
  9
$TDUCREATE
 40
2460672.740659722
  9
$TDUPDATE
 40
2460672.740659722
  9
$TDUUPDATE
 40
2460672.740659722
  9
$TDINDWG
 40
0.0000000000
  9
$TDUSRTIMER
 40
0.0000000000
  9
$USRTIMER
 70
     1
  9
$ANGBASE
 50
0.0
  9
$ANGDIR
 70
     0
  9
$PDMODE
 70
     0
  9
$PDSIZE
 40
0.0
  9
$PLINEWID
 40
0.0
  9
$SPLFRAME
 70
     0
  9
$SPLINETYPE
 70
     6
  9
$SPLINESEGS
 70
     8
  9
$HANDSEED
  5
DD
  9
$SURFTAB1
 70
     6
  9
$SURFTAB2
 70
     6
  9
$SURFTYPE
 70
     6
  9
$SURFU
 70
     6
  9
$SURFV
 70
     6
  9
$UCSBASE
  2

  9
$UCSNAME
  2

  9
$UCSORG
 10
0.0
 20
0.0
 30
0.0
  9
$UCSXDIR
 10
1.0
 20
0.0
 30
0.0
  9
$UCSYDIR
 10
0.0
 20
1.0
 30
0.0
  9
$UCSORTHOREF
  2

  9
$UCSORTHOVIEW
 70
     0
  9
$UCSORGTOP
 10
0.0
 20
0.0
 30
0.0
  9
$UCSORGBOTTOM
 10
0.0
 20
0.0
 30
0.0
  9
$UCSORGLEFT
 10
0.0
 20
0.0
 30
0.0
  9
$UCSORGRIGHT
 10
0.0
 20
0.0
 30
0.0
  9
$UCSORGFRONT
 10
0.0
 20
0.0
 30
0.0
  9
$UCSORGBACK
 10
0.0
 20
0.0
 30
0.0
  9
$PUCSBASE
  2

  9
$PUCSNAME
  2

  9
$PUCSORG
 10
0.0
 20
0.0
 30
0.0
  9
$PUCSXDIR
 10
1.0
 20
0.0
 30
0.0
  9
$PUCSYDIR
 10
0.0
 20
1.0
 30
0.0
  9
$PUCSORTHOREF
  2

  9
$PUCSORTHOVIEW
 70
     0
  9
$PUCSORGTOP
 10
0.0
 20
0.0
 30
0.0
  9
$PUCSORGBOTTOM
 10
0.0
 20
0.0
 30
0.0
  9
$PUCSORGLEFT
 10
0.0
 20
0.0
 30
0.0
  9
$PUCSORGRIGHT
 10
0.0
 20
0.0
 30
0.0
  9
$PUCSORGFRONT
 10
0.0
 20
0.0
 30
0.0
  9
$PUCSORGBACK
 10
0.0
 20
0.0
 30
0.0
  9
$USERI1
 70
     0
  9
$USERI2
 70
     0
  9
$USERI3
 70
     0
  9
$USERI4
 70
     0
  9
$USERI5
 70
     0
  9
$USERR1
 40
0.0
  9
$USERR2
 40
0.0
  9
$USERR3
 40
0.0
  9
$USERR4
 40
0.0
  9
$USERR5
 40
0.0
  9
$WORLDVIEW
 70
     1
  9
$SHADEDGE
 70
     3
  9
$SHADEDIF
 70
    70
  9
$TILEMODE
 70
     1
  9
$MAXACTVP
 70
    64
  9
$PINSBASE
 10
0.0
 20
0.0
 30
0.0
  9
$PLIMCHECK
 70
     0
  9
$PEXTMIN
 10
1.000000000000000E+20
 20
1.000000000000000E+20
 30
1.000000000000000E+20
  9
$PEXTMAX
 10
-1.000000000000000E+20
 20
-1.000000000000000E+20
 30
-1.000000000000000E+20
  9
$PLIMMIN
 10
0.0
 20
0.0
  9
$PLIMMAX
 10
12.0
 20
9.0
  9
$UNITMODE
 70
     0
  9
$VISRETAIN
 70
     1
  9
$PLINEGEN
 70
     0
  9
$PSLTSCALE
 70
     1
  9
$TREEDEPTH
 70
  3020
  9
$CMLSTYLE
  2
Standard
  9
$CMLJUST
 70
     0
  9
$CMLSCALE
 40
1.0
  9
$PROXYGRAPHICS
 70
     1
  9
$MEASUREMENT
 70
     0
  9
$CELWEIGHT
370
    -1
  9
$ENDCAPS
280
     0
  9
$JOINSTYLE
280
     0
  9
$LWDISPLAY
290
     1
  9
$INSUNITS
 70
     4
  9
$HYPERLINKBASE
  1

  9
$STYLESHEET
  1

  9
$XEDIT
290
     1
  9
$CEPSNTYPE
380
     0
  9
$PSTYLEMODE
290
     1
  9
$FINGERPRINTGUID
  2
{507D7AE3-033D-A142-95B9-768A3A33007B}
  9
$VERSIONGUID
  2
{402CF11E-0B25-BC40-9A7C-797042EE0DF8}
  9
$EXTNAMES
290
     1
  9
$PSVPSCALE
 40
0.0
  9
$OLESTARTUP
290
     0
  9
$SORTENTS
280
   127
  9
$INDEXCTL
280
     0
  9
$HIDETEXT
280
     1
  9
$XCLIPFRAME
280
     2
  9
$HALOGAP
280
     0
  9
$OBSCOLOR
 70
   257
  9
$OBSLTYPE
280
     0
  9
$INTERSECTIONDISPLAY
280
     0
  9
$INTERSECTIONCOLOR
 70
   257
  9
$DIMASSOC
280
     2
  9
$PROJECTNAME
  1

  9
$CAMERADISPLAY
290
     0
  9
$LENSLENGTH
 40
50.0
  9
$CAMERAHEIGHT
 40
0.0
  9
$STEPSPERSEC
 40
2.0
  9
$STEPSIZE
 40
6.0
  9
$3DDWFPREC
 40
2.0
  9
$PSOLWIDTH
 40
0.25
  9
$PSOLHEIGHT
 40
4.0
  9
$LOFTANG1
 40
1.570796326794896
  9
$LOFTANG2
 40
1.570796326794896
  9
$LOFTMAG1
 40
0.0
  9
$LOFTMAG2
 40
0.0
  9
$LOFTPARAM
 70
     7
  9
$LOFTNORMALS
280
     1
  9
$LATITUDE
 40
37.795
  9
$LONGITUDE
 40
-122.394
  9
$NORTHDIRECTION
 40
0.0
  9
$TIMEZONE
 70
 -8000
  9
$LIGHTGLYPHDISPLAY
280
     1
  9
$TILEMODELIGHTSYNCH
280
     1
  9
$CMATERIAL
347
11
  9
$SOLIDHIST
280
     0
  9
$SHOWHIST
280
     1
  9
$DWFFRAME
280
     2
  9
$DGNFRAME
280
     0
  9
$REALWORLDSCALE
290
     1
  9
$INTERFERECOLOR
 62
     1
  9
$INTERFEREOBJVS
345
33
  9
$INTERFEREVPVS
346
30
  9
$CSHADOW
280
     0
  9
$SHADOWPLANELOCATION
 40
0.0
  0
ENDSEC
  0
SECTION
  2
CLASSES
  0
CLASS
  1
ACDBDICTIONARYWDFLT
  2
AcDbDictionaryWithDefault
  3
ObjectDBX Classes
 90
        0
 91
        1
280
     0
281
     0
  0
CLASS
  1
MATERIAL
  2
AcDbMaterial
  3
ObjectDBX Classes
 90
     1153
 91
        3
280
     0
281
     0
  0
CLASS
  1
VISUALSTYLE
  2
AcDbVisualStyle
  3
ObjectDBX Classes
 90
     4095
 91
       24
280
     0
281
     0
  0
CLASS
  1
SCALE
  2
AcDbScale
  3
ObjectDBX Classes
 90
     1153
 91
       17
280
     0
281
     0
  0
CLASS
  1
TABLESTYLE
  2
AcDbTableStyle
  3
ObjectDBX Classes
 90
     4095
 91
        1
280
     0
281
     0
  0
CLASS
  1
MLEADERSTYLE
  2
AcDbMLeaderStyle
  3
ACDB_MLEADERSTYLE_CLASS
 90
     4095
 91
        1
280
     0
281
     0
  0
CLASS
  1
ACDBSECTIONVIEWSTYLE
  2
AcDbSectionViewStyle
  3
ObjectDBX Classes
 90
     1025
 91
        1
280
     0
281
     0
  0
CLASS
  1
ACDBDETAILVIEWSTYLE
  2
AcDbDetailViewStyle
  3
ObjectDBX Classes
 90
     1025
 91
        1
280
     0
281
     0
  0
CLASS
  1
DICTIONARYVAR
  2
AcDbDictionaryVar
  3
ObjectDBX Classes
 90
        0
 91
        5
280
     0
281
     0
  0
CLASS
  1
CELLSTYLEMAP
  2
AcDbCellStyleMap
  3
ObjectDBX Classes
 90
     1152
 91
        1
280
     0
281
     0
  0
ENDSEC
  0
SECTION
  2
TABLES
  0
TABLE
  2
VPORT
  5
8
330
0
100
AcDbSymbolTable
 70
     1
  0
VPORT
  5
57
330
8
100
AcDbSymbolTableRecord
100
AcDbViewportTableRecord
  2
*Active
 70
     0
 10
0.0
 20
0.0
 11
1.0
 21
1.0
 12
0.0
 22
0.0
 13
0.0
 23
0.0
 14
1.0
 24
1.0
 15
0.0
 25
0.0
 16
0.0
 26
0.0
 36
1.0
 17
50.00007573043347
 27
50.00007573043347
 37
0.0
 40
102.0001544900843
 41
1.0
 42
50.0
 43
0.0
 44
0.0
 50
0.0
 51
0.0
 71
     0
 72
   100
 73
     1
 74
     1
 75
     0
 76
     0
 77
     0
 78
     0
281
     0
 65
     1
110
0.0
120
0.0
130
0.0
111
1.0
121
0.0
131
0.0
112
0.0
122
1.0
132
0.0
 79
     0
146
0.0
 60
     3
 61
     5
292
     1
282
     1
141
0.0
142
0.0
 63
   250
421
  3355443
  0
ENDTAB
  0
TABLE
  2
LTYPE
  5
5
330
0
100
AcDbSymbolTable
 70
     1
  0
LTYPE
  5
5B
330
5
100
AcDbSymbolTableRecord
100
AcDbLinetypeTableRecord
  2
ByBlock
 70
     0
  3

 72
    65
 73
     0
 40
0.0
  0
LTYPE
  5
5C
330
5
100
AcDbSymbolTableRecord
100
AcDbLinetypeTableRecord
  2
ByLayer
 70
     0
  3

 72
    65
 73
     0
 40
0.0
  0
LTYPE
  5
5D
330
5
100
AcDbSymbolTableRecord
100
AcDbLinetypeTableRecord
  2
Continuous
 70
     0
  3
Solid line
 72
    65
 73
     0
 40
0.0
  0
ENDTAB
  0
TABLE
  2
LAYER
  5
2
330
0
100
AcDbSymbolTable
 70
     2
  0
LAYER
  5
54
330
2
100
AcDbSymbolTableRecord
100
AcDbLayerTableRecord
  2
0
 70
     0
 62
     7
  6
Continuous
370
    -3
390
F
347
21
348
0
  0
LAYER
  5
78
330
2
100
AcDbSymbolTableRecord
100
AcDbLayerTableRecord
  2
Camada 1
 70
     0
 62
     7
  6
Continuous
370
     0
390
F
347
21
348
0
  0
ENDTAB
  0
TABLE
  2
STYLE
  5
3
330
0
100
AcDbSymbolTable
 70
     2
  0
STYLE
  5
55
330
3
100
AcDbSymbolTableRecord
100
AcDbTextStyleTableRecord
  2
Standard
 70
     0
 40
0.0
 41
1.0
 50
0.0
 71
     0
 42
0.2
  3
txt
  4

  0
STYLE
  5
5A
330
3
100
AcDbSymbolTableRecord
100
AcDbTextStyleTableRecord
  2
Annotative
 70
     0
 40
0.0
 41
1.0
 50
0.0
 71
     0
 42
0.2
  3
txt
  4

1001
AcadAnnotative
1000
AnnotativeData
1002
{
1070
     1
1070
     1
1002
}
  0
ENDTAB
  0
TABLE
  2
VIEW
  5
6
330
0
100
AcDbSymbolTable
 70
     0
  0
ENDTAB
  0
TABLE
  2
UCS
  5
7
330
0
100
AcDbSymbolTable
 70
     0
  0
ENDTAB
  0
TABLE
  2
APPID
  5
9
330
0
100
AcDbSymbolTable
 70
     2
  0
APPID
  5
56
330
9
100
AcDbSymbolTableRecord
100
AcDbRegAppTableRecord
  2
ACAD
 70
     0
  0
APPID
  5
5E
330
9
100
AcDbSymbolTableRecord
100
AcDbRegAppTableRecord
  2
AcadAnnotative
 70
     0
  0
ENDTAB
  0
TABLE
  2
DIMSTYLE
  5
A
330
0
100
AcDbSymbolTable
 70
     2
100
AcDbDimStyleTable
 71
     0
  0
DIMSTYLE
105
58
330
A
100
AcDbSymbolTableRecord
100
AcDbDimStyleTableRecord
  2
Standard
 70
     0
340
55
  0
DIMSTYLE
105
59
330
A
100
AcDbSymbolTableRecord
100
AcDbDimStyleTableRecord
  2
Annotative
 70
     0
340
55
1001
AcadAnnotative
1000
AnnotativeData
1002
{
1070
     1
1070
     1
1002
}
  0
ENDTAB
  0
TABLE
  2
BLOCK_RECORD
  5
1
330
0
100
AcDbSymbolTable
 70
     1
  0
BLOCK_RECORD
  5
70
330
1
100
AcDbSymbolTableRecord
100
AcDbBlockTableRecord
  2
*Model_Space
340
73
 70
     0
280
     1
281
     0
  0
BLOCK_RECORD
  5
6C
330
1
100
AcDbSymbolTableRecord
100
AcDbBlockTableRecord
  2
*Paper_Space
340
6F
 70
     0
280
     1
281
     0
  0
BLOCK_RECORD
  5
74
330
1
100
AcDbSymbolTableRecord
100
AcDbBlockTableRecord
  2
*Paper_Space0
340
77
 70
     0
280
     1
281
     0
  0
ENDTAB
  0
ENDSEC
  0
SECTION
  2
BLOCKS
  0
BLOCK
  5
71
330
70
100
AcDbEntity
  8
0
100
AcDbBlockBegin
  2
*Model_Space
 70
     0
 10
0.0
 20
0.0
 30
0.0
  3
*Model_Space
  1

  0
ENDBLK
  5
72
330
70
100
AcDbEntity
  8
0
100
AcDbBlockEnd
  0
BLOCK
  5
6D
330
6C
100
AcDbEntity
 67
     1
  8
0
100
AcDbBlockBegin
  2
*Paper_Space
 70
     0
 10
0.0
 20
0.0
 30
0.0
  3
*Paper_Space
  1

  0
ENDBLK
  5
6E
330
6C
100
AcDbEntity
 67
     1
  8
0
100
AcDbBlockEnd
  0
BLOCK
  5
75
330
74
100
AcDbEntity
 67
     1
  8
0
100
AcDbBlockBegin
  2
*Paper_Space0
 70
     0
 10
0.0
 20
0.0
 30
0.0
  3
*Paper_Space0
  1

  0
ENDBLK
  5
76
330
74
100
AcDbEntity
 67
     1
  8
0
100
AcDbBlockEnd
  0
ENDSEC
  0
SECTION
  2
ENTITIES
  0
SPLINE
  5
79
330
70
100
AcDbEntity
  8
Camada 1
 62
   250
420
  1907995
370
    15
100
AcDbSpline
210
0.0
220
0.0
230
1.0
 70
     9
 71
     3
 72
    17
 73
    13
 74
     0
 42
0.0000000001
 43
0.0000000001
 40
0.0
 40
0.0
 40
0.0
 40
0.0
 40
1.0
 40
1.0
 40
1.0
 40
2.0
 40
2.0
 40
2.0
 40
3.0
 40
3.0
 40
3.0
 40
4.0
 40
4.0
 40
4.0
 40
4.0
 10
34.65449001717459
 20
34.90894799949217
 30
0.0
 10
34.65449001717459
 20
35.48820850756675
 30
0.0
 10
34.18529492689205
 20
35.95740090636846
 30
0.0
 10
33.60603441881746
 20
35.95740090636846
 30
0.0
 10
33.0271238032531
 20
35.95740090636846
 30
0.0
 10
32.55757882046032
 20
35.48820850756675
 30
0.0
 10
32.55757882046032
 20
34.90894799949217
 30
0.0
 10
32.55757882046032
 20
34.32968479993673
 30
0.0
 10
33.0271238032531
 20
33.86013712566312
 30
0.0
 10
33.60603441881746
 20
33.86013712566312
 30
0.0
 10
34.18529492689205
 20
33.86013712566312
 30
0.0
 10
34.65449001717459
 20
34.32968479993673
 30
0.0
 10
34.65449001717459
 20
34.90894799949217
 30
0.0
  0
SPLINE
  5
7A
330
70
100
AcDbEntity
  8
Camada 1
 62
   250
420
  1907995
370
    15
100
AcDbSpline
210
0.0
220
0.0
230
1.0
 70
     8
 71
     3
 72
     8
 73
     4
 74
     0
 42
0.0000000001
 43
0.0000000001
 40
0.0
 40
0.0
 40
0.0
 40
0.0
 40
1.0
 40
1.0
 40
1.0
 40
1.0
 10
86.08349446157918
 20
66.72964781046603
 30
0.0
 10
88.68664090800413
 20
73.81236578897421
 30
0.0
 10
89.99861939617439
 20
81.30501244949526
 30
0.0
 10
89.95663767790961
 20
88.8512841744289
 30
0.0
  0
LINE
  5
7B
330
70
100
AcDbEntity
  8
Camada 1
 62
   250
420
  1907995
370
    15
100
AcDbLine
 10
85.73449014003827
 20
66.47956079304536
 30
0.0
 11
24.65701670560061
 21
66.47956079304536
 31
0.0
  0
SPLINE
  5
7C
330
70
100
AcDbEntity
  8
Camada 1
 62
   250
420
  1907995
370
    15
100
AcDbSpline
210
0.0
220
0.0
230
1.0
 70
     8
 71
     3
 72
     8
 73
     4
 74
     0
 42
0.0000000001
 43
0.0000000001
 40
0.0
 40
0.0
 40
0.0
 40
0.0
 40
1.0
 40
1.0
 40
1.0
 40
1.0
 10
29.50823867907856
 20
72.56783581085109
 30
0.0
 10
29.81197767572029
 20
72.47399463960991
 30
0.0
 10
30.12806787797281
 20
72.42637157748802
 30
0.0
 10
30.44592100018068
 20
72.42637157748802
 30
0.0
  0
SPLINE
  5
7D
330
70
100
AcDbEntity
  8
Camada 1
 62
   250
420
  1907995
370
    15
100
AcDbSpline
210
0.0
220
0.0
230
1.0
 70
     8
 71
     3
 72
     8
 73
     4
 74
     0
 42
0.0000000001
 43
0.0000000001
 40
0.0
 40
0.0
 40
0.0
 40
0.0
 40
1.0
 40
1.0
 40
1.0
 40
1.0
 10
27.87836938796856
 20
73.7338337607956
 30
0.0
 10
28.19974835008711
 20
73.29144581975765
 30
0.0
 10
28.63013766950534
 20
72.94008376099404
 30
0.0
 10
29.12755293647761
 20
72.71324575513713
 30
0.0
  0
SPLINE
  5
7E
330
70
100
AcDbEntity
  8
Camada 1
 62
   250
420
  1907995
370
    15
100
AcDbSpline
210
0.0
220
0.0
230
1.0
 70
     8
 71
     3
 72
     8
 73
     4
 74
     0
 42
0.0000000001
 43
0.0000000001
 40
0.0
 40
0.0
 40
0.0
 40
0.0
 40
1.0
 40
1.0
 40
1.0
 40
1.0
 10
27.33466872485579
 20
74.96908889591702
 30
0.0
 10
27.3981661410183
 20
74.65758228554839
 30
0.0
 10
27.50788166630012
 20
74.35701923630713
 30
0.0
 10
27.66063397033907
 20
74.07797188496359
 30
0.0
  0
LINE
  5
7F
330
70
100
AcDbEntity
  8
Camada 1
 62
   250
420
  1907995
370
    15
100
AcDbLine
 10
25.63392736006016
 20
82.76868818121213
 30
0.0
 11
25.31783715780764
 21
84.26269690208428
 31
0.0
  0
LINE
  5
80
330
70
100
AcDbEntity
  8
Camada 1
 62
   250
420
  1907995
370
    15
100
AcDbLine
 10
26.06480922047355
 20
80.78649866415668
 30
0.0
 11
25.71979098206832
 21
82.39516446914731
 31
0.0
  0
LINE
  5
81
330
70
100
AcDbEntity
  8
Camada 1
 62
   250
420
  1907995
370
    15
100
AcDbLine
 10
26.52419655454652
 20
78.80430914710122
 30
0.0
 11
26.15060286397966
 21
80.41297495209185
 31
0.0
  0
LINE
  5
82
330
70
100
AcDbEntity
  8
Camada 1
 62
   250
420
  1907995
370
    15
100
AcDbLine
 10
26.95507841495991
 20
76.85066547591809
 30
0.0
 11
26.61041276054575
 21
78.43075313726624
 31
0.0
  0
LINE
  5
83
330
70
100
AcDbEntity
  8
Camada 1
 62
   250
420
  1907995
370
    15
100
AcDbLine
 10
27.35745749319455
 20
74.95440955937283
 30
0.0
 11
27.04136729094202
 21
76.448418280245
 31
0.0
  0
SPLINE
  5
84
330
70
100
AcDbEntity
  8
Camada 1
 62
   250
420
  1907995
370
    15
100
AcDbSpline
210
0.0
220
0.0
230
1.0
 70
     8
 71
     3
 72
     8
 73
     4
 74
     0
 42
0.0000000001
 43
0.0000000001
 40
0.0
 40
0.0
 40
0.0
 40
0.0
 40
1.0
 40
1.0
 40
1.0
 40
1.0
 10
23.90016421674225
 20
87.98658673947796
 30
0.0
 10
23.64369300675048
 20
88.43178996948276
 30
0.0
 10
23.35935420406006
 20
88.86006378495459
 30
0.0
 10
23.04926331261741
 20
89.26963719149553
 30
0.0
  0
SPLINE
  5
85
330
70
100
AcDbEntity
  8
Camada 1
 62
   250
420
  1907995
370
    15
100
AcDbSpline
210
0.0
220
0.0
230
1.0
 70
     8
 71
     3
 72
     8
 73
     4
 74
     0
 42
0.0000000001
 43
0.0000000001
 40
0.0
 40
0.0
 40
0.0
 40
0.0
 40
1.0
 40
1.0
 40
1.0
 40
1.0
 10
24.76563410669651
 20
86.15305847557275
 30
0.0
 10
24.57548636775749
 20
86.65999889326556
 30
0.0
 10
24.35217689329211
 20
87.15424090431822
 30
0.0
 10
24.09747129473654
 20
87.6318980103864
 30
0.0
  0
SPLINE
  5
86
330
70
100
AcDbEntity
  8
Camada 1
 62
   250
420
  1907995
370
    15
100
AcDbSpline
210
0.0
220
0.0
230
1.0
 70
     8
 71
     3
 72
     8
 73
     4
 74
     0
 42
0.0000000001
 43
0.0000000001
 40
0.0
 40
0.0
 40
0.0
 40
0.0
 40
1.0
 40
1.0
 40
1.0
 40
1.0
 10
25.30118765728283
 20
84.2853484048998
 30
0.0
 10
25.19888177877515
 20
84.78840770721003
 30
0.0
 10
25.06588225267857
 20
85.28440994673717
 30
0.0
 10
24.90148929397266
 20
85.77018994200418
 30
0.0
  0
LINE
  5
87
330
70
100
AcDbEntity
  8
Camada 1
 62
   250
420
  1907995
370
    15
100
AcDbLine
 10
85.15981591532844
 20
82.99837915676777
 30
0.0
 11
85.82091897302449
 21
84.26237930734423
 31
0.0
  0
LINE
  5
88
330
70
100
AcDbEntity
  8
Camada 1
 62
   250
420
  1907995
370
    15
100
AcDbLine
 10
84.21211321102976
 20
81.21738321605091
 30
0.0
 11
84.95893993372988
 21
82.65389114008957
 31
0.0
  0
LINE
  5
89
330
70
100
AcDbEntity
  8
Camada 1
 62
   250
420
  1907995
370
    15
100
AcDbLine
 10
83.29249341789759
 20
79.40745385621965
 30
0.0
 11
84.03932014059771
 21
80.84396178025832
 31
0.0
  0
LINE
  5
8A
330
70
100
AcDbEntity
  8
Camada 1
 62
   250
420
  1907995
370
    15
100
AcDbLine
 10
82.34436545962495
 20
77.62610264003086
 30
0.0
 11
83.09154745779698
 21
79.06261056406953
 31
0.0
  0
LINE
  5
8B
330
70
100
AcDbEntity
  8
Camada 1
 62
   250
420
  1907995
370
    15
100
AcDbLine
 10
81.39666275532629
 20
75.81617866316129
 30
0.0
 11
82.14348947802641
 21
77.25268658719996
 31
0.0
  0
LINE
  5
8C
330
70
100
AcDbEntity
  8
Camada 1
 62
   250
420
  1907995
370
    15
100
AcDbLine
 10
80.56340181667826
 20
74.20747517743881
 30
0.0
 11
81.22414959890241
 21
75.47147532801528
 31
0.0
  0
LINE
  5
8D
330
70
100
AcDbEntity
  8
Camada 1
 62
   250
420
  1907995
370
    15
100
AcDbLine
 10
86.30913206697796
 20
85.1821444404422
 30
0.0
 11
85.82088667525431
 21
84.26244928584628
 31
0.0
  0
SPLINE
  5
8E
330
70
100
AcDbEntity
  8
Camada 1
 62
   250
420
  1907995
370
    15
100
AcDbSpline
210
0.0
220
0.0
230
1.0
 70
     8
 71
     3
 72
     8
 73
     4
 74
     0
 42
0.0000000001
 43
0.0000000001
 40
0.0
 40
0.0
 40
0.0
 40
0.0
 40
1.0
 40
1.0
 40
1.0
 40
1.0
 10
87.38718318873806
 20
86.89675231456595
 30
0.0
 10
87.06262289625735
 20
86.46283177227536
 30
0.0
 10
86.7602942355799
 20
86.01304225890581
 30
0.0
 10
86.48124688423635
 20
85.54843345198801
 30
0.0
  0
SPLINE
  5
8F
330
70
100
AcDbEntity
  8
Camada 1
 62
   250
420
  1907995
370
    15
100
AcDbSpline
210
0.0
220
0.0
230
1.0
 70
     8
 71
     3
 72
     8
 73
     4
 74
     0
 42
0.0000000001
 43
0.0000000001
 40
0.0
 40
0.0
 40
0.0
 40
0.0
 40
1.0
 40
1.0
 40
1.0
 40
1.0
 10
88.70428087348093
 20
88.44149544942011
 30
0.0
 10
88.32716134300339
 20
88.05273257279477
 30
0.0
 10
87.97014717445929
 20
87.64456950221809
 30
0.0
 10
87.63430419426439
 20
87.21876646616461
 30
0.0
  0
LINE
  5
90
330
70
100
AcDbEntity
  8
Camada 1
 62
   250
420
  1907995
370
    15
100
AcDbLine
 10
89.78515266716959
 20
89.40510480552958
 30
0.0
 11
89.0097424178653
 21
88.71577349670127
 31
0.0
  0
LINE
  5
91
330
70
100
AcDbEntity
  8
Camada 1
 62
   250
420
  1907995
370
    15
100
AcDbLine
 10
89.87151690461546
 20
89.40510480552958
 30
0.0
 11
22.84691509099509
 21
89.40510480552958
 31
0.0
  0
LINE
  5
92
330
70
100
AcDbEntity
  8
Camada 1
 62
   250
420
  1907995
370
    15
100
AcDbLine
 10
76.59864059228697
 20
72.39758349833941
 30
0.0
 11
77.71906100555397
 21
72.39758349833941
 31
0.0
  0
LINE
  5
93
330
70
100
AcDbEntity
  8
Camada 1
 62
   250
420
  1907995
370
    15
100
AcDbLine
 10
74.58794829305277
 20
72.39758349833941
 30
0.0
 11
76.19661409804341
 21
72.39758349833941
 31
0.0
  0
LINE
  5
94
330
70
100
AcDbEntity
  8
Camada 1
 62
   250
420
  1907995
370
    15
100
AcDbLine
 10
72.54794038442378
 20
72.39758349833941
 30
0.0
 11
74.18553422556712
 21
72.39758349833941
 31
0.0
  0
LINE
  5
95
330
70
100
AcDbEntity
  8
Camada 1
 62
   250
420
  1907995
370
    15
100
AcDbLine
 10
70.50835234680706
 20
72.39758349833941
 30
0.0
 11
72.14594618795039
 21
72.39758349833941
 31
0.0
  0
LINE
  5
96
330
70
100
AcDbEntity
  8
Camada 1
 62
   250
420
  1907995
370
    15
100
AcDbLine
 10
68.49727247433076
 20
72.39758349833941
 30
0.0
 11
70.10593827932139
 21
72.39758349833941
 31
0.0
  0
LINE
  5
97
330
70
100
AcDbEntity
  8
Camada 1
 62
   250
420
  1907995
370
    15
100
AcDbLine
 10
66.45765213894385
 20
72.39758349833941
 30
0.0
 11
68.09489070461528
 21
72.39758349833941
 31
0.0
  0
LINE
  5
98
330
70
100
AcDbEntity
  8
Camada 1
 62
   250
420
  1907995
370
    15
100
AcDbLine
 10
64.44657226646757
 20
72.39758349833941
 30
0.0
 11
66.05523807145821
 21
72.39758349833941
 31
0.0
  0
LINE
  5
99
330
70
100
AcDbEntity
  8
Camada 1
 62
   250
420
  1907995
370
    15
100
AcDbLine
 10
62.40656435783858
 20
72.39758349833941
 30
0.0
 11
64.01558005533942
 21
72.39758349833941
 31
0.0
  0
LINE
  5
9A
330
70
100
AcDbEntity
  8
Camada 1
 62
   250
420
  1907995
370
    15
100
AcDbLine
 10
60.36694402245167
 20
72.39758349833941
 30
0.0
 11
62.004537863595
 21
72.39758349833941
 31
0.0
  0
LINE
  5
9B
330
70
100
AcDbEntity
  8
Camada 1
 62
   250
420
  1907995
370
    15
100
AcDbLine
 10
58.35586414997538
 20
72.39758349833941
 30
0.0
 11
59.96452995496601
 21
72.39758349833941
 31
0.0
  0
LINE
  5
9C
330
70
100
AcDbEntity
  8
Camada 1
 62
   250
420
  1907995
370
    15
100
AcDbLine
 10
56.31628149532034
 20
72.39758349833941
 30
0.0
 11
57.95387533646368
 21
72.39758349833941
 31
0.0
  0
LINE
  5
9D
330
70
100
AcDbEntity
  8
Camada 1
 62
   250
420
  1907995
370
    15
100
AcDbLine
 10
54.27627358669135
 20
72.39758349833941
 30
0.0
 11
55.91386742783469
 21
72.39758349833941
 31
0.0
  0
LINE
  5
9E
330
70
100
AcDbEntity
  8
Camada 1
 62
   250
420
  1907995
370
    15
100
AcDbLine
 10
52.26558128745715
 20
72.39758349833941
 30
0.0
 11
53.87424709244778
 21
72.39758349833941
 31
0.0
  0
LINE
  5
9F
330
70
100
AcDbEntity
  8
Camada 1
 62
   250
420
  1907995
370
    15
100
AcDbLine
 10
50.22557337882815
 20
72.39758349833941
 30
0.0
 11
51.86316721997149
 21
72.39758349833941
 31
0.0
  0
LINE
  5
A0
330
70
100
AcDbEntity
  8
Camada 1
 62
   250
420
  1907995
370
    15
100
AcDbLine
 10
48.21449350635187
 20
72.39758349833941
 30
0.0
 11
49.82350920385272
 21
72.39758349833941
 31
0.0
  0
LINE
  5
A1
330
70
100
AcDbEntity
  8
Camada 1
 62
   250
420
  1907995
370
    15
100
AcDbLine
 10
46.17490546873514
 20
72.39758349833941
 30
0.0
 11
47.78357127372577
 21
72.39758349833941
 31
0.0
  0
LINE
  5
A2
330
70
100
AcDbEntity
  8
Camada 1
 62
   250
420
  1907995
370
    15
100
AcDbLine
 10
44.13528782482909
 20
72.39758349833941
 30
0.0
 11
45.77252908198135
 21
72.39758349833941
 31
0.0
  0
LINE
  5
A3
330
70
100
AcDbEntity
  8
Camada 1
 62
   250
420
  1907995
370
    15
100
AcDbLine
 10
42.12420795235279
 20
72.39758349833941
 30
0.0
 11
43.73287375734341
 21
72.39758349833941
 31
0.0
  0
LINE
  5
A4
330
70
100
AcDbEntity
  8
Camada 1
 62
   250
420
  1907995
370
    15
100
AcDbLine
 10
40.08419735224295
 20
72.39758349833941
 30
0.0
 11
41.72179119338628
 21
72.39758349833941
 31
0.0
  0
LINE
  5
A5
330
70
100
AcDbEntity
  8
Camada 1
 62
   250
420
  1907995
370
    15
100
AcDbLine
 10
38.04457970833689
 20
72.39758349833941
 30
0.0
 11
39.68217354948023
 21
72.39758349833941
 31
0.0
  0
LINE
  5
A6
330
70
100
AcDbEntity
  8
Camada 1
 62
   250
420
  1907995
370
    15
100
AcDbLine
 10
36.03349714437976
 20
72.39758349833941
 30
0.0
 11
37.64251553336146
 21
72.39758349833941
 31
0.0
  0
LINE
  5
A7
330
70
100
AcDbEntity
  8
Camada 1
 62
   250
420
  1907995
370
    15
100
AcDbLine
 10
33.99391448972473
 20
72.39758349833941
 30
0.0
 11
35.63150833086806
 21
72.39758349833941
 31
0.0
  0
LINE
  5
A8
330
70
100
AcDbEntity
  8
Camada 1
 62
   250
420
  1907995
370
    15
100
AcDbLine
 10
31.98283461724843
 20
72.39758349833941
 30
0.0
 11
33.59150042223907
 21
72.39758349833941
 31
0.0
  0
LINE
  5
A9
330
70
100
AcDbEntity
  8
Camada 1
 62
   250
420
  1907995
370
    15
100
AcDbLine
 10
30.46003243426596
 20
72.39758349833941
 30
0.0
 11
31.55187739537131
 21
72.39758349833941
 31
0.0
  0
SPLINE
  5
AA
330
70
100
AcDbEntity
  8
Camada 1
 62
   250
420
  1907995
370
    15
100
AcDbSpline
210
0.0
220
0.0
230
1.0
 70
     9
 71
     3
 72
    17
 73
    13
 74
     0
 42
0.0000000001
 43
0.0000000001
 40
0.0
 40
0.0
 40
0.0
 40
0.0
 40
1.0
 40
1.0
 40
1.0
 40
2.0
 40
2.0
 40
2.0
 40
3.0
 40
3.0
 40
3.0
 40
4.0
 40
4.0
 40
4.0
 40
4.0
 10
34.99943558559693
 20
34.90894799949217
 30
0.0
 10
34.99943558559693
 20
35.67835624650576
 30
0.0
 10
34.37536999584816
 20
36.30206656078261
 30
0.0
 10
33.60631433282563
 20
36.30206656078261
 30
0.0
 10
32.83655350182097
 20
36.30206656078261
 30
0.0
 10
32.21249060355305
 20
35.67835624650576
 30
0.0
 10
32.21249060355305
 20
34.90894799949217
 30
0.0
 10
32.21249060355305
 20
34.13918447700666
 30
0.0
 10
32.83655350182097
 20
33.51512157873874
 30
0.0
 10
33.60631433282563
 20
33.51512157873874
 30
0.0
 10
34.37536999584816
 20
33.51512157873874
 30
0.0
 10
34.99943558559693
 20
34.13918447700666
 30
0.0
 10
34.99943558559693
 20
34.90894799949217
 30
0.0
  0
SPLINE
  5
AB
330
70
100
AcDbEntity
  8
Camada 1
 62
   250
420
  1907995
370
    15
100
AcDbSpline
210
0.0
220
0.0
230
1.0
 70
     9
 71
     3
 72
    17
 73
    13
 74
     0
 42
0.0000000001
 43
0.0000000001
 40
0.0
 40
0.0
 40
0.0
 40
0.0
 40
1.0
 40
1.0
 40
1.0
 40
2.0
 40
2.0
 40
2.0
 40
3.0
 40
3.0
 40
3.0
 40
4.0
 40
4.0
 40
4.0
 40
4.0
 10
35.20062647045467
 20
34.90894799949217
 30
0.0
 10
35.20062647045467
 20
35.789479416271
 30
0.0
 10
34.48660351632817
 20
36.50350237039751
 30
0.0
 10
33.60606940806849
 20
36.50350237039751
 30
0.0
 10
32.72518271581773
 20
36.50350237039751
 30
0.0
 10
32.01186762115421
 20
35.789479416271
 30
0.0
 10
32.01186762115421
 20
34.90894799949217
 30
0.0
 10
32.01186762115421
 20
34.02806130724142
 30
0.0
 10
32.72518271581773
 20
33.31439093710598
 30
0.0
 10
33.60606940806849
 20
33.31439093710598
 30
0.0
 10
34.48660351632817
 20
33.31439093710598
 30
0.0
 10
35.20062647045467
 20
34.02806130724142
 30
0.0
 10
35.20062647045467
 20
34.90894799949217
 30
0.0
  0
SPLINE
  5
AC
330
70
100
AcDbEntity
  8
Camada 1
 62
   250
420
  1907995
370
    15
100
AcDbSpline
210
0.0
220
0.0
230
1.0
 70
     8
 71
     3
 72
    14
 73
    10
 74
     0
 42
0.0000000001
 43
0.0000000001
 40
0.0
 40
0.0
 40
0.0
 40
0.0
 40
1.0
 40
1.0
 40
1.0
 40
2.0
 40
2.0
 40
2.0
 40
3.0
 40
3.0
 40
3.0
 40
3.0
 10
66.21208680934758
 20
21.94683410307788
 30
0.0
 10
70.9597675146087
 20
21.76762185082369
 30
0.0
 10
75.42523030408749
 20
24.19826186952688
 30
0.0
 10
77.85269302964978
 20
28.28236873767361
 30
0.0
 10
80.27945058722995
 20
32.36683088129225
 30
0.0
 10
80.27945058722995
 20
37.45106511769209
 30
0.0
 10
77.85269302964978
 20
41.5351719858388
 30
0.0
 10
75.42523030408749
 20
45.61963143797661
 30
0.0
 10
70.9597675146087
 20
48.05027011093937
 30
0.0
 10
66.21173153387568
 20
47.87070527469411
 30
0.0
  0
LWPOLYLINE
  5
AD
330
70
100
AcDbEntity
  8
Camada 1
 62
   250
420
  1907995
370
    15
100
AcDbPolyline
 90
       10
 70
     0
 43
0.0
 10
33.21804938015713
 20
42.16280109623013
 10
36.78039922854362
 20
43.22571802118278
 10
40.4002498737636
 20
44.17398593645948
 10
44.0204557944555
 20
45.03582232726915
 10
47.69780992798983
 20
45.78264904996927
 10
51.37481416901394
 20
46.41482945447431
 10
55.05216830254827
 20
46.93200288235066
 10
58.78667334040588
 20
47.3627420942791
 10
62.4929608930546
 20
47.64990156889807
 10
66.22746593091221
 20
47.85098748600275
  0
SPLINE
  5
AE
330
70
100
AcDbEntity
  8
Camada 1
 62
   250
420
  1907995
370
    15
100
AcDbSpline
210
0.0
220
0.0
230
1.0
 70
     8
 71
     3
 72
    11
 73
     7
 74
     0
 42
0.0000000001
 43
0.0000000001
 40
0.0
 40
0.0
 40
0.0
 40
0.0
 40
1.0
 40
1.0
 40
1.0
 40
2.0
 40
2.0
 40
2.0
 40
2.0
 10
33.19607074755358
 20
42.15831978061846
 30
0.0
 10
30.02918287162275
 20
41.16348386371222
 30
0.0
 10
27.87477087807499
 20
38.22802027700305
 30
0.0
 10
27.87477087807499
 20
34.90908795649625
 30
0.0
 10
27.87477087807499
 20
31.58945046800731
 30
0.0
 10
30.02918287162275
 20
28.65398688129815
 30
0.0
 10
33.19607074755358
 20
27.65915365587276
 30
0.0
  0
LWPOLYLINE
  5
AF
330
70
100
AcDbEntity
  8
Camada 1
 62
   250
420
  1907995
370
    15
100
AcDbPolyline
 90
       10
 70
     0
 43
0.0
 10
66.22753590941425
 20
21.93787416333538
 10
62.49302548859495
 20
22.13860345922772
 10
58.78674331890792
 20
22.4261182093186
 10
55.0522382810503
 20
22.85721269671897
 10
51.37488414751598
 20
23.37438343311447
 10
47.69753001398165
 20
24.00585597815652
 10
44.02052577295754
 20
24.75304066780941
 10
40.40032254374649
 20
25.61522964261014
 10
36.78046920704566
 20
26.56314228241493
 10
33.21811935865917
 20
27.62606189884842
  0
LINE
  5
B0
330
70
100
AcDbEntity
  8
Camada 1
 62
   250
420
  1907995
370
    15
100
AcDbLine
 10
22.73211804987253
 20
88.83043058081973
 30
0.0
 11
24.28328036654881
 21
66.8530791221485
 31
0.0
  0
SPLINE
  5
B1
330
70
100
AcDbEntity
  8
Camada 1
 62
   250
420
  1907995
370
    15
100
AcDbSpline
210
0.0
220
0.0
230
1.0
 70
     8
 71
     3
 72
     8
 73
     4
 74
     0
 42
0.0000000001
 43
0.0000000001
 40
0.0
 40
0.0
 40
0.0
 40
0.0
 40
1.0
 40
1.0
 40
1.0
 40
1.0
 10
85.73449014003827
 20
66.47956079304536
 30
0.0
 10
85.884416389187
 20
66.47956079304536
 30
0.0
 10
86.01529771985632
 20
66.59421249420214
 30
0.0
 10
86.07985557947287
 20
66.72968010823621
 30
0.0
  0
LWPOLYLINE
  5
B2
330
70
100
AcDbEntity
  8
Camada 1
 62
   250
420
  1907995
370
    15
100
AcDbPolyline
 90
        9
 70
     0
 43
0.0
 10
24.28342301503375
 20
66.85304682437832
 10
24.29294547427345
 20
66.77296450323135
 10
24.31234835970561
 20
66.70911181159692
 10
24.34092381186724
 20
66.65196090727365
 10
24.39066506941639
 20
66.58951855160349
 10
24.45557820450487
 20
66.53695393064495
 10
24.51343158532944
 20
66.50802589449225
 10
24.58963279109381
 20
66.48756525708688
 10
24.65701401411977
 20
66.47945313381146
  0
LINE
  5
B3
330
70
100
AcDbEntity
  8
Camada 1
 62
   250
420
  1907995
370
    15
100
AcDbLine
 10
32.18931426197221
 20
71.8611875142477
 30
0.0
 11
32.26798355567406
 21
71.82273163589361
 31
0.0
  0
LINE
  5
B4
330
70
100
AcDbEntity
  8
Camada 1
 62
   250
420
  1907995
370
    15
100
AcDbLine
 10
32.10299039673907
 20
71.94754636873186
 30
0.0
 11
32.18836147775207
 21
71.86393282471252
 31
0.0
  0
LINE
  5
B5
330
70
100
AcDbEntity
  8
Camada 1
 62
   250
420
  1907995
370
    15
100
AcDbLine
 10
34.85567821055149
 20
71.90926812811373
 30
0.0
 11
34.91317900738499
 21
71.96676892494721
 31
0.0
  0
LINE
  5
B6
330
70
100
AcDbEntity
  8
Camada 1
 62
   250
420
  1907995
370
    15
100
AcDbLine
 10
34.74084887165876
 20
71.85183730978227
 30
0.0
 11
34.82727770464496
 21
71.88041007046305
 31
0.0
  0
LINE
  5
B7
330
70
100
AcDbEntity
  8
Camada 1
 62
   250
420
  1907995
370
    15
100
AcDbLine
 10
35.11429991374069
 20
72.34015268000796
 30
0.0
 11
35.05679642542634
 21
72.28264650021277
 31
0.0
  0
LINE
  5
B8
330
70
100
AcDbEntity
  8
Camada 1
 62
   250
420
  1907995
370
    15
100
AcDbLine
 10
35.22916424188444
 20
72.39758349833941
 30
0.0
 11
35.14308530140846
 21
72.36865546218671
 31
0.0
  0
LINE
  5
B9
330
70
100
AcDbEntity
  8
Camada 1
 62
   250
420
  1907995
370
    15
100
AcDbLine
 10
31.86796759762383
 20
72.36865546218671
 30
0.0
 11
31.53882371325923
 21
72.39863855883176
 31
0.0
  0
LINE
  5
BA
330
70
100
AcDbEntity
  8
Camada 1
 62
   250
420
  1907995
370
    15
100
AcDbLine
 10
31.95429415433782
 20
72.28275415944668
 30
0.0
 11
31.89643808203241
 21
72.34025495628017
 31
0.0
  0
LINE
  5
BB
330
70
100
AcDbEntity
  8
Camada 1
 62
   250
420
  1907995
370
    15
100
AcDbLine
 10
33.70678731287593
 20
71.82294695436143
 30
0.0
 11
34.74077889315672
 21
71.82294695436143
 31
0.0
  0
LINE
  5
BC
330
70
100
AcDbEntity
  8
Camada 1
 62
   250
420
  1907995
370
    15
100
AcDbLine
 10
32.26992411336536
 20
71.82294695436143
 30
0.0
 11
33.30426827763721
 21
71.82294695436143
 31
0.0
  0
SPLINE
  5
BD
330
70
100
AcDbEntity
  8
Camada 1
 62
   250
420
  1907995
370
    15
100
AcDbSpline
210
0.0
220
0.0
230
1.0
 70
     8
 71
     3
 72
     8
 73
     4
 74
     0
 42
0.0000000001
 43
0.0000000001
 40
0.0
 40
0.0
 40
0.0
 40
0.0
 40
1.0
 40
1.0
 40
1.0
 40
1.0
 10
89.95783807836774
 20
89.3044972514369
 30
0.0
 10
89.95783807836774
 20
89.36552388818109
 30
0.0
 10
89.91479591664891
 20
89.41844378461153
 30
0.0
 10
89.85482434039708
 20
89.4311421912517
 30
0.0
  0
SPLINE
  5
BE
330
70
100
AcDbEntity
  8
Camada 1
 62
   250
420
  1907995
370
    15
100
AcDbSpline
210
0.0
220
0.0
230
1.0
 70
     8
 71
     3
 72
     8
 73
     4
 74
     0
 42
0.0000000001
 43
0.0000000001
 40
0.0
 40
0.0
 40
0.0
 40
0.0
 40
1.0
 40
1.0
 40
1.0
 40
1.0
 10
22.78831616997567
 20
89.42585073990484
 30
0.0
 10
22.73751446897247
 20
89.40750560644586
 30
0.0
 10
22.70329498147289
 20
89.35917199338016
 30
0.0
 10
22.70329498147289
 20
89.30449186847521
 30
0.0
  0
LINE
  5
BF
330
70
100
AcDbEntity
  8
Camada 1
 62
   250
420
  1907995
370
    15
100
AcDbLine
 10
89.95783807836774
 20
88.83043058081973
 30
0.0
 11
89.95783807836774
 21
89.29009782890089
 31
0.0
  0
LINE
  5
C0
330
70
100
AcDbEntity
  8
Camada 1
 62
   250
420
  1907995
370
    15
100
AcDbLine
 10
22.73211804987253
 20
88.83043058081973
 30
0.0
 11
22.73211804987253
 21
89.29009782890089
 31
0.0
  0
LINE
  5
C1
330
70
100
AcDbEntity
  8
Camada 1
 62
   250
420
  1907995
370
    15
100
AcDbLine
 10
34.99943558559693
 20
72.13896448663106
 30
0.0
 11
35.05693638243043
 21
72.28289411645076
 31
0.0
  0
LINE
  5
C2
330
70
100
AcDbEntity
  8
Camada 1
 62
   250
420
  1907995
370
    15
100
AcDbLine
 10
34.9420397565165
 20
71.96670432940686
 30
0.0
 11
34.97061251719729
 21
72.08170592307387
 31
0.0
  0
LINE
  5
C3
330
70
100
AcDbEntity
  8
Camada 1
 62
   250
420
  1907995
370
    15
100
AcDbLine
 10
32.01172497266927
 20
72.13896448663106
 30
0.0
 11
31.98279693651656
 21
72.28289411645076
 31
0.0
  0
LINE
  5
C4
330
70
100
AcDbEntity
  8
Camada 1
 62
   250
420
  1907995
370
    15
100
AcDbLine
 10
32.09141702909331
 20
71.96525631271073
 30
0.0
 11
32.02227019463116
 21
72.11447739387731
 31
0.0
  0
SPLINE
  5
C5
330
70
100
AcDbEntity
  8
Camada 1
 62
   250
420
  1907995
370
    15
100
AcDbSpline
210
0.0
220
0.0
230
1.0
 70
     8
 71
     3
 72
     8
 73
     4
 74
     0
 42
0.0000000001
 43
0.0000000001
 40
0.0
 40
0.0
 40
0.0
 40
0.0
 40
1.0
 40
1.0
 40
1.0
 40
1.0
 10
79.55988856551856
 20
73.02479004623762
 30
0.0
 10
79.98745183004654
 20
73.33276005077218
 30
0.0
 10
80.33211748446069
 20
73.74233884027481
 30
0.0
 10
80.56177616224617
 20
74.21682538190424
 30
0.0
  0
SPLINE
  5
C6
330
70
100
AcDbEntity
  8
Camada 1
 62
   250
420
  1907995
370
    15
100
AcDbSpline
210
0.0
220
0.0
230
1.0
 70
     8
 71
     3
 72
     8
 73
     4
 74
     0
 42
0.0000000001
 43
0.0000000001
 40
0.0
 40
0.0
 40
0.0
 40
0.0
 40
1.0
 40
1.0
 40
1.0
 40
1.0
 10
77.70477462521357
 20
72.42651153449212
 30
0.0
 10
78.23217568031175
 20
72.42651153449212
 30
0.0
 10
78.7511093366626
 20
72.55774275767166
 30
0.0
 10
79.21501297559827
 20
72.80856724084462
 30
0.0
  0
LINE
  5
C7
330
70
100
AcDbEntity
  8
Camada 1
 62
   250
420
  1907995
370
    15
100
AcDbLine
 10
22.84698237801628
 20
89.40510480552958
 30
0.0
 11
22.81840692585465
 21
89.40510480552958
 31
0.0
  0
LINE
  5
C8
330
70
100
AcDbEntity
  8
Camada 1
 62
   250
420
  1907995
370
    15
100
AcDbLine
 10
22.90441588782858
 20
89.34767398719813
 30
0.0
 11
22.78940891119989
 21
89.40517478403164
 31
0.0
  0
LINE
  5
C9
330
70
100
AcDbEntity
  8
Camada 1
 62
   250
420
  1907995
370
    15
100
AcDbLine
 10
23.01924522672132
 20
89.26131513271398
 30
0.0
 11
22.93316628624534
 21
89.34774396570018
 31
0.0
  0
LWPOLYLINE
  5
CA
330
70
100
AcDbEntity
  8
Camada 1
 62
   250
420
  1907995
370
    15
100
AcDbPolyline
 90
      257
 70
     0
 43
0.0
 10
33.04578922293295
 20
42.44992558159808
 10
32.9593576984659
 20
42.42135012943644
 10
32.90044387418728
 20
42.39982904857702
 10
32.84646891726446
 20
42.37866324318951
 10
32.76109514477062
 20
42.35291115443727
 10
32.70112356851879
 20
42.33491860496939
 10
32.61504731952365
 20
42.30669573679882
 10
32.5575438312093
 20
42.2777677006461
 10
32.47111230674225
 20
42.24919493996532
 10
32.41360881842791
 20
42.22026690381261
 10
32.32788515342384
 20
42.19169145165097
 10
32.27002908111842
 20
42.16276341549826
 10
32.18395283212328
 20
42.13383537934555
 10
32.12644934380894
 20
42.10525992718391
 10
32.06929843948567
 20
42.07633189103121
 10
31.98286960649946
 20
42.01918367818878
 10
31.92536611818511
 20
41.99060822602714
 10
31.83893459371806
 20
41.96168018987443
 10
31.78178638087563
 20
41.93310473771279
 10
31.72428289256128
 20
41.90417670156008
 10
31.6382039520853
 20
41.84667321324574
 10
31.5807031552518
 20
41.81810045256495
 10
31.52284708294639
 20
41.78917241641225
 10
31.43712072646147
 20
41.76059696425061
 10
31.37961723814712
 20
41.70309347593626
 10
31.32211644131363
 20
41.67451802377462
 10
31.23603750083764
 20
41.64558998762191
 10
31.17853401252329
 20
41.58808919078841
 10
31.1210332156898
 20
41.55951373862677
 10
31.03460169122274
 20
41.5023628343035
 10
30.9770982029084
 20
41.4734347981508
 10
30.91994999006597
 20
41.41593130983645
 10
30.86244650175162
 20
41.38700596516459
 10
30.80494301343728
 20
41.32950247685024
 10
30.71851418045107
 20
41.3009270246886
 10
30.66136327612779
 20
41.24342353637426
 10
30.60385978781344
 20
41.21484808421262
 10
30.5463562994991
 20
41.15734728737912
 10
30.4888555026656
 20
41.12877183521749
 10
30.40277656218962
 20
41.07091576291207
 10
30.34527307387528
 20
41.01341227459772
 10
30.28777227704178
 20
40.98483951391693
 10
30.23026878872743
 20
40.92768860959365
 10
30.17276530041308
 20
40.8701851212793
 10
30.11561708757065
 20
40.81268163296495
 10
30.05811359925631
 20
40.78375359681225
 10
30.00061011094196
 20
40.72625279997875
 10
29.94310662262762
 20
40.66910189565548
 10
29.88595840978519
 20
40.61159840734113
 10
29.82845492147084
 20
40.55409761050763
 10
29.77059884916542
 20
40.49659412219329
 10
29.71309536085108
 20
40.43909063387895
 10
29.65559456401758
 20
40.38193972955567
 10
29.59809107570324
 20
40.35301438488381
 10
29.54094017137996
 20
40.29551089656946
 10
29.48343937454646
 20
40.23800740825511
 10
29.42593588623211
 20
40.18050391994076
 10
29.39700785007941
 20
40.12335570709834
 10
29.33950436176506
 20
40.06585221878399
 10
29.28235345744178
 20
39.97942069431694
 10
29.22485266060828
 20
39.92191989748344
 10
29.16734917229394
 20
39.8644164091691
 10
29.1387737201323
 20
39.80726550484583
 10
29.08091764782689
 20
39.74976201653148
 10
29.02376943498446
 20
39.69226121969798
 10
28.96626594667011
 20
39.63440514739256
 10
28.93769049450848
 20
39.54867879090765
 10
28.88018700619413
 20
39.49117799407415
 10
28.85125897004142
 20
39.4336745057598
 10
28.79375817320792
 20
39.37617101744546
 10
28.73660726888465
 20
39.29009476845032
 10
28.70767923273194
 20
39.23259128013597
 10
28.65017574441759
 20
39.17508779182163
 10
28.6216029837368
 20
39.11758430350728
 10
28.56409949542245
 20
39.03115547052108
 10
28.53517145926975
 20
38.9740045661978
 10
28.47802055494647
 20
38.91650107788345
 10
28.44944510278483
 20
38.83007224489725
 10
28.39194430595133
 20
38.7725687565829
 10
28.36301626979862
 20
38.68684509157883
 10
28.33408823364592
 20
38.62934160326449
 10
28.27658474533157
 20
38.54291007879743
 10
28.24800929316993
 20
38.48540659048309
 10
28.21908125701723
 20
38.39933034148796
 10
28.19086108032751
 20
38.34182685317361
 10
28.13335759201316
 20
38.25539532870656
 10
28.10442955586045
 20
38.19789453187306
 10
28.07585410369881
 20
38.11216817538813
 10
28.0469260675461
 20
38.05466737855464
 10
28.0179980313934
 20
37.96823585408759
 10
27.9604972345599
 20
37.91108494976431
 10
27.93227436638933
 20
37.8246561167781
 10
27.90334633023662
 20
37.73857717630213
 10
27.87477087807499
 20
37.68107368798778
 10
27.84584284192228
 20
37.59499743899264
 10
27.81726738976064
 20
37.53749395067829
 10
27.78834204508878
 20
37.45106242621124
 10
27.75976659292714
 20
37.36533876120717
 10
27.75976659292714
 20
37.30783527289283
 10
27.73083855677443
 20
37.22140374842577
 10
27.70226310461279
 20
37.13497491543956
 10
27.67333506846009
 20
37.07747142712522
 10
27.64475961629845
 20
36.99174776212115
 10
27.64475961629845
 20
36.9053162376541
 10
27.61618416413681
 20
36.81888471318705
 10
27.58725881946495
 20
36.76173650034462
 10
27.55868336730331
 20
36.67565755986863
 10
27.55868336730331
 20
36.58922603540158
 10
27.52975533115061
 20
36.50350237039751
 10
27.52975533115061
 20
36.4456462980921
 10
27.50117987898896
 20
36.35957004909696
 10
27.50117987898896
 20
36.27313852462991
 10
27.47225184283626
 20
36.18741216814499
 10
27.47225184283626
 20
36.10098333515878
 10
27.44367639067462
 20
36.04347984684443
 10
27.44367639067462
 20
35.9574035978493
 10
27.41474835452191
 20
35.87132465737332
 10
27.41474835452191
 20
35.78489313290627
 10
27.41474835452191
 20
35.69881688391113
 10
27.38652817783219
 20
35.64131339559678
 10
27.38652817783219
 20
35.5552344551208
 10
27.38652817783219
 20
35.46880562213459
 10
27.38652817783219
 20
35.3827266816586
 10
27.38652817783219
 20
35.29665043266347
 10
27.35760014167948
 20
35.21021890819642
 10
27.35760014167948
 20
35.15306800387314
 10
27.35760014167948
 20
35.066991754878
 10
27.35760014167948
 20
34.98056023041095
 10
27.35760014167948
 20
34.89413139742474
 10
27.35760014167948
 20
34.80840504093983
 10
27.35760014167948
 20
34.72197351647277
 10
27.35760014167948
 20
34.63554468348657
 10
27.35760014167948
 20
34.57839377916329
 10
27.38652817783219
 20
34.49231753016816
 10
27.38652817783219
 20
34.4058860057011
 10
27.38652817783219
 20
34.31980706522512
 10
27.38652817783219
 20
34.23373081622998
 10
27.38652817783219
 20
34.14729929176293
 10
27.41474835452191
 20
34.08979580344858
 10
27.41474835452191
 20
34.00407213844451
 10
27.41474835452191
 20
33.91764061397746
 10
27.44367639067462
 20
33.83121178099126
 10
27.44367639067462
 20
33.74548542450634
 10
27.47225184283626
 20
33.687981936192
 10
27.47225184283626
 20
33.60155310320579
 10
27.50117987898896
 20
33.51512157873874
 10
27.50117987898896
 20
33.42939791373467
 10
27.52975533115061
 20
33.34296638926762
 10
27.52975533115061
 20
33.28546290095327
 10
27.55868336730331
 20
33.19938665195813
 10
27.55868336730331
 20
33.11330771148214
 10
27.58725881946495
 20
33.02687618701509
 10
27.61618416413681
 20
32.9693753901816
 10
27.64475961629845
 20
32.88329644970561
 10
27.64475961629845
 20
32.79722020071047
 10
27.67333506846009
 20
32.73971671239613
 10
27.70226310461279
 20
32.65363777192014
 10
27.73083855677443
 20
32.56756152292501
 10
27.75976659292714
 20
32.48112999845795
 10
27.75976659292714
 20
32.42362651014361
 10
27.78834204508878
 20
32.33755026114847
 10
27.81726738976064
 20
32.25147132067249
 10
27.84584284192228
 20
32.19361524836708
 10
27.87477087807499
 20
32.107891583363
 10
27.90334633023662
 20
32.05038809504865
 10
27.93227436638933
 20
31.96395657058161
 10
27.9604972345599
 20
31.87788032158647
 10
28.0179980313934
 20
31.82037683327212
 10
28.0469260675461
 20
31.73430058427698
 10
28.07585410369881
 20
31.67679709596264
 10
28.10442955586045
 20
31.59036557149559
 10
28.13335759201316
 20
31.53321735865315
 10
28.19086108032751
 20
31.4467858341861
 10
28.21908125701723
 20
31.38928234587176
 10
28.24800929316993
 20
31.30355868086769
 10
28.27658474533157
 20
31.24605519255335
 10
28.33408823364592
 20
31.15962366808629
 10
28.36301626979862
 20
31.10212287125279
 10
28.39194430595133
 20
31.01604393077681
 10
28.44944510278483
 20
30.95854044246246
 10
28.47802055494647
 20
30.90103964562896
 10
28.53517145926975
 20
30.81496070515298
 10
28.56409949542245
 20
30.75710463284757
 10
28.6216029837368
 20
30.67138096784349
 10
28.65017574441759
 20
30.61387747952915
 10
28.70767923273194
 20
30.5563739912148
 10
28.73660726888465
 20
30.49887319438131
 10
28.79375817320792
 20
30.41279425390532
 10
28.85125897004142
 20
30.35529076559098
 10
28.88018700619413
 20
30.29778996875748
 10
28.93769049450848
 20
30.24028648044313
 10
28.96626594667011
 20
30.15420753996715
 10
29.02376943498446
 20
30.09670674313365
 10
29.08091764782689
 20
30.0392032548193
 10
29.1387737201323
 20
29.98169976650496
 10
29.16734917229394
 20
29.92454886218168
 10
29.22485266060828
 20
29.86704806534818
 10
29.28235345744178
 20
29.80954457703384
 10
29.33950436176506
 20
29.72311305256678
 10
29.39700785007941
 20
29.66561225573328
 10
29.42593588623211
 20
29.60846135141001
 10
29.48343937454646
 20
29.55095786309566
 10
29.54094017137996
 20
29.49345437478132
 10
29.59809107570324
 20
29.43595357794782
 10
29.65559456401758
 20
29.40702554179511
 10
29.71309536085108
 20
29.34987463747183
 10
29.77059884916542
 20
29.29237114915748
 10
29.82845492147084
 20
29.23487035232399
 10
29.88595840978519
 20
29.17736686400964
 10
29.94310662262762
 20
29.12021595968637
 10
30.00061011094196
 20
29.06271247137202
 10
30.05811359925631
 20
29.00485909054745
 10
30.11561708757065
 20
28.97628363838581
 10
30.17276530041308
 20
28.91878015007147
 10
30.23026878872743
 20
28.86127666175712
 10
30.28777227704178
 20
28.80412844891469
 10
30.34527307387528
 20
28.77520041276199
 10
30.40277656218962
 20
28.71769692444764
 10
30.4888555026656
 20
28.66019343613329
 10
30.5463562994991
 20
28.63126539998058
 10
30.60385978781344
 20
28.57376460314709
 10
30.66136327612779
 20
28.54554173497652
 10
30.71851418045107
 20
28.48803824666217
 10
30.80494301343728
 20
28.45911021050947
 10
30.86244650175162
 20
28.40160941367597
 10
30.91994999006597
 20
28.37303396151433
 10
30.9770982029084
 20
28.31553047319998
 10
31.03460169122274
 20
28.28660243704728
 10
31.1210332156898
 20
28.229451532724
 10
31.17853401252329
 20
28.20052618805214
 10
31.23603750083764
 20
28.14302269973779
 10
31.32211644131363
 20
28.11444724757615
 10
31.37961723814712
 20
28.08551921142345
 10
31.43712072646147
 20
28.0280157231091
 10
31.52284708294639
 20
27.99979554641938
 10
31.5807031552518
 20
27.97086751026667
 10
31.6382039520853
 20
27.94193947411396
 10
31.72428289256128
 20
27.88443598579962
 10
31.78178638087563
 20
27.85586053363798
 10
31.83893459371806
 20
27.82693249748527
 10
31.92536611818511
 20
27.79835704532363
 10
31.98286960649946
 20
27.76943170065177
 10
32.06929843948567
 20
27.74085624849014
 10
32.12644934380894
 20
27.68370534416686
 10
32.18395283212328
 20
27.65477730801415
 10
32.27002908111842
 20
27.62620185585251
 10
32.32788515342384
 20
27.59727381969981
 10
32.41360881842791
 20
27.56834847502795
 10
32.47111230674225
 20
27.53977302286631
 10
32.5575438312093
 20
27.5108449867136
 10
32.61504731952365
 20
27.48226953455196
 10
32.70112356851879
 20
27.45334149839925
 10
32.75862705683314
 20
27.45334149839925
 10
32.84470330582827
 20
27.42511863022868
 10
32.90185421015155
 20
27.39619059407598
 10
32.9593576984659
 20
27.36761783339519
 10
33.04578922293295
 20
27.33868979724248
  0
LWPOLYLINE
  5
CB
330
70
100
AcDbEntity
  8
Camada 1
 62
   250
420
  1907995
370
    15
100
AcDbPolyline
 90
      109
 70
     0
 43
0.0
 10
33.04578922293295
 20
27.33865480799146
 10
33.39080476985733
 20
27.22364783136276
 10
33.76404318495227
 20
27.13756889088678
 10
34.10870614788559
 20
27.02256460573894
 10
34.48229983845246
 20
26.90791290458216
 10
34.82731538537684
 20
26.79290592795347
 10
35.17162576431907
 20
26.70647440348642
 10
35.54521945488594
 20
26.59182270232964
 10
35.89023500181032
 20
26.4768184171818
 10
36.26347341690527
 20
26.39038689271474
 10
36.60813907131943
 20
26.27573519155797
 10
36.98173007040545
 20
26.18965625108198
 10
37.32674561732983
 20
26.07465196593414
 10
37.69998403242478
 20
25.98857302545815
 10
38.04464968683894
 20
25.87356874031031
 10
38.41824068592496
 20
25.78748979983433
 10
38.76290364885827
 20
25.70105827536727
 10
39.13649733942513
 20
25.58605399021943
 10
39.51008833851116
 20
25.50032763373451
 10
39.85439871745339
 20
25.41389880074831
 10
40.22798971653941
 20
25.32746727628126
 10
40.57300795494464
 20
25.21281557512448
 10
40.94624637003959
 20
25.12638405065743
 10
41.31983736912561
 20
25.04030511018144
 10
41.66450302353976
 20
24.9542288611863
 10
42.03774143863472
 20
24.86814992071032
 10
42.41133243772074
 20
24.78172108772411
 10
42.75634798464511
 20
24.69564214724813
 10
43.12958909122091
 20
24.63813865893378
 10
43.50318009030693
 20
24.55206240993865
 10
43.84784305324024
 20
24.4656308854716
 10
44.22108146833519
 20
24.37955463647646
 10
44.59467515890206
 20
24.29347569600047
 10
44.93969070582644
 20
24.23597220768613
 10
45.31328170491245
 20
24.14989595869099
 10
45.68652012000741
 20
24.06381701821501
 10
46.06011381057427
 20
24.00596094590959
 10
46.40442418951652
 20
23.91988469691445
 10
46.77801249712168
 20
23.86273379259117
 10
47.15160618768855
 20
23.77630495960497
 10
47.5248446027835
 20
23.71880147129063
 10
47.86986014970788
 20
23.66129798297628
 10
48.24345384027475
 20
23.57521904250029
 10
48.61704753084161
 20
23.5177182456668
 10
48.99028594593657
 20
23.46021475735245
 10
49.33494621738903
 20
23.40271126903811
 10
49.70889518342781
 20
23.31663502004297
 10
50.08213359852277
 20
23.25913153172862
 10
50.45572190612793
 20
23.20162804341427
 10
50.82931559669479
 20
23.14412455509993
 10
51.20255401178975
 20
23.08662375826643
 10
51.54721966620391
 20
23.02947285394315
 10
51.92045808129886
 20
22.97196936562881
 10
52.29404638890403
 20
22.91446856879531
 10
52.6676400794709
 20
22.85696508048097
 10
53.04087849456585
 20
22.79981417615768
 10
53.38589404149022
 20
22.77088614000498
 10
53.7594877320571
 20
22.71338534317148
 10
54.13308142262396
 20
22.65588185485714
 10
54.50631983771891
 20
22.59837836654279
 10
54.87990814532408
 20
22.5694516761305
 10
55.25314656041903
 20
22.51194818781616
 10
55.6267402509859
 20
22.48372666538601
 10
55.97140590540005
 20
22.42622317707167
 10
56.34464432049501
 20
22.39729648665939
 10
56.68965986741938
 20
22.33979299834504
 10
57.00574737819106
 20
22.3112175461834
 10
57.35041303260522
 20
22.28229085577112
 10
57.66650054337689
 20
22.22513995144784
 10
57.98223816163834
 20
22.19621326103556
 10
58.32725370856272
 20
22.16763780887392
 10
58.64334121933439
 20
22.13870977272121
 10
58.98800687374855
 20
22.11013432055957
 10
59.30409438452023
 20
22.08120763014729
 10
59.6491153144063
 20
22.05263217798565
 10
59.96449765719583
 20
22.02370414183294
 10
60.2805851679675
 20
21.99512868967131
 10
60.62560071489189
 20
21.96655458325009
 10
60.94168822566356
 20
21.93797913108845
 10
61.28600398756749
 20
21.90905109493574
 10
61.60209149833917
 20
21.88012440452346
 10
61.94710704526355
 20
21.85154895236182
 10
62.26319455603523
 20
21.82262091620911
 10
62.60786021044938
 20
21.79404546404748
 10
62.92394772122105
 20
21.76511877363519
 10
63.09610560217302
 20
21.76511877363519
 10
63.26861337563521
 20
21.76511877363519
 10
63.41219311294469
 20
21.73654332147355
 10
63.58470088640689
 20
21.73654332147355
 10
63.75720865986908
 20
21.73654332147355
 10
63.90078839717856
 20
21.70761528532084
 10
64.07294627813053
 20
21.70761528532084
 10
64.24545405159271
 20
21.70761528532084
 10
64.41761193254468
 20
21.6793937628907
 10
64.5615415623644
 20
21.6793937628907
 10
64.73369944331636
 20
21.6793937628907
 10
64.90585194130663
 20
21.65046572673799
 10
65.07871499024074
 20
21.65046572673799
 10
65.22194483504001
 20
21.65046572673799
 10
65.39480250101241
 20
21.65046572673799
 10
65.56696038196438
 20
21.62189027457635
 10
65.73911826291634
 20
21.62189027457635
 10
65.88304789273606
 20
21.62189027457635
 10
66.05520577368803
 20
21.62189027457635
 10
66.22771354715021
 20
21.59296223842364
 10
66.4002213206124
 20
21.59296223842364
 10
66.54345116541167
 20
21.59296223842364
 10
66.71630883138409
 20
21.59296223842364
 10
66.88846671233604
 20
21.56403554801136
  0
LWPOLYLINE
  5
CC
330
70
100
AcDbEntity
  8
Camada 1
 62
   250
420
  1907995
370
    15
100
AcDbPolyline
 90
      108
 70
     0
 43
0.0
 10
66.88853669083809
 20
48.22458117656961
 10
66.71637880988612
 20
48.19600303292713
 10
66.54351576095201
 20
48.19600303292713
 10
66.40029129911444
 20
48.19600303292713
 10
66.22742825018034
 20
48.19600303292713
 10
66.05527036922836
 20
48.16707499677442
 10
65.8831178712381
 20
48.16707499677442
 10
65.7391828584567
 20
48.16707499677442
 10
65.56703036046643
 20
48.16707499677442
 10
65.39452258700423
 20
48.13814696062172
 10
65.22200943058035
 20
48.13814696062172
 10
65.07878496874278
 20
48.13814696062172
 10
64.90592191980868
 20
48.13814696062172
 10
64.73376942181841
 20
48.10957419994092
 10
64.56126164835622
 20
48.10957419994092
 10
64.41767652808504
 20
48.10957419994092
 10
64.24552403009475
 20
48.08064616378821
 10
64.07301625663257
 20
48.08064616378821
 10
63.90085837568061
 20
48.08064616378821
 10
63.75692336289921
 20
48.05242329561765
 10
63.58477086490893
 20
48.05242329561765
 10
63.41226309144674
 20
48.05242329561765
 10
63.26868335413726
 20
48.02349525946493
 10
62.92366242425118
 20
48.02349525946493
 10
62.60757491347951
 20
47.99492249878414
 10
62.26326453453727
 20
47.96599446263144
 10
61.9471770237656
 20
47.93741631898895
 10
61.60216147684121
 20
47.90848828283624
 10
61.28606858310785
 20
47.87991552215546
 10
60.9417582041656
 20
47.85098748600275
 10
60.62567069339394
 20
47.82205944985004
 10
60.28065514646955
 20
47.79383658167946
 10
59.96456225273618
 20
47.76490854552676
 10
59.64883001743643
 20
47.73633578484598
 10
59.30381447051205
 20
47.70740774869326
 10
58.98807685225059
 20
47.67882960505078
 10
58.64341119783643
 20
47.64990156889807
 10
58.32732368706476
 20
47.62132880821728
 10
57.98230814014038
 20
47.59240077206458
 10
57.66621524640701
 20
47.56382801138378
 10
57.35048301110726
 20
47.5066771070605
 10
57.0058173566931
 20
47.47774907090779
 10
56.68972984592143
 20
47.44882103475509
 10
56.34471429899704
 20
47.4202428911126
 10
55.9714758839021
 20
47.3627420942791
 10
55.62681022948794
 20
47.30524129744561
 10
55.25321653892107
 20
47.2763132612929
 10
54.87997812382612
 20
47.21916235696962
 10
54.50638981622095
 20
47.19058421332714
 10
54.13279612565409
 20
47.13308341649364
 10
53.75955771055913
 20
47.07522734418822
 10
53.38596401999227
 20
47.01772654735473
 10
53.04094847306789
 20
46.98950367918416
 10
52.66771005797294
 20
46.93200288235066
 10
52.29411636740607
 20
46.87449670255547
 10
51.9205280598009
 20
46.81699590572196
 10
51.54728964470596
 20
46.75913983341655
 10
51.20262399029179
 20
46.70163903658305
 10
50.82903029972492
 20
46.64448813225978
 10
50.45579188462998
 20
46.58698195246458
 10
50.0822035770248
 20
46.52948115563108
 10
49.70860988645794
 20
46.47198035879759
 10
49.33501619589107
 20
46.3859014183216
 10
48.99035592443861
 20
46.32840062148811
 10
48.61676223387174
 20
46.27089444169291
 10
48.24352381877679
 20
46.21339364485941
 10
47.86993012820992
 20
46.12766997985534
 10
47.52491458128555
 20
46.07016380006014
 10
47.15167616619059
 20
46.01230772775473
 10
46.77808247562373
 20
45.92622878727875
 10
46.40449416801856
 20
45.86908326591717
 10
46.06018378907632
 20
45.78264904996927
 10
45.68659009850946
 20
45.72514825313577
 10
45.31299640794258
 20
45.63871942014957
 10
44.93976068432848
 20
45.5529903721838
 10
44.5947451374041
 20
45.4954895753503
 10
44.22115413831808
 20
45.40906074236409
 10
43.84791572322313
 20
45.3226265264162
 10
43.50325006880897
 20
45.23690286141213
 10
43.12965906972296
 20
45.17940206457863
 10
42.756420654628
 20
45.09297054011158
 10
42.41140241622278
 20
45.00724687510751
 10
42.03781141713676
 20
44.92081535064046
 10
41.66422041805074
 20
44.83438651765425
 10
41.3199100391085
 20
44.74866016116933
 10
40.94631634854163
 20
44.66223132818313
 10
40.57272534945561
 20
44.57579980371607
 10
40.2280623865223
 20
44.46114541107845
 10
39.85446869595544
 20
44.37506916208332
 10
39.50980573302213
 20
44.28863763761626
 10
39.13656731792718
 20
44.20256138862113
 10
38.76297631884116
 20
44.08755441199243
 10
38.41795808043593
 20
44.0014781629973
 10
38.04471966534098
 20
43.91539922252131
 10
37.70005670240767
 20
43.80039493737347
 10
37.32646570332165
 20
43.71396341290641
 10
36.98144746491642
 20
43.59931171174964
 10
36.60820904982148
 20
43.51288018728259
 10
36.26354608688816
 20
43.39787321065389
 10
35.89030498031237
 20
43.31214954564983
 10
35.54528943338798
 20
43.19678998503007
 10
35.17169843430197
 20
43.08213828387329
 10
34.82703277988781
 20
42.9960593433973
 10
34.4823698169545
 20
42.88105505824947
 10
34.10877881786848
 20
42.76605077310161
 10
33.76411316345432
 20
42.65104379647293
 10
33.39087474835937
 20
42.56532013146886
 10
33.04585920143499
 20
42.4499605708491
  0
LWPOLYLINE
  5
CD
330
70
100
AcDbEntity
  8
Camada 1
 62
   250
420
  1907995
370
    15
100
AcDbPolyline
 90
      257
 70
     0
 43
0.0
 10
66.88853669083809
 20
21.56400055876034
 10
67.06068918882836
 20
21.56400055876034
 10
67.23319696229054
 20
21.56400055876034
 10
67.37677669960004
 20
21.56400055876034
 10
67.54928447306223
 20
21.56400055876034
 10
67.7214423540142
 20
21.59292724917262
 10
67.89395012747639
 20
21.59292724917262
 10
68.06645790093857
 20
21.59292724917262
 10
68.21003763824805
 20
21.59292724917262
 10
68.38254541171025
 20
21.62185528532533
 10
68.55470329266221
 20
21.62185528532533
 10
68.72686117361418
 20
21.65043073748697
 10
68.8997188395866
 20
21.67935877363968
 10
69.04294868438586
 20
21.67935877363968
 10
69.21510118237613
 20
21.70793288006089
 10
69.38796423131023
 20
21.7368609162136
 10
69.5601221122622
 20
21.76508378438417
 10
69.70405174208192
 20
21.79401047479645
 10
69.87620962303388
 20
21.82258592695809
 10
70.04836212102415
 20
21.8515139631108
 10
70.22087527744805
 20
21.90901610568472
 10
70.36445501475752
 20
21.93794414183743
 10
70.53696278821971
 20
21.96651959399907
 10
70.68054252552919
 20
22.02366915258192
 10
70.85305029899139
 20
22.05259718873463
 10
71.02555807245358
 20
22.11009933130855
 10
71.16878791725284
 20
22.13867478347019
 10
71.34129569071503
 20
22.19617827178453
 10
71.48487542802451
 20
22.25332783036739
 10
71.65738320148669
 20
22.3111839026728
 10
71.80096293879618
 20
22.36868604524672
 10
71.97312081974814
 20
22.42618818782065
 10
72.11705583252954
 20
22.48369167613499
 10
72.26098546234926
 20
22.54119381870891
 10
72.43314334330122
 20
22.59834337729177
 10
72.57672308061071
 20
22.65584686560611
 10
72.72030281792019
 20
22.74227569859232
 10
72.89281059138237
 20
22.79977918690667
 10
73.03639032869186
 20
22.88550554339158
 10
73.17997544896304
 20
22.94300634022508
 10
73.32390507878274
 20
23.02943786469213
 10
73.49606295973472
 20
23.11551680516812
 10
73.63964269704419
 20
23.17301760200161
 10
73.78322243435367
 20
23.2590965424776
 10
73.92680217166315
 20
23.34552806694465
 10
74.07073718444455
 20
23.43160431593979
 10
74.21431692175405
 20
23.51768325641577
 10
74.35789665906352
 20
23.60411208940198
 10
74.501476396373
 20
23.6898384458869
 10
74.6454114091544
 20
23.77626997035395
 10
74.78864125395367
 20
23.89127425550179
 10
74.90399812309258
 20
23.97735319597778
 10
75.04722796789184
 20
24.06378202896398
 10
75.19115759771155
 20
24.17878900559268
 10
75.30581468183001
 20
24.26451267059674
 10
75.44974431164972
 20
24.37951964722544
 10
75.59297415644898
 20
24.46594848021164
 10
75.7083310255879
 20
24.58060287284926
 10
75.85156087038716
 20
24.69560715799711
 10
75.96691773952606
 20
24.8106141346258
 10
76.08192471615476
 20
24.89669038362094
 10
76.22514917799232
 20
25.01169736024963
 10
76.34051143009293
 20
25.1263490614064
 10
76.45516313124971
 20
25.24170862202617
 10
76.57017010787839
 20
25.35636032318294
 10
76.68482180903518
 20
25.47136729981163
 10
76.79982340270218
 20
25.58601900096841
 10
76.91483037933086
 20
25.72995132226896
 10
77.02983735595956
 20
25.84495829889765
 10
77.14484433258824
 20
25.95961000005443
 10
77.25949603374502
 20
26.07461697668312
 10
77.37450301037371
 20
26.2181967139926
 10
77.48915471153049
 20
26.33320099914044
 10
77.57558354451671
 20
26.47678342793077
 10
77.69059052114539
 20
26.59178771307862
 10
77.80524222230217
 20
26.73537014186895
 10
77.89167105528837
 20
26.85037442701679
 10
77.97774999576436
 20
26.99395416432628
 10
78.09240169692113
 20
27.1375365931166
 10
78.17883591286904
 20
27.28111633042609
 10
78.26526474585524
 20
27.39612061557393
 10
78.37991644701201
 20
27.53970304436426
 10
78.46635066295991
 20
27.68363536566481
 10
78.55242422047421
 20
27.82686251898323
 10
78.63850316095019
 20
27.97079753176463
 10
78.72458210142617
 20
28.11437726907411
 10
78.81101093441237
 20
28.25795700638359
 10
78.89708987488837
 20
28.40153943517393
 10
78.95459067172186
 20
28.54547175647447
 10
79.04066961219784
 20
28.68905149378396
 10
79.12710382814575
 20
28.83263392257429
 10
79.18424934950732
 20
29.00478911204541
 10
79.27068356545523
 20
29.14872143334596
 10
79.32818436228872
 20
29.29230117065544
 10
79.41390802729279
 20
29.43623618343684
 10
79.47141420708799
 20
29.57946333675526
 10
79.5292702793934
 20
29.75197111021744
 10
79.5867710762269
 20
29.89555353900778
 10
79.6442718730604
 20
30.03913327631726
 10
79.70177805285558
 20
30.21164104977945
 10
79.75892895717887
 20
30.35522078708893
 10
79.81642975401236
 20
30.52773125203197
 10
79.87393055084587
 20
30.67131098934145
 10
79.93143673064105
 20
30.84346617881257
 10
79.98858225200264
 20
30.98739850011313
 10
80.01751028815535
 20
31.15955638106509
 10
80.07501646795054
 20
31.30348870236565
 10
80.10358922863133
 20
31.47564389183676
 10
80.16109540842654
 20
31.61957621313732
 10
80.19002344457923
 20
31.79173409408929
 10
80.21859620526003
 20
31.96388928356041
 10
80.27609700209351
 20
32.10782160486096
 10
80.30467514573601
 20
32.27997679433208
 10
80.33360318188872
 20
32.45248456779427
 10
80.36217594256951
 20
32.59606699658461
 10
80.39110397872221
 20
32.76822218605572
 10
80.419676739403
 20
32.94108254350899
 10
80.419676739403
 20
33.0843096968274
 10
80.44860477555571
 20
33.25682016177044
 10
80.47718291919819
 20
33.42932793523262
 10
80.47718291919819
 20
33.60148312470374
 10
80.5061109553509
 20
33.74541544600429
 10
80.5061109553509
 20
33.91757332695627
 10
80.53433382352148
 20
34.09008110041845
 10
80.53433382352148
 20
34.23366083772794
 10
80.53433382352148
 20
34.40581602719906
 10
80.56326185967419
 20
34.57832380066125
 10
80.56326185967419
 20
34.75083426560428
 10
80.56326185967419
 20
34.89441400291377
 10
80.56326185967419
 20
35.06692177637596
 10
80.53433382352148
 20
35.23907696584708
 10
80.53433382352148
 20
35.41158473930927
 10
80.53433382352148
 20
35.5551671680996
 10
80.53433382352148
 20
35.72767494156179
 10
80.5061109553509
 20
35.89983013103291
 10
80.5061109553509
 20
36.07198532050404
 10
80.47718291919819
 20
36.21592033328543
 10
80.47718291919819
 20
36.38807552275655
 10
80.44860477555571
 20
36.56093588020981
 10
80.419676739403
 20
36.73309106968093
 10
80.39110397872221
 20
36.87702608246233
 10
80.39110397872221
 20
37.04918127193346
 10
80.36217594256951
 20
37.22133646140458
 10
80.33360318188872
 20
37.36526878270512
 10
80.30467514573601
 20
37.53742397217625
 10
80.24716896594082
 20
37.70957916164737
 10
80.21859620526003
 20
37.85351417442877
 10
80.19002344457923
 20
38.02566936389989
 10
80.13251726478404
 20
38.19817713736208
 10
80.10358922863133
 20
38.34175687467156
 10
80.04608843179784
 20
38.5142673396146
 10
80.01751028815535
 20
38.65784707692409
 10
79.96036476679377
 20
38.8300022663952
 10
79.93143673064105
 20
38.97393727917661
 10
79.87393055084587
 20
39.14609246864772
 10
79.81642975401236
 20
39.29002478994828
 10
79.75892895717887
 20
39.46217997941939
 10
79.70177805285558
 20
39.6061149922008
 10
79.6442718730604
 20
39.74969472951027
 10
79.5867710762269
 20
39.9218499189814
 10
79.5292702793934
 20
40.06578224028195
 10
79.4428360634455
 20
40.20901208508121
 10
79.38568515912222
 20
40.38187244253447
 10
79.32818436228872
 20
40.52509959585289
 10
79.24175552930252
 20
40.66903191715343
 10
79.18424934950732
 20
40.81261434594376
 10
79.09817579199304
 20
40.98512211940596
 10
79.04066961219784
 20
41.12870185671543
 10
78.95459067172186
 20
41.27228428550576
 10
78.86816183873566
 20
41.41586402281524
 10
78.78208289825967
 20
41.5597963441158
 10
78.69600934074537
 20
41.70302618891507
 10
78.60957512479747
 20
41.84660592622455
 10
78.5238514597934
 20
41.99053824752509
 10
78.4374226268072
 20
42.13376540084351
 10
78.3509884108593
 20
42.27770041362491
 10
78.26526474585524
 20
42.42128015093439
 10
78.17883591286904
 20
42.53628712756309
 10
78.06382893624034
 20
42.67986686487257
 10
77.97774999576436
 20
42.82344660218205
 10
77.86274301913566
 20
42.93880616280181
 10
77.77701935413159
 20
43.08203331612022
 10
77.66166248499269
 20
43.22561305342971
 10
77.57558354451671
 20
43.3406200300584
 10
77.46093184335991
 20
43.48455235135895
 10
77.34557497422101
 20
43.59920674399657
 10
77.25949603374502
 20
43.71421102914442
 10
77.14484433258824
 20
43.8577907664539
 10
77.02983735595956
 20
43.97279774308259
 10
76.91483037933086
 20
44.08744944423936
 10
76.79982340270218
 20
44.20245372938722
 10
76.68482180903518
 20
44.31781329000697
 10
76.57017010787839
 20
44.43246499116375
 10
76.45516313124971
 20
44.57604741995408
 10
76.31158339394023
 20
44.69105170510192
 10
76.19657641731153
 20
44.77713064557791
 10
76.08192471615476
 20
44.89178234673468
 10
75.93798970337336
 20
45.00714190735444
 10
75.82333800221658
 20
45.12214619250229
 10
75.67940298943518
 20
45.23679520217821
 10
75.5643960128065
 20
45.3228741426542
 10
75.42081627549702
 20
45.43788111928289
 10
75.30581468183001
 20
45.52396005975888
 10
75.16222956155883
 20
45.63896703638756
 10
75.01900509972127
 20
45.72504059390186
 10
74.90399812309258
 20
45.84004757053055
 10
74.76006311031118
 20
45.92647640351676
 10
74.6164833730017
 20
46.01220545148252
 10
74.4725483602203
 20
46.09863428446872
 10
74.32932389838274
 20
46.21364126109742
 10
74.18538888560132
 20
46.2997148186117
 10
74.04180914829185
 20
46.38579375908769
 10
73.89857930349259
 20
46.47222797503559
 10
73.75464967367289
 20
46.52937349639716
 10
73.6110699363634
 20
46.61580771234507
 10
73.46713492358201
 20
46.70188665282106
 10
73.32390507878274
 20
46.78831548580726
 10
73.17997544896304
 20
46.84546639013054
 10
73.00781756801106
 20
46.93189522311675
 10
72.86388255522966
 20
46.98939601995024
 10
72.72030281792019
 20
47.04690219974543
 10
72.57672308061071
 20
47.13297575725973
 10
72.40421530714852
 20
47.19048193705492
 10
72.26098546234926
 20
47.24798273388842
 10
72.08847768888706
 20
47.30548891368361
 10
71.94489795157759
 20
47.36263443504519
 10
71.80096293879618
 20
47.42014061484038
 10
71.62881044080591
 20
47.47764141167388
 10
71.48487542802451
 20
47.53514759146908
 10
71.31272293003424
 20
47.59264838830257
 10
71.16878791725284
 20
47.64979929262586
 10
70.99663003630087
 20
47.67872732877856
 10
70.82447753831059
 20
47.73622812561206
 10
70.68054252552919
 20
47.76480088629285
 10
70.50838464457722
 20
47.82230706608804
 10
70.36445501475752
 20
47.85123510224075
 10
70.19229713380555
 20
47.90838600656402
 10
70.02014463581528
 20
47.93731404271674
 10
69.87620962303388
 20
47.96588680339753
 10
69.70405174208192
 20
47.99481483955023
 10
69.5311940761095
 20
48.02338760023102
 10
69.38796423131023
 20
48.05231563638373
 10
69.21510118237613
 20
48.08089378002622
 10
69.04294868438586
 20
48.10982181617893
 10
68.87079080343389
 20
48.10982181617893
 10
68.72686117361418
 20
48.13839457685972
 10
68.55470329266221
 20
48.16732261301242
 10
68.38254541171025
 20
48.16732261301242
 10
68.21003763824805
 20
48.19625064916513
 10
68.03752986478587
 20
48.19625064916513
 10
67.89395012747639
 20
48.19625064916513
 10
67.7214423540142
 20
48.19625064916513
 10
67.54928447306223
 20
48.2244735173357
 10
67.37677669960004
 20
48.2244735173357
 10
67.23319696229054
 20
48.2244735173357
 10
67.06068918882836
 20
48.2244735173357
 10
66.88853669083809
 20
48.2244735173357
  0
LWPOLYLINE
  5
CE
330
70
100
AcDbEntity
  8
Camada 1
 62
   250
420
  1907995
370
    15
100
AcDbPolyline
 90
       65
 70
     0
 43
0.0
 10
31.40815770105774
 20
25.35646798241685
 10
32.01175996192029
 20
25.15538206531218
 10
32.61500963879178
 20
24.98287429184999
 10
33.18968386350163
 20
24.78179106622615
 10
33.79258095638204
 20
24.60963587675504
 10
34.39583063325353
 20
24.43712810329285
 10
34.99943558559693
 20
24.26462032983066
 10
35.57410981030678
 20
24.09246514035954
 10
36.17735948717827
 20
23.9199546754165
 10
36.78025658005868
 20
23.74779948594538
 10
37.38385884092124
 20
23.57493912849212
 10
37.98710851779272
 20
23.4317119751737
 10
38.5903581946642
 20
23.25920151023066
 10
39.19396314700761
 20
23.11562177292119
 10
39.7972128238791
 20
22.94311399945899
 10
40.40010991675951
 20
22.79953426214951
 10
41.00371217762206
 20
22.65595183335918
 10
41.63588989064626
 20
22.51202085779905
 10
42.23913956751775
 20
22.36879235874022
 10
42.84203666039816
 20
22.22485869169924
 10
43.44564161274156
 20
22.11020699054246
 10
44.04889128961305
 20
21.96627332350149
 10
44.68106900263724
 20
21.85162027660429
 10
45.28431598802789
 20
21.70768660956332
 10
45.88791824889043
 20
21.59303356266612
 10
46.51974337792355
 20
21.47802793177785
 10
47.12299574627588
 20
21.36337623062107
 10
47.72624273166653
 20
21.2483705997328
 10
48.35842313617157
 20
21.13301238485346
 10
48.96132022905199
 20
21.01835933795626
 10
49.56492248991454
 20
20.903353707068
 10
50.19709751145789
 20
20.81692352834137
 10
50.80034987981022
 20
20.70227048144417
 10
51.43217500884334
 20
20.61619288670861
 10
52.03542737719568
 20
20.52976136224156
 10
52.66760239873903
 20
20.443683767506
 10
53.27120465960158
 20
20.35760617277043
 10
53.90267989612448
 20
20.2711759940438
 10
54.50628215698704
 20
20.18545098329932
 10
55.13845717853038
 20
20.09902080457269
 10
55.77063758303542
 20
20.01258928010563
 10
56.37353467591584
 20
19.95543972152278
 10
57.00570969745919
 20
19.89793757894885
 10
57.60896206581151
 20
19.81185863847287
 10
58.24113708735486
 20
19.75400391190788
 10
58.87296221638798
 20
19.69650042359353
 10
59.50514262089303
 20
19.63935086501068
 10
60.10839498924536
 20
19.58184872243676
 10
60.74057001078871
 20
19.52434523412241
 10
61.37239513982184
 20
19.49576978196077
 10
62.00457554432688
 20
19.43791505539578
 10
62.63675056587022
 20
19.38076549681293
 10
63.26857569490335
 20
19.35219004465129
 10
63.90075609940838
 20
19.32326200849858
 10
64.53258122844151
 20
19.29468655633694
 10
65.16475624998486
 20
19.26575986592466
 10
65.79658137901798
 20
19.23718441376302
 10
66.42876178352302
 20
19.20825637761032
 10
67.06093680506636
 20
19.17968092544868
 10
67.69276193409949
 20
19.15075423503639
 10
68.32494233860453
 20
19.15075423503639
 10
68.95711736014788
 20
19.12253136686582
 10
69.58929776465291
 20
19.12253136686582
 10
70.22076761821413
 20
19.12253136686582
 10
70.85294263975747
 20
19.12253136686582
  0
LWPOLYLINE
  5
CF
330
70
100
AcDbEntity
  8
Camada 1
 62
   250
420
  1907995
370
    15
100
AcDbPolyline
 90
      242
 70
     0
 43
0.0
 10
22.84698237801628
 20
36.21588534403441
 10
22.84698237801628
 20
36.18730989187277
 10
22.84698237801628
 20
36.15838185572007
 10
22.84698237801628
 20
36.10087836740572
 10
22.84698237801628
 20
36.07195033125301
 10
22.84698237801628
 20
36.01479942692974
 10
22.84698237801628
 20
35.98622666624894
 10
22.84698237801628
 20
35.92872317793459
 10
22.84698237801628
 20
35.89979514178189
 10
22.84698237801628
 20
35.87121968962025
 10
22.84698237801628
 20
35.81406878529698
 10
22.84698237801628
 20
35.78514344062512
 10
22.81840692585465
 20
35.72763995231077
 10
22.81840692585465
 20
35.69871191615806
 10
22.81840692585465
 20
35.64120842784372
 10
22.81840692585465
 20
35.61263297568208
 10
22.81840692585465
 20
35.58370493952937
 10
22.81840692585465
 20
35.55513217884858
 10
22.81840692585465
 20
35.52655672668694
 10
22.81840692585465
 20
35.4979812745253
 10
22.81840692585465
 20
35.4690532383726
 10
22.81840692585465
 20
35.44047778621095
 10
22.81840692585465
 20
35.41154975005825
 10
22.81840692585465
 20
35.35404895322475
 10
22.81840692585465
 20
35.32512091707204
 10
22.81840692585465
 20
35.2676174287577
 10
22.81840692585465
 20
35.23939456058712
 10
22.81840692585465
 20
35.18189107227278
 10
22.81840692585465
 20
35.15296572760092
 10
22.81840692585465
 20
35.09546223928658
 10
22.81840692585465
 20
35.06688678712494
 10
22.81840692585465
 20
35.00903071481952
 10
22.81840692585465
 20
34.98080784664895
 10
22.81840692585465
 20
34.92330704981546
 10
22.81840692585465
 20
34.89437901366275
 10
22.81840692585465
 20
34.8368755253484
 10
22.81840692585465
 20
34.77937203703405
 10
22.81840692585465
 20
34.72187124020056
 10
22.81840692585465
 20
34.69294320404785
 10
22.81840692585465
 20
34.63579229972457
 10
22.81840692585465
 20
34.57828881141022
 10
22.81840692585465
 20
34.52078801457673
 10
22.81840692585465
 20
34.46328452626238
 10
22.81840692585465
 20
34.40613362193911
 10
22.84698237801628
 20
34.37755816977747
 10
22.84698237801628
 20
34.3197047889529
 10
22.84698237801628
 20
34.26220130063855
 10
22.84698237801628
 20
34.20469781232421
 10
22.84698237801628
 20
34.14754690800093
 10
22.84698237801628
 20
34.09004611116743
 10
22.87590772268814
 20
34.06147065900579
 10
22.87590772268814
 20
34.00396717069145
 10
22.87590772268814
 20
33.94611109838603
 10
22.87590772268814
 20
33.88861030155253
 10
22.87590772268814
 20
33.83145939722926
 10
22.90448317484978
 20
33.77395590891492
 10
22.90448317484978
 20
33.74538045675328
 10
22.90448317484978
 20
33.68787965991977
 10
22.93341121100249
 20
33.63002358761436
 10
22.93341121100249
 20
33.57287268329108
 10
22.93341121100249
 20
33.51536919497674
 10
22.96198666316413
 20
33.48679643429595
 10
22.96198666316413
 20
33.4292929459816
 10
22.96198666316413
 20
33.37178945766726
 10
22.99091469931684
 20
33.31463855334398
 10
22.99091469931684
 20
33.25678517251941
 10
22.99091469931684
 20
33.22820972035777
 10
23.0191375674874
 20
33.17070623204342
 10
23.0191375674874
 20
33.11320274372908
 10
23.04806560364011
 20
33.05605453088665
 10
23.04806560364011
 20
32.9985510425723
 10
23.07699094831197
 20
32.9696230064196
 10
23.07699094831197
 20
32.91211951810525
 10
23.10556640047361
 20
32.85461872127175
 10
23.10556640047361
 20
32.79711523295741
 10
23.13449443662632
 20
32.7681871968047
 10
23.13449443662632
 20
32.71103629248143
 10
23.16306988878796
 20
32.65353549564792
 10
23.16306988878796
 20
32.59603200733358
 10
23.19199792494066
 20
32.56745655517194
 10
23.19199792494066
 20
32.50960048286652
 10
23.2205733771023
 20
32.45244957854325
 10
23.2205733771023
 20
32.39494878170975
 10
23.24950141325501
 20
32.36637332954811
 10
23.27772158994473
 20
32.30886984123376
 10
23.27772158994473
 20
32.25136635291942
 10
23.30664962609744
 20
32.19386555608592
 10
23.33522507825907
 20
32.16529010392429
 10
23.33522507825907
 20
32.10778661560994
 10
23.36415311441179
 20
32.0502831272956
 10
23.39272856657342
 20
31.99278233046209
 10
23.39272856657342
 20
31.96385429430939
 10
23.42165660272613
 20
31.90670338998611
 10
23.45058463887884
 20
31.84919990167176
 10
23.45058463887884
 20
31.82027186551906
 10
23.47916009104048
 20
31.76277106868556
 10
23.50808543571234
 20
31.70526758037121
 10
23.53666088787397
 20
31.64811667604793
 10
23.53666088787397
 20
31.6195412238863
 10
23.56523634003561
 20
31.5620404270528
 10
23.59381179219725
 20
31.50418435474738
 10
23.62273982834996
 20
31.47560890258575
 10
23.6513152805116
 20
31.4181054142714
 10
23.6513152805116
 20
31.36095720142897
 10
23.6802433166643
 20
31.33202916527626
 10
23.7088160773451
 20
31.27452567696192
 10
23.7377441134978
 20
31.21702218864757
 10
23.76631956565944
 20
31.18844673648593
 10
23.79524760181215
 20
31.13059335566136
 10
23.82417563796486
 20
31.1023704874908
 10
23.82417563796486
 20
31.04486699917645
 10
23.85239850613543
 20
30.9873635108621
 10
23.88132654228813
 20
30.95843816619024
 10
23.90989930296893
 20
30.90093467787589
 10
23.93882733912163
 20
30.87235922571426
 10
23.96740279128327
 20
30.81520832139098
 10
23.99633082743598
 20
30.75735494056642
 10
24.02490627959762
 20
30.72877948840478
 10
24.05383431575032
 20
30.67127600009043
 10
24.08205718392089
 20
30.64234796393773
 10
24.11098252859276
 20
30.58484447562338
 10
24.13991056474546
 20
30.52769626278095
 10
24.1684860169071
 20
30.49912081061931
 10
24.19741405305981
 20
30.44161732230496
 10
24.22598950522145
 20
30.41268928615226
 10
24.25491754137415
 20
30.35518579783791
 10
24.28349299353579
 20
30.32626045316605
 10
24.3124210296885
 20
30.26910954884277
 10
24.34099379036929
 20
30.24053409668113
 10
24.369921826522
 20
30.18303060836679
 10
24.39814469469256
 20
30.15410257221408
 10
24.42707273084527
 20
30.09660177538058
 10
24.45564818300691
 20
30.06767373922788
 10
24.48457621915962
 20
30.01017025091353
 10
24.51350425531233
 20
29.98194738274296
 10
24.57100505214583
 20
29.92444658590946
 10
24.59958050430746
 20
29.89551854975676
 10
24.62850854046017
 20
29.83801506144241
 10
24.65673140863074
 20
29.80943960928077
 10
24.68565944478345
 20
29.75228870495749
 10
24.71423489694509
 20
29.72336336028563
 10
24.74316293309779
 20
29.66585987197129
 10
24.77173569377859
 20
29.63693183581858
 10
24.82923918209293
 20
29.57942834750424
 10
24.85816721824564
 20
29.5508528953426
 10
24.88709525439834
 20
29.52192485918989
 10
24.91567070655998
 20
29.46477664634746
 10
24.94424615872163
 20
29.43620119418582
 10
25.00174695555512
 20
29.3783451218804
 10
25.03032240771676
 20
29.34976966971877
 10
25.05925044386947
 20
29.32084163356606
 10
25.08782589603111
 20
29.26334083673256
 10
25.14532938434545
 20
29.23476538457092
 10
25.17425742049816
 20
29.17761448024764
 10
25.20318276517002
 20
29.14868644409494
 10
25.23140563334059
 20
29.1201109919333
 10
25.28890912165493
 20
29.0626101950998
 10
25.31783715780764
 20
29.0336821589471
 10
25.34641260996928
 20
29.00475412279439
 10
25.37534064612199
 20
28.94725063448004
 10
25.43284144295549
 20
28.91902776630947
 10
25.46106431112606
 20
28.89009973015676
 10
25.48999234727876
 20
28.83259893332327
 10
25.54749583559311
 20
28.80402348116163
 10
25.57642387174582
 20
28.77509544500892
 10
25.60499663242661
 20
28.71759195669458
 10
25.66250012074095
 20
28.68901650453294
 10
25.69142815689366
 20
28.66009115986108
 10
25.7200036090553
 20
28.6029402555378
 10
25.77715451337858
 20
28.57401221938509
 10
25.80607985805043
 20
28.54543676722345
 10
25.83465531021208
 20
28.51650873107074
 10
25.89215879852642
 20
28.4590052427564
 10
25.92108683467913
 20
28.43043248207561
 10
25.95001487083183
 20
28.4015044459229
 10
26.00751835914618
 20
28.37328157775233
 10
26.0357385358359
 20
28.31577808943798
 10
26.09324202415025
 20
28.28685005328528
 10
26.12217006030296
 20
28.25792201713257
 10
26.15074551246459
 20
28.22934925645178
 10
26.20824900077894
 20
28.17184576813744
 10
26.2371743454508
 20
28.14291773198473
 10
26.29467783376515
 20
28.11434227982309
 10
26.32325328592678
 20
28.08576682766145
 10
26.35182873808842
 20
28.05719137549981
 10
26.40933222640277
 20
27.99969057866631
 10
26.43826026255548
 20
27.9707625425136
 10
26.49576105938897
 20
27.9418345063609
 10
26.52433651155061
 20
27.91325905419926
 10
26.58148741587389
 20
27.88433101804655
 10
26.6104154520266
 20
27.85575556588491
 10
26.66791624886009
 20
27.79860735304248
 10
26.6968442850128
 20
27.76967931688977
 10
26.78292322548879
 20
27.71217582857543
 10
26.86899947448393
 20
27.65467234026108
 10
26.95507841495991
 20
27.59717154342759
 10
27.04150993942696
 20
27.5110926029516
 10
27.12793877241317
 20
27.45358911463725
 10
27.21366512889809
 20
27.39608831780376
 10
27.30009396188429
 20
27.33858482948941
 10
27.38652548635134
 20
27.28108134117507
 10
27.47225184283626
 20
27.22393043685179
 10
27.55868067582246
 20
27.16642964001829
 10
27.67368765245115
 20
27.10892615170394
 10
27.75976390144629
 20
27.0514226633896
 10
27.84584284192228
 20
26.99427445054717
 10
27.93227167490848
 20
26.93677096223282
 10
28.0179980313934
 20
26.87891488992741
 10
28.10442955586045
 20
26.82141140161306
 10
28.21943384100829
 20
26.76391060477957
 10
28.30551278148428
 20
26.70640711646522
 10
28.39194161447048
 20
26.64925621214194
 10
28.47802055494647
 20
26.59175272382759
 10
28.59267225610325
 20
26.56317996314681
 10
28.6791037805703
 20
26.50532389084139
 10
28.76553530503735
 20
26.44782040252704
 10
28.85125897004142
 20
26.39066949820377
 10
28.9535648485491
 20
26.34480935603722
 10
29.05269477965632
 20
26.30459324920863
 10
29.1387737201323
 20
26.24708976089428
 10
29.24742880196006
 20
26.20652107007462
 10
29.33950436176506
 20
26.1610108204183
 10
29.44992236354817
 20
26.11479809426069
 10
29.54094017137996
 20
26.0745819874321
 10
29.62701642037509
 20
26.01707849911775
 10
29.74378631695913
 20
25.97227610892441
 10
29.82845492147084
 20
25.93100225012261
 10
29.94381179060975
 20
25.88690502791142
 10
30.02918287162275
 20
25.84492330964663
 10
30.12902066219295
 20
25.8040020348359
 10
30.22074363800688
 20
25.76978254733631
 10
30.31669762171363
 20
25.72991633301794
 10
30.43170459834233
 20
25.70099098834607
 10
30.51778084733746
 20
25.67241553618444
 10
30.63278782396615
 20
25.61526463186116
 10
30.71851148897022
 20
25.58633659570845
 10
30.83351846559891
 20
25.55776114354681
 10
30.91994729858512
 20
25.50026034671331
 10
31.03460169122274
 20
25.47133231056061
 10
31.14960597637059
 20
25.4424042744079
 10
31.23603750083764
 20
25.41382882224626
 10
31.35068920199441
 20
25.38490078609355
  0
LWPOLYLINE
  5
D0
330
70
100
AcDbEntity
  8
Camada 1
 62
   250
420
  1907995
370
    15
100
AcDbPolyline
 90
        4
 70
     0
 43
0.0
 10
31.35072688272629
 20
25.3849707645956
 10
31.35072688272629
 20
25.35639531243396
 10
31.37965222739814
 20
25.35639531243396
 10
31.40822767955978
 20
25.35639531243396
  0
LWPOLYLINE
  5
D1
330
70
100
AcDbEntity
  8
Camada 1
 62
   250
420
  1907995
370
    15
100
AcDbPolyline
 90
      382
 70
     0
 43
0.0
 10
70.85287804421712
 20
19.12242505337233
 10
70.88180069740814
 20
19.12242505337233
 10
70.91037884105062
 20
19.12242505337233
 10
70.93930687720332
 20
19.12242505337233
 10
70.96787963788412
 20
19.12242505337233
 10
70.99680767403683
 20
19.12242505337233
 10
71.1978935911415
 20
19.12242505337233
 10
71.42755226892697
 20
19.12242505337233
 10
71.62863280306995
 20
19.12242505337233
 10
71.83006861268484
 20
19.12242505337233
 10
72.05972729047032
 20
19.15099915979355
 10
72.260813207575
 20
19.15099915979355
 10
72.49047188536046
 20
19.17992719594625
 10
72.69155241950343
 20
19.17992719594625
 10
72.92156637276082
 20
19.20850264810789
 10
73.12264690690381
 20
19.20850264810789
 10
73.32373282400848
 20
19.23742933852018
 10
73.55339150179395
 20
19.26565220669075
 10
73.75482731140884
 20
19.29458024284345
 10
73.98448598919431
 20
19.32315434926467
 10
74.18556652333728
 20
19.35208238541738
 10
74.38665244044196
 20
19.38065783757902
 10
74.61631111822743
 20
19.40958587373172
 10
74.81774692784234
 20
19.43815998015294
 10
75.01882746198531
 20
19.49601605245835
 10
75.24848613977077
 20
19.52423892062892
 10
75.44957205687545
 20
19.58174106320284
 10
75.65100786649036
 20
19.61066909935555
 10
75.88066654427582
 20
19.66817124192947
 10
76.0817470784188
 20
19.69674669409111
 10
76.28247772005156
 20
19.75424883666503
 10
76.48391352966647
 20
19.81175232497938
 10
76.71392748292385
 20
19.8692544675533
 10
76.9146581245566
 20
19.92675795586765
 10
77.11573865869958
 20
19.98426009844157
 10
77.31717446831448
 20
20.04176358675592
 10
77.51826038541915
 20
20.09891314533877
 10
77.71899102705191
 20
20.15641663365312
 10
77.9200715611949
 20
20.24284681237975
 10
78.1215073708098
 20
20.30034895495367
 10
78.32259328791447
 20
20.35749985927695
 10
78.52367382205745
 20
20.44357745401251
 10
78.72440446369022
 20
20.50107959658643
 10
78.92584027330511
 20
20.58751112105348
 10
79.12692619040979
 20
20.67358871578904
 10
79.32800672455276
 20
20.7596663105246
 10
79.52944253416767
 20
20.84609648925123
 10
79.73017317580043
 20
20.90324604783408
 10
79.93125909290509
 20
20.98967757230114
 10
80.10341697385706
 20
21.10468320318941
 10
80.30485278347198
 20
21.1904082139339
 10
80.50593331761495
 20
21.27683839266053
 10
80.70701923471963
 20
21.36326857138715
 10
80.87952700818181
 20
21.47792161828435
 10
81.0806075423248
 20
21.56399921301991
 10
81.25276542327677
 20
21.67935742789925
 10
81.45420123289166
 20
21.76508243864375
 10
81.62635373088193
 20
21.88008806953201
 10
81.8274396479866
 20
21.96651959399907
 10
81.99994742144879
 20
22.08117129515584
 10
82.17210530240077
 20
22.19617692604411
 10
82.37318583654376
 20
22.31118255693238
 10
82.54569361000594
 20
22.42618818782065
 10
82.71820138346813
 20
22.54119381870891
 10
82.89035926442009
 20
22.65584686560611
 10
83.09179507403499
 20
22.77085115075395
 10
83.26395295498697
 20
22.91443088806344
 10
83.43610545297725
 20
23.02943786469213
 10
83.60861322643943
 20
23.14408956584891
 10
83.78112099990161
 20
23.28802457863031
 10
83.9247061201728
 20
23.43160431593979
 10
84.09685861816306
 20
23.54661129256848
 10
84.26936639162526
 20
23.6898384458869
 10
84.44187416508745
 20
23.83377076718744
 10
84.49938034488265
 20
23.89127425550179
 10
84.58545390239693
 20
23.94842515982507
 10
84.67153284287292
 20
24.03485399281128
 10
84.75796705882082
 20
24.09235748112562
 10
84.8440406163351
 20
24.17878900559268
 10
84.90154679613031
 20
24.23593721843511
 10
84.98762573660629
 20
24.32201615891109
 10
85.07369929412057
 20
24.37951964722544
 10
85.13120547391578
 20
24.46594848021164
 10
85.21763430690198
 20
24.52309938453492
 10
85.30371324737796
 20
24.60952821752112
 10
85.36086415170123
 20
24.69560715799711
 10
85.44729298468743
 20
24.75275806232039
 10
85.53337192516343
 20
24.83918689530659
 10
85.59122799746885
 20
24.89669038362094
 10
85.67695166247291
 20
24.98312190808799
 10
85.7344524593064
 20
25.06884557309206
 10
85.82088667525431
 20
25.1263490614064
 10
85.90731550824051
 20
25.21278058587346
 10
85.96446641256379
 20
25.29920941885966
 10
86.05054535303978
 20
25.38493577534458
 10
86.10804614987328
 20
25.44243926365892
 10
86.19412509034926
 20
25.52886809664513
 10
86.25162588718275
 20
25.61494703712111
 10
86.30912668401625
 20
25.70102328611625
 10
86.39556089996416
 20
25.7585267744306
 10
86.45271180428743
 20
25.84495829889765
 10
86.53878536180172
 20
25.93103454789279
 10
86.59629154159691
 20
26.01711348836877
 10
86.65414761390232
 20
26.10354232135497
 10
86.73987127890638
 20
26.18962126183096
 10
86.79737207573991
 20
26.27570020230694
 10
86.85487825553508
 20
26.36212903529315
 10
86.91237905236858
 20
26.44785539177807
 10
86.99845799284458
 20
26.50535618861157
 10
87.05595878967807
 20
26.59178771307862
 10
87.11345958651156
 20
26.67821923754567
 10
87.17096576630677
 20
26.76394290254974
 10
87.22846656314025
 20
26.85037442701679
 10
87.31454550361624
 20
26.936803260003
 10
87.37204630044974
 20
27.05145765264062
 10
87.42955248024493
 20
27.13753390163576
 10
87.48705327707844
 20
27.22396542610281
 10
87.54420418140171
 20
27.3100443665788
 10
87.60170497823521
 20
27.39612061557393
 10
87.6592111580304
 20
27.48255214004098
 10
87.71706723033581
 20
27.56827580504505
 10
87.77456802716931
 20
27.65470732951211
 10
87.83171893149258
 20
27.74113885397916
 10
87.88921972832609
 20
27.82686251898323
 10
87.94672590812128
 20
27.94186949561192
 10
87.97529866880209
 20
28.02829832859812
 10
88.0331547411075
 20
28.11437726907411
 10
88.09065553794098
 20
28.20045351806925
 10
88.14780644226427
 20
28.2868850425363
 10
88.20530723909776
 20
28.40153674369308
 10
88.23388538274025
 20
28.48796826816013
 10
88.29138617957374
 20
28.57404720863611
 10
88.34853708389703
 20
28.66012345763125
 10
88.37746512004974
 20
28.77513043425994
 10
88.43496591688323
 20
28.86155926724615
 10
88.49247209667842
 20
28.94728562373106
 10
88.52140013283113
 20
29.06264249286997
 10
88.57890092966462
 20
29.14872143334596
 10
88.60747369034543
 20
29.23480037382195
 10
88.6646245946687
 20
29.34980465896979
 10
88.72213077446389
 20
29.43623618343684
 10
88.7510588106166
 20
29.52195984844091
 10
88.7799868467693
 20
29.6369668250696
 10
88.83748764360282
 20
29.72304307406474
 10
88.86606040428359
 20
29.83805005069343
 10
88.92321130860688
 20
29.92447888367964
 10
88.95213934475959
 20
30.03913327631726
 10
88.98071748840207
 20
30.12556210930346
 10
89.03821828523557
 20
30.21164104977945
 10
89.06714632138827
 20
30.32629275093623
 10
89.09571908206906
 20
30.41272427540328
 10
89.12464711822178
 20
30.52773125203197
 10
89.18215329801697
 20
30.6138075010271
 10
89.21072605869776
 20
30.7288144776558
 10
89.23929881937855
 20
30.815243310642
 10
89.26822685553124
 20
30.92989770327962
 10
89.29680499917374
 20
31.01597395227476
 10
89.32573303532645
 20
31.13062834491238
 10
89.35430579600724
 20
31.2459852140513
 10
89.38323383215994
 20
31.33206415452729
 10
89.41181197580243
 20
31.44671585568406
 10
89.44073462899345
 20
31.53314738015111
 10
89.46966266514614
 20
31.64779908130789
 10
89.49788553331671
 20
31.73423060577494
 10
89.52681356946943
 20
31.84923489092279
 10
89.55539171311192
 20
31.96388928356041
 10
89.55539171311192
 20
32.05031811654662
 10
89.58431974926462
 20
32.16532509317531
 10
89.61289250994541
 20
32.25140134217044
 10
89.64182054609812
 20
32.36640831879913
 10
89.64182054609812
 20
32.48106001995591
 10
89.6703933067789
 20
32.56749154442296
 10
89.69932134293163
 20
32.68249582957081
 10
89.69932134293163
 20
32.79715022220843
 10
89.7278994865741
 20
32.88322647120356
 10
89.7278994865741
 20
32.99858603182333
 10
89.7564722472549
 20
33.0843096968274
 10
89.7564722472549
 20
33.19931667345609
 10
89.78505039089737
 20
33.31432095860393
 10
89.78505039089737
 20
33.40039989907992
 10
89.81397842705009
 20
33.51540418422775
 10
89.81397842705009
 20
33.63005857686538
 10
89.81397842705009
 20
33.71648740985159
 10
89.8429064632028
 20
33.83149438648028
 10
89.8429064632028
 20
33.94614608763705
 10
89.8429064632028
 20
34.03257761210411
 10
89.8429064632028
 20
34.14722931326088
 10
89.87147922388357
 20
34.26223628988957
 10
89.87147922388357
 20
34.34866512287578
 10
89.87147922388357
 20
34.46331951551341
 10
89.87147922388357
 20
34.57832380066125
 10
89.87147922388357
 20
34.6647553251283
 10
89.87147922388357
 20
34.77940702628508
 10
89.87147922388357
 20
34.89441400291377
 10
89.87147922388357
 20
34.98049025190891
 10
89.87147922388357
 20
35.0954972285376
 10
89.87147922388357
 20
35.21050151368545
 10
89.87147922388357
 20
35.32515590632306
 10
89.87147922388357
 20
35.41158473930927
 10
89.87147922388357
 20
35.5262391319469
 10
89.8429064632028
 20
35.64124341709474
 10
89.8429064632028
 20
35.72767494156179
 10
89.8429064632028
 20
35.84232664271857
 10
89.8429064632028
 20
35.95733361934726
 10
89.81397842705009
 20
36.04376245233346
 10
89.81397842705009
 20
36.15841684497109
 10
89.81397842705009
 20
36.27342113011893
 10
89.78505039089737
 20
36.35950007059491
 10
89.78505039089737
 20
36.47450435574276
 10
89.7564722472549
 20
36.58951133237145
 10
89.7564722472549
 20
36.67558758136659
 10
89.7278994865741
 20
36.79059455799528
 10
89.7278994865741
 20
36.90524625915205
 10
89.69932134293163
 20
36.99167778361911
 10
89.69932134293163
 20
37.10668206876695
 10
89.6703933067789
 20
37.22133646140458
 10
89.64182054609812
 20
37.30776529439078
 10
89.64182054609812
 20
37.42277227101947
 10
89.61289250994541
 20
37.50849593602354
 10
89.58431974926462
 20
37.6238554966433
 10
89.55539171311192
 20
37.73850719780007
 10
89.55539171311192
 20
37.82458613827606
 10
89.52681356946943
 20
37.93994300741498
 10
89.49788553331671
 20
38.02566936389989
 10
89.46966266514614
 20
38.14067364904774
 10
89.44073462899345
 20
38.22710517351479
 10
89.41181197580243
 20
38.34175687467156
 10
89.38323383215994
 20
38.45676385130025
 10
89.35430579600724
 20
38.5428401002954
 10
89.32573303532645
 20
38.65784707692409
 10
89.29680499917374
 20
38.74427590991029
 10
89.26822685553124
 20
38.85893030254791
 10
89.23929881937855
 20
38.94500655154305
 10
89.21072605869776
 20
39.06036611216281
 10
89.18215329801697
 20
39.14608977716688
 10
89.15357515437447
 20
39.26109675379557
 10
89.09571908206906
 20
39.34752827826262
 10
89.06714632138827
 20
39.46217997941939
 10
89.03821828523557
 20
39.54861150388645
 10
89.00964014159308
 20
39.63433516889052
 10
88.95213934475959
 20
39.74969472951027
 10
88.92321130860688
 20
39.83577097850542
 10
88.89498844043631
 20
39.95042537114304
 10
88.83748764360282
 20
40.03685420412923
 10
88.80855960745009
 20
40.15186118075793
 10
88.7510588106166
 20
40.23793742975307
 10
88.72213077446389
 20
40.32401637022905
 10
88.6646245946687
 20
40.43937323936797
 10
88.63640172649814
 20
40.52509959585289
 10
88.57890092966462
 20
40.61153112031994
 10
88.54997289351192
 20
40.72653540546777
 10
88.49247209667842
 20
40.81261434594376
 10
88.43496591688323
 20
40.8986905949389
 10
88.40639315620244
 20
41.01334498757652
 10
88.34853708389703
 20
41.09977382056273
 10
88.29138617957374
 20
41.18620534502978
 10
88.26281341889297
 20
41.30085704618656
 10
88.20530723909776
 20
41.38693598666254
 10
88.14780644226427
 20
41.47336481964875
 10
88.09065553794098
 20
41.5597963441158
 10
88.0331547411075
 20
41.67444804527257
 10
88.00422670495478
 20
41.76052698574856
 10
87.94672590812128
 20
41.84660592622455
 10
87.88921972832609
 20
41.9330374506916
 10
87.83171893149258
 20
42.01911369968674
 10
87.77456802716931
 20
42.10554522415379
 10
87.71706723033581
 20
42.22019692531056
 10
87.6592111580304
 20
42.30662844977762
 10
87.60170497823521
 20
42.39235211478169
 10
87.54420418140171
 20
42.47878363924874
 10
87.48705327707844
 20
42.56521516371579
 10
87.42955248024493
 20
42.65129141271093
 10
87.37204630044974
 20
42.73737035318691
 10
87.31454550361624
 20
42.82344660218205
 10
87.25739459929297
 20
42.9098781266491
 10
87.19989380245946
 20
42.99595437564424
 10
87.11345958651156
 20
43.08203331612022
 10
87.05595878967807
 20
43.16846484058728
 10
86.99845799284458
 20
43.25454108958242
 10
86.9413070885213
 20
43.3406200300584
 10
86.88380629168781
 20
43.4270488630446
 10
86.79737207573991
 20
43.51277521952952
 10
86.73987127890638
 20
43.59920674399657
 10
86.68272037458313
 20
43.68563557698278
 10
86.59629154159691
 20
43.77136193346769
 10
86.53878536180172
 20
43.82886273030119
 10
86.48128456496822
 20
43.91529425476824
 10
86.39556089996416
 20
44.00172577923529
 10
86.33805472016897
 20
44.08744944423936
 10
86.25162588718275
 20
44.17388096870642
 10
86.19412509034926
 20
44.23138445702076
 10
86.13697418602598
 20
44.31781329000697
 10
86.05054535303978
 20
44.40353964649189
 10
85.99303917324458
 20
44.48996847947809
 10
85.90731550824051
 20
44.54747196779243
 10
85.8494594359351
 20
44.63319832427735
 10
85.76338049545912
 20
44.71962715726356
 10
85.67695166247291
 20
44.77713064557791
 10
85.61945086563941
 20
44.86356217004496
 10
85.53337192516343
 20
44.94928583504903
 10
85.47586574536824
 20
45.00714190735444
 10
85.38979218785394
 20
45.09321815634957
 10
85.30371324737796
 20
45.17929440534472
 10
85.24620706758277
 20
45.23680058513991
 10
85.15977823459655
 20
45.3228741426542
 10
85.07369929412057
 20
45.38073021495961
 10
85.0165483897973
 20
45.46645926292537
 10
84.9301195568111
 20
45.52396005975888
 10
84.8440406163351
 20
45.61038889274509
 10
84.75796705882082
 20
45.66789507254028
 10
84.70046087902563
 20
45.75396863005456
 10
84.61403204603943
 20
45.81147480984975
 10
84.52795310556345
 20
45.89755375032574
 10
84.44187416508745
 20
45.95505454715924
 10
84.26936639162526
 20
46.09863428446872
 10
84.12578665431578
 20
46.24256929725012
 10
83.9536341563255
 20
46.3572209984069
 10
83.78112099990161
 20
46.50115601118829
 10
83.60861322643943
 20
46.61580771234507
 10
83.43610545297725
 20
46.75938744965455
 10
83.26395295498697
 20
46.87439442628324
 10
83.09179507403499
 20
46.98939601995024
 10
82.91893202510088
 20
47.10405310406872
 10
82.74677952711062
 20
47.24798273388842
 10
82.57462164615864
 20
47.36263981800688
 10
82.37318583654376
 20
47.47764141167388
 10
82.20103333855346
 20
47.59264838830257
 10
82.02887545760152
 20
47.67872732877856
 10
81.8274396479866
 20
47.79373430540725
 10
81.65528176703464
 20
47.90838600656402
 10
81.45420123289166
 20
48.02339298319272
 10
81.28169345942948
 20
48.10982181617893
 10
81.0806075423248
 20
48.2244735173357
 10
80.9080997688626
 20
48.31090235032191
 10
80.70701923471963
 20
48.4259093269506
 10
80.50593331761495
 20
48.51163299195467
 10
80.33378081962467
 20
48.59806720790256
 10
80.13234501000978
 20
48.68449604088877
 10
79.93125909290509
 20
48.77021970589284
 10
79.73017317580043
 20
48.85665392184074
 10
79.55766540233823
 20
48.94308275482694
 10
79.35658486819526
 20
49.02880641983101
 10
79.15585422656249
 20
49.11523525281722
 10
78.95476830945781
 20
49.20131419329321
 10
78.75333249984293
 20
49.25917026559861
 10
78.55225196569993
 20
49.34489393060268
 10
78.35116604859526
 20
49.43132814655059
 10
78.1504354069625
 20
49.48882894338408
 10
77.94899959734761
 20
49.54632974021759
 10
77.74791906320462
 20
49.63240868069357
 10
77.54683314609994
 20
49.68991486048876
 10
77.31717446831448
 20
49.74741565732227
 10
77.11573865869958
 20
49.80491645415575
 10
76.9146581245566
 20
49.86206735847904
 10
76.71392748292385
 20
49.91957353827423
 10
76.51284156581917
 20
49.97707433510773
 10
76.28247772005156
 20
50.03457513194123
 10
76.0817470784188
 20
50.09208131173642
 10
75.88066654427582
 20
50.12065407241721
 10
75.67958062717115
 20
50.17815486925071
 10
75.44957205687545
 20
50.2067330128932
 10
75.24848613977077
 20
50.26423380972669
 10
75.0474056056278
 20
50.29316184587941
 10
74.81774692784234
 20
50.3506680256746
 10
74.61631111822743
 20
50.37959067886561
 10
74.41522520112276
 20
50.40781354703618
 10
74.18556652333728
 20
50.43674158318888
 10
73.98448598919431
 20
50.46531972683137
 10
73.75482731140884
 20
50.49424776298408
 10
73.55339150179395
 20
50.52282052366487
 10
73.35230558468928
 20
50.55174855981757
 10
73.12264690690381
 20
50.58032132049837
 10
72.92156637276082
 20
50.58032132049837
 10
72.69155241950343
 20
50.60924935665108
 10
72.49047188536046
 20
50.60924935665108
 10
72.260813207575
 20
50.63782750029356
 10
72.05972729047032
 20
50.63782750029356
 10
71.85829148085542
 20
50.66640026097435
 10
71.62863280306995
 20
50.66640026097435
 10
71.42755226892697
 20
50.66640026097435
 10
71.1978935911415
 20
50.66640026097435
 10
70.99680767403683
 20
50.66640026097435
  0
LWPOLYLINE
  5
D2
330
70
100
AcDbEntity
  8
Camada 1
 62
   250
420
  1907995
370
    15
100
AcDbPolyline
 90
      297
 70
     0
 43
0.0
 10
70.99666771703273
 20
50.6665778987103
 10
70.96773968088003
 20
50.6665778987103
 10
70.93916153723753
 20
50.6665778987103
 10
70.91023350108483
 20
50.6665778987103
 10
70.88166074040405
 20
50.6665778987103
 10
70.85273270425133
 20
50.6665778987103
 10
70.62307402646587
 20
50.6665778987103
 10
70.3934153486804
 20
50.6665778987103
 10
70.16340139542302
 20
50.6665778987103
 10
69.93374810059925
 20
50.6665778987103
 10
69.70408942281378
 20
50.6665778987103
 10
69.47372557704618
 20
50.6665778987103
 10
69.01440822147524
 20
50.6665778987103
 10
68.78439426821785
 20
50.6665778987103
 10
68.55473559043239
 20
50.6665778987103
 10
68.32507691264692
 20
50.6665778987103
 10
68.09471306687932
 20
50.6665778987103
 10
67.86505438909386
 20
50.6665778987103
 10
67.63540109427008
 20
50.6665778987103
 10
67.40538714101269
 20
50.6665778987103
 10
67.31930820053671
 20
50.6665778987103
 10
67.20465649937994
 20
50.6376498625576
 10
67.08964952275124
 20
50.6376498625576
 10
66.97464792908426
 20
50.6376498625576
 10
66.85964095245556
 20
50.6376498625576
 10
66.74463397582687
 20
50.6376498625576
 10
66.62998227467008
 20
50.6376498625576
 10
66.51497529804139
 20
50.6376498625576
 10
66.40032359688461
 20
50.6376498625576
 10
66.28496672774571
 20
50.6376498625576
 10
66.16995975111702
 20
50.6376498625576
 10
66.05530804996025
 20
50.6376498625576
 10
65.94030107333155
 20
50.6376498625576
 10
65.82564937217478
 20
50.6376498625576
 10
65.62421356255987
 20
50.6376498625576
 10
65.3945548847744
 20
50.6376498625576
 10
65.16454093151702
 20
50.6376498625576
 10
64.96381028988427
 20
50.60907171891511
 10
64.73380171958858
 20
50.60907171891511
 10
64.50414304180312
 20
50.60907171891511
 10
64.07304855440274
 20
50.60907171891511
 10
63.84303998410706
 20
50.60907171891511
 10
63.61338130632159
 20
50.60907171891511
 10
63.12513591459794
 20
50.55157092208162
 10
62.60760721124968
 20
50.52264288592891
 10
62.09043916633503
 20
50.49442001775834
 10
61.5736156309689
 20
50.46549198160564
 10
61.05644758605425
 20
50.40799118477213
 10
60.5392741581779
 20
50.37941304112965
 10
60.05102876645426
 20
50.32191224429615
 10
59.5338553385779
 20
50.29298420814344
 10
59.01703718617348
 20
50.23583330382017
 10
58.49951386578691
 20
50.20690526766745
 10
57.98234043791056
 20
50.14940447083397
 10
57.49409504618692
 20
50.09189829103877
 10
56.97692161831056
 20
50.03439749420527
 10
56.46010346590614
 20
49.97689669737177
 10
55.94293003802978
 20
49.91974579304849
 10
55.42540671764322
 20
49.8622396132533
 10
54.93716132591957
 20
49.8047388164198
 10
54.41999328100492
 20
49.7183099834336
 10
53.90281985312856
 20
49.66115907911031
 10
53.38600170072414
 20
49.60365828227683
 10
52.8977563090005
 20
49.51722406632892
 10
52.38058288112415
 20
49.45972326949542
 10
51.86305956073758
 20
49.37399960449135
 10
51.37481416901394
 20
49.28756538854345
 10
50.85764074113758
 20
49.23006459170995
 10
50.34046731326125
 20
49.14363575872375
 10
49.85222192153759
 20
49.05790671075799
 10
49.33505387662294
 20
48.97147787777178
 10
48.81823034125681
 20
48.88504904478558
 10
48.32963505702295
 20
48.79931999681981
 10
47.8124616291466
 20
48.7128911638336
 10
47.32422162038465
 20
48.59788418720491
 10
46.80704819250831
 20
48.51181062969063
 10
46.28987476463196
 20
48.42573168921465
 10
45.8012794803981
 20
48.31107998805786
 10
45.28410605252175
 20
48.22464577210997
 10
44.79586335227895
 20
48.10964417844297
 10
44.2786899244026
 20
47.9949870943245
 10
43.79044453267896
 20
47.90855826133829
 10
43.27327379628346
 20
47.79355128470959
 10
42.78467582056875
 20
47.67889958355282
 10
42.26785766816432
 20
47.56389260692413
 10
41.7792596924496
 20
47.44889101325713
 10
41.26243884856433
 20
47.33388403662845
 10
40.77384356433046
 20
47.21887705999975
 10
40.28524558861575
 20
47.10422535884297
 10
39.76842474473047
 20
46.96029034606158
 10
39.27982946049662
 20
46.8456386449048
 10
38.79158406877297
 20
46.73063166827611
 10
38.27441333237747
 20
46.58705193096663
 10
37.78581535666276
 20
46.44347219365714
 10
37.29756996493912
 20
46.32846521702845
 10
36.78039922854362
 20
46.18488547971897
 10
36.29215383681998
 20
46.04130574240949
 10
35.80390844509633
 20
45.92629876578079
 10
35.31531316086248
 20
45.78271902847131
 10
34.79813973298612
 20
45.63878401568991
 10
34.30989434126248
 20
45.49555955385235
 10
33.82165164101968
 20
45.32269650491824
 10
33.33305366530498
 20
45.17947204308067
 10
32.84445568959026
 20
45.03553703029928
 10
32.35621298934747
 20
44.89195729298979
 10
31.86796759762383
 20
44.71980210351867
 10
31.37972220590019
 20
44.57586978221812
 10
31.26471792075234
 20
44.54729433005648
 10
31.17863898027636
 20
44.51836629390377
 10
31.09221014729016
 20
44.48979084174213
 10
31.00613120681417
 20
44.46086280558943
 10
30.91970237382796
 20
44.40371190126615
 10
30.80504798119034
 20
44.37513914058536
 10
30.71861645672329
 20
44.34621110443266
 10
30.63289279171922
 20
44.31763565227101
 10
30.54646126725217
 20
44.28870761611831
 10
30.46003243426596
 20
44.23120412780396
 10
30.34502545763727
 20
44.20227609165126
 10
30.2593017926332
 20
44.17405591496153
 10
30.17287026816615
 20
44.14512787880883
 10
30.08643874369909
 20
44.08762439049448
 10
30.00071507869503
 20
44.05904893833284
 10
29.91428355422798
 20
44.03012090218013
 10
29.82820730523284
 20
43.97261741386579
 10
29.71320032860415
 20
43.94404465318499
 10
29.62712407960901
 20
43.91511661703229
 10
29.54069255514196
 20
43.857965712709
 10
29.45496889013789
 20
43.8290376765563
 10
29.36853736567083
 20
43.77153418824195
 10
29.28210584120378
 20
43.74296142756117
 10
29.19638217619971
 20
43.68545793924682
 10
29.10995065173266
 20
43.65652990309412
 10
29.02352181874645
 20
43.59937899877084
 10
28.93779546226154
 20
43.57045096261813
 10
28.85136393779449
 20
43.51295016578463
 10
28.76528768879935
 20
43.48437471362299
 10
28.67920874832336
 20
43.42687122530865
 10
28.59277991533716
 20
43.39794318915593
 10
28.50670097486117
 20
43.34079228483266
 10
28.42026945039412
 20
43.28329148799916
 10
28.33419320139898
 20
43.25471603583753
 10
28.248114260923
 20
43.19685996353211
 10
28.16168542793679
 20
43.13935647521776
 10
28.07595907145188
 20
43.08185567838427
 10
27.98952754698483
 20
43.0536328102137
 10
27.90309871399862
 20
42.99612932189935
 10
27.8173723575137
 20
42.938625833585
 10
27.7309435245275
 20
42.8811250367515
 10
27.67344003621315
 20
42.85219700059879
 10
27.5870085117461
 20
42.79504609627553
 10
27.50128484674203
 20
42.73754260796118
 10
27.41485332227498
 20
42.68004181112767
 10
27.32912965727091
 20
42.62253832281333
 10
27.24269813280386
 20
42.56503483449899
 10
27.18519464448951
 20
42.50753134618464
 10
27.09876581150331
 20
42.45003054935114
 10
27.01303945501839
 20
42.39252706103679
 10
26.92661062203218
 20
42.33502357272246
 10
26.86910713371784
 20
42.27752008440811
 10
26.78267560925079
 20
42.22037187156567
 10
26.69695194424672
 20
42.16286838325133
 10
26.61052041977967
 20
42.10536489493698
 10
26.55301693146532
 20
42.04786409810348
 10
26.46694068247018
 20
41.9907131937802
 10
26.40943719415584
 20
41.90428166931315
 10
26.32335825367985
 20
41.84678087247966
 10
26.23692942069365
 20
41.78927738416531
 10
26.17977851637037
 20
41.73177389585096
 10
26.09334699190331
 20
41.67462299152769
 10
26.03584619506982
 20
41.58819415854148
 10
25.9501198385849
 20
41.53069067022713
 10
25.89226376627948
 20
41.47318718191279
 10
25.80618751728435
 20
41.41603896907036
 10
25.77725948113164
 20
41.35853548075601
 10
25.74868672045085
 20
41.32960744460331
 10
25.69118054065566
 20
41.30103199244167
 10
25.66225250450295
 20
41.27210395628896
 10
25.63402963633238
 20
41.24352850412733
 10
25.60510160017968
 20
41.18602770729382
 10
25.54760080334617
 20
41.15709967114112
 10
25.51867276719347
 20
41.12887680297055
 10
25.49010000651268
 20
41.09994876681784
 10
25.46117197035997
 20
41.07102073066513
 10
25.43259382671748
 20
41.01351724235079
 10
25.37544292239421
 20
40.98494448167
 10
25.3465202692032
 20
40.95601644551729
 10
25.31794212556071
 20
40.92744099335565
 10
25.289014089408
 20
40.89851295720294
 10
25.26044132872721
 20
40.84136205287967
 10
25.2315132925745
 20
40.81278929219887
 10
25.20293514893201
 20
40.78386125604617
 10
25.1450790766266
 20
40.75528580388453
 10
25.11650631594581
 20
40.69742973157911
 10
25.08793355526502
 20
40.66885427941747
 10
25.05935541162254
 20
40.63992624326476
 10
25.03042737546982
 20
40.58277803042233
 10
25.00185461478904
 20
40.5542025782607
 10
24.97292657863633
 20
40.52527454210799
 10
24.91542578180283
 20
40.49669908994635
 10
24.88684763816034
 20
40.439195601632
 10
24.85791960200764
 20
40.4102675654793
 10
24.82899156585493
 20
40.38169480479851
 10
24.80076869768436
 20
40.3238387324931
 10
24.77184066153165
 20
40.29561586432253
 10
24.74326790085086
 20
40.26668782816982
 10
24.71433986469815
 20
40.20918433985547
 10
24.68576710401736
 20
40.18060888769383
 10
24.65683906786466
 20
40.15168354302197
 10
24.62826092422217
 20
40.09418005470762
 10
24.59933288806946
 20
40.06595718653706
 10
24.57111001989889
 20
40.03702915038435
 10
24.54218198374618
 20
39.97952566207001
 10
24.51360922306539
 20
39.95060031739815
 10
24.48468118691268
 20
39.92202486523651
 10
24.45575315075998
 20
39.86452137692216
 10
24.42718039007919
 20
39.83559334076946
 10
24.39825235392648
 20
39.77808985245511
 10
24.36967421028399
 20
39.74986967576539
 10
24.34074617413129
 20
39.72094163961268
 10
24.3121734134505
 20
39.66343815129834
 10
24.28324537729779
 20
39.63451011514563
 10
24.25502250912722
 20
39.57700662683129
 10
24.22609447297451
 20
39.54843117466964
 10
24.19752171229372
 20
39.51950582999778
 10
24.16859367614101
 20
39.46235492567451
 10
24.14001553249853
 20
39.43377947351287
 10
24.11108749634582
 20
39.37627598519853
 10
24.08216484315481
 20
39.34735064052667
 10
24.05358669951232
 20
39.28984715221232
 10
24.02465866335961
 20
39.26091911605961
 10
23.99643579518905
 20
39.23269624788904
 10
23.99643579518905
 20
39.17519275957469
 10
23.96750775903634
 20
39.14626741490284
 10
23.93893499835554
 20
39.08876392658849
 10
23.91000696220284
 20
39.06018847442685
 10
23.88143420152205
 20
39.0026849861125
 10
23.85250616536934
 20
38.9737569499598
 10
23.82392802172685
 20
38.91660873711737
 10
23.82392802172685
 20
38.88768070096466
 10
23.79499998557415
 20
38.83017721265031
 10
23.76607194942144
 20
38.80160176048867
 10
23.73749918874065
 20
38.74409827217433
 10
23.70892104509816
 20
38.71517292750247
 10
23.70892104509816
 20
38.65802202317919
 10
23.68034828441737
 20
38.62944657101755
 10
23.65142024826466
 20
38.57159049871214
 10
23.62284748758387
 20
38.5430150465505
 10
23.59391945143117
 20
38.485514249717
 10
23.59391945143117
 20
38.4565862135643
 10
23.56534130778868
 20
38.39908272524995
 10
23.53641327163597
 20
38.37085985707938
 10
23.50784051095518
 20
38.31335906024588
 10
23.50784051095518
 20
38.28443102409318
 10
23.47891247480248
 20
38.22692753577883
 10
23.45068960663191
 20
38.19799949962612
 10
23.45068960663191
 20
38.14049601131177
 10
23.42176157047919
 20
38.08334779846935
 10
23.39283353432649
 20
38.05477234630771
 10
23.39283353432649
 20
37.99726885799336
 10
23.3642607736457
 20
37.96834082184066
 10
23.33533273749299
 20
37.91083733352631
 10
23.33533273749299
 20
37.88190929737361
 10
23.3067545938505
 20
37.82476108453117
 10
23.2778265576978
 20
37.76725759621682
 10
23.2778265576978
 20
37.73868214405518
 10
23.24925379701701
 20
37.68118134722169
 10
23.24925379701701
 20
37.65225331106898
 10
23.2203257608643
 20
37.59474982275464
 10
23.19210289269373
 20
37.53759891843136
 10
23.19210289269373
 20
37.50867088227865
 10
23.16317485654102
 20
37.45117008544515
 10
23.16317485654102
 20
37.42259463328352
 10
23.13460209586023
 20
37.36509114496917
 10
23.13460209586023
 20
37.30794024064589
 10
23.10567405970752
 20
37.27901220449318
 10
23.10567405970752
 20
37.22151140765968
 10
23.07709591606504
 20
37.16400791934534
 10
23.07709591606504
 20
37.13507988319263
 10
23.04816787991233
 20
37.07757639487829
 10
23.04816787991233
 20
37.04900094271665
 10
23.01924522672132
 20
36.99185272987422
 10
23.01924522672132
 20
36.93434924155987
 10
22.99066708307883
 20
36.90542120540717
 10
22.99066708307883
 20
36.84791771709282
 10
22.99066708307883
 20
36.79041692025932
 10
22.96173904692612
 20
36.76148888410661
 10
22.96173904692612
 20
36.70433797978333
 10
22.93316628624534
 20
36.64683449146899
 10
22.93316628624534
 20
36.6182617307882
 10
22.93316628624534
 20
36.56075824247385
 10
22.90423825009263
 20
36.50325475415951
 10
22.90423825009263
 20
36.4743267180068
 10
22.90423825009263
 20
36.41717850516438
 10
22.87601538192205
 20
36.35967501685003
 10
22.87601538192205
 20
36.33074698069732
 10
22.87601538192205
 20
36.27324349238298
 10
22.84708734576935
 20
36.21574000406863
  0
LINE
  5
D3
330
70
100
AcDbEntity
  8
Camada 1
 62
   250
420
  1907995
370
     9
100
AcDbLine
 10
22.82546398863771
 20
34.28597784244848
 30
0.0
 11
22.82546398863771
 21
34.81514450898285
 31
0.0
  0
ENDSEC
  0
SECTION
  2
OBJECTS
  0
DICTIONARY
  5
C
330
0
100
AcDbDictionary
281
     1
  3
ACAD_COLOR
350
63
  3
ACAD_DETAILVIEWSTYLE
350
6A
  3
ACAD_GROUP
350
D
  3
ACAD_LAYOUT
350
62
  3
ACAD_MATERIAL
350
10
  3
ACAD_MLEADERSTYLE
350
66
  3
ACAD_MLINESTYLE
350
5F
  3
ACAD_PLOTSETTINGS
350
61
  3
ACAD_PLOTSTYLENAME
350
E
  3
ACAD_SCALELIST
350
42
  3
ACAD_SECTIONVIEWSTYLE
350
68
  3
ACAD_TABLESTYLE
350
64
  3
ACAD_VISUALSTYLE
350
29
  3
ACDB_RECOMPOSE_DATA
350
DC
  3
AcDbVariableDictionary
350
D4
  0
DICTIONARY
  5
63
102
{ACAD_REACTORS
330
C
102
}
330
C
100
AcDbDictionary
281
     1
  0
DICTIONARY
  5
6A
102
{ACAD_REACTORS
330
C
102
}
330
C
100
AcDbDictionary
281
     1
  3
Imperial24
350
6B
  0
DICTIONARY
  5
D
102
{ACAD_REACTORS
330
C
102
}
330
C
100
AcDbDictionary
281
     1
  0
DICTIONARY
  5
62
102
{ACAD_REACTORS
330
C
102
}
330
C
100
AcDbDictionary
281
     1
  3
Layout1
350
6F
  3
Layout2
350
77
  3
Model
350
73
  0
DICTIONARY
  5
10
102
{ACAD_REACTORS
330
C
102
}
330
C
100
AcDbDictionary
281
     1
  3
ByBlock
350
19
  3
ByLayer
350
11
  3
Global
350
21
  0
DICTIONARY
  5
66
102
{ACAD_REACTORS
330
C
102
}
330
C
100
AcDbDictionary
281
     1
  3
Standard
350
67
  0
DICTIONARY
  5
5F
102
{ACAD_REACTORS
330
C
102
}
330
C
100
AcDbDictionary
281
     1
  3
Standard
350
60
  0
DICTIONARY
  5
61
102
{ACAD_REACTORS
330
C
102
}
330
C
100
AcDbDictionary
281
     1
  0
ACDBDICTIONARYWDFLT
  5
E
102
{ACAD_REACTORS
330
C
102
}
330
C
100
AcDbDictionary
281
     1
  3
Normal
350
F
100
AcDbDictionaryWithDefault
340
F
  0
DICTIONARY
  5
42
102
{ACAD_REACTORS
330
C
102
}
330
C
100
AcDbDictionary
281
     1
  3
A0
350
43
  3
A1
350
44
  3
A2
350
45
  3
A3
350
46
  3
A4
350
47
  3
A5
350
48
  3
A6
350
49
  3
A7
350
4A
  3
A8
350
4B
  3
A9
350
4C
  3
B0
350
4D
  3
B1
350
4E
  3
B2
350
4F
  3
B3
350
50
  3
B4
350
51
  3
B5
350
52
  3
B6
350
53
  0
DICTIONARY
  5
68
102
{ACAD_REACTORS
330
C
102
}
330
C
100
AcDbDictionary
281
     1
  3
Imperial24
350
69
  0
DICTIONARY
  5
64
102
{ACAD_REACTORS
330
C
102
}
330
C
100
AcDbDictionary
281
     1
  3
Standard
350
65
  0
DICTIONARY
  5
29
102
{ACAD_REACTORS
330
C
102
}
330
C
100
AcDbDictionary
281
     1
  3
2dWireframe
350
2F
  3
Basic
350
2E
  3
Brighten
350
35
  3
ColorChange
350
39
  3
Conceptual
350
32
  3
Dim
350
34
  3
EdgeColorOff
350
41
  3
Facepattern
350
38
  3
Flat
350
2A
  3
FlatWithEdges
350
2B
  3
Gouraud
350
2C
  3
GouraudWithEdges
350
2D
  3
Hidden
350
31
  3
JitterOff
350
3F
  3
Linepattern
350
37
  3
OverhangOff
350
40
  3
Realistic
350
33
  3
Shaded
350
3E
  3
Shaded with edges
350
3D
  3
Shades of Gray
350
3A
  3
Sketchy
350
3B
  3
Thicken
350
36
  3
Wireframe
350
30
  3
X-Ray
350
3C
  0
XRECORD
  5
DC
102
{ACAD_REACTORS
330
C
102
}
330
C
100
AcDbXrecord
280
     1
 90
        1
330
65
  0
DICTIONARY
  5
D4
102
{ACAD_REACTORS
330
C
102
}
330
C
100
AcDbDictionary
281
     1
  3
CANNOSCALE
350
D9
  3
CMLEADERSTYLE
350
D6
  3
CTABLESTYLE
350
D5
  3
CVIEWDETAILSTYLE
350
D7
  3
CVIEWSECTIONSTYLE
350
D8
  0
ACDBDETAILVIEWSTYLE
  5
6B
102
{ACAD_REACTORS
330
6A
102
}
330
6A
100
AcDbModelDocViewStyle
 70
     0
  3
Imperial24
290
     1
300
Imperial24
 90
        0
100
AcDbDetailViewStyle
 70
     0
 71
     0
 90
        3
 71
     1
340
55
 62
   256
 40
0.24
340
0
 62
   256
 40
0.24
300

 40
0.36
280
     3
 71
     2
340
5D
 90
       25
 62
   256
 71
     3
340
55
 62
   256
 40
0.24
 90
        1
 40
0.75
 90
        1
300
%<\AcVar ViewType \f "%tc1">% %<\AcVar ViewDetailId>%\PSCALE %<\AcVar ViewScale \f "%sn">%
 71
     4
340
5D
 90
       25
 62
   256
340
5D
 90
       25
 62
   256
280
     0
  0
LAYOUT
  5
6F
102
{ACAD_REACTORS
330
62
102
}
330
62
100
AcDbPlotSettings
  1

  2

  4

  6

 40
0.0
 41
0.0
 42
0.0
 43
0.0
 44
0.0
 45
0.0
 46
0.0
 47
0.0
 48
0.0
 49
0.0
140
0.0
141
0.0
142
1.0
143
1.0
 70
   688
 72
     0
 73
     0
 74
     5
  7

 75
    16
147
1.0
 76
     0
 77
     2
 78
   300
148
0.0
149
0.0
100
AcDbLayout
  1
Layout1
 70
     1
 71
     1
 10
0.0
 20
0.0
 11
12.0
 21
9.0
 12
0.0
 22
0.0
 32
0.0
 14
0.0
 24
0.0
 34
0.0
 15
0.0
 25
0.0
 35
0.0
146
0.0
 13
0.0
 23
0.0
 33
0.0
 16
1.0
 26
0.0
 36
0.0
 17
0.0
 27
1.0
 37
0.0
 76
     0
330
6C
  0
LAYOUT
  5
77
102
{ACAD_REACTORS
330
62
102
}
330
62
100
AcDbPlotSettings
  1

  2

  4

  6

 40
0.0
 41
0.0
 42
0.0
 43
0.0
 44
0.0
 45
0.0
 46
0.0
 47
0.0
 48
0.0
 49
0.0
140
0.0
141
0.0
142
1.0
143
1.0
 70
   688
 72
     0
 73
     0
 74
     5
  7

 75
    16
147
1.0
 76
     0
 77
     2
 78
   300
148
0.0
149
0.0
100
AcDbLayout
  1
Layout2
 70
     1
 71
     2
 10
0.0
 20
0.0
 11
12.0
 21
9.0
 12
0.0
 22
0.0
 32
0.0
 14
0.0
 24
0.0
 34
0.0
 15
0.0
 25
0.0
 35
0.0
146
0.0
 13
0.0
 23
0.0
 33
0.0
 16
1.0
 26
0.0
 36
0.0
 17
0.0
 27
1.0
 37
0.0
 76
     0
330
74
  0
LAYOUT
  5
73
102
{ACAD_REACTORS
330
62
102
}
330
62
100
AcDbPlotSettings
  1

  2

  4

  6

 40
0.0
 41
0.0
 42
0.0
 43
0.0
 44
0.0
 45
0.0
 46
0.0
 47
0.0
 48
0.0
 49
0.0
140
0.0
141
0.0
142
1.0
143
1.0
 70
  1712
 72
     0
 73
     0
 74
     0
  7

 75
     0
147
1.0
 76
     0
 77
     2
 78
   300
148
0.0
149
0.0
100
AcDbLayout
  1
Model
 70
     1
 71
     0
 10
0.0
 20
0.0
 11
12.0
 21
9.0
 12
0.0
 22
0.0
 32
0.0
 14
0.0
 24
0.0
 34
0.0
 15
0.0
 25
0.0
 35
0.0
146
0.0
 13
0.0
 23
0.0
 33
0.0
 16
1.0
 26
0.0
 36
0.0
 17
0.0
 27
1.0
 37
0.0
 76
     0
330
70
  0
MATERIAL
  5
19
102
{ACAD_XDICTIONARY
360
1A
102
}
102
{ACAD_REACTORS
330
10
102
}
330
10
100
AcDbMaterial
  1
ByBlock
 72
     0
 43
0.0208333333333333
 43
0.0
 43
0.0
 43
0.0
 43
0.0
 43
0.0208333333333333
 43
0.0
 43
0.0
 43
0.0
 43
0.0
 43
1.0
 43
0.0
 43
0.0
 43
0.0
 43
0.0
 43
1.0
 77
     0
 47
0.0208333333333333
 47
0.0
 47
0.0
 47
0.0
 47
0.0
 47
0.0208333333333333
 47
0.0
 47
0.0
 47
0.0
 47
0.0
 47
1.0
 47
0.0
 47
0.0
 47
0.0
 47
0.0
 47
1.0
171
     0
 49
0.0208333333333333
 49
0.0
 49
0.0
 49
0.0
 49
0.0
 49
0.0208333333333333
 49
0.0
 49
0.0
 49
0.0
 49
0.0
 49
1.0
 49
0.0
 49
0.0
 49
0.0
 49
0.0
 49
1.0
175
     0
142
0.0208333333333333
142
0.0
142
0.0
142
0.0
142
0.0
142
0.0208333333333333
142
0.0
142
0.0
142
0.0
142
0.0
142
1.0
142
0.0
142
0.0
142
0.0
142
0.0
142
1.0
179
     0
144
0.0208333333333333
144
0.0
144
0.0
144
0.0
144
0.0
144
0.0208333333333333
144
0.0
144
0.0
144
0.0
144
0.0
144
1.0
144
0.0
144
0.0
144
0.0
144
0.0
144
1.0
147
0.0208333333333333
147
0.0
147
0.0
147
0.0
147
0.0
147
0.0208333333333333
147
0.0
147
0.0
147
0.0
147
0.0
147
1.0
147
0.0
147
0.0
147
0.0
147
0.0
147
1.0
  0
MATERIAL
  5
11
102
{ACAD_XDICTIONARY
360
12
102
}
102
{ACAD_REACTORS
330
10
102
}
330
10
100
AcDbMaterial
  1
ByLayer
 72
     0
 43
0.0208333333333333
 43
0.0
 43
0.0
 43
0.0
 43
0.0
 43
0.0208333333333333
 43
0.0
 43
0.0
 43
0.0
 43
0.0
 43
1.0
 43
0.0
 43
0.0
 43
0.0
 43
0.0
 43
1.0
 77
     0
 47
0.0208333333333333
 47
0.0
 47
0.0
 47
0.0
 47
0.0
 47
0.0208333333333333
 47
0.0
 47
0.0
 47
0.0
 47
0.0
 47
1.0
 47
0.0
 47
0.0
 47
0.0
 47
0.0
 47
1.0
171
     0
 49
0.0208333333333333
 49
0.0
 49
0.0
 49
0.0
 49
0.0
 49
0.0208333333333333
 49
0.0
 49
0.0
 49
0.0
 49
0.0
 49
1.0
 49
0.0
 49
0.0
 49
0.0
 49
0.0
 49
1.0
175
     0
142
0.0208333333333333
142
0.0
142
0.0
142
0.0
142
0.0
142
0.0208333333333333
142
0.0
142
0.0
142
0.0
142
0.0
142
1.0
142
0.0
142
0.0
142
0.0
142
0.0
142
1.0
179
     0
144
0.0208333333333333
144
0.0
144
0.0
144
0.0
144
0.0
144
0.0208333333333333
144
0.0
144
0.0
144
0.0
144
0.0
144
1.0
144
0.0
144
0.0
144
0.0
144
0.0
144
1.0
147
0.0208333333333333
147
0.0
147
0.0
147
0.0
147
0.0
147
0.0208333333333333
147
0.0
147
0.0
147
0.0
147
0.0
147
1.0
147
0.0
147
0.0
147
0.0
147
0.0
147
1.0
  0
MATERIAL
  5
21
102
{ACAD_XDICTIONARY
360
22
102
}
102
{ACAD_REACTORS
330
10
102
}
330
10
100
AcDbMaterial
  1
Global
 72
     0
 43
0.0208333333333333
 43
0.0
 43
0.0
 43
0.0
 43
0.0
 43
0.0208333333333333
 43
0.0
 43
0.0
 43
0.0
 43
0.0
 43
1.0
 43
0.0
 43
0.0
 43
0.0
 43
0.0
 43
1.0
 77
     0
 47
0.0208333333333333
 47
0.0
 47
0.0
 47
0.0
 47
0.0
 47
0.0208333333333333
 47
0.0
 47
0.0
 47
0.0
 47
0.0
 47
1.0
 47
0.0
 47
0.0
 47
0.0
 47
0.0
 47
1.0
171
     0
 49
0.0208333333333333
 49
0.0
 49
0.0
 49
0.0
 49
0.0
 49
0.0208333333333333
 49
0.0
 49
0.0
 49
0.0
 49
0.0
 49
1.0
 49
0.0
 49
0.0
 49
0.0
 49
0.0
 49
1.0
175
     0
142
0.0208333333333333
142
0.0
142
0.0
142
0.0
142
0.0
142
0.0208333333333333
142
0.0
142
0.0
142
0.0
142
0.0
142
1.0
142
0.0
142
0.0
142
0.0
142
0.0
142
1.0
179
     0
144
0.0208333333333333
144
0.0
144
0.0
144
0.0
144
0.0
144
0.0208333333333333
144
0.0
144
0.0
144
0.0
144
0.0
144
1.0
144
0.0
144
0.0
144
0.0
144
0.0
144
1.0
147
0.0208333333333333
147
0.0
147
0.0
147
0.0
147
0.0
147
0.0208333333333333
147
0.0
147
0.0
147
0.0
147
0.0
147
1.0
147
0.0
147
0.0
147
0.0
147
0.0
147
1.0
  0
MLEADERSTYLE
  5
67
102
{ACAD_REACTORS
330
66
102
}
330
66
100
AcDbMLeaderStyle
179
     2
170
     2
171
     1
172
     0
 90
        2
 40
0.0
 41
0.0
173
     1
 91
-1056964608
340
5B
 92
       -2
290
     1
 42
0.09
291
     1
 43
0.36
  3
Standard
 44
0.18
300

342
55
174
     1
178
     6
175
     1
176
     0
 93
-1056964608
 45
0.18
292
     0
297
     0
 46
0.18
 94
-1056964608
 47
1.0
 49
1.0
140
1.0
293
     1
141
0.0
294
     1
177
     0
142
1.0
295
     1
296
     0
143
0.125
271
     0
272
     9
273
     9
298
     1
  0
MLINESTYLE
  5
60
102
{ACAD_REACTORS
330
5F
102
}
330
5F
100
AcDbMlineStyle
  2
STANDARD
 70
     0
  3

 62
   256
 51
90.0
 52
90.0
 71
     2
 49
0.5
 62
   256
  6
BYLAYER
 49
-0.5
 62
   256
  6
BYLAYER
  0
ACDBPLACEHOLDER
  5
F
102
{ACAD_REACTORS
330
E
102
}
330
E
  0
SCALE
  5
43
102
{ACAD_REACTORS
330
42
102
}
330
42
100
AcDbScale
 70
     0
300
1:1
140
1.0
141
1.0
290
     1
  0
SCALE
  5
44
102
{ACAD_REACTORS
330
42
102
}
330
42
100
AcDbScale
 70
     0
300
1/128" = 1'-0"
140
0.0078125
141
12.0
290
     0
  0
SCALE
  5
45
102
{ACAD_REACTORS
330
42
102
}
330
42
100
AcDbScale
 70
     0
300
1/64" = 1'-0"
140
0.015625
141
12.0
290
     0
  0
SCALE
  5
46
102
{ACAD_REACTORS
330
42
102
}
330
42
100
AcDbScale
 70
     0
300
1/32" = 1'-0"
140
0.03125
141
12.0
290
     0
  0
SCALE
  5
47
102
{ACAD_REACTORS
330
42
102
}
330
42
100
AcDbScale
 70
     0
300
1/16" = 1'-0"
140
0.0625
141
12.0
290
     0
  0
SCALE
  5
48
102
{ACAD_REACTORS
330
42
102
}
330
42
100
AcDbScale
 70
     0
300
3/32" = 1'-0"
140
0.09375
141
12.0
290
     0
  0
SCALE
  5
49
102
{ACAD_REACTORS
330
42
102
}
330
42
100
AcDbScale
 70
     0
300
1/8" = 1'-0"
140
0.125
141
12.0
290
     0
  0
SCALE
  5
4A
102
{ACAD_REACTORS
330
42
102
}
330
42
100
AcDbScale
 70
     0
300
3/16" = 1'-0"
140
0.1875
141
12.0
290
     0
  0
SCALE
  5
4B
102
{ACAD_REACTORS
330
42
102
}
330
42
100
AcDbScale
 70
     0
300
1/4" = 1'-0"
140
0.25
141
12.0
290
     0
  0
SCALE
  5
4C
102
{ACAD_REACTORS
330
42
102
}
330
42
100
AcDbScale
 70
     0
300
3/8" = 1'-0"
140
0.375
141
12.0
290
     0
  0
SCALE
  5
4D
102
{ACAD_REACTORS
330
42
102
}
330
42
100
AcDbScale
 70
     0
300
1/2" = 1'-0"
140
0.5
141
12.0
290
     0
  0
SCALE
  5
4E
102
{ACAD_REACTORS
330
42
102
}
330
42
100
AcDbScale
 70
     0
300
3/4" = 1'-0"
140
0.75
141
12.0
290
     0
  0
SCALE
  5
4F
102
{ACAD_REACTORS
330
42
102
}
330
42
100
AcDbScale
 70
     0
300
1" = 1'-0"
140
1.0
141
12.0
290
     0
  0
SCALE
  5
50
102
{ACAD_REACTORS
330
42
102
}
330
42
100
AcDbScale
 70
     0
300
1-1/2" = 1'-0"
140
1.5
141
12.0
290
     0
  0
SCALE
  5
51
102
{ACAD_REACTORS
330
42
102
}
330
42
100
AcDbScale
 70
     0
300
3" = 1'-0"
140
3.0
141
12.0
290
     0
  0
SCALE
  5
52
102
{ACAD_REACTORS
330
42
102
}
330
42
100
AcDbScale
 70
     0
300
6" = 1'-0"
140
6.0
141
12.0
290
     0
  0
SCALE
  5
53
102
{ACAD_REACTORS
330
42
102
}
330
42
100
AcDbScale
 70
     0
300
1'-0" = 1'-0"
140
12.0
141
12.0
290
     0
  0
ACDBSECTIONVIEWSTYLE
  5
69
102
{ACAD_REACTORS
330
68
102
}
330
68
100
AcDbModelDocViewStyle
 70
     0
  3
Imperial24
290
     1
300
Imperial24
 90
        0
100
AcDbSectionViewStyle
 70
     0
 71
     0
 90
       78
 71
     1
340
55
 62
   256
 40
0.24
340
0
340
0
 62
   256
 40
0.24
300
I, O, Q, S, X, Z
 40
0.48
 90
        3
 40
0.18
 90
        1
 71
     2
340
5D
 90
       25
 62
   256
340
5D
 90
       50
 62
   256
 40
0.24
 40
0.0
 40
0.24
 71
     3
340
55
 62
   256
 40
0.24
 90
        1
 40
0.75
 90
        1
300
%<\AcVar ViewType \f "%tc1">% %<\AcVar ViewSectionStartId>%-%<\AcVar ViewSectionEndId>%\PSCALE %<\AcVar ViewScale \f "%sn">%
 71
     4
 62
   256
 62
   257
300
ANSI31
 40
1.0
 90
        0
290
     0
290
     0
 90
        6
 40
0.0
 40
1.570796326794896
 40
0.2617993877991494
 40
1.308996938995747
 40
-0.2617993877991494
 40
1.832595714594046
  0
TABLESTYLE
  5
65
102
{ACAD_XDICTIONARY
360
DA
102
}
102
{ACAD_REACTORS
330
64
102
}
330
64
100
AcDbTableStyle
280
     0
  3
Standard
 70
     0
 71
     0
 40
0.06
 41
0.06
280
     0
281
     0
  7
Standard
140
0.18
170
     2
 62
     0
 63
     7
283
     0
 90
      512
 91
        0
  1

274
    -2
284
     1
 64
     0
275
    -2
285
     1
 65
     0
276
    -2
286
     1
 66
     0
277
    -2
287
     1
 67
     0
278
    -2
288
     1
 68
     0
279
    -2
289
     1
 69
     0
  7
Standard
140
0.25
170
     5
 62
     0
 63
     7
283
     0
 90
      512
 91
        0
  1

274
    -2
284
     1
 64
     0
275
    -2
285
     1
 65
     0
276
    -2
286
     1
 66
     0
277
    -2
287
     1
 67
     0
278
    -2
288
     1
 68
     0
279
    -2
289
     1
 69
     0
  7
Standard
140
0.18
170
     5
 62
     0
 63
     7
283
     0
 90
      512
 91
        0
  1

274
    -2
284
     1
 64
     0
275
    -2
285
     1
 65
     0
276
    -2
286
     1
 66
     0
277
    -2
287
     1
 67
     0
278
    -2
288
     1
 68
     0
279
    -2
289
     1
 69
     0
  0
VISUALSTYLE
  5
2F
102
{ACAD_REACTORS
330
29
102
}
330
29
100
AcDbVisualStyle
  2
2dWireframe
 70
     4
177
     3
291
     0
 70
    58
 90
        0
176
     1
 90
        2
176
     1
 90
        0
176
     1
 90
        0
176
     1
 40
0.6
176
     1
 40
30.0
176
     1
 62
     7
420
 16777215
176
     1
 90
        1
176
     1
 90
        4
176
     1
 62
     7
176
     1
 62
   257
176
     1
 90
        1
176
     1
 90
        1
176
     1
 40
1.0
176
     1
 90
        0
176
     1
 62
   257
176
     1
 40
1.0
176
     1
 90
        1
176
     1
 90
        6
176
     1
 90
        2
176
     1
 62
     7
176
     1
 90
        5
176
     1
 90
        0
176
     1
 90
        0
176
     1
290
     0
176
     1
 90
        1
176
     1
 40
0.0
176
     1
 90
        0
176
     1
290
     1
176
     1
290
     1
176
     1
290
     0
176
     1
290
     0
176
     1
290
     0
176
     1
290
     0
176
     1
290
     0
176
     1
290
     0
176
     1
290
     0
176
     1
 90
       50
176
     1
 40
0.0
176
     1
 40
1.0
176
     1
 90
        0
176
     1
 62
    18
420
        0
176
     1
 90
       50
176
     1
 90
        3
176
     1
 62
     5
420
      255
176
     1
290
     0
176
     1
 90
       50
176
     1
 90
       50
176
     1
 90
       50
176
     1
290
     0
176
     1
 90
       50
176
     1
 62
   256
176
     0
 40
1.0
176
     0
 90
        2
176
     1
  1
strokes_ogs.tif
176
     1
290
     0
176
     1
 40
1.0
176
     1
 40
1.0
176
     1
  0
VISUALSTYLE
  5
2E
102
{ACAD_REACTORS
330
29
102
}
330
29
100
AcDbVisualStyle
  2
Basic
 70
     7
177
     3
291
     1
 70
    58
 90
        1
176
     1
 90
        0
176
     1
 90
        1
176
     1
 90
        0
176
     1
 40
0.6
176
     1
 40
30.0
176
     1
 62
     7
420
 16777215
176
     1
 90
        0
176
     1
 90
        4
176
     1
 62
     7
176
     1
 62
   257
176
     1
 90
        1
176
     1
 90
        1
176
     1
 40
1.0
176
     1
 90
        8
176
     1
 62
     7
176
     1
 40
1.0
176
     1
 90
        1
176
     1
 90
        6
176
     1
 90
        2
176
     1
 62
     7
176
     1
 90
        5
176
     1
 90
        0
176
     1
 90
        0
176
     1
290
     0
176
     1
 90
        1
176
     1
 40
0.0
176
     1
 90
        0
176
     1
290
     0
176
     1
290
     1
176
     1
290
     1
176
     1
290
     0
176
     1
290
     0
176
     1
290
     0
176
     1
290
     0
176
     1
290
     0
176
     1
290
     0
176
     1
 90
       50
176
     1
 40
0.0
176
     1
 40
1.0
176
     1
 90
        0
176
     1
 62
    18
420
        0
176
     1
 90
       50
176
     1
 90
        3
176
     1
 62
     5
420
      255
176
     1
290
     0
176
     1
 90
       50
176
     1
 90
       50
176
     1
 90
       50
176
     1
290
     0
176
     1
 90
       50
176
     1
 62
   256
176
     0
 40
1.0
176
     0
 90
        2
176
     1
  1
strokes_ogs.tif
176
     1
290
     0
176
     1
 40
1.0
176
     1
 40
1.0
176
     1
  0
VISUALSTYLE
  5
35
102
{ACAD_REACTORS
330
29
102
}
330
29
100
AcDbVisualStyle
  2
Brighten
 70
    12
177
     3
291
     1
 70
    58
 90
        2
176
     1
 90
        2
176
     1
 90
        0
176
     1
 90
        0
176
     1
 40
0.6
176
     1
 40
30.0
176
     1
 62
     7
420
 16777215
176
     1
 90
        1
176
     1
 90
        4
176
     1
 62
     7
176
     1
 62
   257
176
     1
 90
        1
176
     1
 90
        1
176
     1
 40
1.0
176
     1
 90
        8
176
     1
 62
     7
176
     1
 40
1.0
176
     1
 90
        1
176
     1
 90
        6
176
     1
 90
        2
176
     1
 62
     7
176
     1
 90
        5
176
     1
 90
        0
176
     1
 90
        0
176
     1
290
     0
176
     1
 90
        1
176
     1
 40
50.0
176
     1
 90
        0
176
     1
290
     0
176
     1
290
     1
176
     1
290
     1
176
     1
290
     0
176
     1
290
     0
176
     1
290
     0
176
     1
290
     0
176
     1
290
     0
176
     1
290
     0
176
     1
 90
       50
176
     1
 40
0.0
176
     1
 40
1.0
176
     1
 90
        0
176
     1
 62
    18
420
        0
176
     1
 90
       50
176
     1
 90
        3
176
     1
 62
     5
420
      255
176
     1
290
     0
176
     1
 90
       50
176
     1
 90
       50
176
     1
 90
       50
176
     1
290
     0
176
     1
 90
       50
176
     1
 62
   256
176
     0
 40
1.0
176
     0
 90
        2
176
     1
  1
strokes_ogs.tif
176
     1
290
     0
176
     1
 40
1.0
176
     1
 40
1.0
176
     1
  0
VISUALSTYLE
  5
39
102
{ACAD_REACTORS
330
29
102
}
330
29
100
AcDbVisualStyle
  2
ColorChange
 70
    16
177
     3
291
     1
 70
    58
 90
        2
176
     1
 90
        2
176
     1
 90
        3
176
     1
 90
        0
176
     1
 40
0.6
176
     1
 40
30.0
176
     1
 62
     8
420
  8421504
176
     1
 90
        1
176
     1
 90
        4
176
     1
 62
     7
176
     1
 62
   257
176
     1
 90
        1
176
     1
 90
        1
176
     1
 40
1.0
176
     1
 90
        8
176
     1
 62
     8
420
  8421504
176
     1
 40
1.0
176
     1
 90
        1
176
     1
 90
        6
176
     1
 90
        2
176
     1
 62
     7
176
     1
 90
        5
176
     1
 90
        0
176
     1
 90
        0
176
     1
290
     0
176
     1
 90
        1
176
     1
 40
0.0
176
     1
 90
        0
176
     1
290
     0
176
     1
290
     1
176
     1
290
     1
176
     1
290
     0
176
     1
290
     0
176
     1
290
     0
176
     1
290
     0
176
     1
290
     0
176
     1
290
     0
176
     1
 90
       50
176
     1
 40
0.0
176
     1
 40
1.0
176
     1
 90
        0
176
     1
 62
    18
420
        0
176
     1
 90
       50
176
     1
 90
        3
176
     1
 62
     5
420
      255
176
     1
290
     0
176
     1
 90
       50
176
     1
 90
       50
176
     1
 90
       50
176
     1
290
     0
176
     1
 90
       50
176
     1
 62
   256
176
     0
 40
1.0
176
     0
 90
        2
176
     1
  1
strokes_ogs.tif
176
     1
290
     0
176
     1
 40
1.0
176
     1
 40
1.0
176
     1
  0
VISUALSTYLE
  5
32
102
{ACAD_REACTORS
330
29
102
}
330
29
100
AcDbVisualStyle
  2
Conceptual
 70
     9
177
     3
291
     0
 70
    58
 90
        3
176
     1
 90
        2
176
     1
 90
        0
176
     1
 90
        0
176
     1
 40
0.6
176
     1
 40
30.0
176
     1
 62
     7
420
 16777215
176
     1
 90
        2
176
     1
 90
        2
176
     1
 62
     7
176
     1
 62
   257
176
     1
 90
        1
176
     1
 90
        1
176
     1
 40
179.0
176
     1
 90
        8
176
     1
 62
     7
176
     1
 40
1.0
176
     1
 90
        1
176
     1
 90
        6
176
     1
 90
        2
176
     1
 62
     7
176
     1
 90
        3
176
     1
 90
        0
176
     1
 90
        0
176
     1
290
     0
176
     1
 90
        1
176
     1
 40
0.0
176
     1
 90
        0
176
     1
290
     0
176
     1
290
     1
176
     1
290
     1
176
     1
290
     0
176
     1
290
     0
176
     1
290
     0
176
     1
290
     0
176
     1
290
     0
176
     1
290
     0
176
     1
 90
       50
176
     1
 40
0.0
176
     1
 40
1.0
176
     1
 90
        0
176
     1
 62
    18
420
        0
176
     1
 90
       50
176
     1
 90
        3
176
     1
 62
     5
420
      255
176
     1
290
     0
176
     1
 90
       50
176
     1
 90
       50
176
     1
 90
       50
176
     1
290
     0
176
     1
 90
       50
176
     1
 62
   256
176
     0
 40
1.0
176
     0
 90
        2
176
     1
  1
strokes_ogs.tif
176
     1
290
     0
176
     1
 40
1.0
176
     1
 40
1.0
176
     1
  0
VISUALSTYLE
  5
34
102
{ACAD_REACTORS
330
29
102
}
330
29
100
AcDbVisualStyle
  2
Dim
 70
    11
177
     3
291
     1
 70
    58
 90
        2
176
     1
 90
        2
176
     1
 90
        0
176
     1
 90
        0
176
     1
 40
0.6
176
     1
 40
30.0
176
     1
 62
     7
420
 16777215
176
     1
 90
        1
176
     1
 90
        4
176
     1
 62
     7
176
     1
 62
   257
176
     1
 90
        1
176
     1
 90
        1
176
     1
 40
1.0
176
     1
 90
        8
176
     1
 62
     7
176
     1
 40
1.0
176
     1
 90
        1
176
     1
 90
        6
176
     1
 90
        2
176
     1
 62
     7
176
     1
 90
        5
176
     1
 90
        0
176
     1
 90
        0
176
     1
290
     0
176
     1
 90
        1
176
     1
 40
-50.0
176
     1
 90
        0
176
     1
290
     0
176
     1
290
     1
176
     1
290
     1
176
     1
290
     0
176
     1
290
     0
176
     1
290
     0
176
     1
290
     0
176
     1
290
     0
176
     1
290
     0
176
     1
 90
       50
176
     1
 40
0.0
176
     1
 40
1.0
176
     1
 90
        0
176
     1
 62
    18
420
        0
176
     1
 90
       50
176
     1
 90
        3
176
     1
 62
     5
420
      255
176
     1
290
     0
176
     1
 90
       50
176
     1
 90
       50
176
     1
 90
       50
176
     1
290
     0
176
     1
 90
       50
176
     1
 62
   256
176
     0
 40
1.0
176
     0
 90
        2
176
     1
  1
strokes_ogs.tif
176
     1
290
     0
176
     1
 40
1.0
176
     1
 40
1.0
176
     1
  0
VISUALSTYLE
  5
41
102
{ACAD_REACTORS
330
29
102
}
330
29
100
AcDbVisualStyle
  2
EdgeColorOff
 70
    22
177
     3
291
     1
 70
    58
 90
        2
176
     0
 90
        2
176
     0
 90
        0
176
     0
 90
        0
176
     0
 40
0.6
176
     0
 40
30.0
176
     0
 62
     7
420
 16777215
176
     0
 90
        1
176
     0
 90
        4
176
     0
 62
     7
176
     0
 62
   257
176
     0
 90
        1
176
     0
 90
        1
176
     0
 40
1.0
176
     0
 90
        8
176
     2
 62
     7
176
     0
 40
1.0
176
     0
 90
        1
176
     0
 90
        6
176
     0
 90
        2
176
     0
 62
     7
176
     0
 90
        5
176
     0
 90
        0
176
     0
 90
        0
176
     0
290
     0
176
     0
 90
        1
176
     0
 40
0.0
176
     0
 90
        0
176
     0
290
     0
176
     0
290
     1
176
     0
290
     1
176
     0
290
     0
176
     0
290
     0
176
     0
290
     0
176
     0
290
     0
176
     0
290
     0
176
     0
290
     0
176
     0
 90
       50
176
     0
 40
0.0
176
     0
 40
1.0
176
     0
 90
        0
176
     0
 62
    18
420
        0
176
     0
 90
       50
176
     0
 90
        3
176
     0
 62
     5
420
      255
176
     0
290
     0
176
     0
 90
       50
176
     0
 90
       50
176
     0
 90
       50
176
     0
290
     0
176
     0
 90
       50
176
     0
 62
   256
176
     0
 40
1.0
176
     0
 90
        2
176
     0
  1
strokes_ogs.tif
176
     0
290
     0
176
     0
 40
1.0
176
     0
 40
1.0
176
     0
  0
VISUALSTYLE
  5
38
102
{ACAD_REACTORS
330
29
102
}
330
29
100
AcDbVisualStyle
  2
Facepattern
 70
    15
177
     3
291
     1
 70
    58
 90
        2
176
     1
 90
        2
176
     1
 90
        0
176
     1
 90
        0
176
     1
 40
0.6
176
     1
 40
30.0
176
     1
 62
     7
420
 16777215
176
     1
 90
        1
176
     1
 90
        4
176
     1
 62
     7
176
     1
 62
   257
176
     1
 90
        1
176
     1
 90
        1
176
     1
 40
1.0
176
     1
 90
        8
176
     1
 62
     7
176
     1
 40
1.0
176
     1
 90
        1
176
     1
 90
        6
176
     1
 90
        2
176
     1
 62
     7
176
     1
 90
        5
176
     1
 90
        0
176
     1
 90
        0
176
     1
290
     0
176
     1
 90
        1
176
     1
 40
0.0
176
     1
 90
        0
176
     1
290
     0
176
     1
290
     1
176
     1
290
     1
176
     1
290
     0
176
     1
290
     0
176
     1
290
     0
176
     1
290
     0
176
     1
290
     0
176
     1
290
     0
176
     1
 90
       50
176
     1
 40
0.0
176
     1
 40
1.0
176
     1
 90
        0
176
     1
 62
    18
420
        0
176
     1
 90
       50
176
     1
 90
        3
176
     1
 62
     5
420
      255
176
     1
290
     0
176
     1
 90
       50
176
     1
 90
       50
176
     1
 90
       50
176
     1
290
     0
176
     1
 90
       50
176
     1
 62
   256
176
     0
 40
1.0
176
     0
 90
        2
176
     1
  1
strokes_ogs.tif
176
     1
290
     0
176
     1
 40
1.0
176
     1
 40
1.0
176
     1
  0
VISUALSTYLE
  5
2A
102
{ACAD_REACTORS
330
29
102
}
330
29
100
AcDbVisualStyle
  2
Flat
 70
     0
177
     3
291
     1
 70
    58
 90
        2
176
     1
 90
        1
176
     1
 90
        1
176
     1
 90
        2
176
     1
 40
0.6
176
     1
 40
30.0
176
     1
 62
     7
420
 16777215
176
     1
 90
        0
176
     1
 90
        0
176
     1
 62
     7
176
     1
 62
   257
176
     1
 90
        1
176
     1
 90
        1
176
     1
 40
1.0
176
     1
 90
        8
176
     1
 62
     7
176
     1
 40
1.0
176
     1
 90
        1
176
     1
 90
        6
176
     1
 90
        2
176
     1
 62
     7
176
     1
 90
        5
176
     1
 90
        0
176
     1
 90
        0
176
     1
290
     0
176
     1
 90
       13
176
     1
 40
0.0
176
     1
 90
        0
176
     1
290
     0
176
     1
290
     1
176
     1
290
     1
176
     1
290
     0
176
     1
290
     0
176
     1
290
     0
176
     1
290
     0
176
     1
290
     0
176
     1
290
     0
176
     1
 90
       50
176
     1
 40
0.0
176
     1
 40
1.0
176
     1
 90
        0
176
     1
 62
    18
420
        0
176
     1
 90
       50
176
     1
 90
        3
176
     1
 62
     5
420
      255
176
     1
290
     0
176
     1
 90
       50
176
     1
 90
       50
176
     1
 90
       50
176
     1
290
     0
176
     1
 90
       50
176
     1
 62
   256
176
     0
 40
1.0
176
     0
 90
        2
176
     1
  1
strokes_ogs.tif
176
     1
290
     0
176
     1
 40
1.0
176
     1
 40
1.0
176
     1
  0
VISUALSTYLE
  5
2B
102
{ACAD_REACTORS
330
29
102
}
330
29
100
AcDbVisualStyle
  2
FlatWithEdges
 70
     1
177
     3
291
     1
 70
    58
 90
        2
176
     1
 90
        1
176
     1
 90
        1
176
     1
 90
        2
176
     1
 40
0.6
176
     1
 40
30.0
176
     1
 62
     7
420
 16777215
176
     1
 90
        1
176
     1
 90
        0
176
     1
 62
     7
176
     1
 62
   257
176
     1
 90
        1
176
     1
 90
        1
176
     1
 40
1.0
176
     1
 90
        0
176
     1
 62
   257
176
     1
 40
1.0
176
     1
 90
        1
176
     1
 90
        6
176
     1
 90
        2
176
     1
 62
     7
176
     1
 90
        5
176
     1
 90
        0
176
     1
 90
        0
176
     1
290
     0
176
     1
 90
       13
176
     1
 40
0.0
176
     1
 90
        0
176
     1
290
     0
176
     1
290
     1
176
     1
290
     1
176
     1
290
     0
176
     1
290
     0
176
     1
290
     0
176
     1
290
     0
176
     1
290
     0
176
     1
290
     0
176
     1
 90
       50
176
     1
 40
0.0
176
     1
 40
1.0
176
     1
 90
        0
176
     1
 62
    18
420
        0
176
     1
 90
       50
176
     1
 90
        3
176
     1
 62
     5
420
      255
176
     1
290
     0
176
     1
 90
       50
176
     1
 90
       50
176
     1
 90
       50
176
     1
290
     0
176
     1
 90
       50
176
     1
 62
   256
176
     0
 40
1.0
176
     0
 90
        2
176
     1
  1
strokes_ogs.tif
176
     1
290
     0
176
     1
 40
1.0
176
     1
 40
1.0
176
     1
  0
VISUALSTYLE
  5
2C
102
{ACAD_REACTORS
330
29
102
}
330
29
100
AcDbVisualStyle
  2
Gouraud
 70
     2
177
     3
291
     1
 70
    58
 90
        2
176
     1
 90
        2
176
     1
 90
        1
176
     1
 90
        2
176
     1
 40
0.6
176
     1
 40
30.0
176
     1
 62
     7
420
 16777215
176
     1
 90
        0
176
     1
 90
        0
176
     1
 62
     7
176
     1
 62
   257
176
     1
 90
        1
176
     1
 90
        1
176
     1
 40
1.0
176
     1
 90
        0
176
     1
 62
     7
176
     1
 40
1.0
176
     1
 90
        1
176
     1
 90
        6
176
     1
 90
        2
176
     1
 62
     7
176
     1
 90
        5
176
     1
 90
        0
176
     1
 90
        0
176
     1
290
     0
176
     1
 90
       13
176
     1
 40
0.0
176
     1
 90
        0
176
     1
290
     0
176
     1
290
     1
176
     1
290
     1
176
     1
290
     0
176
     1
290
     0
176
     1
290
     0
176
     1
290
     0
176
     1
290
     0
176
     1
290
     0
176
     1
 90
       50
176
     1
 40
0.0
176
     1
 40
1.0
176
     1
 90
        0
176
     1
 62
    18
420
        0
176
     1
 90
       50
176
     1
 90
        3
176
     1
 62
     5
420
      255
176
     1
290
     0
176
     1
 90
       50
176
     1
 90
       50
176
     1
 90
       50
176
     1
290
     0
176
     1
 90
       50
176
     1
 62
   256
176
     0
 40
1.0
176
     0
 90
        2
176
     1
  1
strokes_ogs.tif
176
     1
290
     0
176
     1
 40
1.0
176
     1
 40
1.0
176
     1
  0
VISUALSTYLE
  5
2D
102
{ACAD_REACTORS
330
29
102
}
330
29
100
AcDbVisualStyle
  2
GouraudWithEdges
 70
     3
177
     3
291
     1
 70
    58
 90
        2
176
     1
 90
        2
176
     1
 90
        1
176
     1
 90
        2
176
     1
 40
0.6
176
     1
 40
30.0
176
     1
 62
     7
420
 16777215
176
     1
 90
        1
176
     1
 90
        0
176
     1
 62
     7
176
     1
 62
   257
176
     1
 90
        1
176
     1
 90
        1
176
     1
 40
1.0
176
     1
 90
        0
176
     1
 62
   257
176
     1
 40
1.0
176
     1
 90
        1
176
     1
 90
        6
176
     1
 90
        2
176
     1
 62
     7
176
     1
 90
        5
176
     1
 90
        0
176
     1
 90
        0
176
     1
290
     0
176
     1
 90
       13
176
     1
 40
0.0
176
     1
 90
        0
176
     1
290
     0
176
     1
290
     1
176
     1
290
     1
176
     1
290
     0
176
     1
290
     0
176
     1
290
     0
176
     1
290
     0
176
     1
290
     0
176
     1
290
     0
176
     1
 90
       50
176
     1
 40
0.0
176
     1
 40
1.0
176
     1
 90
        0
176
     1
 62
    18
420
        0
176
     1
 90
       50
176
     1
 90
        3
176
     1
 62
     5
420
      255
176
     1
290
     0
176
     1
 90
       50
176
     1
 90
       50
176
     1
 90
       50
176
     1
290
     0
176
     1
 90
       50
176
     1
 62
   256
176
     0
 40
1.0
176
     0
 90
        2
176
     1
  1
strokes_ogs.tif
176
     1
290
     0
176
     1
 40
1.0
176
     1
 40
1.0
176
     1
  0
VISUALSTYLE
  5
31
102
{ACAD_REACTORS
330
29
102
}
330
29
100
AcDbVisualStyle
  2
Hidden
 70
     6
177
     3
291
     0
 70
    58
 90
        1
176
     1
 90
        2
176
     1
 90
        2
176
     1
 90
        0
176
     1
 40
0.6
176
     1
 40
30.0
176
     1
 62
     7
420
 16777215
176
     1
 90
        2
176
     1
 90
        2
176
     1
 62
     7
176
     1
 62
   257
176
     1
 90
        2
176
     1
 90
        1
176
     1
 40
40.0
176
     1
 90
        0
176
     1
 62
   257
176
     1
 40
1.0
176
     1
 90
        1
176
     1
 90
        6
176
     1
 90
        2
176
     1
 62
     7
176
     1
 90
        3
176
     1
 90
        0
176
     1
 90
        0
176
     1
290
     0
176
     1
 90
        1
176
     1
 40
0.0
176
     1
 90
        0
176
     1
290
     0
176
     1
290
     1
176
     1
290
     1
176
     1
290
     0
176
     1
290
     0
176
     1
290
     0
176
     1
290
     0
176
     1
290
     0
176
     1
290
     0
176
     1
 90
       50
176
     1
 40
0.0
176
     1
 40
1.0
176
     1
 90
        0
176
     1
 62
    18
420
        0
176
     1
 90
       50
176
     1
 90
        3
176
     1
 62
     5
420
      255
176
     1
290
     0
176
     1
 90
       50
176
     1
 90
       50
176
     1
 90
       50
176
     1
290
     0
176
     1
 90
       50
176
     1
 62
   256
176
     0
 40
1.0
176
     0
 90
        2
176
     1
  1
strokes_ogs.tif
176
     1
290
     0
176
     1
 40
1.0
176
     1
 40
1.0
176
     1
  0
VISUALSTYLE
  5
3F
102
{ACAD_REACTORS
330
29
102
}
330
29
100
AcDbVisualStyle
  2
JitterOff
 70
    20
177
     3
291
     1
 70
    58
 90
        2
176
     0
 90
        2
176
     0
 90
        0
176
     0
 90
        0
176
     0
 40
0.6
176
     0
 40
30.0
176
     0
 62
     7
420
 16777215
176
     0
 90
        1
176
     0
 90
        4
176
     0
 62
     7
176
     0
 62
   257
176
     0
 90
        1
176
     0
 90
        1
176
     0
 40
1.0
176
     0
 90
       10
176
     2
 62
     7
176
     0
 40
1.0
176
     0
 90
        1
176
     0
 90
        6
176
     0
 90
        2
176
     0
 62
     7
176
     0
 90
        5
176
     0
 90
        0
176
     0
 90
        0
176
     0
290
     0
176
     0
 90
        1
176
     0
 40
0.0
176
     0
 90
        0
176
     0
290
     0
176
     0
290
     1
176
     0
290
     1
176
     0
290
     0
176
     0
290
     0
176
     0
290
     0
176
     0
290
     0
176
     0
290
     0
176
     0
290
     0
176
     0
 90
       50
176
     0
 40
0.0
176
     0
 40
1.0
176
     0
 90
        0
176
     0
 62
    18
420
        0
176
     0
 90
       50
176
     0
 90
        3
176
     0
 62
     5
420
      255
176
     0
290
     0
176
     0
 90
       50
176
     0
 90
       50
176
     0
 90
       50
176
     0
290
     0
176
     0
 90
       50
176
     0
 62
   256
176
     0
 40
1.0
176
     0
 90
        2
176
     0
  1
strokes_ogs.tif
176
     0
290
     0
176
     0
 40
1.0
176
     0
 40
1.0
176
     0
  0
VISUALSTYLE
  5
37
102
{ACAD_REACTORS
330
29
102
}
330
29
100
AcDbVisualStyle
  2
Linepattern
 70
    14
177
     3
291
     1
 70
    58
 90
        2
176
     1
 90
        2
176
     1
 90
        0
176
     1
 90
        0
176
     1
 40
0.6
176
     1
 40
30.0
176
     1
 62
     7
420
 16777215
176
     1
 90
        1
176
     1
 90
        4
176
     1
 62
     7
176
     1
 62
   257
176
     1
 90
        7
176
     1
 90
        7
176
     1
 40
1.0
176
     1
 90
        8
176
     1
 62
     7
176
     1
 40
1.0
176
     1
 90
        1
176
     1
 90
        6
176
     1
 90
        2
176
     1
 62
     7
176
     1
 90
        5
176
     1
 90
        0
176
     1
 90
        0
176
     1
290
     0
176
     1
 90
        1
176
     1
 40
0.0
176
     1
 90
        0
176
     1
290
     0
176
     1
290
     1
176
     1
290
     1
176
     1
290
     0
176
     1
290
     0
176
     1
290
     0
176
     1
290
     0
176
     1
290
     0
176
     1
290
     0
176
     1
 90
       50
176
     1
 40
0.0
176
     1
 40
1.0
176
     1
 90
        0
176
     1
 62
    18
420
        0
176
     1
 90
       50
176
     1
 90
        3
176
     1
 62
     5
420
      255
176
     1
290
     0
176
     1
 90
       50
176
     1
 90
       50
176
     1
 90
       50
176
     1
290
     0
176
     1
 90
       50
176
     1
 62
   256
176
     0
 40
1.0
176
     0
 90
        2
176
     1
  1
strokes_ogs.tif
176
     1
290
     0
176
     1
 40
1.0
176
     1
 40
1.0
176
     1
  0
VISUALSTYLE
  5
40
102
{ACAD_REACTORS
330
29
102
}
330
29
100
AcDbVisualStyle
  2
OverhangOff
 70
    21
177
     3
291
     1
 70
    58
 90
        2
176
     0
 90
        2
176
     0
 90
        0
176
     0
 90
        0
176
     0
 40
0.6
176
     0
 40
30.0
176
     0
 62
     7
420
 16777215
176
     0
 90
        1
176
     0
 90
        4
176
     0
 62
     7
176
     0
 62
   257
176
     0
 90
        1
176
     0
 90
        1
176
     0
 40
1.0
176
     0
 90
        9
176
     2
 62
     7
176
     0
 40
1.0
176
     0
 90
        1
176
     0
 90
        6
176
     0
 90
        2
176
     0
 62
     7
176
     0
 90
        5
176
     0
 90
        0
176
     0
 90
        0
176
     0
290
     0
176
     0
 90
        1
176
     0
 40
0.0
176
     0
 90
        0
176
     0
290
     0
176
     0
290
     1
176
     0
290
     1
176
     0
290
     0
176
     0
290
     0
176
     0
290
     0
176
     0
290
     0
176
     0
290
     0
176
     0
290
     0
176
     0
 90
       50
176
     0
 40
0.0
176
     0
 40
1.0
176
     0
 90
        0
176
     0
 62
    18
420
        0
176
     0
 90
       50
176
     0
 90
        3
176
     0
 62
     5
420
      255
176
     0
290
     0
176
     0
 90
       50
176
     0
 90
       50
176
     0
 90
       50
176
     0
290
     0
176
     0
 90
       50
176
     0
 62
   256
176
     0
 40
1.0
176
     0
 90
        2
176
     0
  1
strokes_ogs.tif
176
     0
290
     0
176
     0
 40
1.0
176
     0
 40
1.0
176
     0
  0
VISUALSTYLE
  5
33
102
{ACAD_REACTORS
330
29
102
}
330
29
100
AcDbVisualStyle
  2
Realistic
 70
     8
177
     3
291
     0
 70
    58
 90
        2
176
     1
 90
        3
176
     1
 90
        0
176
     1
 90
        2
176
     1
 40
0.6
176
     1
 40
30.0
176
     1
 62
     7
420
 16777215
176
     1
 90
        0
176
     1
 90
        0
176
     1
 62
     7
176
     1
 62
   257
176
     1
 90
        1
176
     1
 90
        1
176
     1
 40
1.0
176
     1
 90
        8
176
     1
 62
   257
176
     1
 40
1.0
176
     1
 90
        1
176
     1
 90
        6
176
     1
 90
        2
176
     1
 62
     7
176
     1
 90
        3
176
     1
 90
        0
176
     1
 90
        0
176
     1
290
     0
176
     1
 90
       13
176
     1
 40
0.0
176
     1
 90
        0
176
     1
290
     0
176
     1
290
     1
176
     1
290
     1
176
     1
290
     0
176
     1
290
     0
176
     1
290
     0
176
     1
290
     0
176
     1
290
     0
176
     1
290
     0
176
     1
 90
       50
176
     1
 40
0.0
176
     1
 40
1.0
176
     1
 90
        0
176
     1
 62
    18
420
        0
176
     1
 90
       50
176
     1
 90
        3
176
     1
 62
     5
420
      255
176
     1
290
     0
176
     1
 90
       50
176
     1
 90
       50
176
     1
 90
       50
176
     1
290
     0
176
     1
 90
       50
176
     1
 62
   256
176
     0
 40
1.0
176
     0
 90
        2
176
     1
  1
strokes_ogs.tif
176
     1
290
     0
176
     1
 40
1.0
176
     1
 40
1.0
176
     1
  0
VISUALSTYLE
  5
3E
102
{ACAD_REACTORS
330
29
102
}
330
29
100
AcDbVisualStyle
  2
Shaded
 70
    27
177
     3
291
     0
 70
    58
 90
        2
176
     1
 90
        2
176
     1
 90
        1
176
     1
 90
        2
176
     1
 40
0.6
176
     1
 40
30.0
176
     1
 62
     7
420
 16777215
176
     1
 90
        0
176
     1
 90
        4
176
     1
 62
     7
176
     1
 62
   257
176
     1
 90
        1
176
     1
 90
        1
176
     1
 40
1.0
176
     1
 90
        8
176
     1
 62
   257
176
     1
 40
1.0
176
     1
 90
        1
176
     1
 90
        6
176
     1
 90
        2
176
     1
 62
     8
420
  7895160
176
     1
 90
        3
176
     1
 90
        0
176
     1
 90
        0
176
     1
290
     0
176
     1
 90
        5
176
     1
 40
0.0
176
     1
 90
        0
176
     1
290
     0
176
     1
290
     1
176
     1
290
     1
176
     1
290
     0
176
     1
290
     0
176
     1
290
     0
176
     1
290
     0
176
     1
290
     0
176
     1
290
     0
176
     1
 90
       50
176
     1
 40
0.0
176
     1
 40
1.0
176
     1
 90
        0
176
     1
 62
    18
420
        0
176
     1
 90
       50
176
     1
 90
        3
176
     1
 62
     5
420
      255
176
     1
290
     0
176
     1
 90
       50
176
     1
 90
       50
176
     1
 90
       50
176
     1
290
     0
176
     1
 90
       50
176
     1
 62
   256
176
     0
 40
1.0
176
     0
 90
        2
176
     1
  1
strokes_ogs.tif
176
     1
290
     0
176
     1
 40
1.0
176
     1
 40
1.0
176
     1
  0
VISUALSTYLE
  5
3D
102
{ACAD_REACTORS
330
29
102
}
330
29
100
AcDbVisualStyle
  2
Shaded with edges
 70
    26
177
     3
291
     0
 70
    58
 90
        2
176
     1
 90
        2
176
     1
 90
        1
176
     1
 90
        2
176
     1
 40
0.6
176
     1
 40
30.0
176
     1
 62
     7
420
 16777215
176
     1
 90
        1
176
     1
 90
        2
176
     1
 62
     7
176
     1
 62
   257
176
     1
 90
        2
176
     1
 90
        1
176
     1
 40
1.0
176
     1
 90
        8
176
     1
 62
   257
176
     1
 40
1.0
176
     1
 90
        1
176
     1
 90
        6
176
     1
 90
        2
176
     1
 62
     7
176
     1
 90
        3
176
     1
 90
        0
176
     1
 90
        0
176
     1
290
     0
176
     1
 90
        5
176
     1
 40
0.0
176
     1
 90
        0
176
     1
290
     0
176
     1
290
     1
176
     1
290
     1
176
     1
290
     0
176
     1
290
     0
176
     1
290
     0
176
     1
290
     0
176
     1
290
     0
176
     1
290
     0
176
     1
 90
       50
176
     1
 40
0.0
176
     1
 40
1.0
176
     1
 90
        0
176
     1
 62
    18
420
        0
176
     1
 90
       50
176
     1
 90
        3
176
     1
 62
     5
420
      255
176
     1
290
     0
176
     1
 90
       50
176
     1
 90
       50
176
     1
 90
       50
176
     1
290
     0
176
     1
 90
       50
176
     1
 62
   256
176
     0
 40
1.0
176
     0
 90
        2
176
     1
  1
strokes_ogs.tif
176
     1
290
     0
176
     1
 40
1.0
176
     1
 40
1.0
176
     1
  0
VISUALSTYLE
  5
3A
102
{ACAD_REACTORS
330
29
102
}
330
29
100
AcDbVisualStyle
  2
Shades of Gray
 70
    23
177
     3
291
     0
 70
    58
 90
        2
176
     1
 90
        2
176
     1
 90
        3
176
     1
 90
        0
176
     1
 40
0.6
176
     1
 40
30.0
176
     1
 62
     7
420
 16777215
176
     1
 90
        2
176
     1
 90
        2
176
     1
 62
     7
176
     1
 62
     7
176
     1
 90
        1
176
     1
 90
        1
176
     1
 40
40.0
176
     1
 90
        8
176
     1
 62
     7
176
     1
 40
1.0
176
     1
 90
        1
176
     1
 90
        6
176
     1
 90
        2
176
     1
 62
     7
176
     1
 90
        3
176
     1
 90
        0
176
     1
 90
        0
176
     1
290
     0
176
     1
 90
        1
176
     1
 40
0.0
176
     1
 90
        0
176
     1
290
     0
176
     1
290
     1
176
     1
290
     1
176
     1
290
     0
176
     1
290
     0
176
     1
290
     0
176
     1
290
     0
176
     1
290
     0
176
     1
290
     0
176
     1
 90
       50
176
     1
 40
0.0
176
     1
 40
1.0
176
     1
 90
        0
176
     1
 62
    18
420
        0
176
     1
 90
       50
176
     1
 90
        3
176
     1
 62
     5
420
      255
176
     1
290
     0
176
     1
 90
       50
176
     1
 90
       50
176
     1
 90
       50
176
     1
290
     0
176
     1
 90
       50
176
     1
 62
   256
176
     0
 40
1.0
176
     0
 90
        2
176
     1
  1
strokes_ogs.tif
176
     1
290
     0
176
     1
 40
1.0
176
     1
 40
1.0
176
     1
  0
VISUALSTYLE
  5
3B
102
{ACAD_REACTORS
330
29
102
}
330
29
100
AcDbVisualStyle
  2
Sketchy
 70
    24
177
     3
291
     0
 70
    58
 90
        1
176
     1
 90
        2
176
     1
 90
        2
176
     1
 90
        0
176
     1
 40
0.6
176
     1
 40
30.0
176
     1
 62
     7
420
 16777215
176
     1
 90
        2
176
     1
 90
        2
176
     1
 62
     7
176
     1
 62
     7
176
     1
 90
        1
176
     1
 90
        1
176
     1
 40
40.0
176
     1
 90
       11
176
     1
 62
     7
176
     1
 40
1.0
176
     1
 90
        1
176
     1
 90
        6
176
     1
 90
        2
176
     1
 62
     7
176
     1
 90
        6
176
     1
 90
        0
176
     1
 90
        0
176
     1
290
     0
176
     1
 90
        1
176
     1
 40
0.0
176
     1
 90
        0
176
     1
290
     0
176
     1
290
     1
176
     1
290
     1
176
     1
290
     0
176
     1
290
     0
176
     1
290
     0
176
     1
290
     0
176
     1
290
     0
176
     1
290
     0
176
     1
 90
       50
176
     1
 40
0.0
176
     1
 40
1.0
176
     1
 90
        0
176
     1
 62
    18
420
        0
176
     1
 90
       50
176
     1
 90
        3
176
     1
 62
     5
420
      255
176
     1
290
     0
176
     1
 90
       50
176
     1
 90
       50
176
     1
 90
       50
176
     1
290
     0
176
     1
 90
       50
176
     1
 62
   256
176
     0
 40
1.0
176
     0
 90
        2
176
     1
  1
strokes_ogs.tif
176
     1
290
     0
176
     1
 40
1.0
176
     1
 40
1.0
176
     1
  0
VISUALSTYLE
  5
36
102
{ACAD_REACTORS
330
29
102
}
330
29
100
AcDbVisualStyle
  2
Thicken
 70
    13
177
     3
291
     1
 70
    58
 90
        2
176
     1
 90
        2
176
     1
 90
        0
176
     1
 90
        0
176
     1
 40
0.6
176
     1
 40
30.0
176
     1
 62
     7
420
 16777215
176
     1
 90
        1
176
     1
 90
        4
176
     1
 62
     7
176
     1
 62
   257
176
     1
 90
        1
176
     1
 90
        1
176
     1
 40
1.0
176
     1
 90
       12
176
     1
 62
     7
176
     1
 40
1.0
176
     1
 90
        1
176
     1
 90
        6
176
     1
 90
        2
176
     1
 62
     7
176
     1
 90
        5
176
     1
 90
        0
176
     1
 90
        0
176
     1
290
     0
176
     1
 90
        1
176
     1
 40
0.0
176
     1
 90
        0
176
     1
290
     0
176
     1
290
     1
176
     1
290
     1
176
     1
290
     0
176
     1
290
     0
176
     1
290
     0
176
     1
290
     0
176
     1
290
     0
176
     1
290
     0
176
     1
 90
       50
176
     1
 40
0.0
176
     1
 40
1.0
176
     1
 90
        0
176
     1
 62
    18
420
        0
176
     1
 90
       50
176
     1
 90
        3
176
     1
 62
     5
420
      255
176
     1
290
     0
176
     1
 90
       50
176
     1
 90
       50
176
     1
 90
       50
176
     1
290
     0
176
     1
 90
       50
176
     1
 62
   256
176
     0
 40
1.0
176
     0
 90
        2
176
     1
  1
strokes_ogs.tif
176
     1
290
     0
176
     1
 40
1.0
176
     1
 40
1.0
176
     1
  0
VISUALSTYLE
  5
30
102
{ACAD_REACTORS
330
29
102
}
330
29
100
AcDbVisualStyle
  2
Wireframe
 70
     5
177
     3
291
     0
 70
    58
 90
        0
176
     1
 90
        2
176
     1
 90
        0
176
     1
 90
        0
176
     1
 40
0.6
176
     1
 40
30.0
176
     1
 62
     7
420
 16777215
176
     1
 90
        1
176
     1
 90
        4
176
     1
 62
     7
176
     1
 62
   257
176
     1
 90
        1
176
     1
 90
        1
176
     1
 40
1.0
176
     1
 90
        0
176
     1
 62
   257
176
     1
 40
1.0
176
     1
 90
        1
176
     1
 90
        6
176
     1
 90
        2
176
     1
 62
     7
176
     1
 90
        3
176
     1
 90
        0
176
     1
 90
        0
176
     1
290
     0
176
     1
 90
        1
176
     1
 40
0.0
176
     1
 90
        0
176
     1
290
     0
176
     1
290
     1
176
     1
290
     1
176
     1
290
     0
176
     1
290
     0
176
     1
290
     0
176
     1
290
     0
176
     1
290
     0
176
     1
290
     0
176
     1
 90
       50
176
     1
 40
0.0
176
     1
 40
1.0
176
     1
 90
        0
176
     1
 62
    18
420
        0
176
     1
 90
       50
176
     1
 90
        3
176
     1
 62
     5
420
      255
176
     1
290
     0
176
     1
 90
       50
176
     1
 90
       50
176
     1
 90
       50
176
     1
290
     0
176
     1
 90
       50
176
     1
 62
   256
176
     0
 40
1.0
176
     0
 90
        2
176
     1
  1
strokes_ogs.tif
176
     1
290
     0
176
     1
 40
1.0
176
     1
 40
1.0
176
     1
  0
VISUALSTYLE
  5
3C
102
{ACAD_REACTORS
330
29
102
}
330
29
100
AcDbVisualStyle
  2
X-Ray
 70
    25
177
     3
291
     0
 70
    58
 90
        2
176
     1
 90
        2
176
     1
 90
        1
176
     1
 90
        1
176
     1
 40
0.5
176
     1
 40
30.0
176
     1
 62
     7
420
 16777215
176
     1
 90
        1
176
     1
 90
        0
176
     1
 62
     7
176
     1
 62
   257
176
     1
 90
        1
176
     1
 90
        1
176
     1
 40
1.0
176
     1
 90
        8
176
     1
 62
     7
176
     1
 40
1.0
176
     1
 90
        1
176
     1
 90
        6
176
     1
 90
        2
176
     1
 62
     7
176
     1
 90
        3
176
     1
 90
        0
176
     1
 90
        0
176
     1
290
     0
176
     1
 90
       13
176
     1
 40
0.0
176
     1
 90
        0
176
     1
290
     0
176
     1
290
     1
176
     1
290
     1
176
     1
290
     0
176
     1
290
     0
176
     1
290
     0
176
     1
290
     0
176
     1
290
     0
176
     1
290
     0
176
     1
 90
       50
176
     1
 40
0.0
176
     1
 40
1.0
176
     1
 90
        0
176
     1
 62
    18
420
        0
176
     1
 90
       50
176
     1
 90
        3
176
     1
 62
     5
420
      255
176
     1
290
     0
176
     1
 90
       50
176
     1
 90
       50
176
     1
 90
       50
176
     1
290
     0
176
     1
 90
       50
176
     1
 62
   256
176
     0
 40
1.0
176
     0
 90
        2
176
     1
  1
strokes_ogs.tif
176
     1
290
     0
176
     1
 40
1.0
176
     1
 40
1.0
176
     1
  0
DICTIONARYVAR
  5
D9
102
{ACAD_REACTORS
330
D4
102
}
330
D4
100
DictionaryVariables
280
     0
  1
1:1
  0
DICTIONARYVAR
  5
D6
102
{ACAD_REACTORS
330
D4
102
}
330
D4
100
DictionaryVariables
280
     0
  1
STANDARD
  0
DICTIONARYVAR
  5
D5
102
{ACAD_REACTORS
330
D4
102
}
330
D4
100
DictionaryVariables
280
     0
  1
STANDARD
  0
DICTIONARYVAR
  5
D7
102
{ACAD_REACTORS
330
D4
102
}
330
D4
100
DictionaryVariables
280
     0
  1
Imperial24
  0
DICTIONARYVAR
  5
D8
102
{ACAD_REACTORS
330
D4
102
}
330
D4
100
DictionaryVariables
280
     0
  1
Imperial24
  0
DICTIONARY
  5
1A
330
19
100
AcDbDictionary
280
     1
281
     1
  3
BUMPTILE
360
1C
  3
DIFFUSETILE
360
1B
  3
OPACITYTILE
360
1F
  3
REFLECTIONTILE
360
1E
  3
REFRACTIONTILE
360
20
  3
SPECULARTILE
360
1D
  0
DICTIONARY
  5
12
330
11
100
AcDbDictionary
280
     1
281
     1
  3
BUMPTILE
360
14
  3
DIFFUSETILE
360
13
  3
OPACITYTILE
360
17
  3
REFLECTIONTILE
360
16
  3
REFRACTIONTILE
360
18
  3
SPECULARTILE
360
15
  0
DICTIONARY
  5
22
330
21
100
AcDbDictionary
280
     1
281
     1
  3
BUMPTILE
360
24
  3
DIFFUSETILE
360
23
  3
OPACITYTILE
360
27
  3
REFLECTIONTILE
360
26
  3
REFRACTIONTILE
360
28
  3
SPECULARTILE
360
25
  0
DICTIONARY
  5
DA
330
65
100
AcDbDictionary
280
     1
281
     1
  3
ACAD_ROUNDTRIP_2008_TABLESTYLE_CELLSTYLEMAP
360
DB
  0
XRECORD
  5
1C
102
{ACAD_REACTORS
330
1A
102
}
330
1A
100
AcDbXrecord
280
     1
270
     1
271
     1
  0
XRECORD
  5
1B
102
{ACAD_REACTORS
330
1A
102
}
330
1A
100
AcDbXrecord
280
     1
270
     1
271
     1
  0
XRECORD
  5
1F
102
{ACAD_REACTORS
330
1A
102
}
330
1A
100
AcDbXrecord
280
     1
270
     1
271
     1
  0
XRECORD
  5
1E
102
{ACAD_REACTORS
330
1A
102
}
330
1A
100
AcDbXrecord
280
     1
270
     1
271
     1
  0
XRECORD
  5
20
102
{ACAD_REACTORS
330
1A
102
}
330
1A
100
AcDbXrecord
280
     1
270
     1
271
     1
  0
XRECORD
  5
1D
102
{ACAD_REACTORS
330
1A
102
}
330
1A
100
AcDbXrecord
280
     1
270
     1
271
     1
  0
XRECORD
  5
14
102
{ACAD_REACTORS
330
12
102
}
330
12
100
AcDbXrecord
280
     1
270
     1
271
     1
  0
XRECORD
  5
13
102
{ACAD_REACTORS
330
12
102
}
330
12
100
AcDbXrecord
280
     1
270
     1
271
     1
  0
XRECORD
  5
17
102
{ACAD_REACTORS
330
12
102
}
330
12
100
AcDbXrecord
280
     1
270
     1
271
     1
  0
XRECORD
  5
16
102
{ACAD_REACTORS
330
12
102
}
330
12
100
AcDbXrecord
280
     1
270
     1
271
     1
  0
XRECORD
  5
18
102
{ACAD_REACTORS
330
12
102
}
330
12
100
AcDbXrecord
280
     1
270
     1
271
     1
  0
XRECORD
  5
15
102
{ACAD_REACTORS
330
12
102
}
330
12
100
AcDbXrecord
280
     1
270
     1
271
     1
  0
XRECORD
  5
24
102
{ACAD_REACTORS
330
22
102
}
330
22
100
AcDbXrecord
280
     1
270
     1
271
     1
  0
XRECORD
  5
23
102
{ACAD_REACTORS
330
22
102
}
330
22
100
AcDbXrecord
280
     1
270
     1
271
     1
  0
XRECORD
  5
27
102
{ACAD_REACTORS
330
22
102
}
330
22
100
AcDbXrecord
280
     1
270
     1
271
     1
  0
XRECORD
  5
26
102
{ACAD_REACTORS
330
22
102
}
330
22
100
AcDbXrecord
280
     1
270
     1
271
     1
  0
XRECORD
  5
28
102
{ACAD_REACTORS
330
22
102
}
330
22
100
AcDbXrecord
280
     1
270
     1
271
     1
  0
XRECORD
  5
25
102
{ACAD_REACTORS
330
22
102
}
330
22
100
AcDbXrecord
280
     1
270
     1
271
     1
  0
CELLSTYLEMAP
  5
DB
102
{ACAD_REACTORS
330
DA
102
}
330
DA
100
AcDbCellStyleMap
 90
        3
300
CELLSTYLE
  1
TABLEFORMAT_BEGIN
 90
        5
170
     1
 91
        0
 92
    32768
 62
   257
 93
        1
300
CONTENTFORMAT
  1
CONTENTFORMAT_BEGIN
 90
        0
 91
        0
 92
      512
 93
        0
300

 40
0.0
140
1.0
 94
        5
 62
     0
340
55
144
0.25
309
CONTENTFORMAT_END
171
     0
 94
        0
309
TABLEFORMAT_END
  1
CELLSTYLE_BEGIN
 90
        1
 91
        1
300
_TITLE
309
CELLSTYLE_END
300
CELLSTYLE
  1
TABLEFORMAT_BEGIN
 90
        5
170
     1
 91
        0
 92
        0
 62
   257
 93
        1
300
CONTENTFORMAT
  1
CONTENTFORMAT_BEGIN
 90
        0
 91
        0
 92
      512
 93
        0
300

 40
0.0
140
1.0
 94
        5
 62
     0
340
55
144
0.18
309
CONTENTFORMAT_END
171
     0
 94
        0
309
TABLEFORMAT_END
  1
CELLSTYLE_BEGIN
 90
        2
 91
        1
300
_HEADER
309
CELLSTYLE_END
300
CELLSTYLE
  1
TABLEFORMAT_BEGIN
 90
        5
170
     1
 91
        0
 92
        0
 62
   257
 93
        1
300
CONTENTFORMAT
  1
CONTENTFORMAT_BEGIN
 90
        0
 91
        0
 92
      512
 93
        0
300

 40
0.0
140
1.0
 94
        2
 62
     0
340
55
144
0.18
309
CONTENTFORMAT_END
171
     0
 94
        0
309
TABLEFORMAT_END
  1
CELLSTYLE_BEGIN
 90
        3
 91
        2
300
_DATA
309
CELLSTYLE_END
  0
ENDSEC
  0
EOF
