  0
SECTION
  2
HEADER
  9
$ACADVER
  1
AC1032
  9
$ACADMAINTVER
 90
      327
  9
$DWGCODEPAGE
  3
ANSI_1252
  9
$REQUIREDVERSIONS
160
                 0
  9
$INSBASE
 10
0.0
 20
0.0
 30
0.0
  9
$EXTMIN
 10
1.000000000000000E+20
 20
1.000000000000000E+20
 30
1.000000000000000E+20
  9
$EXTMAX
 10
-1.000000000000000E+20
 20
-1.000000000000000E+20
 30
-1.000000000000000E+20
  9
$LIMMIN
 10
0.0
 20
0.0
  9
$LIMMAX
 10
12.0
 20
9.0
  9
$ORTHOMODE
 70
     0
  9
$REGENMODE
 70
     1
  9
$FILLMODE
 70
     1
  9
$QTEXTMODE
 70
     0
  9
$MIRRTEXT
 70
     0
  9
$LTSCALE
 40
1.0
  9
$ATTMODE
 70
     1
  9
$TEXTSIZE
 40
0.2
  9
$TRACEWID
 40
0.05
  9
$TEXTSTYLE
  7
Standard
  9
$CLAYER
  8
0
  9
$CELTYPE
  6
ByLayer
  9
$CECOLOR
 62
   256
  9
$CELTSCALE
 40
1.0
  9
$DISPSILH
 70
     0
  9
$DIMSCALE
 40
1.0
  9
$DIMASZ
 40
0.18
  9
$DIMEXO
 40
0.0625
  9
$DIMDLI
 40
0.38
  9
$DIMRND
 40
0.0
  9
$DIMDLE
 40
0.0
  9
$DIMEXE
 40
0.18
  9
$DIMTP
 40
0.0
  9
$DIMTM
 40
0.0
  9
$DIMTXT
 40
0.18
  9
$DIMCEN
 40
0.09
  9
$DIMTSZ
 40
0.0
  9
$DIMTOL
 70
     0
  9
$DIMLIM
 70
     0
  9
$DIMTIH
 70
     1
  9
$DIMTOH
 70
     1
  9
$DIMSE1
 70
     0
  9
$DIMSE2
 70
     0
  9
$DIMTAD
 70
     0
  9
$DIMZIN
 70
     0
  9
$DIMBLK
  1

  9
$DIMASO
 70
     1
  9
$DIMSHO
 70
     1
  9
$DIMPOST
  1

  9
$DIMAPOST
  1

  9
$DIMALT
 70
     0
  9
$DIMALTD
 70
     2
  9
$DIMALTF
 40
25.4
  9
$DIMLFAC
 40
1.0
  9
$DIMTOFL
 70
     0
  9
$DIMTVP
 40
0.0
  9
$DIMTIX
 70
     0
  9
$DIMSOXD
 70
     0
  9
$DIMSAH
 70
     0
  9
$DIMBLK1
  1

  9
$DIMBLK2
  1

  9
$DIMSTYLE
  2
Standard
  9
$DIMCLRD
 70
     0
  9
$DIMCLRE
 70
     0
  9
$DIMCLRT
 70
     0
  9
$DIMTFAC
 40
1.0
  9
$DIMGAP
 40
0.09
  9
$DIMJUST
 70
     0
  9
$DIMSD1
 70
     0
  9
$DIMSD2
 70
     0
  9
$DIMTOLJ
 70
     1
  9
$DIMTZIN
 70
     0
  9
$DIMALTZ
 70
     0
  9
$DIMALTTZ
 70
     0
  9
$DIMUPT
 70
     0
  9
$DIMDEC
 70
     4
  9
$DIMTDEC
 70
     4
  9
$DIMALTU
 70
     2
  9
$DIMALTTD
 70
     2
  9
$DIMTXSTY
  7
Standard
  9
$DIMAUNIT
 70
     0
  9
$DIMADEC
 70
     0
  9
$DIMALTRND
 40
0.0
  9
$DIMAZIN
 70
     0
  9
$DIMDSEP
 70
    46
  9
$DIMATFIT
 70
     3
  9
$DIMFRAC
 70
     0
  9
$DIMLDRBLK
  1

  9
$DIMLUNIT
 70
     2
  9
$DIMLWD
 70
    -2
  9
$DIMLWE
 70
    -2
  9
$DIMTMOVE
 70
     0
  9
$DIMFXL
 40
1.0
  9
$DIMFXLON
 70
     0
  9
$DIMJOGANG
 40
0.7853981633974483
  9
$DIMTFILL
 70
     0
  9
$DIMTFILLCLR
 70
     0
  9
$DIMARCSYM
 70
     0
  9
$DIMLTYPE
  6

  9
$DIMLTEX1
  6

  9
$DIMLTEX2
  6

  9
$DIMTXTDIRECTION
 70
     0
  9
$LUNITS
 70
     2
  9
$LUPREC
 70
     4
  9
$SKETCHINC
 40
0.1
  9
$FILLETRAD
 40
0.0
  9
$AUNITS
 70
     0
  9
$AUPREC
 70
     0
  9
$MENU
  1
.
  9
$ELEVATION
 40
0.0
  9
$PELEVATION
 40
0.0
  9
$THICKNESS
 40
0.0
  9
$LIMCHECK
 70
     0
  9
$CHAMFERA
 40
0.0
  9
$CHAMFERB
 40
0.0
  9
$CHAMFERC
 40
0.0
  9
$CHAMFERD
 40
0.0
  9
$SKPOLY
 70
     0
  9
$TDCREATE
 40
2460672.713877315
  9
$TDUCREATE
 40
2460672.713877315
  9
$TDUPDATE
 40
2460672.713877315
  9
$TDUUPDATE
 40
2460672.713877315
  9
$TDINDWG
 40
0.0000000000
  9
$TDUSRTIMER
 40
0.0000000000
  9
$USRTIMER
 70
     1
  9
$ANGBASE
 50
0.0
  9
$ANGDIR
 70
     0
  9
$PDMODE
 70
     0
  9
$PDSIZE
 40
0.0
  9
$PLINEWID
 40
0.0
  9
$SPLFRAME
 70
     0
  9
$SPLINETYPE
 70
     6
  9
$SPLINESEGS
 70
     8
  9
$HANDSEED
  5
D9
  9
$SURFTAB1
 70
     6
  9
$SURFTAB2
 70
     6
  9
$SURFTYPE
 70
     6
  9
$SURFU
 70
     6
  9
$SURFV
 70
     6
  9
$UCSBASE
  2

  9
$UCSNAME
  2

  9
$UCSORG
 10
0.0
 20
0.0
 30
0.0
  9
$UCSXDIR
 10
1.0
 20
0.0
 30
0.0
  9
$UCSYDIR
 10
0.0
 20
1.0
 30
0.0
  9
$UCSORTHOREF
  2

  9
$UCSORTHOVIEW
 70
     0
  9
$UCSORGTOP
 10
0.0
 20
0.0
 30
0.0
  9
$UCSORGBOTTOM
 10
0.0
 20
0.0
 30
0.0
  9
$UCSORGLEFT
 10
0.0
 20
0.0
 30
0.0
  9
$UCSORGRIGHT
 10
0.0
 20
0.0
 30
0.0
  9
$UCSORGFRONT
 10
0.0
 20
0.0
 30
0.0
  9
$UCSORGBACK
 10
0.0
 20
0.0
 30
0.0
  9
$PUCSBASE
  2

  9
$PUCSNAME
  2

  9
$PUCSORG
 10
0.0
 20
0.0
 30
0.0
  9
$PUCSXDIR
 10
1.0
 20
0.0
 30
0.0
  9
$PUCSYDIR
 10
0.0
 20
1.0
 30
0.0
  9
$PUCSORTHOREF
  2

  9
$PUCSORTHOVIEW
 70
     0
  9
$PUCSORGTOP
 10
0.0
 20
0.0
 30
0.0
  9
$PUCSORGBOTTOM
 10
0.0
 20
0.0
 30
0.0
  9
$PUCSORGLEFT
 10
0.0
 20
0.0
 30
0.0
  9
$PUCSORGRIGHT
 10
0.0
 20
0.0
 30
0.0
  9
$PUCSORGFRONT
 10
0.0
 20
0.0
 30
0.0
  9
$PUCSORGBACK
 10
0.0
 20
0.0
 30
0.0
  9
$USERI1
 70
     0
  9
$USERI2
 70
     0
  9
$USERI3
 70
     0
  9
$USERI4
 70
     0
  9
$USERI5
 70
     0
  9
$USERR1
 40
0.0
  9
$USERR2
 40
0.0
  9
$USERR3
 40
0.0
  9
$USERR4
 40
0.0
  9
$USERR5
 40
0.0
  9
$WORLDVIEW
 70
     1
  9
$SHADEDGE
 70
     3
  9
$SHADEDIF
 70
    70
  9
$TILEMODE
 70
     1
  9
$MAXACTVP
 70
    64
  9
$PINSBASE
 10
0.0
 20
0.0
 30
0.0
  9
$PLIMCHECK
 70
     0
  9
$PEXTMIN
 10
1.000000000000000E+20
 20
1.000000000000000E+20
 30
1.000000000000000E+20
  9
$PEXTMAX
 10
-1.000000000000000E+20
 20
-1.000000000000000E+20
 30
-1.000000000000000E+20
  9
$PLIMMIN
 10
0.0
 20
0.0
  9
$PLIMMAX
 10
12.0
 20
9.0
  9
$UNITMODE
 70
     0
  9
$VISRETAIN
 70
     1
  9
$PLINEGEN
 70
     0
  9
$PSLTSCALE
 70
     1
  9
$TREEDEPTH
 70
  3020
  9
$CMLSTYLE
  2
Standard
  9
$CMLJUST
 70
     0
  9
$CMLSCALE
 40
1.0
  9
$PROXYGRAPHICS
 70
     1
  9
$MEASUREMENT
 70
     0
  9
$CELWEIGHT
370
    -1
  9
$ENDCAPS
280
     0
  9
$JOINSTYLE
280
     0
  9
$LWDISPLAY
290
     1
  9
$INSUNITS
 70
     4
  9
$HYPERLINKBASE
  1

  9
$STYLESHEET
  1

  9
$XEDIT
290
     1
  9
$CEPSNTYPE
380
     0
  9
$PSTYLEMODE
290
     1
  9
$FINGERPRINTGUID
  2
{2372A290-0BCF-CB4C-95E7-612916C82BA5}
  9
$VERSIONGUID
  2
{73D2F152-5384-8343-8F6F-759726D28777}
  9
$EXTNAMES
290
     1
  9
$PSVPSCALE
 40
0.0
  9
$OLESTARTUP
290
     0
  9
$SORTENTS
280
   127
  9
$INDEXCTL
280
     0
  9
$HIDETEXT
280
     1
  9
$XCLIPFRAME
280
     2
  9
$HALOGAP
280
     0
  9
$OBSCOLOR
 70
   257
  9
$OBSLTYPE
280
     0
  9
$INTERSECTIONDISPLAY
280
     0
  9
$INTERSECTIONCOLOR
 70
   257
  9
$DIMASSOC
280
     2
  9
$PROJECTNAME
  1

  9
$CAMERADISPLAY
290
     0
  9
$LENSLENGTH
 40
50.0
  9
$CAMERAHEIGHT
 40
0.0
  9
$STEPSPERSEC
 40
2.0
  9
$STEPSIZE
 40
6.0
  9
$3DDWFPREC
 40
2.0
  9
$PSOLWIDTH
 40
0.25
  9
$PSOLHEIGHT
 40
4.0
  9
$LOFTANG1
 40
1.570796326794896
  9
$LOFTANG2
 40
1.570796326794896
  9
$LOFTMAG1
 40
0.0
  9
$LOFTMAG2
 40
0.0
  9
$LOFTPARAM
 70
     7
  9
$LOFTNORMALS
280
     1
  9
$LATITUDE
 40
37.795
  9
$LONGITUDE
 40
-122.394
  9
$NORTHDIRECTION
 40
0.0
  9
$TIMEZONE
 70
 -8000
  9
$LIGHTGLYPHDISPLAY
280
     1
  9
$TILEMODELIGHTSYNCH
280
     1
  9
$CMATERIAL
347
11
  9
$SOLIDHIST
280
     0
  9
$SHOWHIST
280
     1
  9
$DWFFRAME
280
     2
  9
$DGNFRAME
280
     0
  9
$REALWORLDSCALE
290
     1
  9
$INTERFERECOLOR
 62
     1
  9
$INTERFEREOBJVS
345
33
  9
$INTERFEREVPVS
346
30
  9
$CSHADOW
280
     0
  9
$SHADOWPLANELOCATION
 40
0.0
  0
ENDSEC
  0
SECTION
  2
CLASSES
  0
CLASS
  1
ACDBDICTIONARYWDFLT
  2
AcDbDictionaryWithDefault
  3
ObjectDBX Classes
 90
        0
 91
        1
280
     0
281
     0
  0
CLASS
  1
MATERIAL
  2
AcDbMaterial
  3
ObjectDBX Classes
 90
     1153
 91
        3
280
     0
281
     0
  0
CLASS
  1
VISUALSTYLE
  2
AcDbVisualStyle
  3
ObjectDBX Classes
 90
     4095
 91
       24
280
     0
281
     0
  0
CLASS
  1
SCALE
  2
AcDbScale
  3
ObjectDBX Classes
 90
     1153
 91
       17
280
     0
281
     0
  0
CLASS
  1
TABLESTYLE
  2
AcDbTableStyle
  3
ObjectDBX Classes
 90
     4095
 91
        1
280
     0
281
     0
  0
CLASS
  1
MLEADERSTYLE
  2
AcDbMLeaderStyle
  3
ACDB_MLEADERSTYLE_CLASS
 90
     4095
 91
        1
280
     0
281
     0
  0
CLASS
  1
ACDBSECTIONVIEWSTYLE
  2
AcDbSectionViewStyle
  3
ObjectDBX Classes
 90
     1025
 91
        1
280
     0
281
     0
  0
CLASS
  1
ACDBDETAILVIEWSTYLE
  2
AcDbDetailViewStyle
  3
ObjectDBX Classes
 90
     1025
 91
        1
280
     0
281
     0
  0
CLASS
  1
DICTIONARYVAR
  2
AcDbDictionaryVar
  3
ObjectDBX Classes
 90
        0
 91
        5
280
     0
281
     0
  0
CLASS
  1
CELLSTYLEMAP
  2
AcDbCellStyleMap
  3
ObjectDBX Classes
 90
     1152
 91
        1
280
     0
281
     0
  0
ENDSEC
  0
SECTION
  2
TABLES
  0
TABLE
  2
VPORT
  5
8
330
0
100
AcDbSymbolTable
 70
     1
  0
VPORT
  5
57
330
8
100
AcDbSymbolTableRecord
100
AcDbViewportTableRecord
  2
*Active
 70
     0
 10
0.0
 20
0.0
 11
1.0
 21
1.0
 12
0.0
 22
0.0
 13
0.0
 23
0.0
 14
1.0
 24
1.0
 15
0.0
 25
0.0
 16
0.0
 26
0.0
 36
1.0
 17
50.00007573043347
 27
50.00007573043347
 37
0.0
 40
102.0001544900843
 41
1.0
 42
50.0
 43
0.0
 44
0.0
 50
0.0
 51
0.0
 71
     0
 72
   100
 73
     1
 74
     1
 75
     0
 76
     0
 77
     0
 78
     0
281
     0
 65
     1
110
0.0
120
0.0
130
0.0
111
1.0
121
0.0
131
0.0
112
0.0
122
1.0
132
0.0
 79
     0
146
0.0
 60
     3
 61
     5
292
     1
282
     1
141
0.0
142
0.0
 63
   250
421
  3355443
  0
ENDTAB
  0
TABLE
  2
LTYPE
  5
5
330
0
100
AcDbSymbolTable
 70
    18
  0
LTYPE
  5
5B
330
5
100
AcDbSymbolTableRecord
100
AcDbLinetypeTableRecord
  2
ByBlock
 70
     0
  3

 72
    65
 73
     0
 40
0.0
  0
LTYPE
  5
5C
330
5
100
AcDbSymbolTableRecord
100
AcDbLinetypeTableRecord
  2
ByLayer
 70
     0
  3

 72
    65
 73
     0
 40
0.0
  0
LTYPE
  5
5D
330
5
100
AcDbSymbolTableRecord
100
AcDbLinetypeTableRecord
  2
Continuous
 70
     0
  3
Solid line
 72
    65
 73
     0
 40
0.0
  0
LTYPE
  5
82
330
5
100
AcDbSymbolTableRecord
100
AcDbLinetypeTableRecord
  2
AI-Linetype-0
 70
     0
  3
Adobe Illustrator Linetype No. 0
 72
    65
 73
     2
 40
1.926166721696917
 49
1.2805833733854
 74
     0
 49
-0.6455833483115173
 74
     0
  0
LTYPE
  5
88
330
5
100
AcDbSymbolTableRecord
100
AcDbLinetypeTableRecord
  2
AI-Linetype-1
 70
     0
  3
Adobe Illustrator Linetype No. 1
 72
    65
 73
     2
 40
2.005188935824941
 49
1.320094480449412
 74
     0
 49
-0.6850944553755295
 74
     0
  0
LTYPE
  5
8E
330
5
100
AcDbSymbolTableRecord
100
AcDbLinetypeTableRecord
  2
AI-Linetype-2
 70
     0
  3
Adobe Illustrator Linetype No. 2
 72
    65
 73
     2
 40
1.68486671637428
 49
1.159933370724081
 74
     0
 49
-0.524933345650199
 74
     0
  0
LTYPE
  5
90
330
5
100
AcDbSymbolTableRecord
100
AcDbLinetypeTableRecord
  2
AI-Linetype-3
 70
     0
  3
Adobe Illustrator Linetype No. 3
 72
    65
 73
     2
 40
1.727200009324818
 49
1.18110001719935
 74
     0
 49
-0.5460999921254676
 74
     0
  0
LTYPE
  5
92
330
5
100
AcDbSymbolTableRecord
100
AcDbLinetypeTableRecord
  2
AI-Linetype-4
 70
     0
  3
Adobe Illustrator Linetype No. 4
 72
    65
 73
     2
 40
1.885244437580866
 49
1.260122231327374
 74
     0
 49
-0.6251222062534917
 74
     0
  0
LTYPE
  5
94
330
5
100
AcDbSymbolTableRecord
100
AcDbLinetypeTableRecord
  2
AI-Linetype-5
 70
     0
  3
Adobe Illustrator Linetype No. 5
 72
    65
 73
     2
 40
1.868311154044162
 49
1.251655589559022
 74
     0
 49
-0.6166555644851396
 74
     0
  0
LTYPE
  5
9B
330
5
100
AcDbSymbolTableRecord
100
AcDbLinetypeTableRecord
  2
AI-Linetype-6
 70
     0
  3
Adobe Illustrator Linetype No. 6
 72
    65
 73
     2
 40
1.744838839333153
 49
1.189919411176324
 74
     0
 49
-0.5549194281568295
 74
     0
  0
LTYPE
  5
9D
330
5
100
AcDbSymbolTableRecord
100
AcDbLinetypeTableRecord
  2
AI-Linetype-7
 70
     0
  3
Adobe Illustrator Linetype No. 7
 72
    65
 73
     2
 40
1.915583356404894
 49
1.275291669712194
 74
     0
 49
-0.6402916866927001
 74
     0
  0
LTYPE
  5
9F
330
5
100
AcDbSymbolTableRecord
100
AcDbLinetypeTableRecord
  2
AI-Linetype-8
 70
     0
  3
Adobe Illustrator Linetype No. 8
 72
    65
 73
     2
 40
1.778705574624115
 49
1.206852778821805
 74
     0
 49
-0.5718527958023103
 74
     0
  0
LTYPE
  5
A1
330
5
100
AcDbSymbolTableRecord
100
AcDbLinetypeTableRecord
  2
AI-Linetype-9
 70
     0
  3
Adobe Illustrator Linetype No. 9
 72
    65
 73
     2
 40
1.583266678718948
 49
1.109133351896415
 74
     0
 49
-0.474133326822533
 74
     0
  0
LTYPE
  5
A8
330
5
100
AcDbSymbolTableRecord
100
AcDbLinetypeTableRecord
  2
AI-Linetype-10
 70
     0
  3
Adobe Illustrator Linetype No. 10
 72
    65
 73
     2
 40
1.335616650015659
 49
0.9853083270311744
 74
     0
 49
-0.3503083229844855
 74
     0
  0
LTYPE
  5
AA
330
5
100
AcDbSymbolTableRecord
100
AcDbLinetypeTableRecord
  2
AI-Linetype-11
 70
     0
  3
Adobe Illustrator Linetype No. 11
 72
    65
 73
     2
 40
1.335616650015659
 49
0.9853083270311744
 74
     0
 49
-0.3503083229844855
 74
     0
  0
LTYPE
  5
B1
330
5
100
AcDbSymbolTableRecord
100
AcDbLinetypeTableRecord
  2
AI-Linetype-12
 70
     0
  3
Adobe Illustrator Linetype No. 12
 72
    65
 73
     2
 40
1.481666683118005
 49
1.05833333306875
 74
     0
 49
-0.4233333500492554
 74
     0
  0
LTYPE
  5
B5
330
5
100
AcDbSymbolTableRecord
100
AcDbLinetypeTableRecord
  2
AI-Linetype-13
 70
     0
  3
Adobe Illustrator Linetype No. 13
 72
    65
 73
     2
 40
1.481666683118005
 49
1.05833333306875
 74
     0
 49
-0.4233333500492554
 74
     0
  0
LTYPE
  5
B9
330
5
100
AcDbSymbolTableRecord
100
AcDbLinetypeTableRecord
  2
AI-Linetype-14
 70
     0
  3
Adobe Illustrator Linetype No. 14
 72
    65
 73
     2
 40
0.9630833398212645
 49
0.5785555503643902
 74
     0
 49
-0.3845277894568745
 74
     0
  0
LTYPE
  5
BB
330
5
100
AcDbSymbolTableRecord
100
AcDbLinetypeTableRecord
  2
AI-Linetype-15
 70
     0
  3
Adobe Illustrator Linetype No. 15
 72
    65
 73
     2
 40
0.9630833398212645
 49
0.5785555503643902
 74
     0
 49
-0.3845277894568745
 74
     0
  0
LTYPE
  5
BD
330
5
100
AcDbSymbolTableRecord
100
AcDbLinetypeTableRecord
  2
AI-Linetype-16
 70
     0
  3
Adobe Illustrator Linetype No. 16
 72
    65
 73
     2
 40
2.005188935824941
 49
1.320094480449412
 74
     0
 49
-0.6850944553755295
 74
     0
  0
ENDTAB
  0
TABLE
  2
LAYER
  5
2
330
0
100
AcDbSymbolTable
 70
     2
  0
LAYER
  5
54
330
2
100
AcDbSymbolTableRecord
100
AcDbLayerTableRecord
  2
0
 70
     0
 62
     7
  6
Continuous
370
    -3
390
F
347
21
348
0
  0
LAYER
  5
78
330
2
100
AcDbSymbolTableRecord
100
AcDbLayerTableRecord
  2
Camada 1
 70
     0
 62
     7
  6
Continuous
370
     0
390
F
347
21
348
0
  0
ENDTAB
  0
TABLE
  2
STYLE
  5
3
330
0
100
AcDbSymbolTable
 70
     2
  0
STYLE
  5
55
330
3
100
AcDbSymbolTableRecord
100
AcDbTextStyleTableRecord
  2
Standard
 70
     0
 40
0.0
 41
1.0
 50
0.0
 71
     0
 42
0.2
  3
txt
  4

  0
STYLE
  5
5A
330
3
100
AcDbSymbolTableRecord
100
AcDbTextStyleTableRecord
  2
Annotative
 70
     0
 40
0.0
 41
1.0
 50
0.0
 71
     0
 42
0.2
  3
txt
  4

1001
AcadAnnotative
1000
AnnotativeData
1002
{
1070
     1
1070
     1
1002
}
  0
ENDTAB
  0
TABLE
  2
VIEW
  5
6
330
0
100
AcDbSymbolTable
 70
     0
  0
ENDTAB
  0
TABLE
  2
UCS
  5
7
330
0
100
AcDbSymbolTable
 70
     0
  0
ENDTAB
  0
TABLE
  2
APPID
  5
9
330
0
100
AcDbSymbolTable
 70
     2
  0
APPID
  5
56
330
9
100
AcDbSymbolTableRecord
100
AcDbRegAppTableRecord
  2
ACAD
 70
     0
  0
APPID
  5
5E
330
9
100
AcDbSymbolTableRecord
100
AcDbRegAppTableRecord
  2
AcadAnnotative
 70
     0
  0
ENDTAB
  0
TABLE
  2
DIMSTYLE
  5
A
330
0
100
AcDbSymbolTable
 70
     2
100
AcDbDimStyleTable
 71
     0
  0
DIMSTYLE
105
58
330
A
100
AcDbSymbolTableRecord
100
AcDbDimStyleTableRecord
  2
Standard
 70
     0
340
55
  0
DIMSTYLE
105
59
330
A
100
AcDbSymbolTableRecord
100
AcDbDimStyleTableRecord
  2
Annotative
 70
     0
340
55
1001
AcadAnnotative
1000
AnnotativeData
1002
{
1070
     1
1070
     1
1002
}
  0
ENDTAB
  0
TABLE
  2
BLOCK_RECORD
  5
1
330
0
100
AcDbSymbolTable
 70
     1
  0
BLOCK_RECORD
  5
70
330
1
100
AcDbSymbolTableRecord
100
AcDbBlockTableRecord
  2
*Model_Space
340
73
 70
     0
280
     1
281
     0
  0
BLOCK_RECORD
  5
6C
330
1
100
AcDbSymbolTableRecord
100
AcDbBlockTableRecord
  2
*Paper_Space
340
6F
 70
     0
280
     1
281
     0
  0
BLOCK_RECORD
  5
74
330
1
100
AcDbSymbolTableRecord
100
AcDbBlockTableRecord
  2
*Paper_Space0
340
77
 70
     0
280
     1
281
     0
  0
ENDTAB
  0
ENDSEC
  0
SECTION
  2
BLOCKS
  0
BLOCK
  5
71
330
70
100
AcDbEntity
  8
0
100
AcDbBlockBegin
  2
*Model_Space
 70
     0
 10
0.0
 20
0.0
 30
0.0
  3
*Model_Space
  1

  0
ENDBLK
  5
72
330
70
100
AcDbEntity
  8
0
100
AcDbBlockEnd
  0
BLOCK
  5
6D
330
6C
100
AcDbEntity
 67
     1
  8
0
100
AcDbBlockBegin
  2
*Paper_Space
 70
     0
 10
0.0
 20
0.0
 30
0.0
  3
*Paper_Space
  1

  0
ENDBLK
  5
6E
330
6C
100
AcDbEntity
 67
     1
  8
0
100
AcDbBlockEnd
  0
BLOCK
  5
75
330
74
100
AcDbEntity
 67
     1
  8
0
100
AcDbBlockBegin
  2
*Paper_Space0
 70
     0
 10
0.0
 20
0.0
 30
0.0
  3
*Paper_Space0
  1

  0
ENDBLK
  5
76
330
74
100
AcDbEntity
 67
     1
  8
0
100
AcDbBlockEnd
  0
ENDSEC
  0
SECTION
  2
ENTITIES
  0
LWPOLYLINE
  5
79
330
70
100
AcDbEntity
  8
Camada 1
 62
   250
420
  1907995
370
    15
100
AcDbPolyline
 90
        7
 70
     0
 43
0.0
 10
84.459094259552
 20
87.19110880897209
 10
84.47284772668451
 20
87.19110880897209
 10
84.51341910898504
 20
87.17769985138808
 10
84.53282468589804
 20
87.158649549947
 10
84.54058153370155
 20
87.13748374455949
 10
84.54058153370155
 20
87.11032131984298
 10
84.54058153370155
 20
87.09691236225898
  0
LWPOLYLINE
  5
7A
330
70
100
AcDbEntity
  8
Camada 1
 62
   250
420
  1907995
370
    15
100
AcDbPolyline
 90
        9
 70
     0
 43
0.0
 10
19.66859649590343
 20
87.19110880897209
 10
19.65554281379136
 20
87.19110880897209
 10
19.64213789342863
 20
87.18757758609971
 10
19.62873162732548
 20
87.17769985138808
 10
19.61497412297169
 20
87.16394100129388
 10
19.60544897225114
 20
87.15230303810775
 10
19.59909842319064
 20
87.13889408052377
 10
19.59768808722636
 20
87.11737299966435
 10
19.60156785686854
 20
87.09691236225898
  0
LWPOLYLINE
  5
7B
330
70
100
AcDbEntity
  8
Camada 1
 62
   250
420
  1907995
370
    15
100
AcDbPolyline
 90
       19
 70
     0
 43
0.0
 10
19.6014978783665
 20
87.09677778821658
 10
19.85761381288634
 20
85.89626967084093
 10
20.18111097043215
 20
84.60193114814748
 10
20.54553074852912
 20
83.33475505017053
 10
20.93605519936939
 20
82.06722367672169
 10
21.38090853686398
 20
80.82685472798935
 10
21.83987196270342
 20
79.61329831146333
 10
22.33870025712081
 20
78.41279557704936
 10
22.86469232199515
 20
77.23981054282385
 10
23.43089914795765
 20
76.06682550859831
 10
24.05108362232382
 20
74.90724404899508
 10
24.69807793741543
 20
73.74766258939186
 10
25.37294253668655
 20
72.62830261957893
 10
26.08731538332328
 20
71.50893726680429
 10
26.82885603763822
 20
70.4167343387462
 10
27.59720653267861
 20
69.3788670260445
 10
28.39307203642658
 20
68.3406390549092
 10
29.229156338484
 20
67.34263257356419
 10
30.0916978972758
 20
66.3583795593517
  0
LWPOLYLINE
  5
7C
330
70
100
AcDbEntity
  8
Camada 1
 62
   250
420
  1907995
370
    15
100
AcDbPolyline
 90
       19
 70
     0
 43
0.0
 10
74.03595786892862
 20
66.35823960234763
 10
74.91260547884401
 20
67.35624608369263
 10
75.76209604700458
 20
68.38106509724394
 10
76.57101523286462
 20
69.43269664300153
 10
77.35312726948008
 20
70.49808165589166
 10
78.09431264832311
 20
71.59028458394977
 10
78.79598708831967
 20
72.68213223653596
 10
79.4567402535055
 20
73.78844390719851
 10
80.09032561101312
 20
74.9205076666133
 10
80.69710381927613
 20
76.06703544410445
 10
81.26366592071056
 20
77.25342405295227
 10
81.81646917205076
 20
78.45357689485601
 10
82.31529746646817
 20
79.68053688600434
 10
82.78731322867926
 20
80.9078521526246
 10
83.21876299155155
 20
82.16162467597923
 10
83.60964137212331
 20
83.40198824174988
 10
83.9606535383767
 20
84.65541087259429
 10
84.27038915434744
 20
85.91023845644128
 10
84.54026393896151
 20
87.0966324482508
  0
LINE
  5
7D
330
70
100
AcDbEntity
  8
Camada 1
 62
   250
420
  1907995
370
    15
100
AcDbLine
 10
19.67155981631692
 20
87.19336426992258
 30
0.0
 11
84.43944106640099
 21
87.19406943790472
 31
0.0
  0
LWPOLYLINE
  5
7E
330
70
100
AcDbEntity
  8
Camada 1
 62
   250
420
  1907995
370
    15
100
AcDbPolyline
 90
       64
 70
     0
 43
0.0
 10
30.09173288652682
 20
66.35823960234763
 10
30.10548904514019
 20
66.35823960234763
 10
30.15911141807193
 20
66.35823960234763
 10
30.25401034128633
 20
66.35823960234763
 10
30.38841751186633
 20
66.35823960234763
 10
30.56339606474685
 20
66.35823960234763
 10
30.76624221032602
 20
66.35823960234763
 10
30.96838318792305
 20
66.35823960234763
 10
31.19768928171745
 20
66.35823960234763
 10
31.44004905762393
 20
66.35823960234763
 10
31.72368269233221
 20
66.35823960234763
 10
32.03377358377487
 20
66.35823960234763
 10
32.35727074132068
 20
66.35823960234763
 10
32.707930323583
 20
66.35823960234763
 10
33.08540512953247
 20
66.35823960234763
 10
33.47628081862339
 20
66.35823960234763
 10
33.89432431539252
 20
66.35823960234763
 10
34.33917496140626
 20
66.35823960234763
 10
34.78402829890084
 20
66.35823960234763
 10
35.25639933658386
 20
66.35823960234763
 10
35.71465624870074
 20
66.35823960234763
 10
36.69925915542344
 20
66.35823960234763
 10
37.67010321205193
 20
66.35823960234763
 10
38.65435353478357
 20
66.35823960234763
 10
39.71974393063539
 20
66.35823960234763
 10
40.79818531711843
 20
66.35823960234763
 10
41.86392560548047
 20
66.35823960234763
 10
42.94236699196352
 20
66.35823960234763
 10
44.00740480382427
 20
66.35823960234763
 10
45.08655135828945
 20
66.35823960234763
 10
46.15123120319744
 20
66.35823960234763
 10
49.10433475538343
 20
66.35823960234763
 10
52.0708472651534
 20
66.35823960234763
 10
54.5787422043729
 20
66.35823960234763
 10
57.07323356897008
 20
66.35823960234763
 10
59.58113389115126
 20
66.35823960234763
 10
60.76822766798123
 20
66.35823960234763
 10
61.94086280969653
 20
66.35823960234763
 10
63.1279619694882
 20
66.35823960234763
 10
64.30059172824179
 20
66.35823960234763
 10
65.47393203793925
 20
66.35823960234763
 10
66.22887626687648
 20
66.35823960234763
 10
66.97076681370164
 20
66.35823960234763
 10
67.72571104263889
 20
66.35823960234763
 10
68.46725169695382
 20
66.35823960234763
 10
69.20914224377899
 20
66.35823960234763
 10
69.68115800599008
 20
66.35823960234763
 10
70.15282387569097
 20
66.35823960234763
 10
70.58426825560154
 20
66.35823960234763
 10
71.01606791098404
 20
66.35823960234763
 10
71.40694629155581
 20
66.35823960234763
 10
71.77101752288298
 20
66.35823960234763
 10
72.13472809577654
 20
66.35823960234763
 10
72.45893311278533
 20
66.35823960234763
 10
72.75526515413378
 20
66.35823960234763
 10
73.02513993874784
 20
66.35823960234763
 10
73.25409344855117
 20
66.35823960234763
 10
73.4562344261482
 20
66.35823960234763
 10
73.61815929691664
 20
66.35823960234763
 10
73.78008416768508
 20
66.35823960234763
 10
73.8880340815307
 20
66.35823960234763
 10
73.98222514528211
 20
66.35823960234763
 10
74.02244125211071
 20
66.35823960234763
 10
74.03585020969472
 20
66.35823960234763
  0
LWPOLYLINE
  5
7F
330
70
100
AcDbEntity
  8
Camada 1
 62
   250
420
  1907995
370
    15
100
AcDbPolyline
 90
        6
 70
     0
 43
0.0
 10
20.76601685958511
 20
87.13558355908091
 10
20.76248832819358
 20
87.14792669024914
 10
20.75613777913307
 20
87.15957003639696
 10
20.74837689410829
 20
87.16979766361879
 10
20.7395582571103
 20
87.17862033783806
 10
20.72862142468506
 20
87.18638256860325
  0
LWPOLYLINE
  5
80
330
70
100
AcDbEntity
  8
Camada 1
 62
   250
420
  1907995
370
    15
100
AcDbPolyline
 90
        6
 70
     0
 43
0.0
 10
83.4140945226035
 20
87.18638256860325
 10
83.40350623694806
 20
87.17862033783806
 10
83.39433367021859
 20
87.16979766361879
 10
83.38657682241509
 20
87.15957003639696
 10
83.38022492761416
 20
87.14757679773894
 10
83.37669908770346
 20
87.13557817611921
  0
LINE
  5
81
330
70
100
AcDbEntity
  8
Camada 1
  6
AI-Linetype-0
 62
   250
420
  1907995
370
    15
100
AcDbLine
 10
31.35362022463773
 20
70.37817618411986
 30
0.0
 11
73.16131272076403
 21
70.37817618411986
 31
0.0
  0
LINE
  5
83
330
70
100
AcDbEntity
  8
Camada 1
 62
   250
420
  1907995
370
    15
100
AcDbLine
 10
73.53324845912863
 20
70.37817618411986
 30
0.0
 11
74.27125789057119
 21
70.37817618411986
 31
0.0
  0
LINE
  5
84
330
70
100
AcDbEntity
  8
Camada 1
 62
   250
420
  1907995
370
    15
100
AcDbLine
 10
29.87166933796394
 20
70.37817618411986
 30
0.0
 11
30.6096787694065
 21
70.37817618411986
 31
0.0
  0
LINE
  5
85
330
70
100
AcDbEntity
  8
Camada 1
 62
   250
420
  1907995
370
    15
100
AcDbLine
 10
72.89418862957647
 20
69.04062324493331
 30
0.0
 11
72.89418862957647
 21
69.04062324493331
 31
0.0
  0
LINE
  5
86
330
70
100
AcDbEntity
  8
Camada 1
 62
   250
420
  1907995
370
    15
100
AcDbLine
 10
72.89418862957647
 20
69.04062324493331
 30
0.0
 11
72.89418862957647
 21
69.04062324493331
 31
0.0
  0
LINE
  5
87
330
70
100
AcDbEntity
  8
Camada 1
  6
AI-Linetype-1
 62
   250
420
  1907995
370
    15
100
AcDbLine
 10
48.37363000296193
 20
69.23168608736059
 30
0.0
 11
32.58893995529949
 21
69.23168608736059
 31
0.0
  0
LINE
  5
89
330
70
100
AcDbEntity
  8
Camada 1
 62
   250
420
  1907995
370
    15
100
AcDbLine
 10
32.19414816157494
 20
69.23168608736059
 30
0.0
 11
31.43320462182785
 21
69.23168608736059
 31
0.0
  0
LINE
  5
8A
330
70
100
AcDbEntity
  8
Camada 1
 62
   250
420
  1907995
370
    15
100
AcDbLine
 10
49.92415982163898
 20
69.23168608736059
 30
0.0
 11
49.16321359041102
 21
69.23168608736059
 31
0.0
  0
LINE
  5
8B
330
70
100
AcDbEntity
  8
Camada 1
 62
   250
420
  1907995
370
    15
100
AcDbLine
 10
51.77684066325751
 20
69.99587286152935
 30
0.0
 11
51.11608749807167
 21
69.99587286152935
 31
0.0
  0
LINE
  5
8C
330
70
100
AcDbEntity
  8
Camada 1
 62
   250
420
  1907995
370
    15
100
AcDbLine
 10
53.02690970896549
 20
69.99587286152935
 30
0.0
 11
52.36615654377967
 21
69.99587286152935
 31
0.0
  0
LINE
  5
8D
330
70
100
AcDbEntity
  8
Camada 1
  6
AI-Linetype-2
 62
   250
420
  1907995
370
    15
100
AcDbLine
 10
21.0852103392552
 20
85.90237933236556
 30
0.0
 11
21.49513767552764
 21
84.31487933276242
 31
0.0
  0
LINE
  5
8F
330
70
100
AcDbEntity
  8
Camada 1
  6
AI-Linetype-3
 62
   250
420
  1907995
370
    15
100
AcDbLine
 10
22.17966738252339
 20
82.14102408156978
 30
0.0
 11
22.74481645651269
 21
80.56269126573445
 31
0.0
  0
LINE
  5
91
330
70
100
AcDbEntity
  8
Camada 1
  6
AI-Linetype-4
 62
   250
420
  1907995
370
    15
100
AcDbLine
 10
23.69749570889903
 20
78.3170542203296
 30
0.0
 11
24.47042979582331
 21
76.67733949227815
 31
0.0
  0
LINE
  5
93
330
70
100
AcDbEntity
  8
Camada 1
  6
AI-Linetype-5
 62
   250
420
  1907995
370
    15
100
AcDbLine
 10
25.67075758398216
 20
74.46630950761498
 30
0.0
 11
26.5964439749454
 21
72.92431706618732
 31
0.0
  0
LWPOLYLINE
  5
95
330
70
100
AcDbEntity
  8
Camada 1
 62
   250
420
  1907995
370
    15
100
AcDbPolyline
 90
       13
 70
     0
 43
0.0
 10
26.77936239632708
 20
72.61937766908745
 10
27.15048261599477
 20
72.00095611467663
 10
27.36885322310435
 20
71.67887198457595
 10
27.61332850295724
 20
71.37442243699038
 10
27.89025765887352
 20
71.10666315632272
 10
28.1968227104055
 20
70.87770964651941
 10
28.52807940723566
 20
70.68897762650635
 10
28.88262279636143
 20
70.54257183430663
 10
29.13133177558799
 20
70.46919668343251
 10
29.26538636217692
 20
70.43850303584361
 10
29.43295526828331
 20
70.40993027516282
 10
29.63439107789821
 20
70.38770402632126
 10
29.87216457043995
 20
70.37782629160965
  0
LWPOLYLINE
  5
96
330
70
100
AcDbEntity
  8
Camada 1
 62
   250
420
  1907995
370
    15
100
AcDbPolyline
 90
        3
 70
     0
 43
0.0
 10
24.62402991632935
 20
76.35130426829282
 10
24.93341563978987
 20
75.69442683552789
 10
25.30488844344862
 20
75.07601066407876
  0
LWPOLYLINE
  5
97
330
70
100
AcDbEntity
  8
Camada 1
 62
   250
420
  1907995
370
    15
100
AcDbPolyline
 90
        3
 70
     0
 43
0.0
 10
22.85100345040298
 20
80.26664452135587
 10
23.08065943670759
 20
79.62564682559326
 10
23.39040043564003
 20
78.96912466830025
  0
LWPOLYLINE
  5
98
330
70
100
AcDbEntity
  8
Camada 1
 62
   250
420
  1907995
370
    15
100
AcDbPolyline
 90
        3
 70
     0
 43
0.0
 10
21.570843648816
 20
84.02175553658462
 10
21.73805997093132
 20
83.3744059460211
 10
21.96736471898529
 20
82.73340825025849
  0
LINE
  5
99
330
70
100
AcDbEntity
  8
Camada 1
 62
   250
420
  1907995
370
    15
100
AcDbLine
 10
20.76686333031176
 20
87.13558355908091
 30
0.0
 11
20.93407965242708
 21
86.48823396851737
 31
0.0
  0
LINE
  5
9A
330
70
100
AcDbEntity
  8
Camada 1
  6
AI-Linetype-6
 62
   250
420
  1907995
370
    15
100
AcDbLine
 10
77.35453760544435
 20
72.63849794903059
 30
0.0
 11
78.25341146420129
 21
74.07182992566878
 31
0.0
  0
LINE
  5
9C
330
70
100
AcDbEntity
  8
Camada 1
  6
AI-Linetype-7
 62
   250
420
  1907995
370
    15
100
AcDbLine
 10
79.44125347270696
 20
76.24388726765507
 30
0.0
 11
80.2575796138603
 21
77.89170873602023
 31
0.0
  0
LINE
  5
9E
330
70
100
AcDbEntity
  8
Camada 1
  6
AI-Linetype-8
 62
   250
420
  1907995
370
    15
100
AcDbLine
 10
81.22665805905262
 20
80.14832164032261
 30
0.0
 11
81.83484660327989
 21
81.75839778127752
 31
0.0
  0
LINE
  5
A0
330
70
100
AcDbEntity
  8
Camada 1
  6
AI-Linetype-9
 62
   250
420
  1907995
370
    15
100
AcDbLine
 10
82.51557055635679
 20
83.85961534734835
 30
0.0
 11
82.93149047473695
 21
85.35433461916435
 31
0.0
  0
LWPOLYLINE
  5
A2
330
70
100
AcDbEntity
  8
Camada 1
 62
   250
420
  1907995
370
    15
100
AcDbPolyline
 90
        3
 70
     0
 43
0.0
 10
83.00508094407893
 20
85.61782521120731
 10
83.17617299861515
 20
86.23377060323811
 10
83.37619847226577
 20
87.13582579235721
  0
LWPOLYLINE
  5
A3
330
70
100
AcDbEntity
  8
Camada 1
 62
   250
420
  1907995
370
    15
100
AcDbPolyline
 90
        3
 70
     0
 43
0.0
 10
81.95182912685091
 20
82.06644853023751
 10
82.19736215867701
 20
82.71696868523982
 10
82.36916476415705
 20
83.33326935274254
  0
LWPOLYLINE
  5
A4
330
70
100
AcDbEntity
  8
Camada 1
 62
   250
420
  1907995
370
    15
100
AcDbPolyline
 90
        3
 70
     0
 43
0.0
 10
80.42116243683102
 20
78.22226564782996
 10
80.74783285029644
 20
78.88054803359747
 10
80.99371577463276
 20
79.53177335658191
  0
LWPOLYLINE
  5
A5
330
70
100
AcDbEntity
  8
Camada 1
 62
   250
420
  1907995
370
    15
100
AcDbPolyline
 90
        3
 70
     0
 43
0.0
 10
78.42320622496885
 20
74.34273285596673
 10
78.78762196584455
 20
74.92375359251581
 10
79.11358721132784
 20
75.58274652922715
  0
LWPOLYLINE
  5
A6
330
70
100
AcDbEntity
  8
Camada 1
 62
   250
420
  1907995
370
    15
100
AcDbPolyline
 90
       12
 70
     0
 43
0.0
 10
74.27122020983931
 20
70.37817618411986
 10
74.52486536494084
 20
70.38875908681362
 10
74.74746697994324
 20
70.41556623605822
 10
74.94008549830057
 20
70.45225650297613
 10
75.2381831510852
 20
70.53515949605165
 10
75.34577778945892
 20
70.57326009893384
 10
75.63999432686094
 20
70.70237581816697
 10
75.92821424493397
 20
70.86641619288181
 10
76.20620115282346
 20
71.06820727796862
 10
76.45385507155765
 20
71.29433473288171
 10
76.6503493223359
 20
71.51517611940962
 10
77.01441517070136
 20
72.0962022389204
  0
LINE
  5
A7
330
70
100
AcDbEntity
  8
Camada 1
  6
AI-Linetype-10
 62
   250
420
  1907995
370
    15
100
AcDbLine
 10
72.90240841208582
 20
66.36483911338655
 30
0.0
 11
72.90240841208582
 21
69.04030565019327
 31
0.0
  0
LINE
  5
A9
330
70
100
AcDbEntity
  8
Camada 1
  6
AI-Linetype-11
 62
   250
420
  1907995
370
    15
100
AcDbLine
 10
31.24020122170927
 20
69.04062324493331
 30
0.0
 11
31.24020122170927
 21
66.3651513251649
 31
0.0
  0
LWPOLYLINE
  5
AB
330
70
100
AcDbEntity
  8
Camada 1
 62
   250
420
  1907995
370
    15
100
AcDbPolyline
 90
        9
 70
     0
 43
0.0
 10
31.24020122170927
 20
69.04062324493331
 10
31.24372706161995
 20
69.07766340436144
 10
31.25501782377669
 20
69.11329322782531
 10
31.27265509777266
 20
69.14645227187083
 10
31.29629168257849
 20
69.17573558349545
 10
31.3252197187312
 20
69.19937216830129
 10
31.35838145425758
 20
69.21701213377811
 10
31.39401127772143
 20
69.22794492898209
 10
31.43140671262148
 20
69.23182604436468
  0
LWPOLYLINE
  5
AC
330
70
100
AcDbEntity
  8
Camada 1
 62
   250
420
  1907995
370
    15
100
AcDbPolyline
 90
        9
 70
     0
 43
0.0
 10
72.90240841208582
 20
69.04062324493331
 10
72.89887718921344
 20
69.07801329687167
 10
72.88758911853754
 20
69.11329322782531
 10
72.87030442853264
 20
69.14645227187083
 10
72.8463125682549
 20
69.17573558349545
 10
72.8173845321022
 20
69.20007733628342
 10
72.78493065603879
 20
69.21701213377811
 10
72.7485956645928
 20
69.22794492898209
 10
72.71155550516467
 20
69.23182604436468
  0
LWPOLYLINE
  5
AD
330
70
100
AcDbEntity
  8
Camada 1
 62
   250
420
  1907995
370
    15
100
AcDbPolyline
 90
        7
 70
     0
 43
0.0
 10
83.42619542049545
 20
87.19167401995013
 10
83.41455207434764
 20
87.18637718564156
 10
83.4039691716539
 20
87.17897023034828
 10
83.39409143694227
 20
87.17015293909071
 10
83.38597393070516
 20
87.15957003639696
 10
83.38068247935828
 20
87.14828196572106
 10
83.37645147146545
 20
87.13557817611921
  0
LWPOLYLINE
  5
AE
330
70
100
AcDbEntity
  8
Camada 1
 62
   250
420
  1907995
370
    15
100
AcDbPolyline
 90
        4
 70
     0
 43
0.0
 10
53.02690970896549
 20
69.99587286152935
 10
53.52926384329357
 20
70.33101067374211
 10
53.61040122493291
 20
70.36628522173406
 10
53.69577499742675
 20
70.37828384335378
  0
LWPOLYLINE
  5
AF
330
70
100
AcDbEntity
  8
Camada 1
 62
   250
420
  1907995
370
    15
100
AcDbPolyline
 90
        4
 70
     0
 43
0.0
 10
50.44701227410429
 20
70.37817618411986
 10
50.51157013372085
 20
70.3711191213368
 10
50.61739916065837
 20
70.32913740307201
 10
51.11587756256554
 20
69.99575981933374
  0
LINE
  5
B0
330
70
100
AcDbEntity
  8
Camada 1
  6
AI-Linetype-12
 62
   250
420
  1907995
370
    15
100
AcDbLine
 10
51.1158075840635
 20
68.89778097337615
 30
0.0
 11
51.1158075840635
 21
67.43374996618735
 31
0.0
  0
LINE
  5
B2
330
70
100
AcDbEntity
  8
Camada 1
 62
   250
420
  1907995
370
    15
100
AcDbLine
 10
51.1158075840635
 20
67.19005790726119
 30
0.0
 11
51.1158075840635
 21
66.5801037515977
 31
0.0
  0
LINE
  5
B3
330
70
100
AcDbEntity
  8
Camada 1
 62
   250
420
  1907995
370
    15
100
AcDbLine
 10
51.1158075840635
 20
69.99559294752117
 30
0.0
 11
51.1158075840635
 21
69.3856387918577
 31
0.0
  0
LINE
  5
B4
330
70
100
AcDbEntity
  8
Camada 1
  6
AI-Linetype-13
 62
   250
420
  1907995
370
    15
100
AcDbLine
 10
53.02690970896549
 20
67.67833559675501
 30
0.0
 11
53.02690970896549
 21
69.14236122098209
 31
0.0
  0
LINE
  5
B6
330
70
100
AcDbEntity
  8
Camada 1
 62
   250
420
  1907995
370
    15
100
AcDbLine
 10
53.02690970896549
 20
69.38609634360183
 30
0.0
 11
53.02690970896549
 21
69.99604511630362
 31
0.0
  0
LINE
  5
B7
330
70
100
AcDbEntity
  8
Camada 1
 62
   250
420
  1907995
370
    15
100
AcDbLine
 10
53.02690970896549
 20
66.58056130334184
 30
0.0
 11
53.02690970896549
 21
67.19051007604363
 31
0.0
  0
LINE
  5
B8
330
70
100
AcDbEntity
  8
Camada 1
  6
AI-Linetype-14
 62
   250
420
  1907995
370
    15
100
AcDbLine
 10
50.03828399254956
 20
69.15463975660999
 30
0.0
 11
50.03828399254956
 21
66.26820956798699
 31
0.0
  0
LINE
  5
BA
330
70
100
AcDbEntity
  8
Camada 1
  6
AI-Linetype-15
 62
   250
420
  1907995
370
    15
100
AcDbLine
 10
54.14108588666547
 20
69.17383001505517
 30
0.0
 11
54.14108588666547
 21
66.28739982643216
 31
0.0
  0
LINE
  5
BC
330
70
100
AcDbEntity
  8
Camada 1
  6
AI-Linetype-16
 62
   250
420
  1907995
370
    15
100
AcDbLine
 10
71.16660243480438
 20
69.21161302319731
 30
0.0
 11
55.38191238714194
 21
69.21161302319731
 31
0.0
  0
LINE
  5
BE
330
70
100
AcDbEntity
  8
Camada 1
 62
   250
420
  1907995
370
    15
100
AcDbLine
 10
54.98708291268552
 20
69.21161302319731
 30
0.0
 11
54.22613668145757
 21
69.21161302319731
 31
0.0
  0
LINE
  5
BF
330
70
100
AcDbEntity
  8
Camada 1
 62
   250
420
  1907995
370
    15
100
AcDbLine
 10
72.71713225348142
 20
69.21161302319731
 30
0.0
 11
71.95618602225348
 21
69.21161302319731
 31
0.0
  0
LWPOLYLINE
  5
C0
330
70
100
AcDbEntity
  8
Camada 1
 62
   250
420
  1907995
370
    15
100
AcDbPolyline
 90
       68
 70
     0
 43
0.0
 10
43.2466039125621
 20
49.2783659070055
 10
42.48460262084179
 20
49.18981618711118
 10
41.51940259955124
 20
49.07551437846463
 10
40.52845048950845
 20
48.93546586402752
 10
39.50010294456563
 20
48.79611713461087
 10
38.43330221274953
 20
48.64371472308213
 10
37.32840356953211
 20
48.46591549827306
 10
36.38860305300273
 20
48.31280791876219
 10
35.51230264411671
 20
48.16041089019514
 10
34.71290860897721
 20
48.00836375413832
 10
33.96290324739578
 20
47.86901502472166
 10
33.2647546473099
 20
47.7162627206827
 10
32.51545445371061
 20
47.5511619025138
 10
31.80390227900242
 20
47.37301278519451
 10
31.13150845914963
 20
47.19591872836757
 10
30.48345639208481
 20
47.01776422808659
 10
29.8615089977633
 20
46.84031489578775
 10
29.25191011757174
 20
46.63676358222644
 10
28.6677080506605
 20
46.44591067530529
 10
28.09585718936004
 20
46.23071601559618
 10
27.61360841696542
 20
46.0525615153152
 10
27.15640925682174
 20
45.86276905184811
 10
26.72425701744817
 20
45.67191614492696
 10
26.26740774981472
 20
45.46836483136565
 10
25.83525551044115
 20
45.25281489618463
 10
25.42920794381088
 20
45.03656517598315
 10
25.0351563073195
 20
44.83371633892313
 10
24.67955516622052
 20
44.60511810459172
 10
24.33736029122469
 20
44.38921827690047
 10
24.00680876237667
 20
44.17296586521815
 10
23.70200932228088
 20
43.94471752339696
 10
23.40990828882526
 20
43.72881769570571
 10
23.13015576949958
 20
43.50021676989345
 10
22.87650792291721
 20
43.27161853556203
 10
22.63520859046479
 20
43.04266502575869
 10
22.40625642640188
 20
42.80136569330628
 10
22.19035659871063
 20
42.57276476749401
 10
22.00056278950311
 20
42.33181801903266
 10
21.80970988258197
 20
42.09051868658024
 10
21.61920955965189
 20
41.83651825600679
 10
21.45446267121448
 20
41.57016931130342
 10
21.27630951667393
 20
41.30276530610768
 10
21.11121004424544
 20
41.02407053875522
 10
20.95916290818863
 20
40.73161692130852
 10
20.81875642679876
 20
40.43951857933374
 10
20.67940904312252
 20
40.12201804111696
 10
20.5524088278358
 20
39.81721860102118
 10
20.42576119654015
 20
39.48701696468337
 10
20.31146207937445
 20
39.14446950569647
 10
20.1964577942266
 20
38.8015694627185
 10
20.09520966769213
 20
38.44597101310037
 10
20.00631005528759
 20
38.07767146536123
 10
19.93010884952322
 20
37.69631823551001
 10
19.85426291923077
 20
37.30261918300969
 10
19.79076281158741
 20
36.90891743902852
 10
19.72691011995298
 20
36.5025172884072
 10
19.68916210106186
 20
36.09682230576801
 10
19.65035633019754
 20
35.66467006639444
 10
19.62530940942744
 20
35.23251782702086
 10
19.61260831130643
 20
34.78872224149949
 10
19.59990990466626
 20
34.34422417947683
 10
19.61260831130643
 20
33.88666974386123
 10
19.62530940942744
 20
33.42947058371756
 10
19.65035633019754
 20
32.98496983021405
 10
19.68916210106186
 20
32.54011918420032
 10
19.73960852659315
 20
32.10867211280888
 10
19.80346121822757
 20
31.68992344805761
 10
19.82850813899768
 20
31.56257064877982
  0
LWPOLYLINE
  5
C1
330
70
100
AcDbEntity
  8
Camada 1
 62
   250
420
  1907995
370
    15
100
AcDbPolyline
 90
      121
 70
     0
 43
0.0
 10
60.8603409085181
 20
19.49855681037872
 10
61.25438985352864
 20
19.53630348352942
 10
62.21923729082811
 20
19.66330369881614
 10
63.19713841023967
 20
19.79030391410285
 10
64.22583853917358
 20
19.93000388177016
 10
65.27994086434951
 20
20.08275618580912
 10
66.38483681608608
 20
20.26020282662711
 10
67.33734112221731
 20
20.41224996268394
 10
68.21363883962249
 20
20.56535619645439
 10
69.01338545875306
 20
20.70435099613956
 10
69.77573664298359
 20
20.85675071618745
 10
70.48693892518155
 20
21.00915043623535
 10
71.15968532902541
 20
21.16190408601473
 10
71.87123750373358
 20
21.32665097445214
 10
72.5566876971793
 20
21.50515671298377
 10
73.20403190478113
 20
21.6822507698107
 10
73.83973814919686
 20
21.87310367673184
 10
74.43628873023804
 20
22.06289748593936
 10
75.03318382082776
 20
22.2537503928605
 10
75.60468748109883
 20
22.45695046817116
 10
76.08728614600368
 20
22.64744944536082
 10
76.60798541379072
 20
22.85065086641191
 10
77.03978506917322
 20
23.04150377333305
 10
77.50933543492767
 20
23.2574036010243
 10
77.9414849828204
 20
23.46060233059454
 10
78.34753254945066
 20
23.67614957429472
 10
78.74158687742289
 20
23.89204940198597
 10
79.10953384117097
 20
24.10794922967723
 10
79.45243388414894
 20
24.32384905736848
 10
79.78298541299697
 20
24.55244998318074
 10
80.08778485309274
 20
24.76834981087199
 10
80.37953599403815
 20
24.99695073668425
 10
80.65893323789191
 20
25.21320314836657
 10
80.91293366846533
 20
25.44180407417883
 10
81.15423569239862
 20
25.68310340663126
 10
81.38283392673002
 20
25.9113490569716
 10
81.59873375442129
 20
26.15265108090487
 10
81.80228506798259
 20
26.3939504133573
 10
81.99208291441138
 20
26.63560232980079
 10
82.17023203173067
 20
26.87654907826215
 10
82.34838653201164
 20
27.14289802296553
 10
82.51313207470863
 20
27.40959686017913
 10
82.67823289287752
 20
27.6893493795048
 10
82.83063530440626
 20
27.98145041296042
 10
82.98303233297332
 20
28.27355144641604
 10
83.1227309549002
 20
28.57799830252076
 10
83.24938127767671
 20
28.89585142472862
 10
83.37638149296342
 20
29.22640295357665
 10
83.49103319412019
 20
29.56859782857248
 10
83.60533500276675
 20
29.91185045554152
 10
83.70693302181143
 20
30.26744890515965
 10
83.79618790968789
 20
30.63575114437964
 10
83.88473224662051
 20
31.00369810812771
 10
83.96058355987467
 20
31.3977497446191
 10
84.02408097603716
 20
31.7910989046092
 10
84.07487998555952
 20
32.19785163922159
 10
84.126384163064
 20
32.61659761249201
 10
84.16413487343596
 20
33.03534627724328
 10
84.18918179420607
 20
33.46749851661685
 10
84.20223547631815
 20
33.91235185411144
 10
84.21493388295832
 20
34.3568499161341
 10
84.20223547631815
 20
34.8136964922867
 10
84.18918179420607
 20
35.27089834391123
 10
84.16413487343596
 20
35.71575168140581
 10
84.126384163064
 20
36.15989715943741
 10
84.07487998555952
 20
36.59169681481991
 10
84.01208773737915
 20
37.01115064755331
 10
83.93553663910456
 20
37.41684563019251
 10
83.85898015786827
 20
37.82395094879597
 10
83.77043582093564
 20
38.21729741730522
 10
83.66883241892926
 20
38.59829806316536
 10
83.56723439988456
 20
38.96624502691344
 10
83.45293259123801
 20
39.32149358402135
 10
83.3259323759513
 20
39.6647462109904
 10
83.18658364653463
 20
39.99494515584735
 10
83.04617985662561
 20
40.3251441007043
 10
82.89413272056879
 20
40.64299722291217
 10
82.74208558451197
 20
40.93439308838565
 10
82.57663487383284
 20
41.22719659834256
 10
82.39883564902378
 20
41.51894504780711
 10
82.221031041253
 20
41.78564388502071
 10
82.04323181644396
 20
42.03964431559414
 10
81.84003577835456
 20
42.29364474616758
 10
81.64918287143342
 20
42.53459418610979
 10
81.44633134289255
 20
42.76354500443227
 10
81.23043151520128
 20
42.99214593024453
 10
81.00183328086988
 20
43.20839834192685
 10
80.76088653240852
 20
43.42394558562703
 10
80.50653082636317
 20
43.63984541331828
 10
80.23983198914958
 20
43.85539265701846
 10
79.96043474529582
 20
44.05894666206061
 10
79.66833371184019
 20
44.26249797562193
 10
79.36388416425462
 20
44.46499422869088
 10
79.03368791087851
 20
44.66854554225219
 10
78.70313099906879
 20
44.87174696330328
 10
78.33483414281051
 20
45.06259717874357
 10
77.96653190359051
 20
45.26509343181252
 10
77.55977916897811
 20
45.45559106326176
 10
77.15408687781977
 20
45.6464439701829
 10
76.70958343283541
 20
45.83694698459382
 10
76.25203168870067
 20
46.02744461604305
 10
75.75708450966587
 20
46.21829752296419
 10
75.249083648519
 20
46.40844526190321
 10
74.71568597409181
 20
46.58624448671227
 10
74.14418769678242
 20
46.7767421181615
 10
73.54728722323102
 20
46.95419145046034
 10
72.95038674967961
 20
47.13199067526941
 10
72.3284393553581
 20
47.29709149343832
 10
71.68038459681243
 20
47.44949390496706
 10
71.01998670709853
 20
47.61423944766404
 10
70.32219338248456
 20
47.76734702717492
 10
69.59793741817453
 20
47.91939416323174
 10
68.83629140192613
 20
48.05909278515862
 10
68.02314120817325
 20
48.2121949817078
 10
67.14648821529618
 20
48.36424211776463
 10
66.19433918463686
 20
48.51628925382144
 10
65.15294064906278
 20
48.66833638987827
 10
64.00993871148232
 20
48.84649089015926
 10
62.90503737678405
 20
48.98654478755805
 10
61.85094043456982
 20
49.12589351697471
 10
60.98733574084312
 20
49.22749153601941
  0
LWPOLYLINE
  5
C2
330
70
100
AcDbEntity
  8
Camada 1
 62
   250
420
  1907995
370
    15
100
AcDbPolyline
 90
       56
 70
     0
 43
0.0
 10
19.82861579823159
 20
31.56256795729897
 10
19.86636247138229
 20
31.34666543812688
 10
19.9429149153973
 20
30.95331896961763
 10
20.03181452780184
 20
30.55926733312624
 10
20.13306265433631
 20
30.17826668726609
 10
20.2350146031125
 20
29.81031972351802
 10
20.34931506601863
 20
29.45436599842797
 10
20.47596269731428
 20
29.09912013280091
 10
20.61636783296372
 20
28.7689184964631
 10
20.75571521663996
 20
28.43801438362401
 10
20.90776235269678
 20
28.12086642939828
 10
21.06086858646723
 20
27.81641957329356
 10
21.22561547490464
 20
27.52396595584688
 10
21.39071494733312
 20
27.24491860450334
 10
21.56886810187368
 20
26.97821976728973
 10
21.7586619110812
 20
26.71116565460422
 10
21.94951481800234
 20
26.4698663221518
 10
22.152714893313
 20
26.22891957369044
 10
22.35591496862367
 20
25.98762024123801
 10
22.57146221232385
 20
25.77172041354677
 10
22.78736069427468
 20
25.54276690374344
 10
23.02866271820795
 20
25.32757224403432
 10
23.28336831676352
 20
25.111319832352
 10
23.54971456998605
 20
24.90811841130091
 10
23.81641340719965
 20
24.69257116760073
 10
24.10886702464634
 20
24.48866727004836
 10
24.42601497887207
 20
24.28617370846025
 10
24.74316293309779
 20
24.08297228740917
 10
25.08641556006683
 20
23.87942097384785
 10
25.4416614256939
 20
23.68892065091777
 10
25.82266207155405
 20
23.48571922986669
 10
26.21671370804544
 20
23.29557149092768
 10
26.62276127467569
 20
23.10471858400654
 10
27.0672620281792
 20
22.91457353654838
 10
27.52481377231395
 20
22.72372062962723
 10
28.00706254470858
 20
22.53357289068822
 10
28.5150607143746
 20
22.35577366587916
 10
29.04846108028264
 20
22.16492075895801
 10
29.62031463306395
 20
21.974773020019
 10
30.20416142450327
 20
21.79661986547845
 10
30.81376299617569
 20
21.61917322466045
 10
31.43606297448827
 20
21.45371982250048
 10
32.07070877544994
 20
21.30167268644365
 10
32.7311093566447
 20
21.13657321401518
 10
33.42996312471271
 20
20.98417349396728
 10
34.15350853807892
 20
20.8314198441879
 10
34.91550982979923
 20
20.69207380625209
 10
35.71560903292088
 20
20.5393201564727
 10
36.59155685781582
 20
20.38727302041588
 10
37.53170995833626
 20
20.23452071637692
 10
38.57310849391033
 20
20.08282616431117
 10
39.71611043149079
 20
19.90432042577953
 10
40.82100907470821
 20
19.75227328972271
 10
41.8751087084033
 20
19.62527307443599
 10
42.89111043069704
 20
19.49862678888077
 10
43.22095679156293
 20
19.47252077039703
  0
LWPOLYLINE
  5
C3
330
70
100
AcDbEntity
  8
Camada 1
 62
   250
420
  1907995
370
    15
100
AcDbPolyline
 90
       44
 70
     1
 43
0.0
 10
51.01833291367771
 20
34.24248082046635
 10
51.00562912407585
 20
34.38182685840216
 10
51.01833291367771
 20
34.50882707368888
 10
51.0564281335982
 20
34.62312619085459
 10
51.0948840119523
 20
34.7377805834922
 10
51.15838142811481
 20
34.82632761190567
 10
51.22152895176711
 20
34.91557980830128
 10
51.37428125580606
 20
35.0676269443581
 10
51.52632839186289
 20
35.16958023887471
 10
51.67873080339163
 20
35.232727762527
 10
51.81878470079042
 20
35.25847985127924
 10
51.93308112647528
 20
35.27082567392834
 10
52.00928233223965
 20
35.25847985127924
 10
52.08512826253211
 20
35.24542616916716
 10
52.17402787493664
 20
35.22002666440599
 10
52.26328276281309
 20
35.18192606152381
 10
52.33912869310554
 20
35.13112705200145
 10
52.42838358098199
 20
35.0676269443581
 10
52.51692791791461
 20
35.00412683671473
 10
52.64428340867324
 20
34.83902601854583
 10
52.73282774560586
 20
34.68662629849794
 10
52.7836321380899
 20
34.53457916244112
 10
52.80902895137023
 20
34.40722636316333
 10
52.80902895137023
 20
34.34407883951104
 10
52.79633054473006
 20
34.26752774123645
 10
52.7836321380899
 20
34.17862543735108
 10
52.74588142771793
 20
34.09007840893761
 10
52.69473252568537
 20
33.9757792917719
 10
52.618531319921
 20
33.86148017460619
 10
52.47918259050433
 20
33.70837259509531
 10
52.31408177233543
 20
33.59442606192068
 10
52.16132946829647
 20
33.51858013162823
 10
52.02198073887982
 20
33.48047952874604
 10
51.90768431319495
 20
33.46742584663396
 10
51.7933825045484
 20
33.48047952874604
 10
51.71683140627381
 20
33.49282804287598
 10
51.61522800426742
 20
33.53127853826839
 10
51.51362998522272
 20
33.58172765528052
 10
51.42508564829011
 20
33.63252666480286
 10
51.34852916705382
 20
33.69602677244622
 10
51.196482030997
 20
33.84877907648518
 10
51.13262933936257
 20
33.93697352090758
 10
51.08218560531214
 20
34.03927939941526
 10
51.04408500242995
 20
34.14052752594974
  0
LWPOLYLINE
  5
C4
330
70
100
AcDbEntity
  8
Camada 1
 62
   250
420
  1907995
370
    15
100
AcDbPolyline
 90
      171
 70
     1
 43
0.0
 10
20.50203372654699
 20
34.36895081402604
 10
20.50203372654699
 20
33.84895402274029
 10
20.5270806473171
 20
33.32790217096219
 10
20.56517990445886
 20
32.82025389380639
 10
20.62903259609329
 20
32.29920204202829
 10
20.74333305899942
 20
31.49910283890664
 10
20.86998069029506
 20
30.91490346347625
 10
21.02273299433402
 20
30.34340249468602
 10
21.20017963515202
 20
29.77260669387792
 10
21.36528045332092
 20
29.30235385162217
 10
21.55613336024207
 20
28.8578557895995
 10
21.75862692183017
 20
28.43804937287503
 10
21.97452809526185
 20
28.04505548835685
 10
22.21618001170534
 20
27.65100385186546
 10
22.48288019465936
 20
27.27035578999638
 10
22.77497988237456
 20
26.90170365826617
 10
23.09248042059136
 20
26.54645510115825
 10
23.49888057121269
 20
26.15275604865794
 10
23.93068022659519
 20
25.7844565009188
 10
24.3751809800987
 20
25.4419090419319
 10
24.85777964500355
 20
25.1244085037151
 10
25.35272682403834
 20
24.81925647962825
 10
25.86108026917628
 20
24.53985654429364
 10
26.61002787878451
 20
24.15920848242456
 10
27.21962675897608
 20
23.89215436973904
 10
27.82922833064849
 20
23.63850921463752
 10
28.45188089295214
 20
23.40990828882526
 10
29.36592662924842
 20
23.0920551666174
 10
30.28032764101661
 20
22.80030940863369
 10
31.18167497067274
 20
22.54666156205132
 10
32.096428566432
 20
22.30500964560783
 10
33.02352798484037
 20
22.08910981791658
 10
34.01377492690102
 20
21.87320864448491
 10
35.01707555107375
 20
21.66965598518317
 10
36.66807565832023
 20
21.36485654508739
 10
38.31872318157565
 20
21.09850894612444
 10
39.98277427945337
 20
20.84415593155993
 10
41.64647548482085
 20
20.61555635148809
 10
43.20822070419089
 20
20.41235627617743
 10
44.77067378302391
 20
20.24760938774002
 10
46.3574686146449
 20
20.10790942007272
 10
47.94531850675824
 20
20.00630870954717
 10
49.06256835558647
 20
19.95515577029333
 10
50.19286650356506
 20
19.91705651315157
 10
51.57752035758902
 20
19.89236217637253
 10
52.94876525402898
 20
19.90435676077098
 10
54.33341910805292
 20
19.93010884952322
 10
55.70431411198267
 20
19.99360895716658
 10
56.6702219927362
 20
20.05675648081887
 10
57.97796947301365
 20
20.14565609322341
 10
59.29841535993126
 20
20.27230372451906
 10
60.83511635001204
 20
20.43846229466117
 10
62.37216723260303
 20
20.64095585624927
 10
63.9085129472119
 20
20.85685702968094
 10
65.44486404478245
 20
21.08545660975278
 10
67.13431733890219
 20
21.36485654508739
 10
68.39126042669559
 20
21.59310354116816
 10
69.6485641729226
 20
21.83475680335208
 10
70.90621781165984
 20
22.11450932267776
 10
72.15011260030286
 20
22.41930876277354
 10
73.15376042550497
 20
22.68565501599607
 10
74.15706374115855
 20
22.99010187210078
 10
75.14766326721026
 20
23.33335449906982
 10
75.8966108768185
 20
23.61275443440443
 10
76.62051156565661
 20
23.90485546786005
 10
77.38250747441522
 20
24.24740292684695
 10
77.92860893844428
 20
24.5275080301637
 10
78.46201199583318
 20
24.81925647962825
 10
78.98271126362022
 20
25.1367543263642
 10
79.38910872276069
 20
25.41580167770774
 10
79.79586145737309
 20
25.72095639327544
 10
80.15111001448099
 20
26.01270215125914
 10
80.49436533293087
 20
26.317854175346
 10
80.8111580116847
 20
26.6480558116838
 10
81.11595745178048
 20
27.004006845293
 10
81.4080584852361
 20
27.37195650052192
 10
81.6747573224497
 20
27.76530296903117
 10
81.9164092388932
 20
28.17240828763464
 10
82.13230906658443
 20
28.57810327027383
 10
82.32210691301323
 20
28.99720182753532
 10
82.5002560303325
 20
29.44170258103883
 10
82.65300833437148
 20
29.88655591853341
 10
82.79235706378813
 20
30.34340249468602
 10
82.98320997070929
 20
31.09235010429424
 10
83.12255870012593
 20
31.85470128852477
 10
83.22415671917063
 20
32.61670258024508
 10
83.28800941080507
 20
33.37905376447561
 10
83.31341160704708
 20
34.21690098648836
 10
83.30070781744522
 20
35.05510348397304
 10
83.24955891541266
 20
35.85485010310362
 10
83.18641139176037
 20
36.41364997377284
 10
83.10985491052408
 20
36.96010133031212
 10
83.0082568914794
 20
37.51890120098134
 10
82.91935727907485
 20
37.95070354784468
 10
82.8050554704283
 20
38.36980210510617
 10
82.62761152109115
 20
38.94095048990534
 10
82.42441010004005
 20
39.50010294456563
 10
82.18275818359655
 20
40.04620171711382
 10
81.90371083225302
 20
40.57924949903081
 10
81.66276408379166
 20
40.98600223364321
 10
81.39535469563424
 20
41.39204980027346
 10
81.07821212437022
 20
41.79880253488586
 10
80.72260829179038
 20
42.17945059675495
 10
80.35395616006017
 20
42.54775014449409
 10
79.94790859342991
 20
42.90370386958413
 10
79.51575904553719
 20
43.23319764645895
 10
79.0843092826649
 20
43.53799708655474
 10
78.72906072555699
 20
43.75424949823705
 10
78.38616068257903
 20
43.95709833529707
 10
77.64921169459052
 20
44.35079738779739
 10
76.9002640849823
 20
44.70639583741553
 10
76.11251070450975
 20
45.04964846438456
 10
75.31240880990726
 20
45.3544505959612
 10
74.49960850866459
 20
45.63349794730473
 10
73.68680820742195
 20
45.88749837787817
 10
72.8743631816512
 20
46.12879501884974
 10
71.71830756195866
 20
46.43324456643531
 10
70.19431036147975
 20
46.78919829152536
 10
68.64561613274094
 20
47.1066961382613
 10
67.09621673602
 20
47.38609338211506
 10
65.53376365718698
 20
47.64044908816042
 10
63.95896206422402
 20
47.88139583662178
 10
62.39756942884505
 20
48.09800083229516
 10
60.73351294800565
 20
48.30049708536411
 10
59.06981174263815
 20
48.49099471681334
 10
57.40646581274257
 20
48.63069333874022
 10
55.73042147620682
 20
48.74499514738678
 10
54.65021178680674
 20
48.79614943238104
 10
53.5710679238224
 20
48.82119635315115
 10
52.22521984066277
 20
48.84659854939317
 10
50.878666589521
 20
48.83425003526323
 10
49.53246861385115
 20
48.8088478390212
 10
48.17427201656158
 20
48.74499514738678
 10
46.68802014349292
 20
48.65574564247203
 10
44.91037509643164
 20
48.5036985064152
 10
43.11932109178636
 20
48.31284559949406
 10
41.34132076925316
 20
48.09800083229516
 10
39.57637412883204
 20
47.84365050921151
 10
37.81107490441985
 20
47.56389798988583
 10
36.04577568000766
 20
47.25874327431813
 10
35.08092824270818
 20
47.08164921749119
 10
34.12807404406672
 20
46.89079631057005
 10
32.90887359220274
 20
46.62409747335646
 10
31.88052873874076
 20
46.37044693529324
 10
30.85147333433493
 20
46.10410337355156
 10
30.07712621996553
 20
45.87444469576609
 10
29.31512761972607
 20
45.63349794730473
 10
28.61662643564912
 20
45.39219592337146
 10
27.72798020411401
 20
45.04964846438456
 10
26.95292792176247
 20
44.73215061764861
 10
26.19092663004217
 20
44.37654947654963
 10
25.63247934336402
 20
44.08409585910294
 10
25.08638057081581
 20
43.76730318034914
 10
24.56567861154793
 20
43.4240505533801
 10
24.08272736265201
 20
43.08115051040213
 10
23.62552820250833
 20
42.70050244853304
 10
23.27027964540042
 20
42.36959833569395
 10
22.92702701843138
 20
42.01434977858604
 10
22.6222275783356
 20
41.64605023084689
 10
22.31778072223089
 20
41.23965008022557
 10
22.03838078689628
 20
40.807497840852
 10
21.78473294031391
 20
40.36370225533062
 10
21.56883311262266
 20
39.91849633384498
 10
21.37798020570151
 20
39.46200234168344
 10
21.20017963515202
 20
38.99210208341875
 10
21.04777991510413
 20
38.5095034185139
 10
20.92042711582635
 20
38.02654947813714
 10
20.80612799866064
 20
37.53124971511127
 10
20.6667806149844
 20
36.7438489186298
 10
20.57752707284838
 20
35.9695018042604
 10
20.51473347892758
 20
35.16975518512982
  0
LWPOLYLINE
  5
C5
330
70
100
AcDbEntity
  8
Camada 1
 62
   250
420
  1907995
370
    15
100
AcDbPolyline
 90
       13
 70
     0
 43
0.0
 10
43.2466039125621
 20
49.26615734987964
 10
44.40194898131081
 20
49.39315218220467
 10
45.76084805510167
 20
49.50745399085121
 10
47.25944844230027
 20
49.60799694940355
 10
48.77074723613902
 20
49.68454804767815
 10
50.26934762333762
 20
49.72229875805012
 10
51.69174680477183
 20
49.74840073931257
 10
53.11379609369584
 20
49.73570233267241
 10
54.53619527513006
 20
49.69760172979023
 10
56.40274262607672
 20
49.62140052402586
 10
58.28234365913547
 20
49.49475558421106
 10
59.95909854661505
 20
49.34164800470018
 10
60.98708812460511
 20
49.22735157901532
  0
LWPOLYLINE
  5
C6
330
70
100
AcDbEntity
  8
Camada 1
 62
   250
420
  1907995
370
    15
100
AcDbPolyline
 90
       14
 70
     0
 43
0.0
 10
60.8603409085181
 20
19.49855681037872
 10
59.75578946633004
 20
19.38425634747259
 10
57.88889222287316
 20
19.21845036132155
 10
56.00929118981441
 20
19.10415124415585
 10
54.61228882166051
 20
19.04100372050356
 10
53.21564172897853
 20
19.00290311762137
 10
51.94564495907305
 20
18.99020336524078
 10
50.68799132033582
 20
19.00290311762137
 10
49.45644504582274
 20
19.0290091361051
 10
48.21184508919758
 20
19.07945556163639
 10
46.99264194585275
 20
19.14260308528868
 10
45.62104177394088
 20
19.24385121182315
 10
44.24979956898177
 20
19.35815032898886
 10
43.22109944004786
 20
19.47245079189499
  0
LWPOLYLINE
  5
C7
330
70
100
AcDbEntity
  8
Camada 1
 62
   250
420
  1907995
370
    15
100
AcDbPolyline
 90
      134
 70
     1
 43
0.0
 10
28.64178101565314
 20
34.36895081402604
 10
28.6544794222933
 20
33.82284934999698
 10
28.69293260916656
 20
33.27710316143984
 10
28.78218480556216
 20
32.74405537952286
 10
28.8837855160877
 20
32.21030242962375
 10
29.01078573137442
 20
31.80425486299349
 10
29.15013176931023
 20
31.39785471237216
 10
29.32793368560015
 20
31.00380307588078
 10
29.53113241517039
 20
30.6358561121327
 10
29.77243174762281
 20
30.26720128892165
 10
30.05218426694849
 20
29.93700234406469
 10
30.34358013242198
 20
29.6195018058479
 10
30.67413166127
 20
29.32740346387312
 10
31.00433329760781
 20
29.04835611252958
 10
31.35993174722594
 20
28.79435568195614
 10
31.72823129496508
 20
28.55305634950372
 10
32.27433275899413
 20
28.22250212917485
 10
32.8454811437933
 20
27.90535417494912
 10
33.42968051922369
 20
27.62595423961451
 10
34.02693357676616
 20
27.37195650052192
 10
34.62383405031757
 20
27.11830865393956
 10
35.23308034651807
 20
26.90170365826617
 10
36.19828036780861
 20
26.58420312004937
 10
37.17653407121124
 20
26.29280725457589
 10
38.15407991515088
 20
26.03845424001138
 10
39.42407937653721
 20
25.74635589803661
 10
40.69408152940439
 20
25.49235546746317
 10
41.96408099079071
 20
25.25105613501075
 10
43.24678155029806
 20
25.04785471395966
 10
44.52912683433349
 20
24.8700554891506
 10
45.81147480984975
 20
24.71765576910271
 10
47.33617717831081
 20
24.57830703968605
 10
48.85982448627951
 20
24.48870225929938
 10
50.38347179424821
 20
24.42555473564709
 10
51.90782427019904
 20
24.41250374501585
 10
53.45652388189954
 20
24.42555473564709
 10
55.01862168526065
 20
24.48870225929938
 10
56.5683763574535
 20
24.59065555381599
 10
58.11742047870253
 20
24.73035417574287
 10
59.6541214687833
 20
24.92050191468188
 10
60.86027093001606
 20
25.09830383097179
 10
62.06677028375903
 20
25.28915404641209
 10
63.27361953001222
 20
25.51810755621542
 10
64.46707058460481
 20
25.77175540279779
 10
65.64887291008789
 20
26.03845424001138
 10
66.58761836612491
 20
26.27975626394466
 10
67.52811866767472
 20
26.55915619927927
 10
68.45522077756394
 20
26.85125454125404
 10
69.35621552322898
 20
27.19450716822308
 10
70.06741780542694
 20
27.48625561768763
 10
70.7535677838931
 20
27.80375615590442
 10
71.43936786984903
 20
28.15935460552255
 10
72.08706735292278
 20
28.55305634950372
 10
72.45536959214277
 20
28.79435568195614
 10
72.79826963512075
 20
29.04835611252958
 10
73.14116967809872
 20
29.32740346387312
 10
73.45831763232443
 20
29.6195018058479
 10
73.76311707242023
 20
29.92465652141559
 10
74.03017118510574
 20
30.26720128892165
 10
74.2711179335671
 20
30.61010133189962
 10
74.47396407914627
 20
30.99110197775977
 10
74.65211857942725
 20
31.38480372174093
 10
74.82991780423631
 20
31.85470128852477
 10
74.95691801952303
 20
32.35035632702255
 10
75.05851603856773
 20
32.84530350605734
 10
75.12236873020215
 20
33.35294909173229
 10
75.16011944057412
 20
33.86130253687023
 10
75.17281784721429
 20
34.36895081402604
 10
75.16011944057412
 20
34.91540217056531
 10
75.109670323562
 20
35.44880253647336
 10
75.03346911779762
 20
35.99490130902156
 10
74.91916730915107
 20
36.52865425892068
 10
74.8048708834662
 20
36.93470182555094
 10
74.66481698606742
 20
37.34039680819013
 10
74.48701776125834
 20
37.73444844468152
 10
74.28381634020727
 20
38.10275068390151
 10
74.04216442376377
 20
38.45834913351964
 10
73.76311707242023
 20
38.80160176048867
 10
73.45831763232443
 20
39.11910229870547
 10
73.14116967809872
 20
39.41085074817002
 10
72.79826963512075
 20
39.6906032674957
 10
72.45536959214277
 20
39.94424842259722
 10
72.08706735292278
 20
40.18555044653049
 10
71.52826748225357
 20
40.51610197537852
 10
70.96946761158434
 20
40.83324992960424
 10
70.3852709276348
 20
41.11264986493885
 10
69.78872034659362
 20
41.36629771152121
 10
69.19146998053199
 20
41.60794962796471
 10
68.58187110034044
 20
41.83655055377697
 10
67.61666838756903
 20
42.15440367598484
 10
66.6391225436294
 20
42.44614943396854
 10
65.64887291008789
 20
42.70050244853304
 10
64.39086937884043
 20
42.9922508979976
 10
63.12086722597325
 20
43.24624863709018
 10
61.85087045606778
 20
43.47449697891138
 10
60.56851978907065
 20
43.6907493905937
 10
59.28581922956332
 20
43.86819603141169
 10
58.00311867005596
 20
44.02059575145958
 10
56.47947674504897
 20
44.16064964885839
 10
54.95511888613644
 20
44.24954926126292
 10
53.43147157816774
 20
44.31304936890628
 10
51.90782427019904
 20
44.32575046702729
 10
50.34537119136603
 20
44.31304936890628
 10
48.796327070117
 20
44.24954926126292
 10
47.24692767339606
 20
44.14794855073737
 10
45.69752827667512
 20
44.00860251280156
 10
44.16082728659434
 20
43.81774960588042
 10
42.95468051684244
 20
43.63995038107135
 10
41.74818116309946
 20
43.43674896002026
 10
40.54167911787565
 20
43.22084913232902
 10
39.34752827826262
 20
42.96649611776451
 10
38.15407991515088
 20
42.70050244853304
 10
37.21427939862151
 20
42.45849794809848
 10
36.28717998021315
 20
42.17945059675495
 10
35.36008056180479
 20
41.88734956329932
 10
34.44567955003659
 20
41.54444952032135
 10
33.74718105744049
 20
41.25234848686573
 10
33.04867987336354
 20
40.93449805613872
 10
32.37558088552861
 20
40.57924949903081
 10
31.72823129496508
 20
40.18555044653049
 10
31.35993174722594
 20
39.94424842259722
 10
31.00433329760781
 20
39.6906032674957
 10
30.67413166127
 20
39.41085074817002
 10
30.35627853906214
 20
39.11910229870547
 10
30.05218426694849
 20
38.80160176048867
 10
29.78478026175276
 20
38.47105023164065
 10
29.5438335132914
 20
38.12850277265375
 10
29.32793368560015
 20
37.74750212679359
 10
29.16283286743125
 20
37.35380307429328
 10
28.98467836715026
 20
36.88425540001966
 10
28.85768084334439
 20
36.38825046901167
 10
28.75643271680992
 20
35.89295070598581
 10
28.69293260916656
 20
35.38530242883
 10
28.6544794222933
 20
34.87694898369206
  0
LWPOLYLINE
  5
C8
330
70
100
AcDbEntity
  8
Camada 1
 62
   250
420
  1907995
370
    15
100
AcDbPolyline
 90
       69
 70
     1
 43
0.0
 10
50.37091872757383
 20
34.36895081402604
 10
50.38361713421399
 20
34.22995466860044
 10
50.39667081632607
 20
34.08990346268249
 10
50.43441614373634
 20
33.95020214927477
 10
50.47216147114661
 20
33.82284934999698
 10
50.53601416278103
 20
33.69584913471026
 10
50.59951696190524
 20
33.56920150341461
 10
50.6753628921977
 20
33.4549023862489
 10
50.76461778007415
 20
33.35294909173229
 10
50.86621579911884
 20
33.25170096519782
 10
50.96781381816354
 20
33.16280135279329
 10
51.0821156268101
 20
33.07354915639769
 10
51.19641743545665
 20
33.01040163274539
 10
51.32341765074336
 20
32.94690152510204
 10
51.46276099719833
 20
32.90915619769176
 10
51.59011648795696
 20
32.87070301081851
 10
51.72946521737362
 20
32.84530350605734
 10
51.8691638393005
 20
32.84530350605734
 10
52.0092177366993
 20
32.84530350605734
 10
52.14891635862619
 20
32.85835449668857
 10
52.28826508804284
 20
32.88340141745868
 10
52.41561519583978
 20
32.92150202034086
 10
52.54191024314437
 20
32.98500212798422
 10
52.669265733903
 20
33.04850223562758
 10
52.78356215958786
 20
33.12470344139195
 10
52.89786396823441
 20
33.2005493716844
 10
52.9994619872791
 20
33.30285525019208
 10
53.08871687515555
 20
33.40445596071763
 10
53.17761648756008
 20
33.51875507788334
 10
53.25346241785254
 20
33.6323490270669
 10
53.3046167028468
 20
33.75970182634469
 10
53.35506581985893
 20
33.88670204163141
 10
53.39316103977942
 20
34.02640335503914
 10
53.41891851149337
 20
34.16610197696602
 10
53.43161691813353
 20
34.29274960826167
 10
53.43161691813353
 20
34.43244823018855
 10
53.41891851149337
 20
34.57214954359628
 10
53.39316103977942
 20
34.71220344099508
 10
53.35506581985893
 20
34.85190206292195
 10
53.3046167028468
 20
34.97890227820867
 10
53.25346241785254
 20
35.10590249349539
 10
53.17761648756008
 20
35.2202016106611
 10
53.08871687515555
 20
35.33450341930765
 10
52.9994619872791
 20
35.43610143835234
 10
52.89786396823441
 20
35.53770214887789
 10
52.78356215958786
 20
35.61390335464226
 10
52.669265733903
 20
35.68974928493471
 10
52.54191024314437
 20
35.75360197656915
 10
52.41561519583978
 20
35.80404840210042
 10
52.28826508804284
 20
35.85485010310362
 10
52.14891635862619
 20
35.88060219185586
 10
52.0092177366993
 20
35.89295070598581
 10
51.8691638393005
 20
35.89295070598581
 10
51.72946521737362
 20
35.89295070598581
 10
51.59011648795696
 20
35.86790109373485
 10
51.46276099719833
 20
35.83015576632458
 10
51.32341765074336
 20
35.79134999546026
 10
51.19641743545665
 20
35.72855505579904
 10
51.0821156268101
 20
35.6520012660436
 10
50.96781381816354
 20
35.57545016776901
 10
50.86621579911884
 20
35.48655055536447
 10
50.76461778007415
 20
35.38530242883
 10
50.6753628921977
 20
35.28405430229553
 10
50.59951696190524
 20
35.16975518512982
 10
50.53601416278103
 20
35.0427549698431
 10
50.47216147114661
 20
34.91540217056531
 10
50.43441614373634
 20
34.7760561326295
 10
50.39667081632607
 20
34.64835074936065
 10
50.38361713421399
 20
34.50900201994399
  0
LWPOLYLINE
  5
C9
330
70
100
AcDbEntity
  8
Camada 1
 62
   250
420
  1907995
370
    15
100
AcDbPolyline
 90
       32
 70
     1
 43
0.0
 10
51.00570448553959
 20
34.36895081402604
 10
51.01840289217975
 20
34.54745520681724
 10
51.06955717717402
 20
34.71220344099508
 10
51.15810151410663
 20
34.8642505770519
 10
51.27240332275319
 20
35.00430178296985
 10
51.41210194468007
 20
35.11789573215342
 10
51.56450435620881
 20
35.19444952190886
 10
51.72959979141602
 20
35.2452485314312
 10
51.90775429169701
 20
35.2710033116643
 10
52.08484834852392
 20
35.2452485314312
 10
52.25065433467497
 20
35.19444952190886
 10
52.40270147073179
 20
35.11789573215342
 10
52.54205020014845
 20
35.00430178296985
 10
52.65670190130522
 20
34.8642505770519
 10
52.73290310706959
 20
34.71220344099508
 10
52.78370211659194
 20
34.54745520681724
 10
52.80874903736204
 20
34.36895081402604
 10
52.78370211659194
 20
34.19114889773612
 10
52.73290310706959
 20
34.02640335503914
 10
52.65670190130522
 20
33.87435621898231
 10
52.54205020014845
 20
33.73465490557459
 10
52.40270147073179
 20
33.62035578840888
 10
52.25065433467497
 20
33.54380199865344
 10
52.08484834852392
 20
33.48030189101008
 10
51.90775429169701
 20
33.467248208898
 10
51.72959979141602
 20
33.48030189101008
 10
51.56450435620881
 20
33.54380199865344
 10
51.41210194468007
 20
33.62035578840888
 10
51.27240332275319
 20
33.73465490557459
 10
51.15810151410663
 20
33.87435621898231
 10
51.06955717717402
 20
34.02640335503914
 10
51.01840289217975
 20
34.19114889773612
  0
LINE
  5
CA
330
70
100
AcDbEntity
  8
Camada 1
 62
   250
420
  1907995
370
    15
100
AcDbLine
 10
52.08520362399585
 20
44.32599808326529
 30
0.0
 11
51.72959979141602
 21
44.32599808326529
 31
0.0
  0
LINE
  5
CB
330
70
100
AcDbEntity
  8
Camada 1
 62
   250
420
  1907995
370
    15
100
AcDbLine
 10
52.08520362399585
 20
24.41261140424977
 30
0.0
 11
51.72959979141602
 21
24.41261140424977
 31
0.0
  0
LINE
  5
CC
330
70
100
AcDbEntity
  8
Camada 1
 62
   250
420
  1907995
370
    15
100
AcDbLine
 10
84.20209551931405
 20
34.15336858107483
 30
0.0
 11
84.20209551931405
 21
34.5086144467019
 31
0.0
  0
LINE
  5
CD
330
70
100
AcDbEntity
  8
Camada 1
 62
   250
420
  1907995
370
    15
100
AcDbLine
 10
52.08520362399585
 20
49.74843842004444
 30
0.0
 11
51.72959979141602
 21
49.74843842004444
 31
0.0
  0
LINE
  5
CE
330
70
100
AcDbEntity
  8
Camada 1
 62
   250
420
  1907995
370
     9
100
AcDbLine
 10
84.24950864592981
 20
34.8765291126798
 30
0.0
 11
84.24950864592981
 21
35.40569577921417
 31
0.0
  0
LINE
  5
CF
330
70
100
AcDbEntity
  8
Camada 1
 62
   250
420
  1907995
370
     9
100
AcDbLine
 10
51.30087380716176
 20
49.76463036882512
 30
0.0
 11
51.83004047369614
 21
49.76463036882512
 31
0.0
  0
ENDSEC
  0
SECTION
  2
OBJECTS
  0
DICTIONARY
  5
C
330
0
100
AcDbDictionary
281
     1
  3
ACAD_COLOR
350
63
  3
ACAD_DETAILVIEWSTYLE
350
6A
  3
ACAD_GROUP
350
D
  3
ACAD_LAYOUT
350
62
  3
ACAD_MATERIAL
350
10
  3
ACAD_MLEADERSTYLE
350
66
  3
ACAD_MLINESTYLE
350
5F
  3
ACAD_PLOTSETTINGS
350
61
  3
ACAD_PLOTSTYLENAME
350
E
  3
ACAD_SCALELIST
350
42
  3
ACAD_SECTIONVIEWSTYLE
350
68
  3
ACAD_TABLESTYLE
350
64
  3
ACAD_VISUALSTYLE
350
29
  3
ACDB_RECOMPOSE_DATA
350
D8
  3
AcDbVariableDictionary
350
D0
  0
DICTIONARY
  5
63
102
{ACAD_REACTORS
330
C
102
}
330
C
100
AcDbDictionary
281
     1
  0
DICTIONARY
  5
6A
102
{ACAD_REACTORS
330
C
102
}
330
C
100
AcDbDictionary
281
     1
  3
Imperial24
350
6B
  0
DICTIONARY
  5
D
102
{ACAD_REACTORS
330
C
102
}
330
C
100
AcDbDictionary
281
     1
  0
DICTIONARY
  5
62
102
{ACAD_REACTORS
330
C
102
}
330
C
100
AcDbDictionary
281
     1
  3
Layout1
350
6F
  3
Layout2
350
77
  3
Model
350
73
  0
DICTIONARY
  5
10
102
{ACAD_REACTORS
330
C
102
}
330
C
100
AcDbDictionary
281
     1
  3
ByBlock
350
19
  3
ByLayer
350
11
  3
Global
350
21
  0
DICTIONARY
  5
66
102
{ACAD_REACTORS
330
C
102
}
330
C
100
AcDbDictionary
281
     1
  3
Standard
350
67
  0
DICTIONARY
  5
5F
102
{ACAD_REACTORS
330
C
102
}
330
C
100
AcDbDictionary
281
     1
  3
Standard
350
60
  0
DICTIONARY
  5
61
102
{ACAD_REACTORS
330
C
102
}
330
C
100
AcDbDictionary
281
     1
  0
ACDBDICTIONARYWDFLT
  5
E
102
{ACAD_REACTORS
330
C
102
}
330
C
100
AcDbDictionary
281
     1
  3
Normal
350
F
100
AcDbDictionaryWithDefault
340
F
  0
DICTIONARY
  5
42
102
{ACAD_REACTORS
330
C
102
}
330
C
100
AcDbDictionary
281
     1
  3
A0
350
43
  3
A1
350
44
  3
A2
350
45
  3
A3
350
46
  3
A4
350
47
  3
A5
350
48
  3
A6
350
49
  3
A7
350
4A
  3
A8
350
4B
  3
A9
350
4C
  3
B0
350
4D
  3
B1
350
4E
  3
B2
350
4F
  3
B3
350
50
  3
B4
350
51
  3
B5
350
52
  3
B6
350
53
  0
DICTIONARY
  5
68
102
{ACAD_REACTORS
330
C
102
}
330
C
100
AcDbDictionary
281
     1
  3
Imperial24
350
69
  0
DICTIONARY
  5
64
102
{ACAD_REACTORS
330
C
102
}
330
C
100
AcDbDictionary
281
     1
  3
Standard
350
65
  0
DICTIONARY
  5
29
102
{ACAD_REACTORS
330
C
102
}
330
C
100
AcDbDictionary
281
     1
  3
2dWireframe
350
2F
  3
Basic
350
2E
  3
Brighten
350
35
  3
ColorChange
350
39
  3
Conceptual
350
32
  3
Dim
350
34
  3
EdgeColorOff
350
41
  3
Facepattern
350
38
  3
Flat
350
2A
  3
FlatWithEdges
350
2B
  3
Gouraud
350
2C
  3
GouraudWithEdges
350
2D
  3
Hidden
350
31
  3
JitterOff
350
3F
  3
Linepattern
350
37
  3
OverhangOff
350
40
  3
Realistic
350
33
  3
Shaded
350
3E
  3
Shaded with edges
350
3D
  3
Shades of Gray
350
3A
  3
Sketchy
350
3B
  3
Thicken
350
36
  3
Wireframe
350
30
  3
X-Ray
350
3C
  0
XRECORD
  5
D8
102
{ACAD_REACTORS
330
C
102
}
330
C
100
AcDbXrecord
280
     1
 90
        1
330
65
  0
DICTIONARY
  5
D0
102
{ACAD_REACTORS
330
C
102
}
330
C
100
AcDbDictionary
281
     1
  3
CANNOSCALE
350
D5
  3
CMLEADERSTYLE
350
D2
  3
CTABLESTYLE
350
D1
  3
CVIEWDETAILSTYLE
350
D3
  3
CVIEWSECTIONSTYLE
350
D4
  0
ACDBDETAILVIEWSTYLE
  5
6B
102
{ACAD_REACTORS
330
6A
102
}
330
6A
100
AcDbModelDocViewStyle
 70
     0
  3
Imperial24
290
     1
300
Imperial24
 90
        0
100
AcDbDetailViewStyle
 70
     0
 71
     0
 90
        3
 71
     1
340
55
 62
   256
 40
0.24
340
0
 62
   256
 40
0.24
300

 40
0.36
280
     3
 71
     2
340
5D
 90
       25
 62
   256
 71
     3
340
55
 62
   256
 40
0.24
 90
        1
 40
0.75
 90
        1
300
%<\AcVar ViewType \f "%tc1">% %<\AcVar ViewDetailId>%\PSCALE %<\AcVar ViewScale \f "%sn">%
 71
     4
340
5D
 90
       25
 62
   256
340
5D
 90
       25
 62
   256
280
     0
  0
LAYOUT
  5
6F
102
{ACAD_REACTORS
330
62
102
}
330
62
100
AcDbPlotSettings
  1

  2

  4

  6

 40
0.0
 41
0.0
 42
0.0
 43
0.0
 44
0.0
 45
0.0
 46
0.0
 47
0.0
 48
0.0
 49
0.0
140
0.0
141
0.0
142
1.0
143
1.0
 70
   688
 72
     0
 73
     0
 74
     5
  7

 75
    16
147
1.0
 76
     0
 77
     2
 78
   300
148
0.0
149
0.0
100
AcDbLayout
  1
Layout1
 70
     1
 71
     1
 10
0.0
 20
0.0
 11
12.0
 21
9.0
 12
0.0
 22
0.0
 32
0.0
 14
0.0
 24
0.0
 34
0.0
 15
0.0
 25
0.0
 35
0.0
146
0.0
 13
0.0
 23
0.0
 33
0.0
 16
1.0
 26
0.0
 36
0.0
 17
0.0
 27
1.0
 37
0.0
 76
     0
330
6C
  0
LAYOUT
  5
77
102
{ACAD_REACTORS
330
62
102
}
330
62
100
AcDbPlotSettings
  1

  2

  4

  6

 40
0.0
 41
0.0
 42
0.0
 43
0.0
 44
0.0
 45
0.0
 46
0.0
 47
0.0
 48
0.0
 49
0.0
140
0.0
141
0.0
142
1.0
143
1.0
 70
   688
 72
     0
 73
     0
 74
     5
  7

 75
    16
147
1.0
 76
     0
 77
     2
 78
   300
148
0.0
149
0.0
100
AcDbLayout
  1
Layout2
 70
     1
 71
     2
 10
0.0
 20
0.0
 11
12.0
 21
9.0
 12
0.0
 22
0.0
 32
0.0
 14
0.0
 24
0.0
 34
0.0
 15
0.0
 25
0.0
 35
0.0
146
0.0
 13
0.0
 23
0.0
 33
0.0
 16
1.0
 26
0.0
 36
0.0
 17
0.0
 27
1.0
 37
0.0
 76
     0
330
74
  0
LAYOUT
  5
73
102
{ACAD_REACTORS
330
62
102
}
330
62
100
AcDbPlotSettings
  1

  2

  4

  6

 40
0.0
 41
0.0
 42
0.0
 43
0.0
 44
0.0
 45
0.0
 46
0.0
 47
0.0
 48
0.0
 49
0.0
140
0.0
141
0.0
142
1.0
143
1.0
 70
  1712
 72
     0
 73
     0
 74
     0
  7

 75
     0
147
1.0
 76
     0
 77
     2
 78
   300
148
0.0
149
0.0
100
AcDbLayout
  1
Model
 70
     1
 71
     0
 10
0.0
 20
0.0
 11
12.0
 21
9.0
 12
0.0
 22
0.0
 32
0.0
 14
0.0
 24
0.0
 34
0.0
 15
0.0
 25
0.0
 35
0.0
146
0.0
 13
0.0
 23
0.0
 33
0.0
 16
1.0
 26
0.0
 36
0.0
 17
0.0
 27
1.0
 37
0.0
 76
     0
330
70
  0
MATERIAL
  5
19
102
{ACAD_XDICTIONARY
360
1A
102
}
102
{ACAD_REACTORS
330
10
102
}
330
10
100
AcDbMaterial
  1
ByBlock
 72
     0
 43
0.0208333333333333
 43
0.0
 43
0.0
 43
0.0
 43
0.0
 43
0.0208333333333333
 43
0.0
 43
0.0
 43
0.0
 43
0.0
 43
1.0
 43
0.0
 43
0.0
 43
0.0
 43
0.0
 43
1.0
 77
     0
 47
0.0208333333333333
 47
0.0
 47
0.0
 47
0.0
 47
0.0
 47
0.0208333333333333
 47
0.0
 47
0.0
 47
0.0
 47
0.0
 47
1.0
 47
0.0
 47
0.0
 47
0.0
 47
0.0
 47
1.0
171
     0
 49
0.0208333333333333
 49
0.0
 49
0.0
 49
0.0
 49
0.0
 49
0.0208333333333333
 49
0.0
 49
0.0
 49
0.0
 49
0.0
 49
1.0
 49
0.0
 49
0.0
 49
0.0
 49
0.0
 49
1.0
175
     0
142
0.0208333333333333
142
0.0
142
0.0
142
0.0
142
0.0
142
0.0208333333333333
142
0.0
142
0.0
142
0.0
142
0.0
142
1.0
142
0.0
142
0.0
142
0.0
142
0.0
142
1.0
179
     0
144
0.0208333333333333
144
0.0
144
0.0
144
0.0
144
0.0
144
0.0208333333333333
144
0.0
144
0.0
144
0.0
144
0.0
144
1.0
144
0.0
144
0.0
144
0.0
144
0.0
144
1.0
147
0.0208333333333333
147
0.0
147
0.0
147
0.0
147
0.0
147
0.0208333333333333
147
0.0
147
0.0
147
0.0
147
0.0
147
1.0
147
0.0
147
0.0
147
0.0
147
0.0
147
1.0
  0
MATERIAL
  5
11
102
{ACAD_XDICTIONARY
360
12
102
}
102
{ACAD_REACTORS
330
10
102
}
330
10
100
AcDbMaterial
  1
ByLayer
 72
     0
 43
0.0208333333333333
 43
0.0
 43
0.0
 43
0.0
 43
0.0
 43
0.0208333333333333
 43
0.0
 43
0.0
 43
0.0
 43
0.0
 43
1.0
 43
0.0
 43
0.0
 43
0.0
 43
0.0
 43
1.0
 77
     0
 47
0.0208333333333333
 47
0.0
 47
0.0
 47
0.0
 47
0.0
 47
0.0208333333333333
 47
0.0
 47
0.0
 47
0.0
 47
0.0
 47
1.0
 47
0.0
 47
0.0
 47
0.0
 47
0.0
 47
1.0
171
     0
 49
0.0208333333333333
 49
0.0
 49
0.0
 49
0.0
 49
0.0
 49
0.0208333333333333
 49
0.0
 49
0.0
 49
0.0
 49
0.0
 49
1.0
 49
0.0
 49
0.0
 49
0.0
 49
0.0
 49
1.0
175
     0
142
0.0208333333333333
142
0.0
142
0.0
142
0.0
142
0.0
142
0.0208333333333333
142
0.0
142
0.0
142
0.0
142
0.0
142
1.0
142
0.0
142
0.0
142
0.0
142
0.0
142
1.0
179
     0
144
0.0208333333333333
144
0.0
144
0.0
144
0.0
144
0.0
144
0.0208333333333333
144
0.0
144
0.0
144
0.0
144
0.0
144
1.0
144
0.0
144
0.0
144
0.0
144
0.0
144
1.0
147
0.0208333333333333
147
0.0
147
0.0
147
0.0
147
0.0
147
0.0208333333333333
147
0.0
147
0.0
147
0.0
147
0.0
147
1.0
147
0.0
147
0.0
147
0.0
147
0.0
147
1.0
  0
MATERIAL
  5
21
102
{ACAD_XDICTIONARY
360
22
102
}
102
{ACAD_REACTORS
330
10
102
}
330
10
100
AcDbMaterial
  1
Global
 72
     0
 43
0.0208333333333333
 43
0.0
 43
0.0
 43
0.0
 43
0.0
 43
0.0208333333333333
 43
0.0
 43
0.0
 43
0.0
 43
0.0
 43
1.0
 43
0.0
 43
0.0
 43
0.0
 43
0.0
 43
1.0
 77
     0
 47
0.0208333333333333
 47
0.0
 47
0.0
 47
0.0
 47
0.0
 47
0.0208333333333333
 47
0.0
 47
0.0
 47
0.0
 47
0.0
 47
1.0
 47
0.0
 47
0.0
 47
0.0
 47
0.0
 47
1.0
171
     0
 49
0.0208333333333333
 49
0.0
 49
0.0
 49
0.0
 49
0.0
 49
0.0208333333333333
 49
0.0
 49
0.0
 49
0.0
 49
0.0
 49
1.0
 49
0.0
 49
0.0
 49
0.0
 49
0.0
 49
1.0
175
     0
142
0.0208333333333333
142
0.0
142
0.0
142
0.0
142
0.0
142
0.0208333333333333
142
0.0
142
0.0
142
0.0
142
0.0
142
1.0
142
0.0
142
0.0
142
0.0
142
0.0
142
1.0
179
     0
144
0.0208333333333333
144
0.0
144
0.0
144
0.0
144
0.0
144
0.0208333333333333
144
0.0
144
0.0
144
0.0
144
0.0
144
1.0
144
0.0
144
0.0
144
0.0
144
0.0
144
1.0
147
0.0208333333333333
147
0.0
147
0.0
147
0.0
147
0.0
147
0.0208333333333333
147
0.0
147
0.0
147
0.0
147
0.0
147
1.0
147
0.0
147
0.0
147
0.0
147
0.0
147
1.0
  0
MLEADERSTYLE
  5
67
102
{ACAD_REACTORS
330
66
102
}
330
66
100
AcDbMLeaderStyle
179
     2
170
     2
171
     1
172
     0
 90
        2
 40
0.0
 41
0.0
173
     1
 91
-1056964608
340
5B
 92
       -2
290
     1
 42
0.09
291
     1
 43
0.36
  3
Standard
 44
0.18
300

342
55
174
     1
178
     6
175
     1
176
     0
 93
-1056964608
 45
0.18
292
     0
297
     0
 46
0.18
 94
-1056964608
 47
1.0
 49
1.0
140
1.0
293
     1
141
0.0
294
     1
177
     0
142
1.0
295
     1
296
     0
143
0.125
271
     0
272
     9
273
     9
298
     1
  0
MLINESTYLE
  5
60
102
{ACAD_REACTORS
330
5F
102
}
330
5F
100
AcDbMlineStyle
  2
STANDARD
 70
     0
  3

 62
   256
 51
90.0
 52
90.0
 71
     2
 49
0.5
 62
   256
  6
BYLAYER
 49
-0.5
 62
   256
  6
BYLAYER
  0
ACDBPLACEHOLDER
  5
F
102
{ACAD_REACTORS
330
E
102
}
330
E
  0
SCALE
  5
43
102
{ACAD_REACTORS
330
42
102
}
330
42
100
AcDbScale
 70
     0
300
1:1
140
1.0
141
1.0
290
     1
  0
SCALE
  5
44
102
{ACAD_REACTORS
330
42
102
}
330
42
100
AcDbScale
 70
     0
300
1/128" = 1'-0"
140
0.0078125
141
12.0
290
     0
  0
SCALE
  5
45
102
{ACAD_REACTORS
330
42
102
}
330
42
100
AcDbScale
 70
     0
300
1/64" = 1'-0"
140
0.015625
141
12.0
290
     0
  0
SCALE
  5
46
102
{ACAD_REACTORS
330
42
102
}
330
42
100
AcDbScale
 70
     0
300
1/32" = 1'-0"
140
0.03125
141
12.0
290
     0
  0
SCALE
  5
47
102
{ACAD_REACTORS
330
42
102
}
330
42
100
AcDbScale
 70
     0
300
1/16" = 1'-0"
140
0.0625
141
12.0
290
     0
  0
SCALE
  5
48
102
{ACAD_REACTORS
330
42
102
}
330
42
100
AcDbScale
 70
     0
300
3/32" = 1'-0"
140
0.09375
141
12.0
290
     0
  0
SCALE
  5
49
102
{ACAD_REACTORS
330
42
102
}
330
42
100
AcDbScale
 70
     0
300
1/8" = 1'-0"
140
0.125
141
12.0
290
     0
  0
SCALE
  5
4A
102
{ACAD_REACTORS
330
42
102
}
330
42
100
AcDbScale
 70
     0
300
3/16" = 1'-0"
140
0.1875
141
12.0
290
     0
  0
SCALE
  5
4B
102
{ACAD_REACTORS
330
42
102
}
330
42
100
AcDbScale
 70
     0
300
1/4" = 1'-0"
140
0.25
141
12.0
290
     0
  0
SCALE
  5
4C
102
{ACAD_REACTORS
330
42
102
}
330
42
100
AcDbScale
 70
     0
300
3/8" = 1'-0"
140
0.375
141
12.0
290
     0
  0
SCALE
  5
4D
102
{ACAD_REACTORS
330
42
102
}
330
42
100
AcDbScale
 70
     0
300
1/2" = 1'-0"
140
0.5
141
12.0
290
     0
  0
SCALE
  5
4E
102
{ACAD_REACTORS
330
42
102
}
330
42
100
AcDbScale
 70
     0
300
3/4" = 1'-0"
140
0.75
141
12.0
290
     0
  0
SCALE
  5
4F
102
{ACAD_REACTORS
330
42
102
}
330
42
100
AcDbScale
 70
     0
300
1" = 1'-0"
140
1.0
141
12.0
290
     0
  0
SCALE
  5
50
102
{ACAD_REACTORS
330
42
102
}
330
42
100
AcDbScale
 70
     0
300
1-1/2" = 1'-0"
140
1.5
141
12.0
290
     0
  0
SCALE
  5
51
102
{ACAD_REACTORS
330
42
102
}
330
42
100
AcDbScale
 70
     0
300
3" = 1'-0"
140
3.0
141
12.0
290
     0
  0
SCALE
  5
52
102
{ACAD_REACTORS
330
42
102
}
330
42
100
AcDbScale
 70
     0
300
6" = 1'-0"
140
6.0
141
12.0
290
     0
  0
SCALE
  5
53
102
{ACAD_REACTORS
330
42
102
}
330
42
100
AcDbScale
 70
     0
300
1'-0" = 1'-0"
140
12.0
141
12.0
290
     0
  0
ACDBSECTIONVIEWSTYLE
  5
69
102
{ACAD_REACTORS
330
68
102
}
330
68
100
AcDbModelDocViewStyle
 70
     0
  3
Imperial24
290
     1
300
Imperial24
 90
        0
100
AcDbSectionViewStyle
 70
     0
 71
     0
 90
       78
 71
     1
340
55
 62
   256
 40
0.24
340
0
340
0
 62
   256
 40
0.24
300
I, O, Q, S, X, Z
 40
0.48
 90
        3
 40
0.18
 90
        1
 71
     2
340
5D
 90
       25
 62
   256
340
5D
 90
       50
 62
   256
 40
0.24
 40
0.0
 40
0.24
 71
     3
340
55
 62
   256
 40
0.24
 90
        1
 40
0.75
 90
        1
300
%<\AcVar ViewType \f "%tc1">% %<\AcVar ViewSectionStartId>%-%<\AcVar ViewSectionEndId>%\PSCALE %<\AcVar ViewScale \f "%sn">%
 71
     4
 62
   256
 62
   257
300
ANSI31
 40
1.0
 90
        0
290
     0
290
     0
 90
        6
 40
0.0
 40
1.570796326794896
 40
0.2617993877991494
 40
1.308996938995747
 40
-0.2617993877991494
 40
1.832595714594046
  0
TABLESTYLE
  5
65
102
{ACAD_XDICTIONARY
360
D6
102
}
102
{ACAD_REACTORS
330
64
102
}
330
64
100
AcDbTableStyle
280
     0
  3
Standard
 70
     0
 71
     0
 40
0.06
 41
0.06
280
     0
281
     0
  7
Standard
140
0.18
170
     2
 62
     0
 63
     7
283
     0
 90
      512
 91
        0
  1

274
    -2
284
     1
 64
     0
275
    -2
285
     1
 65
     0
276
    -2
286
     1
 66
     0
277
    -2
287
     1
 67
     0
278
    -2
288
     1
 68
     0
279
    -2
289
     1
 69
     0
  7
Standard
140
0.25
170
     5
 62
     0
 63
     7
283
     0
 90
      512
 91
        0
  1

274
    -2
284
     1
 64
     0
275
    -2
285
     1
 65
     0
276
    -2
286
     1
 66
     0
277
    -2
287
     1
 67
     0
278
    -2
288
     1
 68
     0
279
    -2
289
     1
 69
     0
  7
Standard
140
0.18
170
     5
 62
     0
 63
     7
283
     0
 90
      512
 91
        0
  1

274
    -2
284
     1
 64
     0
275
    -2
285
     1
 65
     0
276
    -2
286
     1
 66
     0
277
    -2
287
     1
 67
     0
278
    -2
288
     1
 68
     0
279
    -2
289
     1
 69
     0
  0
VISUALSTYLE
  5
2F
102
{ACAD_REACTORS
330
29
102
}
330
29
100
AcDbVisualStyle
  2
2dWireframe
 70
     4
177
     3
291
     0
 70
    58
 90
        0
176
     1
 90
        2
176
     1
 90
        0
176
     1
 90
        0
176
     1
 40
0.6
176
     1
 40
30.0
176
     1
 62
     7
420
 16777215
176
     1
 90
        1
176
     1
 90
        4
176
     1
 62
     7
176
     1
 62
   257
176
     1
 90
        1
176
     1
 90
        1
176
     1
 40
1.0
176
     1
 90
        0
176
     1
 62
   257
176
     1
 40
1.0
176
     1
 90
        1
176
     1
 90
        6
176
     1
 90
        2
176
     1
 62
     7
176
     1
 90
        5
176
     1
 90
        0
176
     1
 90
        0
176
     1
290
     0
176
     1
 90
        1
176
     1
 40
0.0
176
     1
 90
        0
176
     1
290
     1
176
     1
290
     1
176
     1
290
     0
176
     1
290
     0
176
     1
290
     0
176
     1
290
     0
176
     1
290
     0
176
     1
290
     0
176
     1
290
     0
176
     1
 90
       50
176
     1
 40
0.0
176
     1
 40
1.0
176
     1
 90
        0
176
     1
 62
    18
420
        0
176
     1
 90
       50
176
     1
 90
        3
176
     1
 62
     5
420
      255
176
     1
290
     0
176
     1
 90
       50
176
     1
 90
       50
176
     1
 90
       50
176
     1
290
     0
176
     1
 90
       50
176
     1
 62
   256
176
     0
 40
1.0
176
     0
 90
        2
176
     1
  1
strokes_ogs.tif
176
     1
290
     0
176
     1
 40
1.0
176
     1
 40
1.0
176
     1
  0
VISUALSTYLE
  5
2E
102
{ACAD_REACTORS
330
29
102
}
330
29
100
AcDbVisualStyle
  2
Basic
 70
     7
177
     3
291
     1
 70
    58
 90
        1
176
     1
 90
        0
176
     1
 90
        1
176
     1
 90
        0
176
     1
 40
0.6
176
     1
 40
30.0
176
     1
 62
     7
420
 16777215
176
     1
 90
        0
176
     1
 90
        4
176
     1
 62
     7
176
     1
 62
   257
176
     1
 90
        1
176
     1
 90
        1
176
     1
 40
1.0
176
     1
 90
        8
176
     1
 62
     7
176
     1
 40
1.0
176
     1
 90
        1
176
     1
 90
        6
176
     1
 90
        2
176
     1
 62
     7
176
     1
 90
        5
176
     1
 90
        0
176
     1
 90
        0
176
     1
290
     0
176
     1
 90
        1
176
     1
 40
0.0
176
     1
 90
        0
176
     1
290
     0
176
     1
290
     1
176
     1
290
     1
176
     1
290
     0
176
     1
290
     0
176
     1
290
     0
176
     1
290
     0
176
     1
290
     0
176
     1
290
     0
176
     1
 90
       50
176
     1
 40
0.0
176
     1
 40
1.0
176
     1
 90
        0
176
     1
 62
    18
420
        0
176
     1
 90
       50
176
     1
 90
        3
176
     1
 62
     5
420
      255
176
     1
290
     0
176
     1
 90
       50
176
     1
 90
       50
176
     1
 90
       50
176
     1
290
     0
176
     1
 90
       50
176
     1
 62
   256
176
     0
 40
1.0
176
     0
 90
        2
176
     1
  1
strokes_ogs.tif
176
     1
290
     0
176
     1
 40
1.0
176
     1
 40
1.0
176
     1
  0
VISUALSTYLE
  5
35
102
{ACAD_REACTORS
330
29
102
}
330
29
100
AcDbVisualStyle
  2
Brighten
 70
    12
177
     3
291
     1
 70
    58
 90
        2
176
     1
 90
        2
176
     1
 90
        0
176
     1
 90
        0
176
     1
 40
0.6
176
     1
 40
30.0
176
     1
 62
     7
420
 16777215
176
     1
 90
        1
176
     1
 90
        4
176
     1
 62
     7
176
     1
 62
   257
176
     1
 90
        1
176
     1
 90
        1
176
     1
 40
1.0
176
     1
 90
        8
176
     1
 62
     7
176
     1
 40
1.0
176
     1
 90
        1
176
     1
 90
        6
176
     1
 90
        2
176
     1
 62
     7
176
     1
 90
        5
176
     1
 90
        0
176
     1
 90
        0
176
     1
290
     0
176
     1
 90
        1
176
     1
 40
50.0
176
     1
 90
        0
176
     1
290
     0
176
     1
290
     1
176
     1
290
     1
176
     1
290
     0
176
     1
290
     0
176
     1
290
     0
176
     1
290
     0
176
     1
290
     0
176
     1
290
     0
176
     1
 90
       50
176
     1
 40
0.0
176
     1
 40
1.0
176
     1
 90
        0
176
     1
 62
    18
420
        0
176
     1
 90
       50
176
     1
 90
        3
176
     1
 62
     5
420
      255
176
     1
290
     0
176
     1
 90
       50
176
     1
 90
       50
176
     1
 90
       50
176
     1
290
     0
176
     1
 90
       50
176
     1
 62
   256
176
     0
 40
1.0
176
     0
 90
        2
176
     1
  1
strokes_ogs.tif
176
     1
290
     0
176
     1
 40
1.0
176
     1
 40
1.0
176
     1
  0
VISUALSTYLE
  5
39
102
{ACAD_REACTORS
330
29
102
}
330
29
100
AcDbVisualStyle
  2
ColorChange
 70
    16
177
     3
291
     1
 70
    58
 90
        2
176
     1
 90
        2
176
     1
 90
        3
176
     1
 90
        0
176
     1
 40
0.6
176
     1
 40
30.0
176
     1
 62
     8
420
  8421504
176
     1
 90
        1
176
     1
 90
        4
176
     1
 62
     7
176
     1
 62
   257
176
     1
 90
        1
176
     1
 90
        1
176
     1
 40
1.0
176
     1
 90
        8
176
     1
 62
     8
420
  8421504
176
     1
 40
1.0
176
     1
 90
        1
176
     1
 90
        6
176
     1
 90
        2
176
     1
 62
     7
176
     1
 90
        5
176
     1
 90
        0
176
     1
 90
        0
176
     1
290
     0
176
     1
 90
        1
176
     1
 40
0.0
176
     1
 90
        0
176
     1
290
     0
176
     1
290
     1
176
     1
290
     1
176
     1
290
     0
176
     1
290
     0
176
     1
290
     0
176
     1
290
     0
176
     1
290
     0
176
     1
290
     0
176
     1
 90
       50
176
     1
 40
0.0
176
     1
 40
1.0
176
     1
 90
        0
176
     1
 62
    18
420
        0
176
     1
 90
       50
176
     1
 90
        3
176
     1
 62
     5
420
      255
176
     1
290
     0
176
     1
 90
       50
176
     1
 90
       50
176
     1
 90
       50
176
     1
290
     0
176
     1
 90
       50
176
     1
 62
   256
176
     0
 40
1.0
176
     0
 90
        2
176
     1
  1
strokes_ogs.tif
176
     1
290
     0
176
     1
 40
1.0
176
     1
 40
1.0
176
     1
  0
VISUALSTYLE
  5
32
102
{ACAD_REACTORS
330
29
102
}
330
29
100
AcDbVisualStyle
  2
Conceptual
 70
     9
177
     3
291
     0
 70
    58
 90
        3
176
     1
 90
        2
176
     1
 90
        0
176
     1
 90
        0
176
     1
 40
0.6
176
     1
 40
30.0
176
     1
 62
     7
420
 16777215
176
     1
 90
        2
176
     1
 90
        2
176
     1
 62
     7
176
     1
 62
   257
176
     1
 90
        1
176
     1
 90
        1
176
     1
 40
179.0
176
     1
 90
        8
176
     1
 62
     7
176
     1
 40
1.0
176
     1
 90
        1
176
     1
 90
        6
176
     1
 90
        2
176
     1
 62
     7
176
     1
 90
        3
176
     1
 90
        0
176
     1
 90
        0
176
     1
290
     0
176
     1
 90
        1
176
     1
 40
0.0
176
     1
 90
        0
176
     1
290
     0
176
     1
290
     1
176
     1
290
     1
176
     1
290
     0
176
     1
290
     0
176
     1
290
     0
176
     1
290
     0
176
     1
290
     0
176
     1
290
     0
176
     1
 90
       50
176
     1
 40
0.0
176
     1
 40
1.0
176
     1
 90
        0
176
     1
 62
    18
420
        0
176
     1
 90
       50
176
     1
 90
        3
176
     1
 62
     5
420
      255
176
     1
290
     0
176
     1
 90
       50
176
     1
 90
       50
176
     1
 90
       50
176
     1
290
     0
176
     1
 90
       50
176
     1
 62
   256
176
     0
 40
1.0
176
     0
 90
        2
176
     1
  1
strokes_ogs.tif
176
     1
290
     0
176
     1
 40
1.0
176
     1
 40
1.0
176
     1
  0
VISUALSTYLE
  5
34
102
{ACAD_REACTORS
330
29
102
}
330
29
100
AcDbVisualStyle
  2
Dim
 70
    11
177
     3
291
     1
 70
    58
 90
        2
176
     1
 90
        2
176
     1
 90
        0
176
     1
 90
        0
176
     1
 40
0.6
176
     1
 40
30.0
176
     1
 62
     7
420
 16777215
176
     1
 90
        1
176
     1
 90
        4
176
     1
 62
     7
176
     1
 62
   257
176
     1
 90
        1
176
     1
 90
        1
176
     1
 40
1.0
176
     1
 90
        8
176
     1
 62
     7
176
     1
 40
1.0
176
     1
 90
        1
176
     1
 90
        6
176
     1
 90
        2
176
     1
 62
     7
176
     1
 90
        5
176
     1
 90
        0
176
     1
 90
        0
176
     1
290
     0
176
     1
 90
        1
176
     1
 40
-50.0
176
     1
 90
        0
176
     1
290
     0
176
     1
290
     1
176
     1
290
     1
176
     1
290
     0
176
     1
290
     0
176
     1
290
     0
176
     1
290
     0
176
     1
290
     0
176
     1
290
     0
176
     1
 90
       50
176
     1
 40
0.0
176
     1
 40
1.0
176
     1
 90
        0
176
     1
 62
    18
420
        0
176
     1
 90
       50
176
     1
 90
        3
176
     1
 62
     5
420
      255
176
     1
290
     0
176
     1
 90
       50
176
     1
 90
       50
176
     1
 90
       50
176
     1
290
     0
176
     1
 90
       50
176
     1
 62
   256
176
     0
 40
1.0
176
     0
 90
        2
176
     1
  1
strokes_ogs.tif
176
     1
290
     0
176
     1
 40
1.0
176
     1
 40
1.0
176
     1
  0
VISUALSTYLE
  5
41
102
{ACAD_REACTORS
330
29
102
}
330
29
100
AcDbVisualStyle
  2
EdgeColorOff
 70
    22
177
     3
291
     1
 70
    58
 90
        2
176
     0
 90
        2
176
     0
 90
        0
176
     0
 90
        0
176
     0
 40
0.6
176
     0
 40
30.0
176
     0
 62
     7
420
 16777215
176
     0
 90
        1
176
     0
 90
        4
176
     0
 62
     7
176
     0
 62
   257
176
     0
 90
        1
176
     0
 90
        1
176
     0
 40
1.0
176
     0
 90
        8
176
     2
 62
     7
176
     0
 40
1.0
176
     0
 90
        1
176
     0
 90
        6
176
     0
 90
        2
176
     0
 62
     7
176
     0
 90
        5
176
     0
 90
        0
176
     0
 90
        0
176
     0
290
     0
176
     0
 90
        1
176
     0
 40
0.0
176
     0
 90
        0
176
     0
290
     0
176
     0
290
     1
176
     0
290
     1
176
     0
290
     0
176
     0
290
     0
176
     0
290
     0
176
     0
290
     0
176
     0
290
     0
176
     0
290
     0
176
     0
 90
       50
176
     0
 40
0.0
176
     0
 40
1.0
176
     0
 90
        0
176
     0
 62
    18
420
        0
176
     0
 90
       50
176
     0
 90
        3
176
     0
 62
     5
420
      255
176
     0
290
     0
176
     0
 90
       50
176
     0
 90
       50
176
     0
 90
       50
176
     0
290
     0
176
     0
 90
       50
176
     0
 62
   256
176
     0
 40
1.0
176
     0
 90
        2
176
     0
  1
strokes_ogs.tif
176
     0
290
     0
176
     0
 40
1.0
176
     0
 40
1.0
176
     0
  0
VISUALSTYLE
  5
38
102
{ACAD_REACTORS
330
29
102
}
330
29
100
AcDbVisualStyle
  2
Facepattern
 70
    15
177
     3
291
     1
 70
    58
 90
        2
176
     1
 90
        2
176
     1
 90
        0
176
     1
 90
        0
176
     1
 40
0.6
176
     1
 40
30.0
176
     1
 62
     7
420
 16777215
176
     1
 90
        1
176
     1
 90
        4
176
     1
 62
     7
176
     1
 62
   257
176
     1
 90
        1
176
     1
 90
        1
176
     1
 40
1.0
176
     1
 90
        8
176
     1
 62
     7
176
     1
 40
1.0
176
     1
 90
        1
176
     1
 90
        6
176
     1
 90
        2
176
     1
 62
     7
176
     1
 90
        5
176
     1
 90
        0
176
     1
 90
        0
176
     1
290
     0
176
     1
 90
        1
176
     1
 40
0.0
176
     1
 90
        0
176
     1
290
     0
176
     1
290
     1
176
     1
290
     1
176
     1
290
     0
176
     1
290
     0
176
     1
290
     0
176
     1
290
     0
176
     1
290
     0
176
     1
290
     0
176
     1
 90
       50
176
     1
 40
0.0
176
     1
 40
1.0
176
     1
 90
        0
176
     1
 62
    18
420
        0
176
     1
 90
       50
176
     1
 90
        3
176
     1
 62
     5
420
      255
176
     1
290
     0
176
     1
 90
       50
176
     1
 90
       50
176
     1
 90
       50
176
     1
290
     0
176
     1
 90
       50
176
     1
 62
   256
176
     0
 40
1.0
176
     0
 90
        2
176
     1
  1
strokes_ogs.tif
176
     1
290
     0
176
     1
 40
1.0
176
     1
 40
1.0
176
     1
  0
VISUALSTYLE
  5
2A
102
{ACAD_REACTORS
330
29
102
}
330
29
100
AcDbVisualStyle
  2
Flat
 70
     0
177
     3
291
     1
 70
    58
 90
        2
176
     1
 90
        1
176
     1
 90
        1
176
     1
 90
        2
176
     1
 40
0.6
176
     1
 40
30.0
176
     1
 62
     7
420
 16777215
176
     1
 90
        0
176
     1
 90
        0
176
     1
 62
     7
176
     1
 62
   257
176
     1
 90
        1
176
     1
 90
        1
176
     1
 40
1.0
176
     1
 90
        8
176
     1
 62
     7
176
     1
 40
1.0
176
     1
 90
        1
176
     1
 90
        6
176
     1
 90
        2
176
     1
 62
     7
176
     1
 90
        5
176
     1
 90
        0
176
     1
 90
        0
176
     1
290
     0
176
     1
 90
       13
176
     1
 40
0.0
176
     1
 90
        0
176
     1
290
     0
176
     1
290
     1
176
     1
290
     1
176
     1
290
     0
176
     1
290
     0
176
     1
290
     0
176
     1
290
     0
176
     1
290
     0
176
     1
290
     0
176
     1
 90
       50
176
     1
 40
0.0
176
     1
 40
1.0
176
     1
 90
        0
176
     1
 62
    18
420
        0
176
     1
 90
       50
176
     1
 90
        3
176
     1
 62
     5
420
      255
176
     1
290
     0
176
     1
 90
       50
176
     1
 90
       50
176
     1
 90
       50
176
     1
290
     0
176
     1
 90
       50
176
     1
 62
   256
176
     0
 40
1.0
176
     0
 90
        2
176
     1
  1
strokes_ogs.tif
176
     1
290
     0
176
     1
 40
1.0
176
     1
 40
1.0
176
     1
  0
VISUALSTYLE
  5
2B
102
{ACAD_REACTORS
330
29
102
}
330
29
100
AcDbVisualStyle
  2
FlatWithEdges
 70
     1
177
     3
291
     1
 70
    58
 90
        2
176
     1
 90
        1
176
     1
 90
        1
176
     1
 90
        2
176
     1
 40
0.6
176
     1
 40
30.0
176
     1
 62
     7
420
 16777215
176
     1
 90
        1
176
     1
 90
        0
176
     1
 62
     7
176
     1
 62
   257
176
     1
 90
        1
176
     1
 90
        1
176
     1
 40
1.0
176
     1
 90
        0
176
     1
 62
   257
176
     1
 40
1.0
176
     1
 90
        1
176
     1
 90
        6
176
     1
 90
        2
176
     1
 62
     7
176
     1
 90
        5
176
     1
 90
        0
176
     1
 90
        0
176
     1
290
     0
176
     1
 90
       13
176
     1
 40
0.0
176
     1
 90
        0
176
     1
290
     0
176
     1
290
     1
176
     1
290
     1
176
     1
290
     0
176
     1
290
     0
176
     1
290
     0
176
     1
290
     0
176
     1
290
     0
176
     1
290
     0
176
     1
 90
       50
176
     1
 40
0.0
176
     1
 40
1.0
176
     1
 90
        0
176
     1
 62
    18
420
        0
176
     1
 90
       50
176
     1
 90
        3
176
     1
 62
     5
420
      255
176
     1
290
     0
176
     1
 90
       50
176
     1
 90
       50
176
     1
 90
       50
176
     1
290
     0
176
     1
 90
       50
176
     1
 62
   256
176
     0
 40
1.0
176
     0
 90
        2
176
     1
  1
strokes_ogs.tif
176
     1
290
     0
176
     1
 40
1.0
176
     1
 40
1.0
176
     1
  0
VISUALSTYLE
  5
2C
102
{ACAD_REACTORS
330
29
102
}
330
29
100
AcDbVisualStyle
  2
Gouraud
 70
     2
177
     3
291
     1
 70
    58
 90
        2
176
     1
 90
        2
176
     1
 90
        1
176
     1
 90
        2
176
     1
 40
0.6
176
     1
 40
30.0
176
     1
 62
     7
420
 16777215
176
     1
 90
        0
176
     1
 90
        0
176
     1
 62
     7
176
     1
 62
   257
176
     1
 90
        1
176
     1
 90
        1
176
     1
 40
1.0
176
     1
 90
        0
176
     1
 62
     7
176
     1
 40
1.0
176
     1
 90
        1
176
     1
 90
        6
176
     1
 90
        2
176
     1
 62
     7
176
     1
 90
        5
176
     1
 90
        0
176
     1
 90
        0
176
     1
290
     0
176
     1
 90
       13
176
     1
 40
0.0
176
     1
 90
        0
176
     1
290
     0
176
     1
290
     1
176
     1
290
     1
176
     1
290
     0
176
     1
290
     0
176
     1
290
     0
176
     1
290
     0
176
     1
290
     0
176
     1
290
     0
176
     1
 90
       50
176
     1
 40
0.0
176
     1
 40
1.0
176
     1
 90
        0
176
     1
 62
    18
420
        0
176
     1
 90
       50
176
     1
 90
        3
176
     1
 62
     5
420
      255
176
     1
290
     0
176
     1
 90
       50
176
     1
 90
       50
176
     1
 90
       50
176
     1
290
     0
176
     1
 90
       50
176
     1
 62
   256
176
     0
 40
1.0
176
     0
 90
        2
176
     1
  1
strokes_ogs.tif
176
     1
290
     0
176
     1
 40
1.0
176
     1
 40
1.0
176
     1
  0
VISUALSTYLE
  5
2D
102
{ACAD_REACTORS
330
29
102
}
330
29
100
AcDbVisualStyle
  2
GouraudWithEdges
 70
     3
177
     3
291
     1
 70
    58
 90
        2
176
     1
 90
        2
176
     1
 90
        1
176
     1
 90
        2
176
     1
 40
0.6
176
     1
 40
30.0
176
     1
 62
     7
420
 16777215
176
     1
 90
        1
176
     1
 90
        0
176
     1
 62
     7
176
     1
 62
   257
176
     1
 90
        1
176
     1
 90
        1
176
     1
 40
1.0
176
     1
 90
        0
176
     1
 62
   257
176
     1
 40
1.0
176
     1
 90
        1
176
     1
 90
        6
176
     1
 90
        2
176
     1
 62
     7
176
     1
 90
        5
176
     1
 90
        0
176
     1
 90
        0
176
     1
290
     0
176
     1
 90
       13
176
     1
 40
0.0
176
     1
 90
        0
176
     1
290
     0
176
     1
290
     1
176
     1
290
     1
176
     1
290
     0
176
     1
290
     0
176
     1
290
     0
176
     1
290
     0
176
     1
290
     0
176
     1
290
     0
176
     1
 90
       50
176
     1
 40
0.0
176
     1
 40
1.0
176
     1
 90
        0
176
     1
 62
    18
420
        0
176
     1
 90
       50
176
     1
 90
        3
176
     1
 62
     5
420
      255
176
     1
290
     0
176
     1
 90
       50
176
     1
 90
       50
176
     1
 90
       50
176
     1
290
     0
176
     1
 90
       50
176
     1
 62
   256
176
     0
 40
1.0
176
     0
 90
        2
176
     1
  1
strokes_ogs.tif
176
     1
290
     0
176
     1
 40
1.0
176
     1
 40
1.0
176
     1
  0
VISUALSTYLE
  5
31
102
{ACAD_REACTORS
330
29
102
}
330
29
100
AcDbVisualStyle
  2
Hidden
 70
     6
177
     3
291
     0
 70
    58
 90
        1
176
     1
 90
        2
176
     1
 90
        2
176
     1
 90
        0
176
     1
 40
0.6
176
     1
 40
30.0
176
     1
 62
     7
420
 16777215
176
     1
 90
        2
176
     1
 90
        2
176
     1
 62
     7
176
     1
 62
   257
176
     1
 90
        2
176
     1
 90
        1
176
     1
 40
40.0
176
     1
 90
        0
176
     1
 62
   257
176
     1
 40
1.0
176
     1
 90
        1
176
     1
 90
        6
176
     1
 90
        2
176
     1
 62
     7
176
     1
 90
        3
176
     1
 90
        0
176
     1
 90
        0
176
     1
290
     0
176
     1
 90
        1
176
     1
 40
0.0
176
     1
 90
        0
176
     1
290
     0
176
     1
290
     1
176
     1
290
     1
176
     1
290
     0
176
     1
290
     0
176
     1
290
     0
176
     1
290
     0
176
     1
290
     0
176
     1
290
     0
176
     1
 90
       50
176
     1
 40
0.0
176
     1
 40
1.0
176
     1
 90
        0
176
     1
 62
    18
420
        0
176
     1
 90
       50
176
     1
 90
        3
176
     1
 62
     5
420
      255
176
     1
290
     0
176
     1
 90
       50
176
     1
 90
       50
176
     1
 90
       50
176
     1
290
     0
176
     1
 90
       50
176
     1
 62
   256
176
     0
 40
1.0
176
     0
 90
        2
176
     1
  1
strokes_ogs.tif
176
     1
290
     0
176
     1
 40
1.0
176
     1
 40
1.0
176
     1
  0
VISUALSTYLE
  5
3F
102
{ACAD_REACTORS
330
29
102
}
330
29
100
AcDbVisualStyle
  2
JitterOff
 70
    20
177
     3
291
     1
 70
    58
 90
        2
176
     0
 90
        2
176
     0
 90
        0
176
     0
 90
        0
176
     0
 40
0.6
176
     0
 40
30.0
176
     0
 62
     7
420
 16777215
176
     0
 90
        1
176
     0
 90
        4
176
     0
 62
     7
176
     0
 62
   257
176
     0
 90
        1
176
     0
 90
        1
176
     0
 40
1.0
176
     0
 90
       10
176
     2
 62
     7
176
     0
 40
1.0
176
     0
 90
        1
176
     0
 90
        6
176
     0
 90
        2
176
     0
 62
     7
176
     0
 90
        5
176
     0
 90
        0
176
     0
 90
        0
176
     0
290
     0
176
     0
 90
        1
176
     0
 40
0.0
176
     0
 90
        0
176
     0
290
     0
176
     0
290
     1
176
     0
290
     1
176
     0
290
     0
176
     0
290
     0
176
     0
290
     0
176
     0
290
     0
176
     0
290
     0
176
     0
290
     0
176
     0
 90
       50
176
     0
 40
0.0
176
     0
 40
1.0
176
     0
 90
        0
176
     0
 62
    18
420
        0
176
     0
 90
       50
176
     0
 90
        3
176
     0
 62
     5
420
      255
176
     0
290
     0
176
     0
 90
       50
176
     0
 90
       50
176
     0
 90
       50
176
     0
290
     0
176
     0
 90
       50
176
     0
 62
   256
176
     0
 40
1.0
176
     0
 90
        2
176
     0
  1
strokes_ogs.tif
176
     0
290
     0
176
     0
 40
1.0
176
     0
 40
1.0
176
     0
  0
VISUALSTYLE
  5
37
102
{ACAD_REACTORS
330
29
102
}
330
29
100
AcDbVisualStyle
  2
Linepattern
 70
    14
177
     3
291
     1
 70
    58
 90
        2
176
     1
 90
        2
176
     1
 90
        0
176
     1
 90
        0
176
     1
 40
0.6
176
     1
 40
30.0
176
     1
 62
     7
420
 16777215
176
     1
 90
        1
176
     1
 90
        4
176
     1
 62
     7
176
     1
 62
   257
176
     1
 90
        7
176
     1
 90
        7
176
     1
 40
1.0
176
     1
 90
        8
176
     1
 62
     7
176
     1
 40
1.0
176
     1
 90
        1
176
     1
 90
        6
176
     1
 90
        2
176
     1
 62
     7
176
     1
 90
        5
176
     1
 90
        0
176
     1
 90
        0
176
     1
290
     0
176
     1
 90
        1
176
     1
 40
0.0
176
     1
 90
        0
176
     1
290
     0
176
     1
290
     1
176
     1
290
     1
176
     1
290
     0
176
     1
290
     0
176
     1
290
     0
176
     1
290
     0
176
     1
290
     0
176
     1
290
     0
176
     1
 90
       50
176
     1
 40
0.0
176
     1
 40
1.0
176
     1
 90
        0
176
     1
 62
    18
420
        0
176
     1
 90
       50
176
     1
 90
        3
176
     1
 62
     5
420
      255
176
     1
290
     0
176
     1
 90
       50
176
     1
 90
       50
176
     1
 90
       50
176
     1
290
     0
176
     1
 90
       50
176
     1
 62
   256
176
     0
 40
1.0
176
     0
 90
        2
176
     1
  1
strokes_ogs.tif
176
     1
290
     0
176
     1
 40
1.0
176
     1
 40
1.0
176
     1
  0
VISUALSTYLE
  5
40
102
{ACAD_REACTORS
330
29
102
}
330
29
100
AcDbVisualStyle
  2
OverhangOff
 70
    21
177
     3
291
     1
 70
    58
 90
        2
176
     0
 90
        2
176
     0
 90
        0
176
     0
 90
        0
176
     0
 40
0.6
176
     0
 40
30.0
176
     0
 62
     7
420
 16777215
176
     0
 90
        1
176
     0
 90
        4
176
     0
 62
     7
176
     0
 62
   257
176
     0
 90
        1
176
     0
 90
        1
176
     0
 40
1.0
176
     0
 90
        9
176
     2
 62
     7
176
     0
 40
1.0
176
     0
 90
        1
176
     0
 90
        6
176
     0
 90
        2
176
     0
 62
     7
176
     0
 90
        5
176
     0
 90
        0
176
     0
 90
        0
176
     0
290
     0
176
     0
 90
        1
176
     0
 40
0.0
176
     0
 90
        0
176
     0
290
     0
176
     0
290
     1
176
     0
290
     1
176
     0
290
     0
176
     0
290
     0
176
     0
290
     0
176
     0
290
     0
176
     0
290
     0
176
     0
290
     0
176
     0
 90
       50
176
     0
 40
0.0
176
     0
 40
1.0
176
     0
 90
        0
176
     0
 62
    18
420
        0
176
     0
 90
       50
176
     0
 90
        3
176
     0
 62
     5
420
      255
176
     0
290
     0
176
     0
 90
       50
176
     0
 90
       50
176
     0
 90
       50
176
     0
290
     0
176
     0
 90
       50
176
     0
 62
   256
176
     0
 40
1.0
176
     0
 90
        2
176
     0
  1
strokes_ogs.tif
176
     0
290
     0
176
     0
 40
1.0
176
     0
 40
1.0
176
     0
  0
VISUALSTYLE
  5
33
102
{ACAD_REACTORS
330
29
102
}
330
29
100
AcDbVisualStyle
  2
Realistic
 70
     8
177
     3
291
     0
 70
    58
 90
        2
176
     1
 90
        3
176
     1
 90
        0
176
     1
 90
        2
176
     1
 40
0.6
176
     1
 40
30.0
176
     1
 62
     7
420
 16777215
176
     1
 90
        0
176
     1
 90
        0
176
     1
 62
     7
176
     1
 62
   257
176
     1
 90
        1
176
     1
 90
        1
176
     1
 40
1.0
176
     1
 90
        8
176
     1
 62
   257
176
     1
 40
1.0
176
     1
 90
        1
176
     1
 90
        6
176
     1
 90
        2
176
     1
 62
     7
176
     1
 90
        3
176
     1
 90
        0
176
     1
 90
        0
176
     1
290
     0
176
     1
 90
       13
176
     1
 40
0.0
176
     1
 90
        0
176
     1
290
     0
176
     1
290
     1
176
     1
290
     1
176
     1
290
     0
176
     1
290
     0
176
     1
290
     0
176
     1
290
     0
176
     1
290
     0
176
     1
290
     0
176
     1
 90
       50
176
     1
 40
0.0
176
     1
 40
1.0
176
     1
 90
        0
176
     1
 62
    18
420
        0
176
     1
 90
       50
176
     1
 90
        3
176
     1
 62
     5
420
      255
176
     1
290
     0
176
     1
 90
       50
176
     1
 90
       50
176
     1
 90
       50
176
     1
290
     0
176
     1
 90
       50
176
     1
 62
   256
176
     0
 40
1.0
176
     0
 90
        2
176
     1
  1
strokes_ogs.tif
176
     1
290
     0
176
     1
 40
1.0
176
     1
 40
1.0
176
     1
  0
VISUALSTYLE
  5
3E
102
{ACAD_REACTORS
330
29
102
}
330
29
100
AcDbVisualStyle
  2
Shaded
 70
    27
177
     3
291
     0
 70
    58
 90
        2
176
     1
 90
        2
176
     1
 90
        1
176
     1
 90
        2
176
     1
 40
0.6
176
     1
 40
30.0
176
     1
 62
     7
420
 16777215
176
     1
 90
        0
176
     1
 90
        4
176
     1
 62
     7
176
     1
 62
   257
176
     1
 90
        1
176
     1
 90
        1
176
     1
 40
1.0
176
     1
 90
        8
176
     1
 62
   257
176
     1
 40
1.0
176
     1
 90
        1
176
     1
 90
        6
176
     1
 90
        2
176
     1
 62
     8
420
  7895160
176
     1
 90
        3
176
     1
 90
        0
176
     1
 90
        0
176
     1
290
     0
176
     1
 90
        5
176
     1
 40
0.0
176
     1
 90
        0
176
     1
290
     0
176
     1
290
     1
176
     1
290
     1
176
     1
290
     0
176
     1
290
     0
176
     1
290
     0
176
     1
290
     0
176
     1
290
     0
176
     1
290
     0
176
     1
 90
       50
176
     1
 40
0.0
176
     1
 40
1.0
176
     1
 90
        0
176
     1
 62
    18
420
        0
176
     1
 90
       50
176
     1
 90
        3
176
     1
 62
     5
420
      255
176
     1
290
     0
176
     1
 90
       50
176
     1
 90
       50
176
     1
 90
       50
176
     1
290
     0
176
     1
 90
       50
176
     1
 62
   256
176
     0
 40
1.0
176
     0
 90
        2
176
     1
  1
strokes_ogs.tif
176
     1
290
     0
176
     1
 40
1.0
176
     1
 40
1.0
176
     1
  0
VISUALSTYLE
  5
3D
102
{ACAD_REACTORS
330
29
102
}
330
29
100
AcDbVisualStyle
  2
Shaded with edges
 70
    26
177
     3
291
     0
 70
    58
 90
        2
176
     1
 90
        2
176
     1
 90
        1
176
     1
 90
        2
176
     1
 40
0.6
176
     1
 40
30.0
176
     1
 62
     7
420
 16777215
176
     1
 90
        1
176
     1
 90
        2
176
     1
 62
     7
176
     1
 62
   257
176
     1
 90
        2
176
     1
 90
        1
176
     1
 40
1.0
176
     1
 90
        8
176
     1
 62
   257
176
     1
 40
1.0
176
     1
 90
        1
176
     1
 90
        6
176
     1
 90
        2
176
     1
 62
     7
176
     1
 90
        3
176
     1
 90
        0
176
     1
 90
        0
176
     1
290
     0
176
     1
 90
        5
176
     1
 40
0.0
176
     1
 90
        0
176
     1
290
     0
176
     1
290
     1
176
     1
290
     1
176
     1
290
     0
176
     1
290
     0
176
     1
290
     0
176
     1
290
     0
176
     1
290
     0
176
     1
290
     0
176
     1
 90
       50
176
     1
 40
0.0
176
     1
 40
1.0
176
     1
 90
        0
176
     1
 62
    18
420
        0
176
     1
 90
       50
176
     1
 90
        3
176
     1
 62
     5
420
      255
176
     1
290
     0
176
     1
 90
       50
176
     1
 90
       50
176
     1
 90
       50
176
     1
290
     0
176
     1
 90
       50
176
     1
 62
   256
176
     0
 40
1.0
176
     0
 90
        2
176
     1
  1
strokes_ogs.tif
176
     1
290
     0
176
     1
 40
1.0
176
     1
 40
1.0
176
     1
  0
VISUALSTYLE
  5
3A
102
{ACAD_REACTORS
330
29
102
}
330
29
100
AcDbVisualStyle
  2
Shades of Gray
 70
    23
177
     3
291
     0
 70
    58
 90
        2
176
     1
 90
        2
176
     1
 90
        3
176
     1
 90
        0
176
     1
 40
0.6
176
     1
 40
30.0
176
     1
 62
     7
420
 16777215
176
     1
 90
        2
176
     1
 90
        2
176
     1
 62
     7
176
     1
 62
     7
176
     1
 90
        1
176
     1
 90
        1
176
     1
 40
40.0
176
     1
 90
        8
176
     1
 62
     7
176
     1
 40
1.0
176
     1
 90
        1
176
     1
 90
        6
176
     1
 90
        2
176
     1
 62
     7
176
     1
 90
        3
176
     1
 90
        0
176
     1
 90
        0
176
     1
290
     0
176
     1
 90
        1
176
     1
 40
0.0
176
     1
 90
        0
176
     1
290
     0
176
     1
290
     1
176
     1
290
     1
176
     1
290
     0
176
     1
290
     0
176
     1
290
     0
176
     1
290
     0
176
     1
290
     0
176
     1
290
     0
176
     1
 90
       50
176
     1
 40
0.0
176
     1
 40
1.0
176
     1
 90
        0
176
     1
 62
    18
420
        0
176
     1
 90
       50
176
     1
 90
        3
176
     1
 62
     5
420
      255
176
     1
290
     0
176
     1
 90
       50
176
     1
 90
       50
176
     1
 90
       50
176
     1
290
     0
176
     1
 90
       50
176
     1
 62
   256
176
     0
 40
1.0
176
     0
 90
        2
176
     1
  1
strokes_ogs.tif
176
     1
290
     0
176
     1
 40
1.0
176
     1
 40
1.0
176
     1
  0
VISUALSTYLE
  5
3B
102
{ACAD_REACTORS
330
29
102
}
330
29
100
AcDbVisualStyle
  2
Sketchy
 70
    24
177
     3
291
     0
 70
    58
 90
        1
176
     1
 90
        2
176
     1
 90
        2
176
     1
 90
        0
176
     1
 40
0.6
176
     1
 40
30.0
176
     1
 62
     7
420
 16777215
176
     1
 90
        2
176
     1
 90
        2
176
     1
 62
     7
176
     1
 62
     7
176
     1
 90
        1
176
     1
 90
        1
176
     1
 40
40.0
176
     1
 90
       11
176
     1
 62
     7
176
     1
 40
1.0
176
     1
 90
        1
176
     1
 90
        6
176
     1
 90
        2
176
     1
 62
     7
176
     1
 90
        6
176
     1
 90
        0
176
     1
 90
        0
176
     1
290
     0
176
     1
 90
        1
176
     1
 40
0.0
176
     1
 90
        0
176
     1
290
     0
176
     1
290
     1
176
     1
290
     1
176
     1
290
     0
176
     1
290
     0
176
     1
290
     0
176
     1
290
     0
176
     1
290
     0
176
     1
290
     0
176
     1
 90
       50
176
     1
 40
0.0
176
     1
 40
1.0
176
     1
 90
        0
176
     1
 62
    18
420
        0
176
     1
 90
       50
176
     1
 90
        3
176
     1
 62
     5
420
      255
176
     1
290
     0
176
     1
 90
       50
176
     1
 90
       50
176
     1
 90
       50
176
     1
290
     0
176
     1
 90
       50
176
     1
 62
   256
176
     0
 40
1.0
176
     0
 90
        2
176
     1
  1
strokes_ogs.tif
176
     1
290
     0
176
     1
 40
1.0
176
     1
 40
1.0
176
     1
  0
VISUALSTYLE
  5
36
102
{ACAD_REACTORS
330
29
102
}
330
29
100
AcDbVisualStyle
  2
Thicken
 70
    13
177
     3
291
     1
 70
    58
 90
        2
176
     1
 90
        2
176
     1
 90
        0
176
     1
 90
        0
176
     1
 40
0.6
176
     1
 40
30.0
176
     1
 62
     7
420
 16777215
176
     1
 90
        1
176
     1
 90
        4
176
     1
 62
     7
176
     1
 62
   257
176
     1
 90
        1
176
     1
 90
        1
176
     1
 40
1.0
176
     1
 90
       12
176
     1
 62
     7
176
     1
 40
1.0
176
     1
 90
        1
176
     1
 90
        6
176
     1
 90
        2
176
     1
 62
     7
176
     1
 90
        5
176
     1
 90
        0
176
     1
 90
        0
176
     1
290
     0
176
     1
 90
        1
176
     1
 40
0.0
176
     1
 90
        0
176
     1
290
     0
176
     1
290
     1
176
     1
290
     1
176
     1
290
     0
176
     1
290
     0
176
     1
290
     0
176
     1
290
     0
176
     1
290
     0
176
     1
290
     0
176
     1
 90
       50
176
     1
 40
0.0
176
     1
 40
1.0
176
     1
 90
        0
176
     1
 62
    18
420
        0
176
     1
 90
       50
176
     1
 90
        3
176
     1
 62
     5
420
      255
176
     1
290
     0
176
     1
 90
       50
176
     1
 90
       50
176
     1
 90
       50
176
     1
290
     0
176
     1
 90
       50
176
     1
 62
   256
176
     0
 40
1.0
176
     0
 90
        2
176
     1
  1
strokes_ogs.tif
176
     1
290
     0
176
     1
 40
1.0
176
     1
 40
1.0
176
     1
  0
VISUALSTYLE
  5
30
102
{ACAD_REACTORS
330
29
102
}
330
29
100
AcDbVisualStyle
  2
Wireframe
 70
     5
177
     3
291
     0
 70
    58
 90
        0
176
     1
 90
        2
176
     1
 90
        0
176
     1
 90
        0
176
     1
 40
0.6
176
     1
 40
30.0
176
     1
 62
     7
420
 16777215
176
     1
 90
        1
176
     1
 90
        4
176
     1
 62
     7
176
     1
 62
   257
176
     1
 90
        1
176
     1
 90
        1
176
     1
 40
1.0
176
     1
 90
        0
176
     1
 62
   257
176
     1
 40
1.0
176
     1
 90
        1
176
     1
 90
        6
176
     1
 90
        2
176
     1
 62
     7
176
     1
 90
        3
176
     1
 90
        0
176
     1
 90
        0
176
     1
290
     0
176
     1
 90
        1
176
     1
 40
0.0
176
     1
 90
        0
176
     1
290
     0
176
     1
290
     1
176
     1
290
     1
176
     1
290
     0
176
     1
290
     0
176
     1
290
     0
176
     1
290
     0
176
     1
290
     0
176
     1
290
     0
176
     1
 90
       50
176
     1
 40
0.0
176
     1
 40
1.0
176
     1
 90
        0
176
     1
 62
    18
420
        0
176
     1
 90
       50
176
     1
 90
        3
176
     1
 62
     5
420
      255
176
     1
290
     0
176
     1
 90
       50
176
     1
 90
       50
176
     1
 90
       50
176
     1
290
     0
176
     1
 90
       50
176
     1
 62
   256
176
     0
 40
1.0
176
     0
 90
        2
176
     1
  1
strokes_ogs.tif
176
     1
290
     0
176
     1
 40
1.0
176
     1
 40
1.0
176
     1
  0
VISUALSTYLE
  5
3C
102
{ACAD_REACTORS
330
29
102
}
330
29
100
AcDbVisualStyle
  2
X-Ray
 70
    25
177
     3
291
     0
 70
    58
 90
        2
176
     1
 90
        2
176
     1
 90
        1
176
     1
 90
        1
176
     1
 40
0.5
176
     1
 40
30.0
176
     1
 62
     7
420
 16777215
176
     1
 90
        1
176
     1
 90
        0
176
     1
 62
     7
176
     1
 62
   257
176
     1
 90
        1
176
     1
 90
        1
176
     1
 40
1.0
176
     1
 90
        8
176
     1
 62
     7
176
     1
 40
1.0
176
     1
 90
        1
176
     1
 90
        6
176
     1
 90
        2
176
     1
 62
     7
176
     1
 90
        3
176
     1
 90
        0
176
     1
 90
        0
176
     1
290
     0
176
     1
 90
       13
176
     1
 40
0.0
176
     1
 90
        0
176
     1
290
     0
176
     1
290
     1
176
     1
290
     1
176
     1
290
     0
176
     1
290
     0
176
     1
290
     0
176
     1
290
     0
176
     1
290
     0
176
     1
290
     0
176
     1
 90
       50
176
     1
 40
0.0
176
     1
 40
1.0
176
     1
 90
        0
176
     1
 62
    18
420
        0
176
     1
 90
       50
176
     1
 90
        3
176
     1
 62
     5
420
      255
176
     1
290
     0
176
     1
 90
       50
176
     1
 90
       50
176
     1
 90
       50
176
     1
290
     0
176
     1
 90
       50
176
     1
 62
   256
176
     0
 40
1.0
176
     0
 90
        2
176
     1
  1
strokes_ogs.tif
176
     1
290
     0
176
     1
 40
1.0
176
     1
 40
1.0
176
     1
  0
DICTIONARYVAR
  5
D5
102
{ACAD_REACTORS
330
D0
102
}
330
D0
100
DictionaryVariables
280
     0
  1
1:1
  0
DICTIONARYVAR
  5
D2
102
{ACAD_REACTORS
330
D0
102
}
330
D0
100
DictionaryVariables
280
     0
  1
STANDARD
  0
DICTIONARYVAR
  5
D1
102
{ACAD_REACTORS
330
D0
102
}
330
D0
100
DictionaryVariables
280
     0
  1
STANDARD
  0
DICTIONARYVAR
  5
D3
102
{ACAD_REACTORS
330
D0
102
}
330
D0
100
DictionaryVariables
280
     0
  1
Imperial24
  0
DICTIONARYVAR
  5
D4
102
{ACAD_REACTORS
330
D0
102
}
330
D0
100
DictionaryVariables
280
     0
  1
Imperial24
  0
DICTIONARY
  5
1A
330
19
100
AcDbDictionary
280
     1
281
     1
  3
BUMPTILE
360
1C
  3
DIFFUSETILE
360
1B
  3
OPACITYTILE
360
1F
  3
REFLECTIONTILE
360
1E
  3
REFRACTIONTILE
360
20
  3
SPECULARTILE
360
1D
  0
DICTIONARY
  5
12
330
11
100
AcDbDictionary
280
     1
281
     1
  3
BUMPTILE
360
14
  3
DIFFUSETILE
360
13
  3
OPACITYTILE
360
17
  3
REFLECTIONTILE
360
16
  3
REFRACTIONTILE
360
18
  3
SPECULARTILE
360
15
  0
DICTIONARY
  5
22
330
21
100
AcDbDictionary
280
     1
281
     1
  3
BUMPTILE
360
24
  3
DIFFUSETILE
360
23
  3
OPACITYTILE
360
27
  3
REFLECTIONTILE
360
26
  3
REFRACTIONTILE
360
28
  3
SPECULARTILE
360
25
  0
DICTIONARY
  5
D6
330
65
100
AcDbDictionary
280
     1
281
     1
  3
ACAD_ROUNDTRIP_2008_TABLESTYLE_CELLSTYLEMAP
360
D7
  0
XRECORD
  5
1C
102
{ACAD_REACTORS
330
1A
102
}
330
1A
100
AcDbXrecord
280
     1
270
     1
271
     1
  0
XRECORD
  5
1B
102
{ACAD_REACTORS
330
1A
102
}
330
1A
100
AcDbXrecord
280
     1
270
     1
271
     1
  0
XRECORD
  5
1F
102
{ACAD_REACTORS
330
1A
102
}
330
1A
100
AcDbXrecord
280
     1
270
     1
271
     1
  0
XRECORD
  5
1E
102
{ACAD_REACTORS
330
1A
102
}
330
1A
100
AcDbXrecord
280
     1
270
     1
271
     1
  0
XRECORD
  5
20
102
{ACAD_REACTORS
330
1A
102
}
330
1A
100
AcDbXrecord
280
     1
270
     1
271
     1
  0
XRECORD
  5
1D
102
{ACAD_REACTORS
330
1A
102
}
330
1A
100
AcDbXrecord
280
     1
270
     1
271
     1
  0
XRECORD
  5
14
102
{ACAD_REACTORS
330
12
102
}
330
12
100
AcDbXrecord
280
     1
270
     1
271
     1
  0
XRECORD
  5
13
102
{ACAD_REACTORS
330
12
102
}
330
12
100
AcDbXrecord
280
     1
270
     1
271
     1
  0
XRECORD
  5
17
102
{ACAD_REACTORS
330
12
102
}
330
12
100
AcDbXrecord
280
     1
270
     1
271
     1
  0
XRECORD
  5
16
102
{ACAD_REACTORS
330
12
102
}
330
12
100
AcDbXrecord
280
     1
270
     1
271
     1
  0
XRECORD
  5
18
102
{ACAD_REACTORS
330
12
102
}
330
12
100
AcDbXrecord
280
     1
270
     1
271
     1
  0
XRECORD
  5
15
102
{ACAD_REACTORS
330
12
102
}
330
12
100
AcDbXrecord
280
     1
270
     1
271
     1
  0
XRECORD
  5
24
102
{ACAD_REACTORS
330
22
102
}
330
22
100
AcDbXrecord
280
     1
270
     1
271
     1
  0
XRECORD
  5
23
102
{ACAD_REACTORS
330
22
102
}
330
22
100
AcDbXrecord
280
     1
270
     1
271
     1
  0
XRECORD
  5
27
102
{ACAD_REACTORS
330
22
102
}
330
22
100
AcDbXrecord
280
     1
270
     1
271
     1
  0
XRECORD
  5
26
102
{ACAD_REACTORS
330
22
102
}
330
22
100
AcDbXrecord
280
     1
270
     1
271
     1
  0
XRECORD
  5
28
102
{ACAD_REACTORS
330
22
102
}
330
22
100
AcDbXrecord
280
     1
270
     1
271
     1
  0
XRECORD
  5
25
102
{ACAD_REACTORS
330
22
102
}
330
22
100
AcDbXrecord
280
     1
270
     1
271
     1
  0
CELLSTYLEMAP
  5
D7
102
{ACAD_REACTORS
330
D6
102
}
330
D6
100
AcDbCellStyleMap
 90
        3
300
CELLSTYLE
  1
TABLEFORMAT_BEGIN
 90
        5
170
     1
 91
        0
 92
    32768
 62
   257
 93
        1
300
CONTENTFORMAT
  1
CONTENTFORMAT_BEGIN
 90
        0
 91
        0
 92
      512
 93
        0
300

 40
0.0
140
1.0
 94
        5
 62
     0
340
55
144
0.25
309
CONTENTFORMAT_END
171
     0
 94
        0
309
TABLEFORMAT_END
  1
CELLSTYLE_BEGIN
 90
        1
 91
        1
300
_TITLE
309
CELLSTYLE_END
300
CELLSTYLE
  1
TABLEFORMAT_BEGIN
 90
        5
170
     1
 91
        0
 92
        0
 62
   257
 93
        1
300
CONTENTFORMAT
  1
CONTENTFORMAT_BEGIN
 90
        0
 91
        0
 92
      512
 93
        0
300

 40
0.0
140
1.0
 94
        5
 62
     0
340
55
144
0.18
309
CONTENTFORMAT_END
171
     0
 94
        0
309
TABLEFORMAT_END
  1
CELLSTYLE_BEGIN
 90
        2
 91
        1
300
_HEADER
309
CELLSTYLE_END
300
CELLSTYLE
  1
TABLEFORMAT_BEGIN
 90
        5
170
     1
 91
        0
 92
        0
 62
   257
 93
        1
300
CONTENTFORMAT
  1
CONTENTFORMAT_BEGIN
 90
        0
 91
        0
 92
      512
 93
        0
300

 40
0.0
140
1.0
 94
        2
 62
     0
340
55
144
0.18
309
CONTENTFORMAT_END
171
     0
 94
        0
309
TABLEFORMAT_END
  1
CELLSTYLE_BEGIN
 90
        3
 91
        2
300
_DATA
309
CELLSTYLE_END
  0
ENDSEC
  0
EOF
