  0
SECTION
  2
HEADER
  9
$ACADVER
  1
AC1032
  9
$ACADMAINTVER
 90
      228
  9
$DWGCODEPAGE
  3
ANSI_1252
  9
$REQUIREDVERSIONS
160
                 0
  9
$INSBASE
 10
0.0
 20
0.0
 30
0.0
  9
$EXTMIN
 10
1.000000000000000E+20
 20
1.000000000000000E+20
 30
1.000000000000000E+20
  9
$EXTMAX
 10
-1.000000000000000E+20
 20
-1.000000000000000E+20
 30
-1.000000000000000E+20
  9
$LIMMIN
 10
0.0
 20
0.0
  9
$LIMMAX
 10
12.0
 20
9.0
  9
$ORTHOMODE
 70
     0
  9
$REGENMODE
 70
     1
  9
$FILLMODE
 70
     1
  9
$QTEXTMODE
 70
     0
  9
$MIRRTEXT
 70
     0
  9
$LTSCALE
 40
1.0
  9
$ATTMODE
 70
     1
  9
$TEXTSIZE
 40
0.2
  9
$TRACEWID
 40
0.05
  9
$TEXTSTYLE
  7
Standard
  9
$CLAYER
  8
0
  9
$CELTYPE
  6
ByLayer
  9
$CECOLOR
 62
   256
  9
$CELTSCALE
 40
1.0
  9
$DISPSILH
 70
     0
  9
$DIMSCALE
 40
1.0
  9
$DIMASZ
 40
0.18
  9
$DIMEXO
 40
0.0625
  9
$DIMDLI
 40
0.38
  9
$DIMRND
 40
0.0
  9
$DIMDLE
 40
0.0
  9
$DIMEXE
 40
0.18
  9
$DIMTP
 40
0.0
  9
$DIMTM
 40
0.0
  9
$DIMTXT
 40
0.18
  9
$DIMCEN
 40
0.09
  9
$DIMTSZ
 40
0.0
  9
$DIMTOL
 70
     0
  9
$DIMLIM
 70
     0
  9
$DIMTIH
 70
     1
  9
$DIMTOH
 70
     1
  9
$DIMSE1
 70
     0
  9
$DIMSE2
 70
     0
  9
$DIMTAD
 70
     0
  9
$DIMZIN
 70
     0
  9
$DIMBLK
  1

  9
$DIMASO
 70
     1
  9
$DIMSHO
 70
     1
  9
$DIMPOST
  1

  9
$DIMAPOST
  1

  9
$DIMALT
 70
     0
  9
$DIMALTD
 70
     2
  9
$DIMALTF
 40
25.4
  9
$DIMLFAC
 40
1.0
  9
$DIMTOFL
 70
     0
  9
$DIMTVP
 40
0.0
  9
$DIMTIX
 70
     0
  9
$DIMSOXD
 70
     0
  9
$DIMSAH
 70
     0
  9
$DIMBLK1
  1

  9
$DIMBLK2
  1

  9
$DIMSTYLE
  2
Standard
  9
$DIMCLRD
 70
     0
  9
$DIMCLRE
 70
     0
  9
$DIMCLRT
 70
     0
  9
$DIMTFAC
 40
1.0
  9
$DIMGAP
 40
0.09
  9
$DIMJUST
 70
     0
  9
$DIMSD1
 70
     0
  9
$DIMSD2
 70
     0
  9
$DIMTOLJ
 70
     1
  9
$DIMTZIN
 70
     0
  9
$DIMALTZ
 70
     0
  9
$DIMALTTZ
 70
     0
  9
$DIMUPT
 70
     0
  9
$DIMDEC
 70
     4
  9
$DIMTDEC
 70
     4
  9
$DIMALTU
 70
     2
  9
$DIMALTTD
 70
     2
  9
$DIMTXSTY
  7
Standard
  9
$DIMAUNIT
 70
     0
  9
$DIMADEC
 70
     0
  9
$DIMALTRND
 40
0.0
  9
$DIMAZIN
 70
     0
  9
$DIMDSEP
 70
    46
  9
$DIMATFIT
 70
     3
  9
$DIMFRAC
 70
     0
  9
$DIMLDRBLK
  1

  9
$DIMLUNIT
 70
     2
  9
$DIMLWD
 70
    -2
  9
$DIMLWE
 70
    -2
  9
$DIMTMOVE
 70
     0
  9
$DIMFXL
 40
1.0
  9
$DIMFXLON
 70
     0
  9
$DIMJOGANG
 40
0.7853981633974483
  9
$DIMTFILL
 70
     0
  9
$DIMTFILLCLR
 70
     0
  9
$DIMARCSYM
 70
     0
  9
$DIMLTYPE
  6

  9
$DIMLTEX1
  6

  9
$DIMLTEX2
  6

  9
$DIMTXTDIRECTION
 70
     0
  9
$LUNITS
 70
     2
  9
$LUPREC
 70
     4
  9
$SKETCHINC
 40
0.1
  9
$FILLETRAD
 40
0.0
  9
$AUNITS
 70
     0
  9
$AUPREC
 70
     0
  9
$MENU
  1
.
  9
$ELEVATION
 40
0.0
  9
$PELEVATION
 40
0.0
  9
$THICKNESS
 40
0.0
  9
$LIMCHECK
 70
     0
  9
$CHAMFERA
 40
0.0
  9
$CHAMFERB
 40
0.0
  9
$CHAMFERC
 40
0.0
  9
$CHAMFERD
 40
0.0
  9
$SKPOLY
 70
     0
  9
$TDCREATE
 40
2460256.674432871
  9
$TDUCREATE
 40
2460256.674432871
  9
$TDUPDATE
 40
2460256.674432871
  9
$TDUUPDATE
 40
2460256.674432871
  9
$TDINDWG
 40
0.0000000000
  9
$TDUSRTIMER
 40
0.0000000000
  9
$USRTIMER
 70
     1
  9
$ANGBASE
 50
0.0
  9
$ANGDIR
 70
     0
  9
$PDMODE
 70
     0
  9
$PDSIZE
 40
0.0
  9
$PLINEWID
 40
0.0
  9
$SPLFRAME
 70
     0
  9
$SPLINETYPE
 70
     6
  9
$SPLINESEGS
 70
     8
  9
$HANDSEED
  5
106
  9
$SURFTAB1
 70
     6
  9
$SURFTAB2
 70
     6
  9
$SURFTYPE
 70
     6
  9
$SURFU
 70
     6
  9
$SURFV
 70
     6
  9
$UCSBASE
  2

  9
$UCSNAME
  2

  9
$UCSORG
 10
0.0
 20
0.0
 30
0.0
  9
$UCSXDIR
 10
1.0
 20
0.0
 30
0.0
  9
$UCSYDIR
 10
0.0
 20
1.0
 30
0.0
  9
$UCSORTHOREF
  2

  9
$UCSORTHOVIEW
 70
     0
  9
$UCSORGTOP
 10
0.0
 20
0.0
 30
0.0
  9
$UCSORGBOTTOM
 10
0.0
 20
0.0
 30
0.0
  9
$UCSORGLEFT
 10
0.0
 20
0.0
 30
0.0
  9
$UCSORGRIGHT
 10
0.0
 20
0.0
 30
0.0
  9
$UCSORGFRONT
 10
0.0
 20
0.0
 30
0.0
  9
$UCSORGBACK
 10
0.0
 20
0.0
 30
0.0
  9
$PUCSBASE
  2

  9
$PUCSNAME
  2

  9
$PUCSORG
 10
0.0
 20
0.0
 30
0.0
  9
$PUCSXDIR
 10
1.0
 20
0.0
 30
0.0
  9
$PUCSYDIR
 10
0.0
 20
1.0
 30
0.0
  9
$PUCSORTHOREF
  2

  9
$PUCSORTHOVIEW
 70
     0
  9
$PUCSORGTOP
 10
0.0
 20
0.0
 30
0.0
  9
$PUCSORGBOTTOM
 10
0.0
 20
0.0
 30
0.0
  9
$PUCSORGLEFT
 10
0.0
 20
0.0
 30
0.0
  9
$PUCSORGRIGHT
 10
0.0
 20
0.0
 30
0.0
  9
$PUCSORGFRONT
 10
0.0
 20
0.0
 30
0.0
  9
$PUCSORGBACK
 10
0.0
 20
0.0
 30
0.0
  9
$USERI1
 70
     0
  9
$USERI2
 70
     0
  9
$USERI3
 70
     0
  9
$USERI4
 70
     0
  9
$USERI5
 70
     0
  9
$USERR1
 40
0.0
  9
$USERR2
 40
0.0
  9
$USERR3
 40
0.0
  9
$USERR4
 40
0.0
  9
$USERR5
 40
0.0
  9
$WORLDVIEW
 70
     1
  9
$SHADEDGE
 70
     3
  9
$SHADEDIF
 70
    70
  9
$TILEMODE
 70
     1
  9
$MAXACTVP
 70
    64
  9
$PINSBASE
 10
0.0
 20
0.0
 30
0.0
  9
$PLIMCHECK
 70
     0
  9
$PEXTMIN
 10
1.000000000000000E+20
 20
1.000000000000000E+20
 30
1.000000000000000E+20
  9
$PEXTMAX
 10
-1.000000000000000E+20
 20
-1.000000000000000E+20
 30
-1.000000000000000E+20
  9
$PLIMMIN
 10
0.0
 20
0.0
  9
$PLIMMAX
 10
12.0
 20
9.0
  9
$UNITMODE
 70
     0
  9
$VISRETAIN
 70
     1
  9
$PLINEGEN
 70
     0
  9
$PSLTSCALE
 70
     1
  9
$TREEDEPTH
 70
  3020
  9
$CMLSTYLE
  2
Standard
  9
$CMLJUST
 70
     0
  9
$CMLSCALE
 40
1.0
  9
$PROXYGRAPHICS
 70
     1
  9
$MEASUREMENT
 70
     0
  9
$CELWEIGHT
370
    -1
  9
$ENDCAPS
280
     0
  9
$JOINSTYLE
280
     0
  9
$LWDISPLAY
290
     1
  9
$INSUNITS
 70
     4
  9
$HYPERLINKBASE
  1

  9
$STYLESHEET
  1

  9
$XEDIT
290
     1
  9
$CEPSNTYPE
380
     0
  9
$PSTYLEMODE
290
     1
  9
$FINGERPRINTGUID
  2
{E7D423B6-30FD-4E40-92D0-8ECF6E8BD08F}
  9
$VERSIONGUID
  2
{EDC4ADC3-35DF-004E-9E76-6334BF3C55FC}
  9
$EXTNAMES
290
     1
  9
$PSVPSCALE
 40
0.0
  9
$OLESTARTUP
290
     0
  9
$SORTENTS
280
   127
  9
$INDEXCTL
280
     0
  9
$HIDETEXT
280
     1
  9
$XCLIPFRAME
280
     2
  9
$HALOGAP
280
     0
  9
$OBSCOLOR
 70
   257
  9
$OBSLTYPE
280
     0
  9
$INTERSECTIONDISPLAY
280
     0
  9
$INTERSECTIONCOLOR
 70
   257
  9
$DIMASSOC
280
     2
  9
$PROJECTNAME
  1

  9
$CAMERADISPLAY
290
     0
  9
$LENSLENGTH
 40
50.0
  9
$CAMERAHEIGHT
 40
0.0
  9
$STEPSPERSEC
 40
2.0
  9
$STEPSIZE
 40
6.0
  9
$3DDWFPREC
 40
2.0
  9
$PSOLWIDTH
 40
0.25
  9
$PSOLHEIGHT
 40
4.0
  9
$LOFTANG1
 40
1.570796326794896
  9
$LOFTANG2
 40
1.570796326794896
  9
$LOFTMAG1
 40
0.0
  9
$LOFTMAG2
 40
0.0
  9
$LOFTPARAM
 70
     7
  9
$LOFTNORMALS
280
     1
  9
$LATITUDE
 40
37.795
  9
$LONGITUDE
 40
-122.394
  9
$NORTHDIRECTION
 40
0.0
  9
$TIMEZONE
 70
 -8000
  9
$LIGHTGLYPHDISPLAY
280
     1
  9
$TILEMODELIGHTSYNCH
280
     1
  9
$CMATERIAL
347
11
  9
$SOLIDHIST
280
     0
  9
$SHOWHIST
280
     1
  9
$DWFFRAME
280
     2
  9
$DGNFRAME
280
     0
  9
$REALWORLDSCALE
290
     1
  9
$INTERFERECOLOR
 62
     1
  9
$INTERFEREOBJVS
345
33
  9
$INTERFEREVPVS
346
30
  9
$CSHADOW
280
     0
  9
$SHADOWPLANELOCATION
 40
0.0
  0
ENDSEC
  0
SECTION
  2
CLASSES
  0
CLASS
  1
ACDBDICTIONARYWDFLT
  2
AcDbDictionaryWithDefault
  3
ObjectDBX Classes
 90
        0
 91
        1
280
     0
281
     0
  0
CLASS
  1
MATERIAL
  2
AcDbMaterial
  3
ObjectDBX Classes
 90
     1153
 91
        3
280
     0
281
     0
  0
CLASS
  1
VISUALSTYLE
  2
AcDbVisualStyle
  3
ObjectDBX Classes
 90
     4095
 91
       24
280
     0
281
     0
  0
CLASS
  1
SCALE
  2
AcDbScale
  3
ObjectDBX Classes
 90
     1153
 91
       17
280
     0
281
     0
  0
CLASS
  1
TABLESTYLE
  2
AcDbTableStyle
  3
ObjectDBX Classes
 90
     4095
 91
        1
280
     0
281
     0
  0
CLASS
  1
MLEADERSTYLE
  2
AcDbMLeaderStyle
  3
ACDB_MLEADERSTYLE_CLASS
 90
     4095
 91
        1
280
     0
281
     0
  0
CLASS
  1
ACDBSECTIONVIEWSTYLE
  2
AcDbSectionViewStyle
  3
ObjectDBX Classes
 90
     1025
 91
        1
280
     0
281
     0
  0
CLASS
  1
ACDBDETAILVIEWSTYLE
  2
AcDbDetailViewStyle
  3
ObjectDBX Classes
 90
     1025
 91
        1
280
     0
281
     0
  0
CLASS
  1
DICTIONARYVAR
  2
AcDbDictionaryVar
  3
ObjectDBX Classes
 90
        0
 91
        5
280
     0
281
     0
  0
CLASS
  1
CELLSTYLEMAP
  2
AcDbCellStyleMap
  3
ObjectDBX Classes
 90
     1152
 91
        1
280
     0
281
     0
  0
ENDSEC
  0
SECTION
  2
TABLES
  0
TABLE
  2
VPORT
  5
8
330
0
100
AcDbSymbolTable
 70
     1
  0
VPORT
  5
57
330
8
100
AcDbSymbolTableRecord
100
AcDbViewportTableRecord
  2
*Active
 70
     0
 10
0.0
 20
0.0
 11
1.0
 21
1.0
 12
0.0
 22
0.0
 13
0.0
 23
0.0
 14
1.0
 24
1.0
 15
0.0
 25
0.0
 16
0.0
 26
0.0
 36
1.0
 17
49.99999998749986
 27
-49.99999998749986
 37
0.0
 40
101.9999999744997
 41
1.0
 42
50.0
 43
0.0
 44
0.0
 50
0.0
 51
0.0
 71
     0
 72
   100
 73
     1
 74
     1
 75
     0
 76
     0
 77
     0
 78
     0
281
     0
 65
     1
110
0.0
120
0.0
130
0.0
111
1.0
121
0.0
131
0.0
112
0.0
122
1.0
132
0.0
 79
     0
146
0.0
 60
     3
 61
     5
292
     1
282
     1
141
0.0
142
0.0
 63
   250
421
  3355443
  0
ENDTAB
  0
TABLE
  2
LTYPE
  5
5
330
0
100
AcDbSymbolTable
 70
     1
  0
LTYPE
  5
5B
330
5
100
AcDbSymbolTableRecord
100
AcDbLinetypeTableRecord
  2
ByBlock
 70
     0
  3

 72
    65
 73
     0
 40
0.0
  0
LTYPE
  5
5C
330
5
100
AcDbSymbolTableRecord
100
AcDbLinetypeTableRecord
  2
ByLayer
 70
     0
  3

 72
    65
 73
     0
 40
0.0
  0
LTYPE
  5
5D
330
5
100
AcDbSymbolTableRecord
100
AcDbLinetypeTableRecord
  2
Continuous
 70
     0
  3
Solid line
 72
    65
 73
     0
 40
0.0
  0
ENDTAB
  0
TABLE
  2
LAYER
  5
2
330
0
100
AcDbSymbolTable
 70
     2
  0
LAYER
  5
54
330
2
100
AcDbSymbolTableRecord
100
AcDbLayerTableRecord
  2
0
 70
     0
 62
     7
  6
Continuous
370
    -3
390
F
347
21
348
0
  0
LAYER
  5
78
330
2
100
AcDbSymbolTableRecord
100
AcDbLayerTableRecord
  2
Camada 1
 70
     0
 62
     7
  6
Continuous
370
     0
390
F
347
21
348
0
  0
ENDTAB
  0
TABLE
  2
STYLE
  5
3
330
0
100
AcDbSymbolTable
 70
     2
  0
STYLE
  5
55
330
3
100
AcDbSymbolTableRecord
100
AcDbTextStyleTableRecord
  2
Standard
 70
     0
 40
0.0
 41
1.0
 50
0.0
 71
     0
 42
0.2
  3
txt
  4

  0
STYLE
  5
5A
330
3
100
AcDbSymbolTableRecord
100
AcDbTextStyleTableRecord
  2
Annotative
 70
     0
 40
0.0
 41
1.0
 50
0.0
 71
     0
 42
0.2
  3
txt
  4

1001
AcadAnnotative
1000
AnnotativeData
1002
{
1070
     1
1070
     1
1002
}
  0
ENDTAB
  0
TABLE
  2
VIEW
  5
6
330
0
100
AcDbSymbolTable
 70
     0
  0
ENDTAB
  0
TABLE
  2
UCS
  5
7
330
0
100
AcDbSymbolTable
 70
     0
  0
ENDTAB
  0
TABLE
  2
APPID
  5
9
330
0
100
AcDbSymbolTable
 70
     2
  0
APPID
  5
56
330
9
100
AcDbSymbolTableRecord
100
AcDbRegAppTableRecord
  2
ACAD
 70
     0
  0
APPID
  5
5E
330
9
100
AcDbSymbolTableRecord
100
AcDbRegAppTableRecord
  2
AcadAnnotative
 70
     0
  0
ENDTAB
  0
TABLE
  2
DIMSTYLE
  5
A
330
0
100
AcDbSymbolTable
 70
     2
100
AcDbDimStyleTable
 71
     0
  0
DIMSTYLE
105
58
330
A
100
AcDbSymbolTableRecord
100
AcDbDimStyleTableRecord
  2
Standard
 70
     0
340
55
  0
DIMSTYLE
105
59
330
A
100
AcDbSymbolTableRecord
100
AcDbDimStyleTableRecord
  2
Annotative
 70
     0
340
55
1001
AcadAnnotative
1000
AnnotativeData
1002
{
1070
     1
1070
     1
1002
}
  0
ENDTAB
  0
TABLE
  2
BLOCK_RECORD
  5
1
330
0
100
AcDbSymbolTable
 70
     3
  0
BLOCK_RECORD
  5
70
330
1
100
AcDbSymbolTableRecord
100
AcDbBlockTableRecord
  2
*Model_Space
340
73
 70
     0
280
     1
281
     0
  0
BLOCK_RECORD
  5
6C
330
1
100
AcDbSymbolTableRecord
100
AcDbBlockTableRecord
  2
*Paper_Space
340
6F
 70
     0
280
     1
281
     0
  0
BLOCK_RECORD
  5
74
330
1
100
AcDbSymbolTableRecord
100
AcDbBlockTableRecord
  2
*Paper_Space0
340
77
 70
     0
280
     1
281
     0
  0
BLOCK_RECORD
  5
79
330
1
100
AcDbSymbolTableRecord
100
AcDbBlockTableRecord
  2
Block_0
340
0
102
{BLKREFS
331
7A
102
}
 70
     0
280
     1
281
     0
  0
BLOCK_RECORD
  5
E1
330
1
100
AcDbSymbolTableRecord
100
AcDbBlockTableRecord
  2
Block_1
340
0
102
{BLKREFS
331
E2
102
}
 70
     0
280
     1
281
     0
  0
ENDTAB
  0
ENDSEC
  0
SECTION
  2
BLOCKS
  0
BLOCK
  5
71
330
70
100
AcDbEntity
  8
0
100
AcDbBlockBegin
  2
*Model_Space
 70
     0
 10
0.0
 20
0.0
 30
0.0
  3
*Model_Space
  1

  0
ENDBLK
  5
72
330
70
100
AcDbEntity
  8
0
100
AcDbBlockEnd
  0
BLOCK
  5
6D
330
6C
100
AcDbEntity
 67
     1
  8
0
100
AcDbBlockBegin
  2
*Paper_Space
 70
     0
 10
0.0
 20
0.0
 30
0.0
  3
*Paper_Space
  1

  0
ENDBLK
  5
6E
330
6C
100
AcDbEntity
 67
     1
  8
0
100
AcDbBlockEnd
  0
BLOCK
  5
75
330
74
100
AcDbEntity
 67
     1
  8
0
100
AcDbBlockBegin
  2
*Paper_Space0
 70
     0
 10
0.0
 20
0.0
 30
0.0
  3
*Paper_Space0
  1

  0
ENDBLK
  5
76
330
74
100
AcDbEntity
 67
     1
  8
0
100
AcDbBlockEnd
  0
BLOCK
  5
7B
330
79
100
AcDbEntity
  8
0
100
AcDbBlockBegin
  2
Block_0
 70
     0
 10
0.0
 20
0.0
 30
0.0
  3
Block_0
  1

  0
LINE
  5
7D
330
79
100
AcDbEntity
  8
Camada 1
 62
   250
420
  1907995
370
    15
100
AcDbLine
 10
22.678582425876
 20
-57.20017837898571
 30
0.0
 11
39.41493700927595
 21
-57.20017837898571
 31
0.0
  0
LINE
  5
7E
330
79
100
AcDbEntity
  8
Camada 1
 62
   250
420
  1907995
370
    15
100
AcDbLine
 10
23.87801216854979
 20
-57.66148483159086
 30
0.0
 11
24.85593053066031
 21
-57.66148483159086
 31
0.0
  0
LWPOLYLINE
  5
7F
330
79
100
AcDbEntity
  8
Camada 1
 62
   250
420
  1907995
370
    15
100
AcDbPolyline
 90
        7
 70
     0
 43
0.0
 10
25.1328169662902
 20
-57.66148483159086
 10
26.11072119738254
 20
-57.66148483159086
 10
26.33217767426199
 20
-57.6799614849744
 10
26.51673628912053
 20
-57.79068279573044
 10
26.66435545909614
 20
-57.93830196943817
 10
26.75653080936828
 20
-58.12279128418509
 10
26.79348411520426
 20
-58.3257018084912
  0
LINE
  5
80
330
79
100
AcDbEntity
  8
Camada 1
 62
   250
420
  1907995
370
    15
100
AcDbLine
 10
38.45537082155224
 20
-57.90134866266403
 30
0.0
 11
38.38153351465866
 21
-58.56569038816775
 31
0.0
  0
LINE
  5
81
330
79
100
AcDbEntity
  8
Camada 1
 62
   250
420
  1907995
370
    15
100
AcDbLine
 10
38.36318161033091
 20
-58.84243822124375
 30
0.0
 11
38.2523909975943
 21
-59.93114695353057
 31
0.0
  0
LINE
  5
82
330
79
100
AcDbEntity
  8
Camada 1
 62
   250
420
  1907995
370
    15
100
AcDbLine
 10
38.23391434467664
 20
-60.18941813321918
 30
0.0
 11
38.12326234148907
 21
-61.27812686550342
 31
0.0
  0
LINE
  5
83
330
79
100
AcDbEntity
  8
Camada 1
 62
   250
420
  1907995
370
    15
100
AcDbLine
 10
38.10478568857141
 20
-61.53639804519203
 30
0.0
 11
37.95716651859644
 21
-63.06806132528393
 31
0.0
  0
LWPOLYLINE
  5
84
330
79
100
AcDbEntity
  8
Camada 1
 62
   250
420
  1907995
370
    15
100
AcDbPolyline
 90
        4
 70
     0
 43
0.0
 10
38.45537082155224
 20
-57.90134866266403
 10
38.41848682049079
 20
-57.77220614234305
 10
38.3447049574126
 20
-57.6799614849744
 10
38.21557630130801
 20
-57.66148483159086
  0
LWPOLYLINE
  5
85
330
79
100
AcDbEntity
  8
Camada 1
 62
   250
420
  1907995
370
    15
100
AcDbPolyline
 90
        1
 70
     0
 43
0.0
 10
22.678582425876
 20
-57.20017837898571
  0
LWPOLYLINE
  5
86
330
79
100
AcDbEntity
  8
Camada 1
 62
   250
420
  1907995
370
    15
100
AcDbPolyline
 90
        1
 70
     0
 43
0.0
 10
38.17862299547204
 20
-70.31975274172449
  0
LINE
  5
87
330
79
100
AcDbEntity
  8
Camada 1
 62
   250
420
  1907995
370
    15
100
AcDbLine
 10
24.13419060758555
 20
-63.12390711409452
 30
0.0
 11
24.00715495567641
 21
-61.53639804519203
 31
0.0
  0
LINE
  5
88
330
79
100
AcDbEntity
  8
Camada 1
 62
   250
420
  1907995
370
    15
100
AcDbLine
 10
23.97027095461528
 20
-61.27812686550342
 30
0.0
 11
23.87801216854979
 21
-60.18941813321918
 31
0.0
  0
LINE
  5
89
330
79
100
AcDbEntity
  8
Camada 1
 62
   250
420
  1907995
370
    15
100
AcDbLine
 10
23.8410591327796
 20
-59.93114695353057
 30
0.0
 11
23.74888378251067
 21
-58.84243822124375
 31
0.0
  0
LWPOLYLINE
  5
8A
330
79
100
AcDbEntity
  8
Camada 1
 62
   250
420
  1907995
370
    15
100
AcDbPolyline
 90
        5
 70
     0
 43
0.0
 10
23.7119304766747
 20
-58.56569038816775
 10
23.6565698226959
 20
-57.90134866266403
 10
23.67504647561036
 20
-57.77220614234305
 10
23.7672218258825
 20
-57.6799614849744
 10
23.87801216854979
 20
-57.66148483159086
  0
LWPOLYLINE
  5
8B
330
79
100
AcDbEntity
  8
Camada 1
 62
   250
420
  1907995
370
    15
100
AcDbPolyline
 90
        3
 70
     0
 43
0.0
 10
29.28460265668664
 20
-59.85724033998614
 10
29.32141735297293
 20
-60.18941813321918
 10
29.39525465986971
 20
-60.429337408118
  0
LWPOLYLINE
  5
8C
330
79
100
AcDbEntity
  8
Camada 1
 62
   250
420
  1907995
370
    15
100
AcDbPolyline
 90
        5
 70
     0
 43
0.0
 10
29.50598982878772
 20
-60.68767789258819
 10
29.57982713568835
 20
-60.83529706629271
 10
29.80120044683286
 20
-61.09355438502796
 10
30.07794827291658
 20
-61.31508017227435
 10
30.26252074872817
 20
-61.42573217825457
  0
LWPOLYLINE
  5
8D
330
79
100
AcDbEntity
  8
Camada 1
 62
   250
420
  1907995
370
    15
100
AcDbPolyline
 90
        5
 70
     0
 43
0.0
 10
30.52091667049055
 20
-61.51804614040545
 10
30.70535053675598
 20
-61.59182800534649
 10
31.0560049745078
 20
-61.61030465873004
 10
31.38811345457417
 20
-61.59182800534649
 10
31.5911487223507
 20
-61.51804614040545
  0
LWPOLYLINE
  5
8E
330
79
100
AcDbEntity
  8
Camada 1
 62
   250
420
  1907995
370
    15
100
AcDbPolyline
 90
        5
 70
     0
 43
0.0
 10
31.83094324259845
 20
-61.42573217825457
 10
32.03397851037851
 20
-61.31508017227435
 10
32.29224968354072
 20
-61.09355438502796
 10
32.51377546519502
 20
-60.83529706629271
 10
32.60595081546042
 20
-60.68767789258819
  0
LWPOLYLINE
  5
8F
330
79
100
AcDbEntity
  8
Camada 1
 62
   250
420
  1907995
370
    15
100
AcDbPolyline
 90
        4
 70
     0
 43
0.0
 10
32.71667212342186
 20
-60.429337408118
 10
32.79050943031864
 20
-60.18941813321918
 10
32.80898608323663
 20
-59.85724033998614
 10
32.80898608323663
 20
-58.89779887662626
  0
LINE
  5
90
330
79
100
AcDbEntity
  8
Camada 1
 62
   250
420
  1907995
370
    15
100
AcDbLine
 10
32.80898608323663
 20
-58.62092629494688
 30
0.0
 11
32.80898608323663
 21
-57.66148483159086
 31
0.0
  0
LINE
  5
91
330
79
100
AcDbEntity
  8
Camada 1
 62
   250
420
  1907995
370
    15
100
AcDbLine
 10
29.28460265668664
 20
-59.85724033998614
 30
0.0
 11
29.28460265668664
 21
-58.89779887662626
 31
0.0
  0
LINE
  5
92
330
79
100
AcDbEntity
  8
Camada 1
 62
   250
420
  1907995
370
    15
100
AcDbLine
 10
29.28460265668664
 20
-58.62092629494688
 30
0.0
 11
29.28460265668664
 21
-57.66148483159086
 31
0.0
  0
SPLINE
  5
93
330
79
100
AcDbEntity
  8
Camada 1
 62
   250
420
  1907995
370
    15
100
AcDbSpline
210
0.0
220
0.0
230
1.0
 70
     9
 71
     3
 72
    17
 73
    13
 74
     0
 42
0.0000000001
 43
0.0000000001
 40
0.0
 40
0.0
 40
0.0
 40
0.0
 40
1.0
 40
1.0
 40
1.0
 40
2.0
 40
2.0
 40
2.0
 40
3.0
 40
3.0
 40
3.0
 40
4.0
 40
4.0
 40
4.0
 40
4.0
 10
31.04680130043816
 20
-64.10140940218823
 30
0.0
 10
30.02258761893426
 20
-64.10140940218823
 30
0.0
 10
29.19228869686834
 20
-64.93165290140852
 30
0.0
 10
29.19228869686834
 20
-65.95578344305753
 30
0.0
 10
29.19228869686834
 20
-66.98006645520893
 30
0.0
 10
30.02258761893426
 20
-67.81036539825423
 30
0.0
 10
31.04680130043816
 20
-67.81036539825423
 30
0.0
 10
32.07093181621095
 20
-67.81036539825423
 30
0.0
 10
32.90124459923312
 20
-66.98006645520893
 30
0.0
 10
32.90124459923312
 20
-65.95578344305753
 30
0.0
 10
32.90124459923312
 20
-64.93165290140852
 30
0.0
 10
32.07093181621095
 20
-64.10140940218823
 30
0.0
 10
31.04680130043816
 20
-64.10140940218823
 30
0.0
  0
SPLINE
  5
94
330
79
100
AcDbEntity
  8
Camada 1
 62
   250
420
  1907995
370
    15
100
AcDbSpline
210
0.0
220
0.0
230
1.0
 70
     9
 71
     3
 72
    17
 73
    13
 74
     0
 42
0.0000000001
 43
0.0000000001
 40
0.0
 40
0.0
 40
0.0
 40
0.0
 40
1.0
 40
1.0
 40
1.0
 40
2.0
 40
2.0
 40
2.0
 40
3.0
 40
3.0
 40
3.0
 40
4.0
 40
4.0
 40
4.0
 40
4.0
 10
31.04680130043816
 20
-63.64010294959014
 30
0.0
 10
29.76776782354865
 20
-63.64010294959014
 30
0.0
 10
28.7309683949695
 20
-64.67683309958828
 30
0.0
 10
28.7309683949695
 20
-65.95578344305753
 30
0.0
 10
28.7309683949695
 20
-67.23474764748655
 30
0.0
 10
29.76776782354865
 20
-68.27168571180184
 30
0.0
 10
31.04680130043816
 20
-68.27168571180184
 30
0.0
 10
32.32575161159977
 20
-68.27168571180184
 30
0.0
 10
33.36255104017892
 20
-67.23474764748655
 30
0.0
 10
33.36255104017892
 20
-65.95578344305753
 30
0.0
 10
33.36255104017892
 20
-64.67683309958828
 30
0.0
 10
32.32575161159977
 20
-63.64010294959014
 30
0.0
 10
31.04680130043816
 20
-63.64010294959014
 30
0.0
  0
SPLINE
  5
95
330
79
100
AcDbEntity
  8
Camada 1
 62
   250
420
  1907995
370
    15
100
AcDbSpline
210
0.0
220
0.0
230
1.0
 70
     9
 71
     3
 72
    17
 73
    13
 74
     0
 42
0.0000000001
 43
0.0000000001
 40
0.0
 40
0.0
 40
0.0
 40
0.0
 40
1.0
 40
1.0
 40
1.0
 40
2.0
 40
2.0
 40
2.0
 40
3.0
 40
3.0
 40
3.0
 40
4.0
 40
4.0
 40
4.0
 40
4.0
 10
26.96878361217103
 20
-60.87225037306364
 30
0.0
 10
26.65792397601059
 20
-60.87225037306364
 30
0.0
 10
26.40594567638393
 20
-61.12421481810132
 30
0.0
 10
26.40594567638393
 20
-61.43500515733617
 30
0.0
 10
26.40594567638393
 20
-61.74586480134941
 30
0.0
 10
26.65792397601059
 20
-61.99770449778626
 30
0.0
 10
26.96878361217103
 20
-61.99770449778626
 30
0.0
 10
27.27962911731296
 20
-61.99770449778626
 30
0.0
 10
27.53153838223025
 20
-61.74586480134941
 30
0.0
 10
27.53153838223025
 20
-61.43500515733617
 30
0.0
 10
27.53153838223025
 20
-61.12421481810132
 30
0.0
 10
27.27962911731296
 20
-60.87225037306364
 30
0.0
 10
26.96878361217103
 20
-60.87225037306364
 30
0.0
  0
LWPOLYLINE
  5
96
330
79
100
AcDbEntity
  8
Camada 1
 62
   250
420
  1907995
370
    15
100
AcDbPolyline
 90
        8
 70
     0
 43
0.0
 10
26.79348411520426
 20
-59.8389022961555
 10
26.75653080936828
 20
-60.07875226627531
 10
26.6274021532637
 20
-60.28173209537005
 10
26.4428989822199
 20
-60.4478140615086
 10
26.22145636630023
 20
-60.59543323520927
 10
26.05542957811633
 20
-60.79832989856521
 10
25.92616258252399
 20
-61.01985568581866
 10
25.85239458040173
 20
-61.27812686550342
  0
LWPOLYLINE
  5
97
330
79
100
AcDbEntity
  8
Camada 1
 62
   250
420
  1907995
370
    15
100
AcDbPolyline
 90
        4
 70
     0
 43
0.0
 10
26.97805659101552
 20
-62.5698708706933
 10
27.27326720906451
 20
-62.53291756392621
 10
27.55001503514471
 20
-62.42219625317017
 10
27.60537568913056
 20
-62.36683559778766
  0
LWPOLYLINE
  5
98
330
79
100
AcDbEntity
  8
Camada 1
 62
   250
420
  1907995
370
    15
100
AcDbPolyline
 90
        5
 70
     0
 43
0.0
 10
27.80835551308882
 20
-62.18226311731221
 10
27.95596082210785
 20
-61.99770449778626
 10
28.06669599102587
 20
-61.72095666471411
 10
28.10357999208668
 20
-61.42573217825457
 10
28.06669599102587
 20
-61.16746099856661
  0
LWPOLYLINE
  5
99
330
79
100
AcDbEntity
  8
Camada 1
 62
   250
420
  1907995
370
    15
100
AcDbPolyline
 90
        7
 70
     0
 43
0.0
 10
27.97443747502552
 20
-60.927472418883
 10
27.93748416918987
 20
-60.85377371967625
 10
27.75306416388101
 20
-60.61377127903991
 10
27.51313103408326
 20
-60.4478140615086
 10
27.32857241922503
 20
-60.28173209537005
 10
27.19942990216388
 20
-60.07875226627531
 10
27.1624765963279
 20
-59.8389022961555
  0
SPLINE
  5
9A
330
79
100
AcDbEntity
  8
Camada 1
 62
   250
420
  1907995
370
    15
100
AcDbSpline
210
0.0
220
0.0
230
1.0
 70
     9
 71
     3
 72
    17
 73
    13
 74
     0
 42
0.0000000001
 43
0.0000000001
 40
0.0
 40
0.0
 40
0.0
 40
0.0
 40
1.0
 40
1.0
 40
1.0
 40
2.0
 40
2.0
 40
2.0
 40
3.0
 40
3.0
 40
3.0
 40
4.0
 40
4.0
 40
4.0
 40
4.0
 10
35.10627303101598
 20
-60.87225037306364
 30
0.0
 10
34.79541339485586
 20
-60.87225037306364
 30
0.0
 10
34.5434350952292
 20
-61.12421481810132
 30
0.0
 10
34.5434350952292
 20
-61.43500515733617
 30
0.0
 10
34.5434350952292
 20
-61.74586480134941
 30
0.0
 10
34.79541339485586
 20
-61.99770449778626
 30
0.0
 10
35.10627303101598
 20
-61.99770449778626
 30
0.0
 10
35.41711853615471
 20
-61.99770449778626
 30
0.0
 10
35.66909710584298
 20
-61.74586480134941
 30
0.0
 10
35.66909710584298
 20
-61.43500515733617
 30
0.0
 10
35.66909710584298
 20
-61.12421481810132
 30
0.0
 10
35.41711853615471
 20
-60.87225037306364
 30
0.0
 10
35.10627303101598
 20
-60.87225037306364
 30
0.0
  0
LINE
  5
9B
330
79
100
AcDbEntity
  8
Camada 1
 62
   250
420
  1907995
370
    15
100
AcDbLine
 10
27.1624765963279
 20
-59.8389022961555
 30
0.0
 11
27.1624765963279
 21
-59.22983806029999
 31
0.0
  0
LINE
  5
9C
330
79
100
AcDbEntity
  8
Camada 1
 62
   250
420
  1907995
370
    15
100
AcDbLine
 10
27.1624765963279
 20
-58.95309022722784
 30
0.0
 11
27.1624765963279
 21
-58.3257018084912
 31
0.0
  0
LINE
  5
9D
330
79
100
AcDbEntity
  8
Camada 1
 62
   250
420
  1907995
370
    15
100
AcDbLine
 10
26.79348411520426
 20
-59.8389022961555
 30
0.0
 11
26.79348411520426
 21
-59.22983806029999
 31
0.0
  0
LINE
  5
9E
330
79
100
AcDbEntity
  8
Camada 1
 62
   250
420
  1907995
370
    15
100
AcDbLine
 10
26.79348411520426
 20
-58.95309022722784
 30
0.0
 11
26.79348411520426
 21
-58.3257018084912
 31
0.0
  0
LWPOLYLINE
  5
9F
330
79
100
AcDbEntity
  8
Camada 1
 62
   250
420
  1907995
370
    15
100
AcDbPolyline
 90
        4
 70
     0
 43
0.0
 10
26.97805659101552
 20
-62.5698708706933
 10
26.57204149928106
 20
-62.73589739301325
 10
26.18455850428285
 20
-62.95727070975337
 10
25.98159254128148
 20
-63.12336653684144
  0
LWPOLYLINE
  5
A0
330
79
100
AcDbEntity
  8
Camada 1
 62
   250
420
  1907995
370
    15
100
AcDbPolyline
 90
        4
 70
     0
 43
0.0
 10
25.77854341254485
 20
-63.30792515636353
 10
25.55717010140002
 20
-63.54771968266859
 10
25.31723697160258
 20
-63.91685078266615
 10
25.188108315498
 20
-64.21207526912567
  0
LWPOLYLINE
  5
A1
330
79
100
AcDbEntity
  8
Camada 1
 62
   250
420
  1907995
370
    15
100
AcDbPolyline
 90
        4
 70
     0
 43
0.0
 10
25.09586366045454
 20
-64.47033258786477
 10
25.0220124926044
 20
-64.74721903048662
 10
24.96672114339692
 20
-65.17164148108509
 10
24.98519779631843
 20
-65.61447128029964
  0
LWPOLYLINE
  5
A2
330
79
100
AcDbEntity
  8
Camada 1
 62
   250
420
  1907995
370
    15
100
AcDbPolyline
 90
        3
 70
     0
 43
0.0
 10
24.13635291655584
 20
-63.06806132528393
 10
24.65302001147722
 20
-62.69901339101427
 10
25.00353583968288
 20
-62.36683559778766
  0
LWPOLYLINE
  5
A3
330
79
100
AcDbEntity
  8
Camada 1
 62
   250
420
  1907995
370
    15
100
AcDbPolyline
 90
        3
 70
     0
 43
0.0
 10
25.188108315498
 20
-62.18226311731221
 10
25.52028610033536
 20
-61.81327062686114
 10
25.85239458040173
 20
-61.27812686550342
  0
LWPOLYLINE
  5
A4
330
79
100
AcDbEntity
  8
Camada 1
 62
   250
420
  1907995
370
    15
100
AcDbPolyline
 90
        3
 70
     0
 43
0.0
 10
24.98519779631843
 20
-65.61447128029964
 10
25.11434031337574
 20
-66.33404891258249
 10
25.20658469835406
 20
-66.68470335919649
  0
LWPOLYLINE
  5
A5
330
79
100
AcDbEntity
  8
Camada 1
 62
   250
420
  1907995
370
    15
100
AcDbPolyline
 90
        4
 70
     0
 43
0.0
 10
25.28042227531662
 20
-66.94297453889152
 10
25.29882962345944
 20
-67.05376515442208
 10
25.57564675431801
 20
-67.73645878470981
 10
25.6862987575046
 20
-67.93950791857522
  0
LWPOLYLINE
  5
A6
330
79
100
AcDbEntity
  8
Camada 1
 62
   250
420
  1907995
370
    15
100
AcDbPolyline
 90
        4
 70
     0
 43
0.0
 10
25.79703392641909
 20
-68.1792885839205
 10
25.90782453915569
 20
-68.40081437116946
 10
26.31370102134047
 20
-69.00973999747591
 10
26.38746902346947
 20
-69.10191535007647
  0
LWPOLYLINE
  5
A7
330
79
100
AcDbEntity
  8
Camada 1
 62
   250
420
  1907995
370
    15
100
AcDbPolyline
 90
        3
 70
     0
 43
0.0
 10
26.55356484636307
 20
-69.30495062297824
 10
26.77500746228274
 20
-69.58169845605103
 10
27.29174386198602
 20
-70.09844872975631
  0
LINE
  5
A8
330
79
100
AcDbEntity
  8
Camada 1
 62
   250
420
  1907995
370
    15
100
AcDbLine
 10
27.84523951414963
 20
-57.66148483159086
 30
0.0
 11
28.87858756494864
 21
-57.66148483159086
 31
0.0
  0
LINE
  5
A9
330
79
100
AcDbEntity
  8
Camada 1
 62
   250
420
  1907995
370
    15
100
AcDbLine
 10
29.15533539103237
 20
-57.66148483159086
 30
0.0
 11
30.24404409581372
 21
-57.66148483159086
 31
0.0
  0
LINE
  5
AA
330
79
100
AcDbEntity
  8
Camada 1
 62
   250
420
  1907995
370
    15
100
AcDbLine
 10
30.50243974750358
 20
-57.66148483159086
 30
0.0
 11
31.5911487223507
 21
-57.66148483159086
 31
0.0
  0
LINE
  5
AB
330
79
100
AcDbEntity
  8
Camada 1
 62
   250
420
  1907995
370
    15
100
AcDbLine
 10
31.86789654843443
 20
-57.66148483159086
 30
0.0
 11
32.95660525321577
 21
-57.66148483159086
 31
0.0
  0
LINE
  5
AC
330
79
100
AcDbEntity
  8
Camada 1
 62
   250
420
  1907995
370
    15
100
AcDbLine
 10
33.21487642638151
 20
-57.66148483159086
 30
0.0
 11
34.26668726914547
 21
-57.66148483159086
 31
0.0
  0
LINE
  5
AD
330
79
100
AcDbEntity
  8
Camada 1
 62
   250
420
  1907995
370
    15
100
AcDbLine
 10
35.98272893298784
 20
-57.66148483159086
 30
0.0
 11
36.96078563458579
 21
-57.66148483159086
 31
0.0
  0
LINE
  5
AE
330
79
100
AcDbEntity
  8
Camada 1
 62
   250
420
  1907995
370
    15
100
AcDbLine
 10
37.23751959971327
 20
-57.66148483159086
 30
0.0
 11
38.21557630130801
 21
-57.66148483159086
 31
0.0
  0
LWPOLYLINE
  5
AF
330
79
100
AcDbEntity
  8
Camada 1
 62
   250
420
  1907995
370
    15
100
AcDbPolyline
 90
        6
 70
     0
 43
0.0
 10
27.84523951414963
 20
-57.66148483159086
 10
27.62378303727017
 20
-57.6799614849744
 10
27.43936303196132
 20
-57.79068279573044
 10
27.29174386198602
 20
-57.93830196943817
 10
27.19942990216388
 20
-58.12279128418509
 10
27.1624765963279
 20
-58.3257018084912
  0
LINE
  5
B0
330
79
100
AcDbEntity
  8
Camada 1
 62
   250
420
  1907995
370
    15
100
AcDbLine
 10
34.80184487794077
 20
-70.09844872975631
 30
0.0
 11
33.89769478801829
 21
-70.09844872975631
 31
0.0
  0
LINE
  5
B1
330
79
100
AcDbEntity
  8
Camada 1
 62
   250
420
  1907995
370
    15
100
AcDbLine
 10
33.63929886625912
 20
-70.09844872975631
 30
0.0
 11
32.5505901614813
 21
-70.09844872975631
 31
0.0
  0
LINE
  5
B2
330
79
100
AcDbEntity
  8
Camada 1
 62
   250
420
  1907995
370
    15
100
AcDbLine
 10
32.27384233539758
 20
-70.09844872975631
 30
0.0
 11
31.18513363061623
 21
-70.09844872975631
 31
0.0
  0
LINE
  5
B3
330
79
100
AcDbEntity
  8
Camada 1
 62
   250
420
  1907995
370
    15
100
AcDbLine
 10
30.90831649975767
 20
-70.09844872975631
 30
0.0
 11
29.81967709975116
 21
-70.09844872975631
 31
0.0
  0
LINE
  5
B4
330
79
100
AcDbEntity
  8
Camada 1
 62
   250
420
  1907995
370
    15
100
AcDbLine
 10
29.56135048276684
 20
-70.09844872975631
 30
0.0
 11
28.47264150792356
 21
-70.09844872975631
 31
0.0
  0
LINE
  5
B5
330
79
100
AcDbEntity
  8
Camada 1
 62
   250
420
  1907995
370
    15
100
AcDbLine
 10
28.19589395190177
 20
-70.09844872975631
 30
0.0
 11
27.29174386198602
 21
-70.09844872975631
 31
0.0
  0
LWPOLYLINE
  5
B6
330
79
100
AcDbEntity
  8
Camada 1
 62
   250
420
  1907995
370
    15
100
AcDbPolyline
 90
        6
 70
     0
 43
0.0
 10
35.98272893298784
 20
-57.66148483159086
 10
35.77976296998647
 20
-57.6799614849744
 10
35.57685245080306
 20
-57.79068279573044
 10
35.42923328082359
 20
-57.93830196943817
 10
35.33691932100851
 20
-58.12279128418509
 10
35.29996601516933
 20
-58.3257018084912
  0
LWPOLYLINE
  5
B7
330
79
100
AcDbEntity
  8
Camada 1
 62
   250
420
  1907995
370
    15
100
AcDbPolyline
 90
        8
 70
     0
 43
0.0
 10
36.24106941093195
 20
-61.27812686550342
 10
36.18577806172414
 20
-61.01985568581866
 10
36.05663554466299
 20
-60.79832989856521
 10
35.87207692980413
 20
-60.59543323520927
 10
35.66909710584298
 20
-60.4478140615086
 10
35.46606183806645
 20
-60.28173209537005
 10
35.35539597392361
 20
-60.07875226627531
 10
35.29996601516933
 20
-59.8389022961555
  0
LWPOLYLINE
  5
B8
330
79
100
AcDbEntity
  8
Camada 1
 62
   250
420
  1907995
370
    15
100
AcDbPolyline
 90
        4
 70
     0
 43
0.0
 10
34.58038840106196
 20
-60.4478140615086
 10
34.34053816693305
 20
-60.61377127903991
 10
34.15596596118371
 20
-60.85377371967625
 10
34.1190819601229
 20
-60.927472418883
  0
LWPOLYLINE
  5
B9
330
79
100
AcDbEntity
  8
Camada 1
 62
   250
420
  1907995
370
    15
100
AcDbPolyline
 90
        5
 70
     0
 43
0.0
 10
34.02683730507913
 20
-61.16746099856661
 10
33.98988399923994
 20
-61.42573217825457
 10
34.02683730507913
 20
-61.72095666471411
 10
34.13748930826219
 20
-61.99770449778626
 10
34.28516392206346
 20
-62.18226311731221
  0
LWPOLYLINE
  5
BA
330
79
100
AcDbEntity
  8
Camada 1
 62
   250
420
  1907995
370
    15
100
AcDbPolyline
 90
        4
 70
     0
 43
0.0
 10
34.4881437460214
 20
-62.36683559778766
 10
34.56191174814686
 20
-62.42219625317017
 10
34.82032153085908
 20
-62.53291756392621
 10
35.11554600986079
 20
-62.5698708706933
  0
LWPOLYLINE
  5
BB
330
79
100
AcDbEntity
  8
Camada 1
 62
   250
420
  1907995
370
    15
100
AcDbPolyline
 90
        5
 70
     0
 43
0.0
 10
34.58038840106196
 20
-60.4478140615086
 10
34.7833682250231
 20
-60.28173209537005
 10
34.89408953298776
 20
-60.07875226627531
 10
34.94944991690206
 20
-59.8389022961555
 10
34.94944991690206
 20
-59.22983806029999
  0
LINE
  5
BC
330
79
100
AcDbEntity
  8
Camada 1
 62
   250
420
  1907995
370
    15
100
AcDbLine
 10
34.94944991690206
 20
-58.95309022722784
 30
0.0
 11
34.94944991690206
 21
-58.3257018084912
 31
0.0
  0
LINE
  5
BD
330
79
100
AcDbEntity
  8
Camada 1
 62
   250
420
  1907995
370
    15
100
AcDbLine
 10
35.29996601516933
 20
-59.8389022961555
 30
0.0
 11
35.29996601516933
 21
-59.22983806029999
 31
0.0
  0
LINE
  5
BE
330
79
100
AcDbEntity
  8
Camada 1
 62
   250
420
  1907995
370
    15
100
AcDbLine
 10
35.29996601516933
 20
-58.95309022722784
 30
0.0
 11
35.29996601516933
 21
-58.3257018084912
 31
0.0
  0
LWPOLYLINE
  5
BF
330
79
100
AcDbEntity
  8
Camada 1
 62
   250
420
  1907995
370
    15
100
AcDbPolyline
 90
        3
 70
     0
 43
0.0
 10
36.24106941093195
 20
-61.27812686550342
 10
36.5917238486873
 20
-61.81327062686114
 10
36.90535567582831
 20
-62.18226311731221
  0
LWPOLYLINE
  5
C0
330
79
100
AcDbEntity
  8
Camada 1
 62
   250
420
  1907995
370
    15
100
AcDbPolyline
 90
        3
 70
     0
 43
0.0
 10
37.08991429069037
 20
-62.36683559778766
 10
37.45890677181435
 20
-62.69901339101427
 10
37.95716651859644
 20
-63.06806132528393
  0
LWPOLYLINE
  5
C1
330
79
100
AcDbEntity
  8
Camada 1
 62
   250
420
  1907995
370
    15
100
AcDbPolyline
 90
        6
 70
     0
 43
0.0
 10
34.94944991690206
 20
-58.3257018084912
 10
34.91249688112769
 20
-58.12279128418509
 10
34.82032153085908
 20
-57.93830196943817
 10
34.65422570796195
 20
-57.79068279573044
 10
34.46966709310373
 20
-57.6799614849744
 10
34.26668726914547
 20
-57.66148483159086
  0
LWPOLYLINE
  5
C2
330
79
100
AcDbEntity
  8
Camada 1
 62
   250
420
  1907995
370
    15
100
AcDbPolyline
 90
        4
 70
     0
 43
0.0
 10
37.10839094360868
 20
-65.61447128029964
 10
37.12686732646089
 20
-65.17164148108509
 10
37.07143763777271
 20
-64.74721903048662
 10
36.99760033087208
 20
-64.47033258786477
  0
LWPOLYLINE
  5
C3
330
79
100
AcDbEntity
  8
Camada 1
 62
   250
420
  1907995
370
    15
100
AcDbPolyline
 90
        4
 70
     0
 43
0.0
 10
36.92383232874661
 20
-64.21207526912567
 10
36.776213158771
 20
-63.91685078266615
 10
36.53629388993302
 20
-63.54771968266859
 10
36.3333833707464
 20
-63.30792515636353
  0
LWPOLYLINE
  5
C4
330
79
100
AcDbEntity
  8
Camada 1
 62
   250
420
  1907995
370
    15
100
AcDbPolyline
 90
        4
 70
     0
 43
0.0
 10
36.13040436709929
 20
-63.12336653684144
 10
35.90903023564074
 20
-62.95727070975337
 10
35.53989914496709
 20
-62.73589739301325
 10
35.11554600986079
 20
-62.5698708706933
  0
LWPOLYLINE
  5
C5
330
79
100
AcDbEntity
  8
Camada 1
 62
   250
420
  1907995
370
    15
100
AcDbPolyline
 90
        3
 70
     0
 43
0.0
 10
34.80184487794077
 20
-70.09844872975631
 10
35.31844266808699
 20
-69.58169845605103
 10
35.53989914496709
 20
-69.30495062297824
  0
LWPOLYLINE
  5
C6
330
79
100
AcDbEntity
  8
Camada 1
 62
   250
420
  1907995
370
    15
100
AcDbPolyline
 90
        4
 70
     0
 43
0.0
 10
35.70598191649376
 20
-69.10191535007647
 10
35.77976296998647
 20
-69.00973999747591
 10
36.18577806172414
 20
-68.40081437116946
 10
36.29643006490721
 20
-68.1792885839205
  0
LWPOLYLINE
  5
C7
330
79
100
AcDbEntity
  8
Camada 1
 62
   250
420
  1907995
370
    15
100
AcDbPolyline
 90
        4
 70
     0
 43
0.0
 10
36.42562802579017
 20
-67.93950791857522
 10
36.51794198560526
 20
-67.73645878470981
 10
36.79468981168867
 20
-67.05376515442208
 10
36.83164311752527
 20
-66.94297453889152
  0
LWPOLYLINE
  5
C8
330
79
100
AcDbEntity
  8
Camada 1
 62
   250
420
  1907995
370
    15
100
AcDbPolyline
 90
        3
 70
     0
 43
0.0
 10
36.90535567582831
 20
-66.68470335919649
 10
36.99760033087208
 20
-66.33404891258249
 10
37.10839094360868
 20
-65.61447128029964
  0
LWPOLYLINE
  5
C9
330
79
100
AcDbEntity
  8
Camada 1
 62
   250
420
  1907995
370
    15
100
AcDbPolyline
 90
        3
 70
     0
 43
0.0
 10
35.13402266278231
 20
-61.44420883164197
 10
35.11554600986079
 20
-61.44420883164197
 10
35.11554600986079
 20
-61.42573217825457
  0
LWPOLYLINE
  5
CA
330
79
100
AcDbEntity
  8
Camada 1
 62
   250
420
  1907995
370
    15
100
AcDbPolyline
 90
        5
 70
     0
 43
0.0
 10
32.29224968354072
 20
-59.85724033998614
 10
32.27384233539758
 20
-59.58049250691399
 10
32.18159768035381
 20
-59.30374467384505
 10
32.03397851037851
 20
-59.08223274754497
 10
31.88637320135562
 20
-58.93461357384045
  0
LWPOLYLINE
  5
CB
330
79
100
AcDbEntity
  8
Camada 1
 62
   250
420
  1907995
370
    15
100
AcDbPolyline
 90
        6
 70
     0
 43
0.0
 10
31.66491672447617
 20
-58.78700826108929
 10
31.5911487223507
 20
-58.73171691048771
 10
31.33275280059506
 20
-58.63940294833428
 10
31.0560049745078
 20
-58.60257439016031
 10
30.77918784365629
 20
-58.63940294833428
 10
30.66853584046616
 20
-58.67635625510841
  0
LWPOLYLINE
  5
CC
330
79
100
AcDbEntity
  8
Camada 1
 62
   250
420
  1907995
370
    15
100
AcDbPolyline
 90
        6
 70
     0
 43
0.0
 10
30.42860271066873
 20
-58.78700826108929
 10
30.28099740164968
 20
-58.87939152801789
 10
30.07794827291658
 20
-59.08223274754497
 10
29.93034296389402
 20
-59.30374467384505
 10
29.83808417782853
 20
-59.58049250691399
 10
29.83808417782853
 20
-59.59896916030395
  0
LWPOLYLINE
  5
CD
330
79
100
AcDbEntity
  8
Camada 1
 62
   250
420
  1907995
370
    15
100
AcDbPolyline
 90
        5
 70
     0
 43
0.0
 10
29.80120044683286
 20
-59.85724033998614
 10
29.83808417782853
 20
-60.13412678261503
 10
29.93034296389402
 20
-60.39245340612223
 10
30.07794827291658
 20
-60.63224793243051
 10
30.2255674428922
 20
-60.77985324517847
  0
LWPOLYLINE
  5
CE
330
79
100
AcDbEntity
  8
Camada 1
 62
   250
420
  1907995
370
    15
100
AcDbPolyline
 90
        6
 70
     0
 43
0.0
 10
30.42860271066873
 20
-60.927472418883
 10
30.52091667049055
 20
-60.98290237904773
 10
30.77918784365629
 20
-61.07507773163801
 10
31.0560049745078
 20
-61.09355438502796
 10
31.33275280059506
 20
-61.07507773163801
 10
31.44354341332813
 20
-61.03826303442382
  0
LWPOLYLINE
  5
CF
330
79
100
AcDbEntity
  8
Camada 1
 62
   250
420
  1907995
370
    15
100
AcDbPolyline
 90
        6
 70
     0
 43
0.0
 10
31.66491672447617
 20
-60.927472418883
 10
31.83094324259845
 20
-60.81682041290533
 10
32.03397851037851
 20
-60.63224793243051
 10
32.18159768035381
 20
-60.39245340612223
 10
32.27384233539758
 20
-60.13412678261503
 10
32.27384233539758
 20
-60.11565012922765
  0
LINE
  5
D0
330
79
100
AcDbEntity
  8
Camada 1
 62
   250
420
  1907995
370
    15
100
AcDbLine
 10
32.29224968354072
 20
-59.85724033998614
 30
0.0
 11
32.29224968354072
 21
-59.85724033998614
 31
0.0
  0
LINE
  5
D1
330
79
100
AcDbEntity
  8
Camada 1
 62
   250
420
  1907995
370
    15
100
AcDbLine
 10
28.74944568173758
 20
-70.09844872975631
 30
0.0
 11
28.74944568173758
 21
-69.52640710544625
 31
0.0
  0
LINE
  5
D2
330
79
100
AcDbEntity
  8
Camada 1
 62
   250
420
  1907995
370
    15
100
AcDbLine
 10
28.74944568173758
 20
-69.24952066282442
 30
0.0
 11
28.74944568173758
 21
-68.16081193053697
 31
0.0
  0
LINE
  5
D3
330
79
100
AcDbEntity
  8
Camada 1
 62
   250
420
  1907995
370
    15
100
AcDbLine
 10
28.74944568173758
 20
-67.90255461180814
 30
0.0
 11
28.74944568173758
 21
-66.8138458795239
 31
0.0
  0
LINE
  5
D4
330
79
100
AcDbEntity
  8
Camada 1
 62
   250
420
  1907995
370
    15
100
AcDbLine
 10
28.74944568173758
 20
-66.53709804644148
 30
0.0
 11
28.74944568173758
 21
-65.96512572691685
 31
0.0
  0
LINE
  5
D5
330
79
100
AcDbEntity
  8
Camada 1
 62
   250
420
  1907995
370
    15
100
AcDbLine
 10
33.36255104017892
 20
-65.96512572691685
 30
0.0
 11
33.36255104017892
 21
-66.53709804644148
 31
0.0
  0
LINE
  5
D6
330
79
100
AcDbEntity
  8
Camada 1
 62
   250
420
  1907995
370
    15
100
AcDbLine
 10
33.36255104017892
 20
-66.8138458795239
 30
0.0
 11
33.36255104017892
 21
-67.90255461180814
 31
0.0
  0
LINE
  5
D7
330
79
100
AcDbEntity
  8
Camada 1
 62
   250
420
  1907995
370
    15
100
AcDbLine
 10
33.36255104017892
 20
-68.16081193053697
 30
0.0
 11
33.36255104017892
 21
-69.24952066282442
 31
0.0
  0
LINE
  5
D8
330
79
100
AcDbEntity
  8
Camada 1
 62
   250
420
  1907995
370
    15
100
AcDbLine
 10
33.36255104017892
 20
-69.52640710544625
 30
0.0
 11
33.36255104017892
 21
-70.09844872975631
 31
0.0
  0
LWPOLYLINE
  5
D9
330
79
100
AcDbEntity
  8
Camada 1
 62
   250
420
  1907995
370
    15
100
AcDbPolyline
 90
        3
 70
     0
 43
0.0
 10
28.74944568173758
 20
-70.31975274172449
 10
28.7863429099084
 20
-70.72583714849296
 10
28.87858756494864
 20
-71.03953828833603
  0
LWPOLYLINE
  5
DA
330
79
100
AcDbEntity
  8
Camada 1
 62
   250
420
  1907995
370
    15
100
AcDbPolyline
 90
        5
 70
     0
 43
0.0
 10
28.98930887291009
 20
-71.27933281463725
 10
29.06307687503235
 20
-71.46389143416318
 10
29.30294070005494
 20
-71.77759257400241
 10
29.57982713568835
 20
-72.05434040707841
 10
29.65359579450263
 20
-72.10977036723289
  0
LWPOLYLINE
  5
DB
330
79
100
AcDbEntity
  8
Camada 1
 62
   250
420
  1907995
370
    15
100
AcDbPolyline
 90
        5
 70
     0
 43
0.0
 10
29.89351440665148
 20
-72.2573756799879
 10
29.91193561574734
 20
-72.27578302859948
 10
30.26252074872817
 20
-72.44187885569139
 10
30.65005891748272
 20
-72.55260016644358
 10
30.90831649975767
 20
-72.57107681983034
  0
LWPOLYLINE
  5
DC
330
79
100
AcDbEntity
  8
Camada 1
 62
   250
420
  1907995
370
    15
100
AcDbPolyline
 90
        5
 70
     0
 43
0.0
 10
31.18513363061623
 20
-72.57107681983034
 10
31.44354341332813
 20
-72.55260016644358
 10
31.83094324259845
 20
-72.44187885569139
 10
32.20007433327532
 20
-72.27578302859948
 10
32.21855098618978
 20
-72.2573756799879
  0
LWPOLYLINE
  5
DD
330
79
100
AcDbEntity
  8
Camada 1
 62
   250
420
  1907995
370
    15
100
AcDbPolyline
 90
        5
 70
     0
 43
0.0
 10
32.43992502441684
 20
-72.10977036723289
 10
32.51377546519502
 20
-72.05434040707841
 10
32.80898608323663
 20
-71.77759257400241
 10
33.03037325534124
 20
-71.46389143416318
 10
33.12268721515633
 20
-71.27933281463725
  0
LWPOLYLINE
  5
DE
330
79
100
AcDbEntity
  8
Camada 1
 62
   250
420
  1907995
370
    15
100
AcDbPolyline
 90
        3
 70
     0
 43
0.0
 10
33.23335307929949
 20
-71.03953828833603
 10
33.30712108142144
 20
-70.72583714849296
 10
33.36255104017892
 20
-70.31975274172449
  0
SPLINE
  5
DF
330
79
100
AcDbEntity
  8
Camada 1
 62
   250
420
  1907995
370
    15
100
AcDbSpline
210
0.0
220
0.0
230
1.0
 70
     9
 71
     3
 72
    17
 73
    13
 74
     0
 42
0.0000000001
 43
0.0000000001
 40
0.0
 40
0.0
 40
0.0
 40
0.0
 40
1.0
 40
1.0
 40
1.0
 40
2.0
 40
2.0
 40
2.0
 40
3.0
 40
3.0
 40
3.0
 40
4.0
 40
4.0
 40
4.0
 40
4.0
 10
31.04680130043816
 20
-58.87939152801789
 30
0.0
 10
30.51171299642091
 20
-58.87939152801789
 30
0.0
 10
30.07794827291658
 20
-59.31301765292215
 30
0.0
 10
30.07794827291658
 20
-59.84810597045488
 30
0.0
 10
30.07794827291658
 20
-60.38311112226612
 30
0.0
 10
30.51171299642091
 20
-60.81682041290533
 30
0.0
 10
31.04680130043816
 20
-60.81682041290533
 30
0.0
 10
31.58180643873105
 20
-60.81682041290533
 30
0.0
 10
32.01550257381451
 20
-60.38311112226612
 30
0.0
 10
32.01550257381451
 20
-59.84810597045488
 30
0.0
 10
32.01550257381451
 20
-59.31301765292215
 30
0.0
 10
31.58180643873105
 20
-58.87939152801789
 30
0.0
 10
31.04680130043816
 20
-58.87939152801789
 30
0.0
  0
LINE
  5
E0
330
79
100
AcDbEntity
  8
Camada 1
 62
   250
420
  1907995
370
    15
100
AcDbLine
 10
31.0560049745078
 20
-59.85724033998614
 30
0.0
 11
31.0560049745078
 21
-59.85724033998614
 31
0.0
  0
INSERT
  5
E2
330
79
100
AcDbEntity
  8
Camada 1
100
AcDbBlockReference
  2
Block_1
 10
0.0
 20
0.0
 30
0.0
  0
SPLINE
  5
E9
330
79
100
AcDbEntity
  8
Camada 1
 62
   250
420
  1907995
370
    15
100
AcDbSpline
210
0.0
220
0.0
230
1.0
 70
     9
 71
     3
 72
    17
 73
    13
 74
     0
 42
0.0000000001
 43
0.0000000001
 40
0.0
 40
0.0
 40
0.0
 40
0.0
 40
1.0
 40
1.0
 40
1.0
 40
2.0
 40
2.0
 40
2.0
 40
3.0
 40
3.0
 40
3.0
 40
4.0
 40
4.0
 40
4.0
 40
4.0
 10
73.83261332886036
 20
-31.56130949773674
 30
0.0
 10
73.83261332888475
 20
-31.38218735839761
 30
0.0
 10
73.68740694603258
 20
-31.23706006761703
 30
0.0
 10
73.50835070920467
 20
-31.23706006759585
 30
0.0
 10
73.3294262864498
 20
-31.23706006756761
 30
0.0
 10
73.18421990355784
 20
-31.38218735830584
 30
0.0
 10
73.18421990353731
 20
-31.56130949765203
 30
0.0
 10
73.18421990351165
 20
-31.7402998229156
 30
0.0
 10
73.32942628636124
 20
-31.88544029510438
 30
0.0
 10
73.50835070911613
 20
-31.88544029512876
 30
0.0
 10
73.68740694594787
 20
-31.885440295157
 30
0.0
 10
73.83261332883598
 20
-31.74029982300736
 30
0.0
 10
73.83261332886036
 20
-31.56130949773674
 30
0.0
  0
SPLINE
  5
EA
330
79
100
AcDbEntity
  8
Camada 1
 62
   250
420
  1907995
370
    15
100
AcDbSpline
210
0.0
220
0.0
230
1.0
 70
     9
 71
     3
 72
    17
 73
    13
 74
     0
 42
0.0000000001
 43
0.0000000001
 40
0.0
 40
0.0
 40
0.0
 40
0.0
 40
1.0
 40
1.0
 40
1.0
 40
2.0
 40
2.0
 40
2.0
 40
3.0
 40
3.0
 40
3.0
 40
4.0
 40
4.0
 40
4.0
 40
4.0
 10
73.83261332781568
 20
-39.32701678253529
 30
0.0
 10
73.83261332783749
 20
-39.1479605502301
 30
0.0
 10
73.68740694498788
 20
-39.00282007804196
 30
0.0
 10
73.50835070815744
 20
-39.00282007802078
 30
0.0
 10
73.32942628540127
 20
-39.00282007799575
 30
0.0
 10
73.18421990251316
 20
-39.14796055014539
 30
0.0
 10
73.18421990248878
 20
-39.32701678244674
 30
0.0
 10
73.18421990246439
 20
-39.50600710771736
 30
0.0
 10
73.32942628531656
 20
-39.6511475799055
 30
0.0
 10
73.50835070807272
 20
-39.65114757992989
 30
0.0
 10
73.68740694489933
 20
-39.65114757994785
 30
0.0
 10
73.83261332778744
 20
-39.50600710780206
 30
0.0
 10
73.83261332781568
 20
-39.32701678253529
 30
0.0
  0
LINE
  5
EB
330
79
100
AcDbEntity
  8
Camada 1
 62
   250
420
  1907995
370
    15
100
AcDbLine
 10
76.73676734963776
 20
-27.38696881265962
 30
0.0
 11
62.17118046372519
 21
-27.38696881069089
 31
0.0
  0
SPLINE
  5
EC
330
79
100
AcDbEntity
  8
Camada 1
 62
   250
420
  1907995
370
    15
100
AcDbSpline
210
0.0
220
0.0
230
1.0
 70
     8
 71
     3
 72
     8
 73
     4
 74
     0
 42
0.0000000001
 43
0.0000000001
 40
0.0
 40
0.0
 40
0.0
 40
0.0
 40
1.0
 40
1.0
 40
1.0
 40
1.0
 10
77.17197787456448
 20
-27.81767128552259
 30
0.0
 10
77.17197787459527
 20
-27.57979961530457
 30
0.0
 10
76.97927888123242
 20
-27.38696881268786
 30
0.0
 10
76.7412753909338
 20
-27.38696881265962
 30
0.0
  0
SPLINE
  5
ED
330
79
100
AcDbEntity
  8
Camada 1
 62
   250
420
  1907995
370
    15
100
AcDbSpline
210
0.0
220
0.0
230
1.0
 70
     8
 71
     3
 72
    11
 73
     7
 74
     0
 42
0.0000000001
 43
0.0000000001
 40
0.0
 40
0.0
 40
0.0
 40
0.0
 40
1.0
 40
1.0
 40
1.0
 40
2.0
 40
2.0
 40
2.0
 40
2.0
 10
62.1755566909495
 20
-27.37808454239384
 30
0.0
 10
57.72412953707083
 20
-27.3780845417977
 30
0.0
 10
54.11558747281688
 20
-30.98669242095429
 30
0.0
 10
54.11558747221754
 20
-35.43811946238419
 30
0.0
 10
54.11558747161433
 20
-39.88948059677567
 30
0.0
 10
57.72412953490189
 20
-43.49807529550265
 30
0.0
 10
62.17555668877928
 20
-43.49807529610199
 30
0.0
  0
SPLINE
  5
EE
330
79
100
AcDbEntity
  8
Camada 1
 62
   250
420
  1907995
370
    15
100
AcDbSpline
210
0.0
220
0.0
230
1.0
 70
     8
 71
     3
 72
    11
 73
     7
 74
     0
 42
0.0000000001
 43
0.0000000001
 40
0.0
 40
0.0
 40
0.0
 40
0.0
 40
1.0
 40
1.0
 40
1.0
 40
2.0
 40
2.0
 40
2.0
 40
2.0
 10
62.17555669068769
 20
-29.32317249938354
 30
0.0
 10
58.79833514371107
 20
-29.32317249892793
 30
0.0
 10
56.06062275316751
 20
-32.06089800098391
 30
0.0
 10
56.0606227527119
 20
-35.43811946264537
 30
0.0
 10
56.06062275225372
 20
-38.81534166563413
 30
0.0
 10
58.79833514206318
 20
-41.5530532456887
 30
0.0
 10
62.17555668904109
 20
-41.55305324615072
 30
0.0
  0
LINE
  5
EF
330
79
100
AcDbEntity
  8
Camada 1
 62
   250
420
  1907995
370
    15
100
AcDbLine
 10
76.73676734746881
 20
-43.49807529805661
 30
0.0
 11
62.17118046155625
 21
-43.49807529610199
 31
0.0
  0
LINE
  5
F0
330
79
100
AcDbEntity
  8
Camada 1
 62
   250
420
  1907995
370
    15
100
AcDbLine
 10
66.44316911805417
 20
-41.56187160798495
 30
0.0
 11
62.17118046181678
 21
-41.5618716074132
 31
0.0
  0
SPLINE
  5
F1
330
79
100
AcDbEntity
  8
Camada 1
 62
   250
420
  1907995
370
    15
100
AcDbSpline
210
0.0
220
0.0
230
1.0
 70
     8
 71
     3
 72
    11
 73
     7
 74
     0
 42
0.0000000001
 43
0.0000000001
 40
0.0
 40
0.0
 40
0.0
 40
0.0
 40
1.0
 40
1.0
 40
1.0
 40
2.0
 40
2.0
 40
2.0
 40
2.0
 10
68.71077979872864
 20
-36.98441713480522
 30
0.0
 10
68.83345915651135
 20
-37.00018209756035
 30
0.0
 10
68.95715348266378
 20
-36.96240418519777
 30
0.0
 10
69.05009558558245
 20
-36.88060037354199
 30
0.0
 10
69.14303768850112
 20
-36.79879656188942
 30
0.0
 10
69.19646193232276
 20
-36.68102069060374
 30
0.0
 10
69.19646193233688
 20
-36.55718137210416
 30
0.0
  0
LWPOLYLINE
  5
F2
330
79
100
AcDbEntity
  8
Camada 1
 62
   250
420
  1907995
370
    15
100
AcDbPolyline
 90
        1
 70
     0
 43
0.0
 10
65.11087155707476
 20
-34.51882177883634
  0
LWPOLYLINE
  5
F3
330
79
100
AcDbEntity
  8
Camada 1
 62
   250
420
  1907995
370
    15
100
AcDbPolyline
 90
        1
 70
     0
 43
0.0
 10
65.11087155682449
 20
-36.36615642171639
  0
SPLINE
  5
F4
330
79
100
AcDbEntity
  8
Camada 1
 62
   250
420
  1907995
370
    15
100
AcDbSpline
210
0.0
220
0.0
230
1.0
 70
     8
 71
     3
 72
    11
 73
     7
 74
     0
 42
0.0000000001
 43
0.0000000001
 40
0.0
 40
0.0
 40
0.0
 40
0.0
 40
1.0
 40
1.0
 40
1.0
 40
2.0
 40
2.0
 40
2.0
 40
2.0
 10
69.19646193264746
 20
-34.25680177159876
 30
0.0
 10
69.19646193266543
 20
-34.13161794958673
 30
0.0
 10
69.14187772503393
 20
-34.01268211447066
 30
0.0
 10
69.04726158340875
 20
-33.93087830278985
 30
0.0
 10
68.95239499504703
 20
-33.84900858407832
 30
0.0
 10
68.82689481610481
 20
-33.81245654252809
 30
0.0
 10
68.70305549446988
 20
-33.83065980871614
 30
0.0
  0
LINE
  5
F5
330
79
100
AcDbEntity
  8
Camada 1
 62
   250
420
  1907995
370
    15
100
AcDbLine
 10
69.18744585005153
 20
-34.26124390574729
 30
0.0
 11
69.1874458497448
 21
-36.56162350625269
 31
0.0
  0
LWPOLYLINE
  5
F6
330
79
100
AcDbEntity
  8
Camada 1
 62
   250
420
  1907995
370
    15
100
AcDbPolyline
 90
      406
 70
     0
 43
0.0
 10
62.17118046346466
 20
-29.33199086064601
 10
66.44316911970077
 20
-29.33199086122098
 10
66.57626178925868
 20
-29.33199086123894
 10
66.64732275603522
 20
-29.33199086124921
 10
66.71838372281945
 20
-29.33199086126012
 10
66.78056042107304
 20
-29.33199086126718
 10
66.85174002052209
 20
-29.340940779787
 10
66.92266917322689
 20
-29.34094077979791
 10
66.98484587148306
 20
-29.34094077980497
 10
67.02050157824088
 20
-29.34094077980497
 10
67.05589365685653
 20
-29.34975939789658
 10
67.09143073094825
 20
-29.34975939790748
 10
67.11820216918571
 20
-29.34975939790748
 10
67.15372606187436
 20
-29.34975939791775
 10
67.18913132189051
 20
-29.35864366621866
 10
67.22478702865089
 20
-29.35864366622251
 10
67.26017910726653
 20
-29.35864366622956
 10
67.28683191283277
 20
-29.36758066015685
 10
67.32235580552014
 20
-29.36758066016391
 10
67.3580115122818
 20
-29.37646492846866
 10
67.39341677230052
 20
-29.37646492846866
 10
67.42907247905833
 20
-29.38528328974204
 10
67.4554616564824
 20
-29.38528328974525
 10
67.49111736324278
 20
-29.39423346508073
 10
67.52664125592758
 20
-29.39423346508458
 10
67.5621651486124
 20
-29.4031177333919
 10
67.59782085536894
 20
-29.41200200169665
 10
67.62447366094157
 20
-29.41200200169665
 10
67.65987892096157
 20
-29.42087308859321
 10
67.69540281364638
 20
-29.42969144986274
 10
67.73092670633118
 20
-29.43857571817071
 10
67.75757951189998
 20
-29.44752589350619
 10
67.79310340458863
 20
-29.44752589351004
 10
67.82862729727344
 20
-29.45634425477572
 10
67.86416437136518
 20
-29.46522852308368
 10
67.89080399552705
 20
-29.47416551701481
 10
67.92632788821186
 20
-29.48304978531957
 10
67.96186496230358
 20
-29.49193405362047
 10
67.99738885499223
 20
-29.50081832192137
 10
68.02416029322583
 20
-29.50970259023254
 10
68.05943373916898
 20
-29.52740521979592
 10
68.09508944593064
 20
-29.53627630669247
 10
68.12161043742642
 20
-29.54516057499723
 10
68.15726614418425
 20
-29.55411075033271
 10
68.19279003686905
 20
-29.56292911160545
 10
68.21944284243784
 20
-29.58075037383043
 10
68.25496673512265
 20
-29.58956873509675
 10
68.29049062780746
 20
-29.59851891044314
 10
68.31701161929939
 20
-29.61622154000652
 10
68.35266732606107
 20
-29.62517171534906
 10
68.38819121874587
 20
-29.64286116350488
 10
68.41484402431466
 20
-29.65174543181284
 10
68.45049973107119
 20
-29.669513968414
 10
68.47688890849269
 20
-29.67839823671876
 10
68.51254461524923
 20
-29.69615359191237
 10
68.53906560674629
 20
-29.71398803554875
 10
68.5745894994311
 20
-29.7227404897805
 10
68.60136093766469
 20
-29.74056175201253
 10
68.63689801175643
 20
-29.75833028861434
 10
68.66340582184529
 20
-29.76721455691524
 10
68.6989428959383
 20
-29.78503581914728
 10
68.72558252010017
 20
-29.80273844871065
 10
68.7612382268567
 20
-29.82057289235346
 10
68.78775921834993
 20
-29.83826234050992
 10
68.81453065658096
 20
-29.85603087711173
 10
68.85005454926833
 20
-29.86491514541905
 10
68.8765755407654
 20
-29.88268368202085
 10
68.90334697899901
 20
-29.9004390372151
 10
68.93875223901516
 20
-29.91827348085084
 10
68.96552367725004
 20
-29.94484719731142
 10
68.99204466874582
 20
-29.96261573391258
 10
69.01881610697685
 20
-29.98038427051823
 10
69.05435318106857
 20
-29.99813962570863
 10
69.08086099115489
 20
-30.0159081623098
 10
69.10751379672368
 20
-30.03367669891546
 10
69.13415342088555
 20
-30.06031632240676
 10
69.16080622645051
 20
-30.07808485900792
 10
69.18744585061237
 20
-30.09585339560973
 10
69.21409865618116
 20
-30.11367465784176
 10
69.24975436293514
 20
-30.14026207788094
 10
69.27626217302401
 20
-30.15801691089644
 10
69.30291497859022
 20
-30.18466971580236
 10
69.32068351563223
 20
-30.20242507098955
 10
69.34732313979411
 20
-30.22901196885768
 10
69.37397594536292
 20
-30.24684641249727
 10
69.40061556952094
 20
-30.27348603598857
 10
69.42738700775582
 20
-30.29125457259038
 10
69.45390799924904
 20
-30.31789419608489
 10
69.48056080481783
 20
-30.33559682565212
 10
69.49831616045293
 20
-30.3622361923207
 10
69.52496896601786
 20
-30.38888925404934
 10
69.55160859017976
 20
-30.41559478457522
 10
69.57838002841462
 20
-30.4332974141418
 10
69.59601675138363
 20
-30.45995021904066
 10
69.62280137102543
 20
-30.48665574956654
 10
69.64944099518347
 20
-30.51329590465865
 10
69.66694590408074
 20
-30.53988227092597
 10
69.69371734231562
 20
-30.55771645773643
 10
69.71148587935764
 20
-30.58435633805686
 10
69.73813868492387
 20
-30.61100914295958
 10
69.75589404056153
 20
-30.6375828594163
 10
69.78266547879257
 20
-30.66423566431516
 10
69.80030220176285
 20
-30.69094119484104
 10
69.81807073880871
 20
-30.71758081833555
 10
69.84484217703974
 20
-30.74416771620368
 10
69.86261071408176
 20
-30.77082052110254
 10
69.88011562297903
 20
-30.79746014459384
 10
69.90688706121392
 20
-30.82416567511972
 10
69.92465559825594
 20
-30.8596368412849
 10
69.94254276796403
 20
-30.88634237181399
 10
69.96017949093432
 20
-30.91299517671285
 10
69.97794802797634
 20
-30.93956889317342
 10
70.00458765213436
 20
-30.96628760510686
 10
70.02248800324938
 20
-31.00174558986064
 10
70.04012472621967
 20
-31.02839839475949
 10
70.05788008185861
 20
-31.055038018254
 10
70.07564861890063
 20
-31.08169082315351
 10
70.09341715594263
 20
-31.11728062197644
 10
70.11117251157774
 20
-31.14385433843637
 10
70.12894104862488
 20
-31.17050714333908
 10
70.14670958566305
 20
-31.20603103512423
 10
70.16446494129813
 20
-31.23268384003014
 10
70.17334920982107
 20
-31.25932346352144
 10
70.19111774686436
 20
-31.29484735531365
 10
70.20887310249945
 20
-31.32150016020545
 10
70.22664163954146
 20
-31.35702405200086
 10
70.24454199065648
 20
-31.38367685689972
 10
70.2534130777725
 20
-31.41031648039423
 10
70.27091798666593
 20
-31.44585355359399
 10
70.28881833778481
 20
-31.47249317708209
 10
70.29770260630131
 20
-31.50801706887429
 10
70.31545796193642
 20
-31.53466987377315
 10
70.33322649897842
 20
-31.57012785853078
 10
70.3421107674975
 20
-31.59684657046421
 10
70.35987930454465
 20
-31.63237046224935
 10
70.36875039165296
 20
-31.66789435404477
 10
70.38651892869498
 20
-31.69454715894363
 10
70.39540319721405
 20
-31.7300707939067
 10
70.41315855284915
 20
-31.75665794860011
 10
70.42204282136951
 20
-31.79224774742305
 10
70.4309270898886
 20
-31.81888737091114
 10
70.44882744100362
 20
-31.85435853707633
 10
70.45769852811578
 20
-31.88994833590632
 10
70.46645098256313
 20
-31.91658770256848
 10
70.48408770553215
 20
-31.95205912555574
 10
70.49297197405251
 20
-31.9786987490541
 10
70.50198805664459
 20
-32.01423582224617
 10
70.51087232516367
 20
-32.04975971403515
 10
70.52862768079878
 20
-32.07639933752967
 10
70.53751194931784
 20
-32.1120023177608
 10
70.54626440376136
 20
-32.14746030251843
 10
70.55528048635345
 20
-32.17411310741729
 10
70.56416475487381
 20
-32.20963699920243
 10
70.57303584198469
 20
-32.23627662269694
 10
70.58192011050505
 20
-32.27181369589671
 10
70.59080437902413
 20
-32.30733758768185
 10
70.59968864754065
 20
-32.34279557243947
 10
70.60869154872839
 20
-32.36951428437612
 10
70.61745718458266
 20
-32.4051040832029
 10
70.62632827169098
 20
-32.4404961609221
 10
70.63521254021392
 20
-32.46714896581455
 10
70.64409680873042
 20
-32.50273876464453
 10
70.65298107724951
 20
-32.53832856347067
 10
70.66198397843468
 20
-32.56491546132854
 10
70.67073643288074
 20
-32.60043909629803
 10
70.67073643287819
 20
-32.63597642631987
 10
70.67950206872861
 20
-32.67150031810501
 10
70.68850496991378
 20
-32.69813994159952
 10
70.69725742435984
 20
-32.73367701479286
 10
70.7061416928802
 20
-32.76920090658828
 10
70.70614169287252
 20
-32.80472479837342
 10
70.7151577754646
 20
-32.83137734644636
 10
70.72391022991197
 20
-32.86683533120719
 10
70.72391022990811
 20
-32.90237266122903
 10
70.73279449842847
 20
-32.9379624600526
 10
70.74179739960851
 20
-33.00013915673661
 10
70.75068166812117
 20
-33.07118694031716
 10
70.76845020516062
 20
-33.13336338017845
 10
70.77732129226508
 20
-33.20442460199635
 10
70.78607374670474
 20
-33.27540647853847
 10
70.79508982929683
 20
-33.33764908226091
 10
70.80397409780949
 20
-33.40871004724197
 10
70.81285836632216
 20
-33.4796919237918
 10
70.81285836631446
 20
-33.5418686204758
 10
70.82174263482712
 20
-33.61292958546071
 10
70.83061372193544
 20
-33.67504037511655
 10
70.83949799044809
 20
-33.74615406573169
 10
70.83949799044169
 20
-33.81728093775117
 10
70.84838225895691
 20
-33.87932582036602
 10
70.84838225894664
 20
-33.95043951098116
 10
70.85726652746315
 20
-34.02150047596606
 10
70.85726652745162
 20
-34.08361100879342
 10
70.86615079596812
 20
-34.15465967278378
 10
70.866150795954
 20
-34.22578592121554
 10
70.87490325039751
 20
-34.28789671087203
 10
70.87490325038725
 20
-34.35894449444552
 10
70.88378751890248
 20
-34.43007136647143
 10
70.8837875188922
 20
-34.49218215612086
 10
70.89265860599025
 20
-34.63429090469017
 10
70.89265860597229
 20
-34.76752856635523
 10
70.90167468855026
 20
-34.9007530466198
 10
70.9016746885323
 20
-35.04292770221984
 10
70.91055895703853
 20
-35.17609945686059
 10
70.91944322552553
 20
-35.44256159879792
 10
70.9105589569641
 20
-35.71782892058632
 10
70.9016746884232
 20
-35.85113248929301
 10
70.90167468840523
 20
-35.98429106252299
 10
70.8926586057926
 20
-36.11752872419191
 10
70.89265860577208
 20
-36.25963747275353
 10
70.8837875186381
 20
-36.39279604598351
 10
70.88378751862783
 20
-36.463922918003
 10
70.87490325009719
 20
-36.52603370765242
 10
70.87490325008693
 20
-36.59708149123298
 10
70.86615079562931
 20
-36.66820836324862
 10
70.86615079561903
 20
-36.7303191529051
 10
70.85726652708584
 20
-36.8013669364786
 10
70.85726652707428
 20
-36.87242790146351
 10
70.84838225854494
 20
-36.93460459814752
 10
70.84838225853339
 20
-37.00565238172807
 10
70.8394979900002
 20
-37.07671308988706
 10
70.83949798999377
 20
-37.1388900434002
 10
70.83061372145929
 20
-37.20995100838446
 10
70.82174263433685
 20
-37.2809987919586
 10
70.81285836580367
 20
-37.34317548864261
 10
70.81285836579339
 20
-37.41423645363072
 10
70.80397409725891
 20
-37.48528423720422
 10
70.79508982872572
 20
-37.54746093389529
 10
70.78607374612336
 20
-37.61852189887314
 10
70.77732129166189
 20
-37.68063268852256
 10
70.76845020453561
 20
-37.75174637913385
 10
70.75068166747946
 20
-37.82280734411876
 10
70.74179739894884
 20
-37.88491813376818
 10
70.73279449775085
 20
-37.95603182438332
 10
70.72391022922406
 20
-37.99150371105845
 10
70.72391022921635
 20
-38.01814261403275
 10
70.71515777476259
 20
-38.05373241285247
 10
70.70614169216408
 20
-38.08920357901381
 10
70.70614169215637
 20
-38.1247274708028
 10
70.69725742362959
 20
-38.15143300132804
 10
70.68850496917582
 20
-38.18690416749002
 10
70.67950206798037
 20
-38.22242805927452
 10
70.67073643211969
 20
-38.25801785809808
 10
70.67073643211585
 20
-38.28460475596237
 10
70.66198397765822
 20
-38.32012864774752
 10
70.65298107646663
 20
-38.35571844657366
 10
70.64409680793599
 20
-38.38230534443152
 10
70.63521253941051
 20
-38.41782923621667
 10
70.62632827088371
 20
-38.45336630941643
 10
70.61745718376129
 20
-38.48889020120478
 10
70.60869154789931
 20
-38.51552982469608
 10
70.59968864670388
 20
-38.55106689788815
 10
70.59080437817709
 20
-38.58659078967714
 10
70.58192010965159
 20
-38.61324359457215
 10
70.57303584112482
 20
-38.64883339339573
 10
70.56416475400237
 20
-38.68422547111172
 10
70.55528048547561
 20
-38.71087827601058
 10
70.54626440287325
 20
-38.74646807482644
 10
70.53751194841819
 20
-38.78192605958086
 10
70.52862767989269
 20
-38.8086447715143
 10
70.51087232424605
 20
-38.84416866330266
 10
70.50198805572055
 20
-38.87969255509101
 10
70.49297197312076
 20
-38.90634535998602
 10
70.48408770459012
 20
-38.94186925177502
 10
70.46645098160957
 20
-38.96852205666361
 10
70.45769852715579
 20
-39.00398004142059
 10
70.44882744003722
 20
-39.03956984024416
 10
70.43092708891193
 20
-39.06622264513917
 10
70.42204282038515
 20
-39.10174653692432
 10
70.41315855185837
 20
-39.12840009105943
 10
70.39540319621301
 20
-39.16392323360832
 10
70.38651892768623
 20
-39.19049695006184
 10
70.36875039063651
 20
-39.22603402325775
 10
70.35987930351407
 20
-39.26162382207748
 10
70.34211076646437
 20
-39.28821071994175
 10
70.33322649793373
 20
-39.3237346117269
 10
70.31545796088403
 20
-39.35037397838843
 10
70.29770260523867
 20
-39.38591130840706
 10
70.28881833671189
 20
-39.41255093189515
 10
70.27091798559045
 20
-39.4480748236835
 10
70.25341307668161
 20
-39.47479353560988
 10
70.24454198956303
 20
-39.50136725206981
 10
70.22664163844031
 20
-39.53690432525931
 10
70.20887310139189
 20
-39.56354394875061
 10
70.19111774574267
 20
-39.59908102194332
 10
70.17334920869295
 20
-39.62572064542756
 10
70.16446494017003
 20
-39.65237345032642
 10
70.14670958452082
 20
-39.68789734211156
 10
70.1289410474711
 20
-39.71453696560222
 10
70.1111725104214
 20
-39.75007403879171
 10
70.09341715477603
 20
-39.7767795693176
 10
70.07564861772632
 20
-39.80336646717482
 10
70.05788008067661
 20
-39.83000609066227
 10
70.04012472503124
 20
-39.86552998245127
 10
70.02248800205325
 20
-39.89211688030849
 10
70.00458765093182
 20
-39.91882241083437
 10
69.97794802676224
 20
-39.94547521572616
 10
69.96017948971381
 20
-39.98106501454589
 10
69.94254276673583
 20
-40.00765191241017
 10
69.92465559701745
 20
-40.03429153589441
 10
69.90688705996774
 20
-40.06094434079327
 10
69.8801156217303
 20
-40.08751805724293
 10
69.86261071282275
 20
-40.11423651235045
 10
69.84484217577302
 20
-40.14087639266061
 10
69.81807073753173
 20
-40.16752919755562
 10
69.80030220048202
 20
-40.19410291400529
 10
69.78266547750532
 20
-40.22082162593551
 10
69.75589403926401
 20
-40.24746124942682
 10
69.73813868362249
 20
-40.27410087291106
 10
69.71148587804858
 20
-40.30068777076507
 10
69.69371734100014
 20
-40.32734057566008
 10
69.66694590275884
 20
-40.35404610618596
 10
69.64944099385386
 20
-40.38068572967342
 10
69.62280136968813
 20
-40.40727262753128
 10
69.59601675003992
 20
-40.42504116412538
 10
69.57838002706577
 20
-40.45168157027583
 10
69.55160858882575
 20
-40.47839949954306
 10
69.52496896466003
 20
-40.50497321599272
 10
69.49831615908355
 20
-40.52274175258427
 10
69.48056080344203
 20
-40.54944728311335
 10
69.45390799786939
 20
-40.57610008800515
 10
69.42738700636846
 20
-40.5938554431917
 10
69.40061556812844
 20
-40.62044234104956
 10
69.37397594396657
 20
-40.63821087764367
 10
69.34732313839008
 20
-40.66491640816634
 10
69.32068351422178
 20
-40.68261878090059
 10
69.30291497717208
 20
-40.70925866121396
 10
69.27626217159943
 20
-40.7270271978087
 10
69.24975436150671
 20
-40.75373272833074
 10
69.21409865474632
 20
-40.77150126491843
 10
69.18744584916983
 20
-40.78920389448181
 10
69.16080622500411
 20
-40.81584351796605
 10
69.13415341943147
 20
-40.83361205456401
 10
69.10751379526702
 20
-40.85136740975119
 10
69.08086098969438
 20
-40.86913568952322
 10
69.05435317960166
 20
-40.89572284420316
 10
69.01881610550224
 20
-40.91354410642813
 10
68.99204466726863
 20
-40.93131264301904
 10
68.96552367576771
 20
-40.949081179617
 10
68.93875223752641
 20
-40.96683653480418
 10
68.90334697750384
 20
-40.984604814573
 10
68.8765755392664
 20
-41.00230770095524
 10
68.85005454776548
 20
-41.02012896317317
 10
68.8145306550781
 20
-41.03789749977113
 10
68.78775921684066
 20
-41.05565259813238
 10
68.76123822533974
 20
-41.07342139155242
 10
68.72558251857936
 20
-41.09118992814396
 10
68.69894289441361
 20
-41.10007393961509
 10
68.66340582031805
 20
-41.11782955162435
 10
68.63689801022532
 20
-41.1355980882191
 10
68.6013609361272
 20
-41.15336662480999
 10
68.5745894978923
 20
-41.16223771170334
 10
68.53906560520107
 20
-41.18007215532881
 10
68.51254461370015
 20
-41.19770887785761
 10
68.47688890694363
 20
-41.20665905318283
 10
68.45049972951571
 20
-41.22434850133865
 10
68.41484402275148
 20
-41.23329867666322
 10
68.38819121717884
 20
-41.25106721326118
 10
68.35266732449404
 20
-41.26000420718204
 10
68.31701161773366
 20
-41.27770683674221
 10
68.29049062623401
 20
-41.28659084821013
 10
68.25496673354535
 20
-41.29540946629468
 10
68.2194428408567
 20
-41.31323072851645
 10
68.19279003528791
 20
-41.3221149968135
 10
68.15726614259668
 20
-41.33099926510413
 10
68.12161043583502
 20
-41.34876780170209
 10
68.09508944433924
 20
-41.35765206999594
 10
68.05943373757886
 20
-41.36652315688158
 10
68.02416029162415
 20
-41.37540742517222
 10
67.99738885339056
 20
-41.38429169347312
 10
67.9618649607019
 20
-41.39317596176632
 10
67.92632788661018
 20
-41.40199432302238
 10
67.89080399391767
 20
-41.41087859132329
 10
67.86416436975322
 20
-41.4198155852403
 10
67.82862729566021
 20
-41.42863394650277
 10
67.79310340297285
 20
-41.43758412183505
 10
67.75757951028419
 20
-41.44646839012889
 10
67.73092670471154
 20
-41.45528675138751
 10
67.69540281202417
 20
-41.46423692671272
 10
67.65987891933936
 20
-41.46423692670889
 10
67.62447365931551
 20
-41.47310775677309
 10
67.59782085374671
 20
-41.48199228189606
 10
67.56216514698633
 20
-41.4819922818858
 10
67.52664125429767
 20
-41.49087655018286
 10
67.49111736160902
 20
-41.49969491144533
 10
67.45546165485248
 20
-41.49969491143506
 10
67.42907247742457
 20
-41.50857917973211
 10
67.39341677066419
 20
-41.50857917972891
 10
67.35801151064419
 20
-41.51746344802275
 10
67.32235580388381
 20
-41.5174634480189
 10
67.28683191119515
 20
-41.52640044193977
 10
67.26017910562636
 20
-41.52640044193591
 10
67.22478702701071
 20
-41.52640044193271
 10
67.18913132025033
 20
-41.53521880319197
 10
67.15372606023032
 20
-41.53521880318492
 10
67.11820216754166
 20
-41.53521880317786
 10
67.09143072930807
 20
-41.54416897850949
 10
67.0558936552125
 20
-41.54416897850949
 10
67.02050157660069
 20
-41.54416897849922
 10
66.98484586984289
 20
-41.54416897849537
 10
66.92266917158287
 20
-41.55305324678922
 10
66.85174001887421
 20
-41.55305324678216
 10
66.78056041942901
 20
-41.55305324676803
 10
66.71838372117156
 20
-41.55305324676098
 10
66.64732275439118
 20
-41.56187160801319
 10
66.57626178761081
 20
-41.56187160800612
 10
66.44316911805417
 20
-41.56187160798495
  0
LINE
  5
F7
330
79
100
AcDbEntity
  8
Camada 1
 62
   250
420
  1907995
370
    15
100
AcDbLine
 10
77.16310678539118
 20
-43.07174879560487
 30
0.0
 11
77.16310678744846
 21
-27.82217906987977
 31
0.0
  0
SPLINE
  5
F8
330
79
100
AcDbEntity
  8
Camada 1
 62
   250
420
  1907995
370
    15
100
AcDbSpline
210
0.0
220
0.0
230
1.0
 70
     8
 71
     3
 72
     8
 73
     4
 74
     0
 42
0.0000000001
 43
0.0000000001
 40
0.0
 40
0.0
 40
0.0
 40
0.0
 40
1.0
 40
1.0
 40
1.0
 40
1.0
 10
76.74127538876742
 20
-43.49807529806046
 30
0.0
 10
76.97927887906347
 20
-43.49807529809512
 30
0.0
 10
77.1719778724751
 20
-43.30519262465033
 30
0.0
 10
77.17197787251103
 20
-43.06730691828227
 30
0.0
  0
SPLINE
  5
F9
330
79
100
AcDbEntity
  8
Camada 1
 62
   250
420
  1907995
370
    15
100
AcDbSpline
210
0.0
220
0.0
230
1.0
 70
     8
 71
     3
 72
    17
 73
    13
 74
     0
 42
0.0000000001
 43
0.0000000001
 40
0.0
 40
0.0
 40
0.0
 40
0.0
 40
1.0
 40
1.0
 40
1.0
 40
2.0
 40
2.0
 40
2.0
 40
3.0
 40
3.0
 40
3.0
 40
4.0
 40
4.0
 40
4.0
 40
4.0
 10
68.69894289539157
 20
-33.83498356702194
 30
0.0
 10
68.69894289539157
 20
-33.83498356702194
 30
0.0
 10
66.66522310656886
 20
-33.71159241608861
 30
0.0
 10
65.65923128238785
 20
-34.32323606225897
 30
0.0
 10
65.07379225829305
 20
-34.76121467163155
 30
0.0
 10
65.11974264406629
 20
-35.44256159801825
 30
0.0
 10
65.11974264406629
 20
-35.44256159801825
 30
0.0
 10
65.11974264406629
 20
-35.44256159801825
 30
0.0
 10
65.11087155683476
 20
-36.28750296631601
 30
0.0
 10
65.67983382169598
 20
-36.60462125532262
 30
0.0
 10
66.39282932415922
 20
-37.0611988301098
 30
0.0
 10
68.35884940509593
 20
-36.98532665184583
 30
0.0
 10
68.71077979872864
 20
-36.98441713480522
 30
0.0
  0
SPLINE
  5
FA
330
79
100
AcDbEntity
  8
Camada 1
 62
   250
420
  1907995
370
    15
100
AcDbSpline
210
0.0
220
0.0
230
1.0
 70
     8
 71
     3
 72
    11
 73
     7
 74
     0
 42
0.0000000001
 43
0.0000000001
 40
0.0
 40
0.0
 40
0.0
 40
0.0
 40
1.0
 40
1.0
 40
1.0
 40
2.0
 40
2.0
 40
2.0
 40
2.0
 10
22.678582425876
 20
-57.20017837898571
 30
0.0
 10
22.678582425876
 20
-57.20017837898571
 30
0.0
 10
22.6372351973246
 20
-60.14866692469893
 30
0.0
 10
23.27903899333469
 20
-63.72605473327149
 30
0.0
 10
23.70922759046191
 20
-66.12383366484076
 30
0.0
 10
24.67203724164123
 20
-70.15949237679852
 30
0.0
 10
25.31913565236429
 20
-71.24095182947471
 30
0.0
  0
SPLINE
  5
FB
330
79
100
AcDbEntity
  8
Camada 1
 62
   250
420
  1907995
370
    15
100
AcDbSpline
210
0.0
220
0.0
230
1.0
 70
     8
 71
     3
 72
    11
 73
     7
 74
     0
 42
0.0000000001
 43
0.0000000001
 40
0.0
 40
0.0
 40
0.0
 40
0.0
 40
1.0
 40
1.0
 40
1.0
 40
2.0
 40
2.0
 40
2.0
 40
2.0
 10
39.42746731252908
 20
-57.20017837898571
 30
0.0
 10
39.42746731252908
 20
-57.20017837898571
 30
0.0
 10
39.46881544572244
 20
-60.14866692469893
 30
0.0
 10
38.82699688411383
 20
-63.72605473327149
 30
0.0
 10
38.39682214794317
 20
-66.12383366484076
 30
0.0
 10
37.43399863581113
 20
-70.15949237679852
 30
0.0
 10
36.78691381597533
 20
-71.24095182947471
 30
0.0
  0
LINE
  5
FC
330
79
100
AcDbEntity
  8
Camada 1
 62
   250
420
  1907995
370
    15
100
AcDbLine
 10
25.31913565236429
 20
-71.24095182947471
 30
0.0
 11
36.78691381597533
 21
-71.24095182947471
 31
0.0
  0
ENDBLK
  5
7C
330
79
100
AcDbEntity
  8
0
100
AcDbBlockEnd
  0
BLOCK
  5
E3
330
E1
100
AcDbEntity
  8
0
100
AcDbBlockBegin
  2
Block_1
 70
     0
 10
0.0
 20
0.0
 30
0.0
  3
Block_1
  1

  0
SPLINE
  5
E5
330
E1
100
AcDbEntity
  8
Camada 1
 62
   250
420
  1907995
370
    15
100
AcDbSpline
210
0.0
220
0.0
230
1.0
 70
    11
 71
     3
 72
    26
 73
    22
 74
     0
 42
0.0000000001
 43
0.0000000001
 40
0.0
 40
0.0
 40
0.0
 40
0.0
 40
1.0
 40
1.0
 40
1.0
 40
2.0
 40
2.0
 40
2.0
 40
3.0
 40
3.0
 40
3.0
 40
4.0
 40
4.0
 40
4.0
 40
5.0
 40
5.0
 40
5.0
 40
6.0
 40
6.0
 40
6.0
 40
7.0
 40
7.0
 40
7.0
 40
7.0
 10
77.3219562212715
 20
-57.15257436226608
 30
0.0
 10
77.3219562212715
 20
-57.15257436226608
 30
0.0
 10
54.81393929524872
 20
-57.15257436125348
 30
0.0
 10
54.81393929524872
 20
-57.15257436125348
 30
0.0
 10
54.81393929524872
 20
-57.15257436125348
 30
0.0
 10
54.61955308643501
 20
-61.60129932663168
 30
0.0
 10
56.49276283105574
 20
-64.85597332997881
 30
0.0
 10
58.36595939427213
 20
-68.11071324036759
 30
0.0
 10
60.61876729691815
 20
-70.21555990312205
 30
0.0
 10
60.61876729691815
 20
-70.21555990312205
 30
0.0
 10
60.61876729691815
 20
-70.21555990312205
 30
0.0
 10
60.99967041416777
 20
-70.5981897943878
 30
0.0
 10
61.6354362920564
 20
-70.60694224886339
 30
0.0
 10
61.86186624419569
 20
-70.60694224887751
 30
0.0
 10
68.65055446283294
 20
-70.60694224918039
 30
0.0
 10
73.22207730318172
 20
-70.60694224938188
 30
0.0
 10
75.56255474369315
 20
-70.60694224949482
 30
0.0
 10
77.32195622066831
 20
-70.60694224957247
 30
0.0
 10
77.32195622066831
 20
-70.60694224957247
 30
0.0
 10
77.32195622066831
 20
-70.60694224957247
 30
0.0
 10
77.3219562212715
 20
-57.15257436226608
 30
0.0
 10
77.3219562212715
 20
-57.15257436226608
 30
0.0
  0
SPLINE
  5
E6
330
E1
100
AcDbEntity
  8
Camada 1
 62
   250
420
  1907995
370
    15
100
AcDbSpline
210
0.0
220
0.0
230
1.0
 70
     8
 71
     3
 72
    14
 73
    10
 74
     0
 42
0.0000000001
 43
0.0000000001
 40
0.0
 40
0.0
 40
0.0
 40
0.0
 40
1.0
 40
1.0
 40
1.0
 40
2.0
 40
2.0
 40
2.0
 40
3.0
 40
3.0
 40
3.0
 40
3.0
 10
72.95047441252805
 20
-70.60694224937482
 30
0.0
 10
72.57459341128762
 20
-71.24645140615761
 30
0.0
 10
71.89029384971012
 20
-72.1622560414435
 30
0.0
 10
70.79831973333729
 20
-72.43380621328562
 30
0.0
 10
69.21295237260041
 20
-72.74925047142471
 30
0.0
 10
68.56250266417212
 20
-72.60198778898206
 30
0.0
 10
68.06742219972413
 20
-72.46702335956512
 30
0.0
 10
67.05655353729858
 20
-72.13008022599204
 30
0.0
 10
66.49531533446884
 20
-71.23551083782217
 30
0.0
 10
66.20027590224609
 20
-70.6069422490713
 30
0.0
  0
SPLINE
  5
E7
330
E1
100
AcDbEntity
  8
Camada 1
 62
   250
420
  1907995
370
    15
100
AcDbSpline
210
0.0
220
0.0
230
1.0
 70
     8
 71
     3
 72
     8
 73
     4
 74
     0
 42
0.0000000001
 43
0.0000000001
 40
0.0
 40
0.0
 40
0.0
 40
0.0
 40
1.0
 40
1.0
 40
1.0
 40
1.0
 10
58.8103178051912
 20
-57.15257436143701
 30
0.0
 10
58.8103178051912
 20
-57.15257436143701
 30
0.0
 10
58.80980372990952
 20
-66.33110462156278
 30
0.0
 10
63.3262414703242
 20
-70.6069422489404
 30
0.0
  0
SPLINE
  5
E8
330
E1
100
AcDbEntity
  8
Camada 1
 62
   250
420
  1907995
370
    15
100
AcDbSpline
210
0.0
220
0.0
230
1.0
 70
     8
 71
     3
 72
     8
 73
     4
 74
     0
 42
0.0000000001
 43
0.0000000001
 40
0.0
 40
0.0
 40
0.0
 40
0.0
 40
1.0
 40
1.0
 40
1.0
 40
1.0
 10
56.99105955916074
 20
-57.15257436135551
 30
0.0
 10
56.99105955916074
 20
-57.15257436135551
 30
0.0
 10
57.13457871783624
 20
-66.74867842350126
 30
0.0
 10
62.19010798411353
 20
-70.60694224889163
 30
0.0
  0
ENDBLK
  5
E4
330
E1
100
AcDbEntity
  8
0
100
AcDbBlockEnd
  0
ENDSEC
  0
SECTION
  2
ENTITIES
  0
INSERT
  5
7A
330
70
100
AcDbEntity
  8
Camada 1
100
AcDbBlockReference
  2
Block_0
 10
0.0
 20
0.0
 30
0.0
  0
ENDSEC
  0
SECTION
  2
OBJECTS
  0
DICTIONARY
  5
C
330
0
100
AcDbDictionary
281
     1
  3
ACAD_COLOR
350
63
  3
ACAD_DETAILVIEWSTYLE
350
6A
  3
ACAD_GROUP
350
D
  3
ACAD_LAYOUT
350
62
  3
ACAD_MATERIAL
350
10
  3
ACAD_MLEADERSTYLE
350
66
  3
ACAD_MLINESTYLE
350
5F
  3
ACAD_PLOTSETTINGS
350
61
  3
ACAD_PLOTSTYLENAME
350
E
  3
ACAD_SCALELIST
350
42
  3
ACAD_SECTIONVIEWSTYLE
350
68
  3
ACAD_TABLESTYLE
350
64
  3
ACAD_VISUALSTYLE
350
29
  3
ACDB_RECOMPOSE_DATA
350
105
  3
AcDbVariableDictionary
350
FD
  0
DICTIONARY
  5
63
102
{ACAD_REACTORS
330
C
102
}
330
C
100
AcDbDictionary
281
     1
  0
DICTIONARY
  5
6A
102
{ACAD_REACTORS
330
C
102
}
330
C
100
AcDbDictionary
281
     1
  3
Imperial24
350
6B
  0
DICTIONARY
  5
D
102
{ACAD_REACTORS
330
C
102
}
330
C
100
AcDbDictionary
281
     1
  0
DICTIONARY
  5
62
102
{ACAD_REACTORS
330
C
102
}
330
C
100
AcDbDictionary
281
     1
  3
Layout1
350
6F
  3
Layout2
350
77
  3
Model
350
73
  0
DICTIONARY
  5
10
102
{ACAD_REACTORS
330
C
102
}
330
C
100
AcDbDictionary
281
     1
  3
ByBlock
350
19
  3
ByLayer
350
11
  3
Global
350
21
  0
DICTIONARY
  5
66
102
{ACAD_REACTORS
330
C
102
}
330
C
100
AcDbDictionary
281
     1
  3
Standard
350
67
  0
DICTIONARY
  5
5F
102
{ACAD_REACTORS
330
C
102
}
330
C
100
AcDbDictionary
281
     1
  3
Standard
350
60
  0
DICTIONARY
  5
61
102
{ACAD_REACTORS
330
C
102
}
330
C
100
AcDbDictionary
281
     1
  0
ACDBDICTIONARYWDFLT
  5
E
102
{ACAD_REACTORS
330
C
102
}
330
C
100
AcDbDictionary
281
     1
  3
Normal
350
F
100
AcDbDictionaryWithDefault
340
F
  0
DICTIONARY
  5
42
102
{ACAD_REACTORS
330
C
102
}
330
C
100
AcDbDictionary
281
     1
  3
A0
350
43
  3
A1
350
44
  3
A2
350
45
  3
A3
350
46
  3
A4
350
47
  3
A5
350
48
  3
A6
350
49
  3
A7
350
4A
  3
A8
350
4B
  3
A9
350
4C
  3
B0
350
4D
  3
B1
350
4E
  3
B2
350
4F
  3
B3
350
50
  3
B4
350
51
  3
B5
350
52
  3
B6
350
53
  0
DICTIONARY
  5
68
102
{ACAD_REACTORS
330
C
102
}
330
C
100
AcDbDictionary
281
     1
  3
Imperial24
350
69
  0
DICTIONARY
  5
64
102
{ACAD_REACTORS
330
C
102
}
330
C
100
AcDbDictionary
281
     1
  3
Standard
350
65
  0
DICTIONARY
  5
29
102
{ACAD_REACTORS
330
C
102
}
330
C
100
AcDbDictionary
281
     1
  3
2dWireframe
350
2F
  3
Basic
350
2E
  3
Brighten
350
35
  3
ColorChange
350
39
  3
Conceptual
350
32
  3
Dim
350
34
  3
EdgeColorOff
350
41
  3
Facepattern
350
38
  3
Flat
350
2A
  3
FlatWithEdges
350
2B
  3
Gouraud
350
2C
  3
GouraudWithEdges
350
2D
  3
Hidden
350
31
  3
JitterOff
350
3F
  3
Linepattern
350
37
  3
OverhangOff
350
40
  3
Realistic
350
33
  3
Shaded
350
3E
  3
Shaded with edges
350
3D
  3
Shades of Gray
350
3A
  3
Sketchy
350
3B
  3
Thicken
350
36
  3
Wireframe
350
30
  3
X-Ray
350
3C
  0
XRECORD
  5
105
102
{ACAD_REACTORS
330
C
102
}
330
C
100
AcDbXrecord
280
     1
 90
        1
330
65
  0
DICTIONARY
  5
FD
102
{ACAD_REACTORS
330
C
102
}
330
C
100
AcDbDictionary
281
     1
  3
CANNOSCALE
350
102
  3
CMLEADERSTYLE
350
FF
  3
CTABLESTYLE
350
FE
  3
CVIEWDETAILSTYLE
350
100
  3
CVIEWSECTIONSTYLE
350
101
  0
ACDBDETAILVIEWSTYLE
  5
6B
102
{ACAD_REACTORS
330
6A
102
}
330
6A
100
AcDbModelDocViewStyle
 70
     0
  3
Imperial24
290
     1
300
Imperial24
 90
        0
100
AcDbDetailViewStyle
 70
     0
 71
     0
 90
        3
 71
     1
340
55
 62
   256
 40
0.24
340
0
 62
   256
 40
0.24
300

 40
0.36
280
     3
 71
     2
340
5D
 90
       25
 62
   256
 71
     3
340
55
 62
   256
 40
0.24
 90
        1
 40
0.75
 90
        1
300
%<\AcVar ViewType \f "%tc1">% %<\AcVar ViewDetailId>%\PSCALE %<\AcVar ViewScale \f "%sn">%
 71
     4
340
5D
 90
       25
 62
   256
340
5D
 90
       25
 62
   256
280
     0
  0
LAYOUT
  5
6F
102
{ACAD_REACTORS
330
62
102
}
330
62
100
AcDbPlotSettings
  1

  2

  4

  6

 40
0.0
 41
0.0
 42
0.0
 43
0.0
 44
0.0
 45
0.0
 46
0.0
 47
0.0
 48
0.0
 49
0.0
140
0.0
141
0.0
142
1.0
143
1.0
 70
   688
 72
     0
 73
     0
 74
     5
  7

 75
    16
147
1.0
 76
     0
 77
     2
 78
   300
148
0.0
149
0.0
100
AcDbLayout
  1
Layout1
 70
     1
 71
     1
 10
0.0
 20
0.0
 11
12.0
 21
9.0
 12
0.0
 22
0.0
 32
0.0
 14
0.0
 24
0.0
 34
0.0
 15
0.0
 25
0.0
 35
0.0
146
0.0
 13
0.0
 23
0.0
 33
0.0
 16
1.0
 26
0.0
 36
0.0
 17
0.0
 27
1.0
 37
0.0
 76
     0
330
6C
  0
LAYOUT
  5
77
102
{ACAD_REACTORS
330
62
102
}
330
62
100
AcDbPlotSettings
  1

  2

  4

  6

 40
0.0
 41
0.0
 42
0.0
 43
0.0
 44
0.0
 45
0.0
 46
0.0
 47
0.0
 48
0.0
 49
0.0
140
0.0
141
0.0
142
1.0
143
1.0
 70
   688
 72
     0
 73
     0
 74
     5
  7

 75
    16
147
1.0
 76
     0
 77
     2
 78
   300
148
0.0
149
0.0
100
AcDbLayout
  1
Layout2
 70
     1
 71
     2
 10
0.0
 20
0.0
 11
12.0
 21
9.0
 12
0.0
 22
0.0
 32
0.0
 14
0.0
 24
0.0
 34
0.0
 15
0.0
 25
0.0
 35
0.0
146
0.0
 13
0.0
 23
0.0
 33
0.0
 16
1.0
 26
0.0
 36
0.0
 17
0.0
 27
1.0
 37
0.0
 76
     0
330
74
  0
LAYOUT
  5
73
102
{ACAD_REACTORS
330
62
102
}
330
62
100
AcDbPlotSettings
  1

  2

  4

  6

 40
0.0
 41
0.0
 42
0.0
 43
0.0
 44
0.0
 45
0.0
 46
0.0
 47
0.0
 48
0.0
 49
0.0
140
0.0
141
0.0
142
1.0
143
1.0
 70
  1712
 72
     0
 73
     0
 74
     0
  7

 75
     0
147
1.0
 76
     0
 77
     2
 78
   300
148
0.0
149
0.0
100
AcDbLayout
  1
Model
 70
     1
 71
     0
 10
0.0
 20
0.0
 11
12.0
 21
9.0
 12
0.0
 22
0.0
 32
0.0
 14
0.0
 24
0.0
 34
0.0
 15
0.0
 25
0.0
 35
0.0
146
0.0
 13
0.0
 23
0.0
 33
0.0
 16
1.0
 26
0.0
 36
0.0
 17
0.0
 27
1.0
 37
0.0
 76
     0
330
70
  0
MATERIAL
  5
19
102
{ACAD_XDICTIONARY
360
1A
102
}
102
{ACAD_REACTORS
330
10
102
}
330
10
100
AcDbMaterial
  1
ByBlock
 72
     0
 43
0.0208333333333333
 43
0.0
 43
0.0
 43
0.0
 43
0.0
 43
0.0208333333333333
 43
0.0
 43
0.0
 43
0.0
 43
0.0
 43
1.0
 43
0.0
 43
0.0
 43
0.0
 43
0.0
 43
1.0
 77
     0
 47
0.0208333333333333
 47
0.0
 47
0.0
 47
0.0
 47
0.0
 47
0.0208333333333333
 47
0.0
 47
0.0
 47
0.0
 47
0.0
 47
1.0
 47
0.0
 47
0.0
 47
0.0
 47
0.0
 47
1.0
171
     0
 49
0.0208333333333333
 49
0.0
 49
0.0
 49
0.0
 49
0.0
 49
0.0208333333333333
 49
0.0
 49
0.0
 49
0.0
 49
0.0
 49
1.0
 49
0.0
 49
0.0
 49
0.0
 49
0.0
 49
1.0
175
     0
142
0.0208333333333333
142
0.0
142
0.0
142
0.0
142
0.0
142
0.0208333333333333
142
0.0
142
0.0
142
0.0
142
0.0
142
1.0
142
0.0
142
0.0
142
0.0
142
0.0
142
1.0
179
     0
144
0.0208333333333333
144
0.0
144
0.0
144
0.0
144
0.0
144
0.0208333333333333
144
0.0
144
0.0
144
0.0
144
0.0
144
1.0
144
0.0
144
0.0
144
0.0
144
0.0
144
1.0
147
0.0208333333333333
147
0.0
147
0.0
147
0.0
147
0.0
147
0.0208333333333333
147
0.0
147
0.0
147
0.0
147
0.0
147
1.0
147
0.0
147
0.0
147
0.0
147
0.0
147
1.0
  0
MATERIAL
  5
11
102
{ACAD_XDICTIONARY
360
12
102
}
102
{ACAD_REACTORS
330
10
102
}
330
10
100
AcDbMaterial
  1
ByLayer
 72
     0
 43
0.0208333333333333
 43
0.0
 43
0.0
 43
0.0
 43
0.0
 43
0.0208333333333333
 43
0.0
 43
0.0
 43
0.0
 43
0.0
 43
1.0
 43
0.0
 43
0.0
 43
0.0
 43
0.0
 43
1.0
 77
     0
 47
0.0208333333333333
 47
0.0
 47
0.0
 47
0.0
 47
0.0
 47
0.0208333333333333
 47
0.0
 47
0.0
 47
0.0
 47
0.0
 47
1.0
 47
0.0
 47
0.0
 47
0.0
 47
0.0
 47
1.0
171
     0
 49
0.0208333333333333
 49
0.0
 49
0.0
 49
0.0
 49
0.0
 49
0.0208333333333333
 49
0.0
 49
0.0
 49
0.0
 49
0.0
 49
1.0
 49
0.0
 49
0.0
 49
0.0
 49
0.0
 49
1.0
175
     0
142
0.0208333333333333
142
0.0
142
0.0
142
0.0
142
0.0
142
0.0208333333333333
142
0.0
142
0.0
142
0.0
142
0.0
142
1.0
142
0.0
142
0.0
142
0.0
142
0.0
142
1.0
179
     0
144
0.0208333333333333
144
0.0
144
0.0
144
0.0
144
0.0
144
0.0208333333333333
144
0.0
144
0.0
144
0.0
144
0.0
144
1.0
144
0.0
144
0.0
144
0.0
144
0.0
144
1.0
147
0.0208333333333333
147
0.0
147
0.0
147
0.0
147
0.0
147
0.0208333333333333
147
0.0
147
0.0
147
0.0
147
0.0
147
1.0
147
0.0
147
0.0
147
0.0
147
0.0
147
1.0
  0
MATERIAL
  5
21
102
{ACAD_XDICTIONARY
360
22
102
}
102
{ACAD_REACTORS
330
10
102
}
330
10
100
AcDbMaterial
  1
Global
 72
     0
 43
0.0208333333333333
 43
0.0
 43
0.0
 43
0.0
 43
0.0
 43
0.0208333333333333
 43
0.0
 43
0.0
 43
0.0
 43
0.0
 43
1.0
 43
0.0
 43
0.0
 43
0.0
 43
0.0
 43
1.0
 77
     0
 47
0.0208333333333333
 47
0.0
 47
0.0
 47
0.0
 47
0.0
 47
0.0208333333333333
 47
0.0
 47
0.0
 47
0.0
 47
0.0
 47
1.0
 47
0.0
 47
0.0
 47
0.0
 47
0.0
 47
1.0
171
     0
 49
0.0208333333333333
 49
0.0
 49
0.0
 49
0.0
 49
0.0
 49
0.0208333333333333
 49
0.0
 49
0.0
 49
0.0
 49
0.0
 49
1.0
 49
0.0
 49
0.0
 49
0.0
 49
0.0
 49
1.0
175
     0
142
0.0208333333333333
142
0.0
142
0.0
142
0.0
142
0.0
142
0.0208333333333333
142
0.0
142
0.0
142
0.0
142
0.0
142
1.0
142
0.0
142
0.0
142
0.0
142
0.0
142
1.0
179
     0
144
0.0208333333333333
144
0.0
144
0.0
144
0.0
144
0.0
144
0.0208333333333333
144
0.0
144
0.0
144
0.0
144
0.0
144
1.0
144
0.0
144
0.0
144
0.0
144
0.0
144
1.0
147
0.0208333333333333
147
0.0
147
0.0
147
0.0
147
0.0
147
0.0208333333333333
147
0.0
147
0.0
147
0.0
147
0.0
147
1.0
147
0.0
147
0.0
147
0.0
147
0.0
147
1.0
  0
MLEADERSTYLE
  5
67
102
{ACAD_REACTORS
330
66
102
}
330
66
100
AcDbMLeaderStyle
179
     2
170
     2
171
     1
172
     0
 90
        2
 40
0.0
 41
0.0
173
     1
 91
-1056964608
340
5B
 92
       -2
290
     1
 42
0.09
291
     1
 43
0.36
  3
Standard
 44
0.18
300

342
55
174
     1
178
     6
175
     1
176
     0
 93
-1056964608
 45
0.18
292
     0
297
     0
 46
0.18
 94
-1056964608
 47
1.0
 49
1.0
140
1.0
293
     1
141
0.0
294
     1
177
     0
142
1.0
295
     1
296
     0
143
0.125
271
     0
272
     9
273
     9
298
     1
  0
MLINESTYLE
  5
60
102
{ACAD_REACTORS
330
5F
102
}
330
5F
100
AcDbMlineStyle
  2
STANDARD
 70
     0
  3

 62
   256
 51
90.0
 52
90.0
 71
     2
 49
0.5
 62
   256
  6
BYLAYER
 49
-0.5
 62
   256
  6
BYLAYER
  0
ACDBPLACEHOLDER
  5
F
102
{ACAD_REACTORS
330
E
102
}
330
E
  0
SCALE
  5
43
102
{ACAD_REACTORS
330
42
102
}
330
42
100
AcDbScale
 70
     0
300
1:1
140
1.0
141
1.0
290
     1
  0
SCALE
  5
44
102
{ACAD_REACTORS
330
42
102
}
330
42
100
AcDbScale
 70
     0
300
1/128" = 1'-0"
140
0.0078125
141
12.0
290
     0
  0
SCALE
  5
45
102
{ACAD_REACTORS
330
42
102
}
330
42
100
AcDbScale
 70
     0
300
1/64" = 1'-0"
140
0.015625
141
12.0
290
     0
  0
SCALE
  5
46
102
{ACAD_REACTORS
330
42
102
}
330
42
100
AcDbScale
 70
     0
300
1/32" = 1'-0"
140
0.03125
141
12.0
290
     0
  0
SCALE
  5
47
102
{ACAD_REACTORS
330
42
102
}
330
42
100
AcDbScale
 70
     0
300
1/16" = 1'-0"
140
0.0625
141
12.0
290
     0
  0
SCALE
  5
48
102
{ACAD_REACTORS
330
42
102
}
330
42
100
AcDbScale
 70
     0
300
3/32" = 1'-0"
140
0.09375
141
12.0
290
     0
  0
SCALE
  5
49
102
{ACAD_REACTORS
330
42
102
}
330
42
100
AcDbScale
 70
     0
300
1/8" = 1'-0"
140
0.125
141
12.0
290
     0
  0
SCALE
  5
4A
102
{ACAD_REACTORS
330
42
102
}
330
42
100
AcDbScale
 70
     0
300
3/16" = 1'-0"
140
0.1875
141
12.0
290
     0
  0
SCALE
  5
4B
102
{ACAD_REACTORS
330
42
102
}
330
42
100
AcDbScale
 70
     0
300
1/4" = 1'-0"
140
0.25
141
12.0
290
     0
  0
SCALE
  5
4C
102
{ACAD_REACTORS
330
42
102
}
330
42
100
AcDbScale
 70
     0
300
3/8" = 1'-0"
140
0.375
141
12.0
290
     0
  0
SCALE
  5
4D
102
{ACAD_REACTORS
330
42
102
}
330
42
100
AcDbScale
 70
     0
300
1/2" = 1'-0"
140
0.5
141
12.0
290
     0
  0
SCALE
  5
4E
102
{ACAD_REACTORS
330
42
102
}
330
42
100
AcDbScale
 70
     0
300
3/4" = 1'-0"
140
0.75
141
12.0
290
     0
  0
SCALE
  5
4F
102
{ACAD_REACTORS
330
42
102
}
330
42
100
AcDbScale
 70
     0
300
1" = 1'-0"
140
1.0
141
12.0
290
     0
  0
SCALE
  5
50
102
{ACAD_REACTORS
330
42
102
}
330
42
100
AcDbScale
 70
     0
300
1-1/2" = 1'-0"
140
1.5
141
12.0
290
     0
  0
SCALE
  5
51
102
{ACAD_REACTORS
330
42
102
}
330
42
100
AcDbScale
 70
     0
300
3" = 1'-0"
140
3.0
141
12.0
290
     0
  0
SCALE
  5
52
102
{ACAD_REACTORS
330
42
102
}
330
42
100
AcDbScale
 70
     0
300
6" = 1'-0"
140
6.0
141
12.0
290
     0
  0
SCALE
  5
53
102
{ACAD_REACTORS
330
42
102
}
330
42
100
AcDbScale
 70
     0
300
1'-0" = 1'-0"
140
12.0
141
12.0
290
     0
  0
ACDBSECTIONVIEWSTYLE
  5
69
102
{ACAD_REACTORS
330
68
102
}
330
68
100
AcDbModelDocViewStyle
 70
     0
  3
Imperial24
290
     1
300
Imperial24
 90
        0
100
AcDbSectionViewStyle
 70
     0
 71
     0
 90
       78
 71
     1
340
55
 62
   256
 40
0.24
340
0
340
0
 62
   256
 40
0.24
300
I, O, Q, S, X, Z
 40
0.48
 90
        3
 40
0.18
 90
        1
 71
     2
340
5D
 90
       25
 62
   256
340
5D
 90
       50
 62
   256
 40
0.24
 40
0.0
 40
0.24
 71
     3
340
55
 62
   256
 40
0.24
 90
        1
 40
0.75
 90
        1
300
%<\AcVar ViewType \f "%tc1">% %<\AcVar ViewSectionStartId>%-%<\AcVar ViewSectionEndId>%\PSCALE %<\AcVar ViewScale \f "%sn">%
 71
     4
 62
   256
 62
   257
300
ANSI31
 40
1.0
 90
        0
290
     0
290
     0
 90
        6
 40
0.0
 40
1.570796326794896
 40
0.2617993877991494
 40
1.308996938995747
 40
-0.2617993877991494
 40
1.832595714594046
  0
TABLESTYLE
  5
65
102
{ACAD_XDICTIONARY
360
103
102
}
102
{ACAD_REACTORS
330
64
102
}
330
64
100
AcDbTableStyle
280
     0
  3
Standard
 70
     0
 71
     0
 40
0.06
 41
0.06
280
     0
281
     0
  7
Standard
140
0.18
170
     2
 62
     0
 63
     7
283
     0
 90
      512
 91
        0
  1

274
    -2
284
     1
 64
     0
275
    -2
285
     1
 65
     0
276
    -2
286
     1
 66
     0
277
    -2
287
     1
 67
     0
278
    -2
288
     1
 68
     0
279
    -2
289
     1
 69
     0
  7
Standard
140
0.25
170
     5
 62
     0
 63
     7
283
     0
 90
      512
 91
        0
  1

274
    -2
284
     1
 64
     0
275
    -2
285
     1
 65
     0
276
    -2
286
     1
 66
     0
277
    -2
287
     1
 67
     0
278
    -2
288
     1
 68
     0
279
    -2
289
     1
 69
     0
  7
Standard
140
0.18
170
     5
 62
     0
 63
     7
283
     0
 90
      512
 91
        0
  1

274
    -2
284
     1
 64
     0
275
    -2
285
     1
 65
     0
276
    -2
286
     1
 66
     0
277
    -2
287
     1
 67
     0
278
    -2
288
     1
 68
     0
279
    -2
289
     1
 69
     0
  0
VISUALSTYLE
  5
2F
102
{ACAD_REACTORS
330
29
102
}
330
29
100
AcDbVisualStyle
  2
2dWireframe
 70
     4
177
     3
291
     0
 70
    58
 90
        0
176
     1
 90
        2
176
     1
 90
        0
176
     1
 90
        0
176
     1
 40
0.6
176
     1
 40
30.0
176
     1
 62
     7
420
 16777215
176
     1
 90
        1
176
     1
 90
        4
176
     1
 62
     7
176
     1
 62
   257
176
     1
 90
        1
176
     1
 90
        1
176
     1
 40
1.0
176
     1
 90
        0
176
     1
 62
   257
176
     1
 40
1.0
176
     1
 90
        1
176
     1
 90
        6
176
     1
 90
        2
176
     1
 62
     7
176
     1
 90
        5
176
     1
 90
        0
176
     1
 90
        0
176
     1
290
     0
176
     1
 90
        1
176
     1
 40
0.0
176
     1
 90
        0
176
     1
290
     1
176
     1
290
     1
176
     1
290
     0
176
     1
290
     0
176
     1
290
     0
176
     1
290
     0
176
     1
290
     0
176
     1
290
     0
176
     1
290
     0
176
     1
 90
       50
176
     1
 40
0.0
176
     1
 40
1.0
176
     1
 90
        0
176
     1
 62
    18
420
        0
176
     1
 90
       50
176
     1
 90
        3
176
     1
 62
     5
420
      255
176
     1
290
     0
176
     1
 90
       50
176
     1
 90
       50
176
     1
 90
       50
176
     1
290
     0
176
     1
 90
       50
176
     1
 62
   256
176
     0
 40
1.0
176
     0
 90
        2
176
     1
  1
strokes_ogs.tif
176
     1
290
     0
176
     1
 40
1.0
176
     1
 40
1.0
176
     1
  0
VISUALSTYLE
  5
2E
102
{ACAD_REACTORS
330
29
102
}
330
29
100
AcDbVisualStyle
  2
Basic
 70
     7
177
     3
291
     1
 70
    58
 90
        1
176
     1
 90
        0
176
     1
 90
        1
176
     1
 90
        0
176
     1
 40
0.6
176
     1
 40
30.0
176
     1
 62
     7
420
 16777215
176
     1
 90
        0
176
     1
 90
        4
176
     1
 62
     7
176
     1
 62
   257
176
     1
 90
        1
176
     1
 90
        1
176
     1
 40
1.0
176
     1
 90
        8
176
     1
 62
     7
176
     1
 40
1.0
176
     1
 90
        1
176
     1
 90
        6
176
     1
 90
        2
176
     1
 62
     7
176
     1
 90
        5
176
     1
 90
        0
176
     1
 90
        0
176
     1
290
     0
176
     1
 90
        1
176
     1
 40
0.0
176
     1
 90
        0
176
     1
290
     0
176
     1
290
     1
176
     1
290
     1
176
     1
290
     0
176
     1
290
     0
176
     1
290
     0
176
     1
290
     0
176
     1
290
     0
176
     1
290
     0
176
     1
 90
       50
176
     1
 40
0.0
176
     1
 40
1.0
176
     1
 90
        0
176
     1
 62
    18
420
        0
176
     1
 90
       50
176
     1
 90
        3
176
     1
 62
     5
420
      255
176
     1
290
     0
176
     1
 90
       50
176
     1
 90
       50
176
     1
 90
       50
176
     1
290
     0
176
     1
 90
       50
176
     1
 62
   256
176
     0
 40
1.0
176
     0
 90
        2
176
     1
  1
strokes_ogs.tif
176
     1
290
     0
176
     1
 40
1.0
176
     1
 40
1.0
176
     1
  0
VISUALSTYLE
  5
35
102
{ACAD_REACTORS
330
29
102
}
330
29
100
AcDbVisualStyle
  2
Brighten
 70
    12
177
     3
291
     1
 70
    58
 90
        2
176
     1
 90
        2
176
     1
 90
        0
176
     1
 90
        0
176
     1
 40
0.6
176
     1
 40
30.0
176
     1
 62
     7
420
 16777215
176
     1
 90
        1
176
     1
 90
        4
176
     1
 62
     7
176
     1
 62
   257
176
     1
 90
        1
176
     1
 90
        1
176
     1
 40
1.0
176
     1
 90
        8
176
     1
 62
     7
176
     1
 40
1.0
176
     1
 90
        1
176
     1
 90
        6
176
     1
 90
        2
176
     1
 62
     7
176
     1
 90
        5
176
     1
 90
        0
176
     1
 90
        0
176
     1
290
     0
176
     1
 90
        1
176
     1
 40
50.0
176
     1
 90
        0
176
     1
290
     0
176
     1
290
     1
176
     1
290
     1
176
     1
290
     0
176
     1
290
     0
176
     1
290
     0
176
     1
290
     0
176
     1
290
     0
176
     1
290
     0
176
     1
 90
       50
176
     1
 40
0.0
176
     1
 40
1.0
176
     1
 90
        0
176
     1
 62
    18
420
        0
176
     1
 90
       50
176
     1
 90
        3
176
     1
 62
     5
420
      255
176
     1
290
     0
176
     1
 90
       50
176
     1
 90
       50
176
     1
 90
       50
176
     1
290
     0
176
     1
 90
       50
176
     1
 62
   256
176
     0
 40
1.0
176
     0
 90
        2
176
     1
  1
strokes_ogs.tif
176
     1
290
     0
176
     1
 40
1.0
176
     1
 40
1.0
176
     1
  0
VISUALSTYLE
  5
39
102
{ACAD_REACTORS
330
29
102
}
330
29
100
AcDbVisualStyle
  2
ColorChange
 70
    16
177
     3
291
     1
 70
    58
 90
        2
176
     1
 90
        2
176
     1
 90
        3
176
     1
 90
        0
176
     1
 40
0.6
176
     1
 40
30.0
176
     1
 62
     8
420
  8421504
176
     1
 90
        1
176
     1
 90
        4
176
     1
 62
     7
176
     1
 62
   257
176
     1
 90
        1
176
     1
 90
        1
176
     1
 40
1.0
176
     1
 90
        8
176
     1
 62
     8
420
  8421504
176
     1
 40
1.0
176
     1
 90
        1
176
     1
 90
        6
176
     1
 90
        2
176
     1
 62
     7
176
     1
 90
        5
176
     1
 90
        0
176
     1
 90
        0
176
     1
290
     0
176
     1
 90
        1
176
     1
 40
0.0
176
     1
 90
        0
176
     1
290
     0
176
     1
290
     1
176
     1
290
     1
176
     1
290
     0
176
     1
290
     0
176
     1
290
     0
176
     1
290
     0
176
     1
290
     0
176
     1
290
     0
176
     1
 90
       50
176
     1
 40
0.0
176
     1
 40
1.0
176
     1
 90
        0
176
     1
 62
    18
420
        0
176
     1
 90
       50
176
     1
 90
        3
176
     1
 62
     5
420
      255
176
     1
290
     0
176
     1
 90
       50
176
     1
 90
       50
176
     1
 90
       50
176
     1
290
     0
176
     1
 90
       50
176
     1
 62
   256
176
     0
 40
1.0
176
     0
 90
        2
176
     1
  1
strokes_ogs.tif
176
     1
290
     0
176
     1
 40
1.0
176
     1
 40
1.0
176
     1
  0
VISUALSTYLE
  5
32
102
{ACAD_REACTORS
330
29
102
}
330
29
100
AcDbVisualStyle
  2
Conceptual
 70
     9
177
     3
291
     0
 70
    58
 90
        3
176
     1
 90
        2
176
     1
 90
        0
176
     1
 90
        0
176
     1
 40
0.6
176
     1
 40
30.0
176
     1
 62
     7
420
 16777215
176
     1
 90
        2
176
     1
 90
        2
176
     1
 62
     7
176
     1
 62
   257
176
     1
 90
        1
176
     1
 90
        1
176
     1
 40
179.0
176
     1
 90
        8
176
     1
 62
     7
176
     1
 40
1.0
176
     1
 90
        1
176
     1
 90
        6
176
     1
 90
        2
176
     1
 62
     7
176
     1
 90
        3
176
     1
 90
        0
176
     1
 90
        0
176
     1
290
     0
176
     1
 90
        1
176
     1
 40
0.0
176
     1
 90
        0
176
     1
290
     0
176
     1
290
     1
176
     1
290
     1
176
     1
290
     0
176
     1
290
     0
176
     1
290
     0
176
     1
290
     0
176
     1
290
     0
176
     1
290
     0
176
     1
 90
       50
176
     1
 40
0.0
176
     1
 40
1.0
176
     1
 90
        0
176
     1
 62
    18
420
        0
176
     1
 90
       50
176
     1
 90
        3
176
     1
 62
     5
420
      255
176
     1
290
     0
176
     1
 90
       50
176
     1
 90
       50
176
     1
 90
       50
176
     1
290
     0
176
     1
 90
       50
176
     1
 62
   256
176
     0
 40
1.0
176
     0
 90
        2
176
     1
  1
strokes_ogs.tif
176
     1
290
     0
176
     1
 40
1.0
176
     1
 40
1.0
176
     1
  0
VISUALSTYLE
  5
34
102
{ACAD_REACTORS
330
29
102
}
330
29
100
AcDbVisualStyle
  2
Dim
 70
    11
177
     3
291
     1
 70
    58
 90
        2
176
     1
 90
        2
176
     1
 90
        0
176
     1
 90
        0
176
     1
 40
0.6
176
     1
 40
30.0
176
     1
 62
     7
420
 16777215
176
     1
 90
        1
176
     1
 90
        4
176
     1
 62
     7
176
     1
 62
   257
176
     1
 90
        1
176
     1
 90
        1
176
     1
 40
1.0
176
     1
 90
        8
176
     1
 62
     7
176
     1
 40
1.0
176
     1
 90
        1
176
     1
 90
        6
176
     1
 90
        2
176
     1
 62
     7
176
     1
 90
        5
176
     1
 90
        0
176
     1
 90
        0
176
     1
290
     0
176
     1
 90
        1
176
     1
 40
-50.0
176
     1
 90
        0
176
     1
290
     0
176
     1
290
     1
176
     1
290
     1
176
     1
290
     0
176
     1
290
     0
176
     1
290
     0
176
     1
290
     0
176
     1
290
     0
176
     1
290
     0
176
     1
 90
       50
176
     1
 40
0.0
176
     1
 40
1.0
176
     1
 90
        0
176
     1
 62
    18
420
        0
176
     1
 90
       50
176
     1
 90
        3
176
     1
 62
     5
420
      255
176
     1
290
     0
176
     1
 90
       50
176
     1
 90
       50
176
     1
 90
       50
176
     1
290
     0
176
     1
 90
       50
176
     1
 62
   256
176
     0
 40
1.0
176
     0
 90
        2
176
     1
  1
strokes_ogs.tif
176
     1
290
     0
176
     1
 40
1.0
176
     1
 40
1.0
176
     1
  0
VISUALSTYLE
  5
41
102
{ACAD_REACTORS
330
29
102
}
330
29
100
AcDbVisualStyle
  2
EdgeColorOff
 70
    22
177
     3
291
     1
 70
    58
 90
        2
176
     0
 90
        2
176
     0
 90
        0
176
     0
 90
        0
176
     0
 40
0.6
176
     0
 40
30.0
176
     0
 62
     7
420
 16777215
176
     0
 90
        1
176
     0
 90
        4
176
     0
 62
     7
176
     0
 62
   257
176
     0
 90
        1
176
     0
 90
        1
176
     0
 40
1.0
176
     0
 90
        8
176
     2
 62
     7
176
     0
 40
1.0
176
     0
 90
        1
176
     0
 90
        6
176
     0
 90
        2
176
     0
 62
     7
176
     0
 90
        5
176
     0
 90
        0
176
     0
 90
        0
176
     0
290
     0
176
     0
 90
        1
176
     0
 40
0.0
176
     0
 90
        0
176
     0
290
     0
176
     0
290
     1
176
     0
290
     1
176
     0
290
     0
176
     0
290
     0
176
     0
290
     0
176
     0
290
     0
176
     0
290
     0
176
     0
290
     0
176
     0
 90
       50
176
     0
 40
0.0
176
     0
 40
1.0
176
     0
 90
        0
176
     0
 62
    18
420
        0
176
     0
 90
       50
176
     0
 90
        3
176
     0
 62
     5
420
      255
176
     0
290
     0
176
     0
 90
       50
176
     0
 90
       50
176
     0
 90
       50
176
     0
290
     0
176
     0
 90
       50
176
     0
 62
   256
176
     0
 40
1.0
176
     0
 90
        2
176
     0
  1
strokes_ogs.tif
176
     0
290
     0
176
     0
 40
1.0
176
     0
 40
1.0
176
     0
  0
VISUALSTYLE
  5
38
102
{ACAD_REACTORS
330
29
102
}
330
29
100
AcDbVisualStyle
  2
Facepattern
 70
    15
177
     3
291
     1
 70
    58
 90
        2
176
     1
 90
        2
176
     1
 90
        0
176
     1
 90
        0
176
     1
 40
0.6
176
     1
 40
30.0
176
     1
 62
     7
420
 16777215
176
     1
 90
        1
176
     1
 90
        4
176
     1
 62
     7
176
     1
 62
   257
176
     1
 90
        1
176
     1
 90
        1
176
     1
 40
1.0
176
     1
 90
        8
176
     1
 62
     7
176
     1
 40
1.0
176
     1
 90
        1
176
     1
 90
        6
176
     1
 90
        2
176
     1
 62
     7
176
     1
 90
        5
176
     1
 90
        0
176
     1
 90
        0
176
     1
290
     0
176
     1
 90
        1
176
     1
 40
0.0
176
     1
 90
        0
176
     1
290
     0
176
     1
290
     1
176
     1
290
     1
176
     1
290
     0
176
     1
290
     0
176
     1
290
     0
176
     1
290
     0
176
     1
290
     0
176
     1
290
     0
176
     1
 90
       50
176
     1
 40
0.0
176
     1
 40
1.0
176
     1
 90
        0
176
     1
 62
    18
420
        0
176
     1
 90
       50
176
     1
 90
        3
176
     1
 62
     5
420
      255
176
     1
290
     0
176
     1
 90
       50
176
     1
 90
       50
176
     1
 90
       50
176
     1
290
     0
176
     1
 90
       50
176
     1
 62
   256
176
     0
 40
1.0
176
     0
 90
        2
176
     1
  1
strokes_ogs.tif
176
     1
290
     0
176
     1
 40
1.0
176
     1
 40
1.0
176
     1
  0
VISUALSTYLE
  5
2A
102
{ACAD_REACTORS
330
29
102
}
330
29
100
AcDbVisualStyle
  2
Flat
 70
     0
177
     3
291
     1
 70
    58
 90
        2
176
     1
 90
        1
176
     1
 90
        1
176
     1
 90
        2
176
     1
 40
0.6
176
     1
 40
30.0
176
     1
 62
     7
420
 16777215
176
     1
 90
        0
176
     1
 90
        0
176
     1
 62
     7
176
     1
 62
   257
176
     1
 90
        1
176
     1
 90
        1
176
     1
 40
1.0
176
     1
 90
        8
176
     1
 62
     7
176
     1
 40
1.0
176
     1
 90
        1
176
     1
 90
        6
176
     1
 90
        2
176
     1
 62
     7
176
     1
 90
        5
176
     1
 90
        0
176
     1
 90
        0
176
     1
290
     0
176
     1
 90
       13
176
     1
 40
0.0
176
     1
 90
        0
176
     1
290
     0
176
     1
290
     1
176
     1
290
     1
176
     1
290
     0
176
     1
290
     0
176
     1
290
     0
176
     1
290
     0
176
     1
290
     0
176
     1
290
     0
176
     1
 90
       50
176
     1
 40
0.0
176
     1
 40
1.0
176
     1
 90
        0
176
     1
 62
    18
420
        0
176
     1
 90
       50
176
     1
 90
        3
176
     1
 62
     5
420
      255
176
     1
290
     0
176
     1
 90
       50
176
     1
 90
       50
176
     1
 90
       50
176
     1
290
     0
176
     1
 90
       50
176
     1
 62
   256
176
     0
 40
1.0
176
     0
 90
        2
176
     1
  1
strokes_ogs.tif
176
     1
290
     0
176
     1
 40
1.0
176
     1
 40
1.0
176
     1
  0
VISUALSTYLE
  5
2B
102
{ACAD_REACTORS
330
29
102
}
330
29
100
AcDbVisualStyle
  2
FlatWithEdges
 70
     1
177
     3
291
     1
 70
    58
 90
        2
176
     1
 90
        1
176
     1
 90
        1
176
     1
 90
        2
176
     1
 40
0.6
176
     1
 40
30.0
176
     1
 62
     7
420
 16777215
176
     1
 90
        1
176
     1
 90
        0
176
     1
 62
     7
176
     1
 62
   257
176
     1
 90
        1
176
     1
 90
        1
176
     1
 40
1.0
176
     1
 90
        0
176
     1
 62
   257
176
     1
 40
1.0
176
     1
 90
        1
176
     1
 90
        6
176
     1
 90
        2
176
     1
 62
     7
176
     1
 90
        5
176
     1
 90
        0
176
     1
 90
        0
176
     1
290
     0
176
     1
 90
       13
176
     1
 40
0.0
176
     1
 90
        0
176
     1
290
     0
176
     1
290
     1
176
     1
290
     1
176
     1
290
     0
176
     1
290
     0
176
     1
290
     0
176
     1
290
     0
176
     1
290
     0
176
     1
290
     0
176
     1
 90
       50
176
     1
 40
0.0
176
     1
 40
1.0
176
     1
 90
        0
176
     1
 62
    18
420
        0
176
     1
 90
       50
176
     1
 90
        3
176
     1
 62
     5
420
      255
176
     1
290
     0
176
     1
 90
       50
176
     1
 90
       50
176
     1
 90
       50
176
     1
290
     0
176
     1
 90
       50
176
     1
 62
   256
176
     0
 40
1.0
176
     0
 90
        2
176
     1
  1
strokes_ogs.tif
176
     1
290
     0
176
     1
 40
1.0
176
     1
 40
1.0
176
     1
  0
VISUALSTYLE
  5
2C
102
{ACAD_REACTORS
330
29
102
}
330
29
100
AcDbVisualStyle
  2
Gouraud
 70
     2
177
     3
291
     1
 70
    58
 90
        2
176
     1
 90
        2
176
     1
 90
        1
176
     1
 90
        2
176
     1
 40
0.6
176
     1
 40
30.0
176
     1
 62
     7
420
 16777215
176
     1
 90
        0
176
     1
 90
        0
176
     1
 62
     7
176
     1
 62
   257
176
     1
 90
        1
176
     1
 90
        1
176
     1
 40
1.0
176
     1
 90
        0
176
     1
 62
     7
176
     1
 40
1.0
176
     1
 90
        1
176
     1
 90
        6
176
     1
 90
        2
176
     1
 62
     7
176
     1
 90
        5
176
     1
 90
        0
176
     1
 90
        0
176
     1
290
     0
176
     1
 90
       13
176
     1
 40
0.0
176
     1
 90
        0
176
     1
290
     0
176
     1
290
     1
176
     1
290
     1
176
     1
290
     0
176
     1
290
     0
176
     1
290
     0
176
     1
290
     0
176
     1
290
     0
176
     1
290
     0
176
     1
 90
       50
176
     1
 40
0.0
176
     1
 40
1.0
176
     1
 90
        0
176
     1
 62
    18
420
        0
176
     1
 90
       50
176
     1
 90
        3
176
     1
 62
     5
420
      255
176
     1
290
     0
176
     1
 90
       50
176
     1
 90
       50
176
     1
 90
       50
176
     1
290
     0
176
     1
 90
       50
176
     1
 62
   256
176
     0
 40
1.0
176
     0
 90
        2
176
     1
  1
strokes_ogs.tif
176
     1
290
     0
176
     1
 40
1.0
176
     1
 40
1.0
176
     1
  0
VISUALSTYLE
  5
2D
102
{ACAD_REACTORS
330
29
102
}
330
29
100
AcDbVisualStyle
  2
GouraudWithEdges
 70
     3
177
     3
291
     1
 70
    58
 90
        2
176
     1
 90
        2
176
     1
 90
        1
176
     1
 90
        2
176
     1
 40
0.6
176
     1
 40
30.0
176
     1
 62
     7
420
 16777215
176
     1
 90
        1
176
     1
 90
        0
176
     1
 62
     7
176
     1
 62
   257
176
     1
 90
        1
176
     1
 90
        1
176
     1
 40
1.0
176
     1
 90
        0
176
     1
 62
   257
176
     1
 40
1.0
176
     1
 90
        1
176
     1
 90
        6
176
     1
 90
        2
176
     1
 62
     7
176
     1
 90
        5
176
     1
 90
        0
176
     1
 90
        0
176
     1
290
     0
176
     1
 90
       13
176
     1
 40
0.0
176
     1
 90
        0
176
     1
290
     0
176
     1
290
     1
176
     1
290
     1
176
     1
290
     0
176
     1
290
     0
176
     1
290
     0
176
     1
290
     0
176
     1
290
     0
176
     1
290
     0
176
     1
 90
       50
176
     1
 40
0.0
176
     1
 40
1.0
176
     1
 90
        0
176
     1
 62
    18
420
        0
176
     1
 90
       50
176
     1
 90
        3
176
     1
 62
     5
420
      255
176
     1
290
     0
176
     1
 90
       50
176
     1
 90
       50
176
     1
 90
       50
176
     1
290
     0
176
     1
 90
       50
176
     1
 62
   256
176
     0
 40
1.0
176
     0
 90
        2
176
     1
  1
strokes_ogs.tif
176
     1
290
     0
176
     1
 40
1.0
176
     1
 40
1.0
176
     1
  0
VISUALSTYLE
  5
31
102
{ACAD_REACTORS
330
29
102
}
330
29
100
AcDbVisualStyle
  2
Hidden
 70
     6
177
     3
291
     0
 70
    58
 90
        1
176
     1
 90
        2
176
     1
 90
        2
176
     1
 90
        0
176
     1
 40
0.6
176
     1
 40
30.0
176
     1
 62
     7
420
 16777215
176
     1
 90
        2
176
     1
 90
        2
176
     1
 62
     7
176
     1
 62
   257
176
     1
 90
        2
176
     1
 90
        1
176
     1
 40
40.0
176
     1
 90
        0
176
     1
 62
   257
176
     1
 40
1.0
176
     1
 90
        1
176
     1
 90
        6
176
     1
 90
        2
176
     1
 62
     7
176
     1
 90
        3
176
     1
 90
        0
176
     1
 90
        0
176
     1
290
     0
176
     1
 90
        1
176
     1
 40
0.0
176
     1
 90
        0
176
     1
290
     0
176
     1
290
     1
176
     1
290
     1
176
     1
290
     0
176
     1
290
     0
176
     1
290
     0
176
     1
290
     0
176
     1
290
     0
176
     1
290
     0
176
     1
 90
       50
176
     1
 40
0.0
176
     1
 40
1.0
176
     1
 90
        0
176
     1
 62
    18
420
        0
176
     1
 90
       50
176
     1
 90
        3
176
     1
 62
     5
420
      255
176
     1
290
     0
176
     1
 90
       50
176
     1
 90
       50
176
     1
 90
       50
176
     1
290
     0
176
     1
 90
       50
176
     1
 62
   256
176
     0
 40
1.0
176
     0
 90
        2
176
     1
  1
strokes_ogs.tif
176
     1
290
     0
176
     1
 40
1.0
176
     1
 40
1.0
176
     1
  0
VISUALSTYLE
  5
3F
102
{ACAD_REACTORS
330
29
102
}
330
29
100
AcDbVisualStyle
  2
JitterOff
 70
    20
177
     3
291
     1
 70
    58
 90
        2
176
     0
 90
        2
176
     0
 90
        0
176
     0
 90
        0
176
     0
 40
0.6
176
     0
 40
30.0
176
     0
 62
     7
420
 16777215
176
     0
 90
        1
176
     0
 90
        4
176
     0
 62
     7
176
     0
 62
   257
176
     0
 90
        1
176
     0
 90
        1
176
     0
 40
1.0
176
     0
 90
       10
176
     2
 62
     7
176
     0
 40
1.0
176
     0
 90
        1
176
     0
 90
        6
176
     0
 90
        2
176
     0
 62
     7
176
     0
 90
        5
176
     0
 90
        0
176
     0
 90
        0
176
     0
290
     0
176
     0
 90
        1
176
     0
 40
0.0
176
     0
 90
        0
176
     0
290
     0
176
     0
290
     1
176
     0
290
     1
176
     0
290
     0
176
     0
290
     0
176
     0
290
     0
176
     0
290
     0
176
     0
290
     0
176
     0
290
     0
176
     0
 90
       50
176
     0
 40
0.0
176
     0
 40
1.0
176
     0
 90
        0
176
     0
 62
    18
420
        0
176
     0
 90
       50
176
     0
 90
        3
176
     0
 62
     5
420
      255
176
     0
290
     0
176
     0
 90
       50
176
     0
 90
       50
176
     0
 90
       50
176
     0
290
     0
176
     0
 90
       50
176
     0
 62
   256
176
     0
 40
1.0
176
     0
 90
        2
176
     0
  1
strokes_ogs.tif
176
     0
290
     0
176
     0
 40
1.0
176
     0
 40
1.0
176
     0
  0
VISUALSTYLE
  5
37
102
{ACAD_REACTORS
330
29
102
}
330
29
100
AcDbVisualStyle
  2
Linepattern
 70
    14
177
     3
291
     1
 70
    58
 90
        2
176
     1
 90
        2
176
     1
 90
        0
176
     1
 90
        0
176
     1
 40
0.6
176
     1
 40
30.0
176
     1
 62
     7
420
 16777215
176
     1
 90
        1
176
     1
 90
        4
176
     1
 62
     7
176
     1
 62
   257
176
     1
 90
        7
176
     1
 90
        7
176
     1
 40
1.0
176
     1
 90
        8
176
     1
 62
     7
176
     1
 40
1.0
176
     1
 90
        1
176
     1
 90
        6
176
     1
 90
        2
176
     1
 62
     7
176
     1
 90
        5
176
     1
 90
        0
176
     1
 90
        0
176
     1
290
     0
176
     1
 90
        1
176
     1
 40
0.0
176
     1
 90
        0
176
     1
290
     0
176
     1
290
     1
176
     1
290
     1
176
     1
290
     0
176
     1
290
     0
176
     1
290
     0
176
     1
290
     0
176
     1
290
     0
176
     1
290
     0
176
     1
 90
       50
176
     1
 40
0.0
176
     1
 40
1.0
176
     1
 90
        0
176
     1
 62
    18
420
        0
176
     1
 90
       50
176
     1
 90
        3
176
     1
 62
     5
420
      255
176
     1
290
     0
176
     1
 90
       50
176
     1
 90
       50
176
     1
 90
       50
176
     1
290
     0
176
     1
 90
       50
176
     1
 62
   256
176
     0
 40
1.0
176
     0
 90
        2
176
     1
  1
strokes_ogs.tif
176
     1
290
     0
176
     1
 40
1.0
176
     1
 40
1.0
176
     1
  0
VISUALSTYLE
  5
40
102
{ACAD_REACTORS
330
29
102
}
330
29
100
AcDbVisualStyle
  2
OverhangOff
 70
    21
177
     3
291
     1
 70
    58
 90
        2
176
     0
 90
        2
176
     0
 90
        0
176
     0
 90
        0
176
     0
 40
0.6
176
     0
 40
30.0
176
     0
 62
     7
420
 16777215
176
     0
 90
        1
176
     0
 90
        4
176
     0
 62
     7
176
     0
 62
   257
176
     0
 90
        1
176
     0
 90
        1
176
     0
 40
1.0
176
     0
 90
        9
176
     2
 62
     7
176
     0
 40
1.0
176
     0
 90
        1
176
     0
 90
        6
176
     0
 90
        2
176
     0
 62
     7
176
     0
 90
        5
176
     0
 90
        0
176
     0
 90
        0
176
     0
290
     0
176
     0
 90
        1
176
     0
 40
0.0
176
     0
 90
        0
176
     0
290
     0
176
     0
290
     1
176
     0
290
     1
176
     0
290
     0
176
     0
290
     0
176
     0
290
     0
176
     0
290
     0
176
     0
290
     0
176
     0
290
     0
176
     0
 90
       50
176
     0
 40
0.0
176
     0
 40
1.0
176
     0
 90
        0
176
     0
 62
    18
420
        0
176
     0
 90
       50
176
     0
 90
        3
176
     0
 62
     5
420
      255
176
     0
290
     0
176
     0
 90
       50
176
     0
 90
       50
176
     0
 90
       50
176
     0
290
     0
176
     0
 90
       50
176
     0
 62
   256
176
     0
 40
1.0
176
     0
 90
        2
176
     0
  1
strokes_ogs.tif
176
     0
290
     0
176
     0
 40
1.0
176
     0
 40
1.0
176
     0
  0
VISUALSTYLE
  5
33
102
{ACAD_REACTORS
330
29
102
}
330
29
100
AcDbVisualStyle
  2
Realistic
 70
     8
177
     3
291
     0
 70
    58
 90
        2
176
     1
 90
        3
176
     1
 90
        0
176
     1
 90
        2
176
     1
 40
0.6
176
     1
 40
30.0
176
     1
 62
     7
420
 16777215
176
     1
 90
        0
176
     1
 90
        0
176
     1
 62
     7
176
     1
 62
   257
176
     1
 90
        1
176
     1
 90
        1
176
     1
 40
1.0
176
     1
 90
        8
176
     1
 62
   257
176
     1
 40
1.0
176
     1
 90
        1
176
     1
 90
        6
176
     1
 90
        2
176
     1
 62
     7
176
     1
 90
        3
176
     1
 90
        0
176
     1
 90
        0
176
     1
290
     0
176
     1
 90
       13
176
     1
 40
0.0
176
     1
 90
        0
176
     1
290
     0
176
     1
290
     1
176
     1
290
     1
176
     1
290
     0
176
     1
290
     0
176
     1
290
     0
176
     1
290
     0
176
     1
290
     0
176
     1
290
     0
176
     1
 90
       50
176
     1
 40
0.0
176
     1
 40
1.0
176
     1
 90
        0
176
     1
 62
    18
420
        0
176
     1
 90
       50
176
     1
 90
        3
176
     1
 62
     5
420
      255
176
     1
290
     0
176
     1
 90
       50
176
     1
 90
       50
176
     1
 90
       50
176
     1
290
     0
176
     1
 90
       50
176
     1
 62
   256
176
     0
 40
1.0
176
     0
 90
        2
176
     1
  1
strokes_ogs.tif
176
     1
290
     0
176
     1
 40
1.0
176
     1
 40
1.0
176
     1
  0
VISUALSTYLE
  5
3E
102
{ACAD_REACTORS
330
29
102
}
330
29
100
AcDbVisualStyle
  2
Shaded
 70
    27
177
     3
291
     0
 70
    58
 90
        2
176
     1
 90
        2
176
     1
 90
        1
176
     1
 90
        2
176
     1
 40
0.6
176
     1
 40
30.0
176
     1
 62
     7
420
 16777215
176
     1
 90
        0
176
     1
 90
        4
176
     1
 62
     7
176
     1
 62
   257
176
     1
 90
        1
176
     1
 90
        1
176
     1
 40
1.0
176
     1
 90
        8
176
     1
 62
   257
176
     1
 40
1.0
176
     1
 90
        1
176
     1
 90
        6
176
     1
 90
        2
176
     1
 62
     8
420
  7895160
176
     1
 90
        3
176
     1
 90
        0
176
     1
 90
        0
176
     1
290
     0
176
     1
 90
        5
176
     1
 40
0.0
176
     1
 90
        0
176
     1
290
     0
176
     1
290
     1
176
     1
290
     1
176
     1
290
     0
176
     1
290
     0
176
     1
290
     0
176
     1
290
     0
176
     1
290
     0
176
     1
290
     0
176
     1
 90
       50
176
     1
 40
0.0
176
     1
 40
1.0
176
     1
 90
        0
176
     1
 62
    18
420
        0
176
     1
 90
       50
176
     1
 90
        3
176
     1
 62
     5
420
      255
176
     1
290
     0
176
     1
 90
       50
176
     1
 90
       50
176
     1
 90
       50
176
     1
290
     0
176
     1
 90
       50
176
     1
 62
   256
176
     0
 40
1.0
176
     0
 90
        2
176
     1
  1
strokes_ogs.tif
176
     1
290
     0
176
     1
 40
1.0
176
     1
 40
1.0
176
     1
  0
VISUALSTYLE
  5
3D
102
{ACAD_REACTORS
330
29
102
}
330
29
100
AcDbVisualStyle
  2
Shaded with edges
 70
    26
177
     3
291
     0
 70
    58
 90
        2
176
     1
 90
        2
176
     1
 90
        1
176
     1
 90
        2
176
     1
 40
0.6
176
     1
 40
30.0
176
     1
 62
     7
420
 16777215
176
     1
 90
        1
176
     1
 90
        2
176
     1
 62
     7
176
     1
 62
   257
176
     1
 90
        2
176
     1
 90
        1
176
     1
 40
1.0
176
     1
 90
        8
176
     1
 62
   257
176
     1
 40
1.0
176
     1
 90
        1
176
     1
 90
        6
176
     1
 90
        2
176
     1
 62
     7
176
     1
 90
        3
176
     1
 90
        0
176
     1
 90
        0
176
     1
290
     0
176
     1
 90
        5
176
     1
 40
0.0
176
     1
 90
        0
176
     1
290
     0
176
     1
290
     1
176
     1
290
     1
176
     1
290
     0
176
     1
290
     0
176
     1
290
     0
176
     1
290
     0
176
     1
290
     0
176
     1
290
     0
176
     1
 90
       50
176
     1
 40
0.0
176
     1
 40
1.0
176
     1
 90
        0
176
     1
 62
    18
420
        0
176
     1
 90
       50
176
     1
 90
        3
176
     1
 62
     5
420
      255
176
     1
290
     0
176
     1
 90
       50
176
     1
 90
       50
176
     1
 90
       50
176
     1
290
     0
176
     1
 90
       50
176
     1
 62
   256
176
     0
 40
1.0
176
     0
 90
        2
176
     1
  1
strokes_ogs.tif
176
     1
290
     0
176
     1
 40
1.0
176
     1
 40
1.0
176
     1
  0
VISUALSTYLE
  5
3A
102
{ACAD_REACTORS
330
29
102
}
330
29
100
AcDbVisualStyle
  2
Shades of Gray
 70
    23
177
     3
291
     0
 70
    58
 90
        2
176
     1
 90
        2
176
     1
 90
        3
176
     1
 90
        0
176
     1
 40
0.6
176
     1
 40
30.0
176
     1
 62
     7
420
 16777215
176
     1
 90
        2
176
     1
 90
        2
176
     1
 62
     7
176
     1
 62
     7
176
     1
 90
        1
176
     1
 90
        1
176
     1
 40
40.0
176
     1
 90
        8
176
     1
 62
     7
176
     1
 40
1.0
176
     1
 90
        1
176
     1
 90
        6
176
     1
 90
        2
176
     1
 62
     7
176
     1
 90
        3
176
     1
 90
        0
176
     1
 90
        0
176
     1
290
     0
176
     1
 90
        1
176
     1
 40
0.0
176
     1
 90
        0
176
     1
290
     0
176
     1
290
     1
176
     1
290
     1
176
     1
290
     0
176
     1
290
     0
176
     1
290
     0
176
     1
290
     0
176
     1
290
     0
176
     1
290
     0
176
     1
 90
       50
176
     1
 40
0.0
176
     1
 40
1.0
176
     1
 90
        0
176
     1
 62
    18
420
        0
176
     1
 90
       50
176
     1
 90
        3
176
     1
 62
     5
420
      255
176
     1
290
     0
176
     1
 90
       50
176
     1
 90
       50
176
     1
 90
       50
176
     1
290
     0
176
     1
 90
       50
176
     1
 62
   256
176
     0
 40
1.0
176
     0
 90
        2
176
     1
  1
strokes_ogs.tif
176
     1
290
     0
176
     1
 40
1.0
176
     1
 40
1.0
176
     1
  0
VISUALSTYLE
  5
3B
102
{ACAD_REACTORS
330
29
102
}
330
29
100
AcDbVisualStyle
  2
Sketchy
 70
    24
177
     3
291
     0
 70
    58
 90
        1
176
     1
 90
        2
176
     1
 90
        2
176
     1
 90
        0
176
     1
 40
0.6
176
     1
 40
30.0
176
     1
 62
     7
420
 16777215
176
     1
 90
        2
176
     1
 90
        2
176
     1
 62
     7
176
     1
 62
     7
176
     1
 90
        1
176
     1
 90
        1
176
     1
 40
40.0
176
     1
 90
       11
176
     1
 62
     7
176
     1
 40
1.0
176
     1
 90
        1
176
     1
 90
        6
176
     1
 90
        2
176
     1
 62
     7
176
     1
 90
        6
176
     1
 90
        0
176
     1
 90
        0
176
     1
290
     0
176
     1
 90
        1
176
     1
 40
0.0
176
     1
 90
        0
176
     1
290
     0
176
     1
290
     1
176
     1
290
     1
176
     1
290
     0
176
     1
290
     0
176
     1
290
     0
176
     1
290
     0
176
     1
290
     0
176
     1
290
     0
176
     1
 90
       50
176
     1
 40
0.0
176
     1
 40
1.0
176
     1
 90
        0
176
     1
 62
    18
420
        0
176
     1
 90
       50
176
     1
 90
        3
176
     1
 62
     5
420
      255
176
     1
290
     0
176
     1
 90
       50
176
     1
 90
       50
176
     1
 90
       50
176
     1
290
     0
176
     1
 90
       50
176
     1
 62
   256
176
     0
 40
1.0
176
     0
 90
        2
176
     1
  1
strokes_ogs.tif
176
     1
290
     0
176
     1
 40
1.0
176
     1
 40
1.0
176
     1
  0
VISUALSTYLE
  5
36
102
{ACAD_REACTORS
330
29
102
}
330
29
100
AcDbVisualStyle
  2
Thicken
 70
    13
177
     3
291
     1
 70
    58
 90
        2
176
     1
 90
        2
176
     1
 90
        0
176
     1
 90
        0
176
     1
 40
0.6
176
     1
 40
30.0
176
     1
 62
     7
420
 16777215
176
     1
 90
        1
176
     1
 90
        4
176
     1
 62
     7
176
     1
 62
   257
176
     1
 90
        1
176
     1
 90
        1
176
     1
 40
1.0
176
     1
 90
       12
176
     1
 62
     7
176
     1
 40
1.0
176
     1
 90
        1
176
     1
 90
        6
176
     1
 90
        2
176
     1
 62
     7
176
     1
 90
        5
176
     1
 90
        0
176
     1
 90
        0
176
     1
290
     0
176
     1
 90
        1
176
     1
 40
0.0
176
     1
 90
        0
176
     1
290
     0
176
     1
290
     1
176
     1
290
     1
176
     1
290
     0
176
     1
290
     0
176
     1
290
     0
176
     1
290
     0
176
     1
290
     0
176
     1
290
     0
176
     1
 90
       50
176
     1
 40
0.0
176
     1
 40
1.0
176
     1
 90
        0
176
     1
 62
    18
420
        0
176
     1
 90
       50
176
     1
 90
        3
176
     1
 62
     5
420
      255
176
     1
290
     0
176
     1
 90
       50
176
     1
 90
       50
176
     1
 90
       50
176
     1
290
     0
176
     1
 90
       50
176
     1
 62
   256
176
     0
 40
1.0
176
     0
 90
        2
176
     1
  1
strokes_ogs.tif
176
     1
290
     0
176
     1
 40
1.0
176
     1
 40
1.0
176
     1
  0
VISUALSTYLE
  5
30
102
{ACAD_REACTORS
330
29
102
}
330
29
100
AcDbVisualStyle
  2
Wireframe
 70
     5
177
     3
291
     0
 70
    58
 90
        0
176
     1
 90
        2
176
     1
 90
        0
176
     1
 90
        0
176
     1
 40
0.6
176
     1
 40
30.0
176
     1
 62
     7
420
 16777215
176
     1
 90
        1
176
     1
 90
        4
176
     1
 62
     7
176
     1
 62
   257
176
     1
 90
        1
176
     1
 90
        1
176
     1
 40
1.0
176
     1
 90
        0
176
     1
 62
   257
176
     1
 40
1.0
176
     1
 90
        1
176
     1
 90
        6
176
     1
 90
        2
176
     1
 62
     7
176
     1
 90
        3
176
     1
 90
        0
176
     1
 90
        0
176
     1
290
     0
176
     1
 90
        1
176
     1
 40
0.0
176
     1
 90
        0
176
     1
290
     0
176
     1
290
     1
176
     1
290
     1
176
     1
290
     0
176
     1
290
     0
176
     1
290
     0
176
     1
290
     0
176
     1
290
     0
176
     1
290
     0
176
     1
 90
       50
176
     1
 40
0.0
176
     1
 40
1.0
176
     1
 90
        0
176
     1
 62
    18
420
        0
176
     1
 90
       50
176
     1
 90
        3
176
     1
 62
     5
420
      255
176
     1
290
     0
176
     1
 90
       50
176
     1
 90
       50
176
     1
 90
       50
176
     1
290
     0
176
     1
 90
       50
176
     1
 62
   256
176
     0
 40
1.0
176
     0
 90
        2
176
     1
  1
strokes_ogs.tif
176
     1
290
     0
176
     1
 40
1.0
176
     1
 40
1.0
176
     1
  0
VISUALSTYLE
  5
3C
102
{ACAD_REACTORS
330
29
102
}
330
29
100
AcDbVisualStyle
  2
X-Ray
 70
    25
177
     3
291
     0
 70
    58
 90
        2
176
     1
 90
        2
176
     1
 90
        1
176
     1
 90
        1
176
     1
 40
0.5
176
     1
 40
30.0
176
     1
 62
     7
420
 16777215
176
     1
 90
        1
176
     1
 90
        0
176
     1
 62
     7
176
     1
 62
   257
176
     1
 90
        1
176
     1
 90
        1
176
     1
 40
1.0
176
     1
 90
        8
176
     1
 62
     7
176
     1
 40
1.0
176
     1
 90
        1
176
     1
 90
        6
176
     1
 90
        2
176
     1
 62
     7
176
     1
 90
        3
176
     1
 90
        0
176
     1
 90
        0
176
     1
290
     0
176
     1
 90
       13
176
     1
 40
0.0
176
     1
 90
        0
176
     1
290
     0
176
     1
290
     1
176
     1
290
     1
176
     1
290
     0
176
     1
290
     0
176
     1
290
     0
176
     1
290
     0
176
     1
290
     0
176
     1
290
     0
176
     1
 90
       50
176
     1
 40
0.0
176
     1
 40
1.0
176
     1
 90
        0
176
     1
 62
    18
420
        0
176
     1
 90
       50
176
     1
 90
        3
176
     1
 62
     5
420
      255
176
     1
290
     0
176
     1
 90
       50
176
     1
 90
       50
176
     1
 90
       50
176
     1
290
     0
176
     1
 90
       50
176
     1
 62
   256
176
     0
 40
1.0
176
     0
 90
        2
176
     1
  1
strokes_ogs.tif
176
     1
290
     0
176
     1
 40
1.0
176
     1
 40
1.0
176
     1
  0
DICTIONARYVAR
  5
102
102
{ACAD_REACTORS
330
FD
102
}
330
FD
100
DictionaryVariables
280
     0
  1
1:1
  0
DICTIONARYVAR
  5
FF
102
{ACAD_REACTORS
330
FD
102
}
330
FD
100
DictionaryVariables
280
     0
  1
STANDARD
  0
DICTIONARYVAR
  5
FE
102
{ACAD_REACTORS
330
FD
102
}
330
FD
100
DictionaryVariables
280
     0
  1
STANDARD
  0
DICTIONARYVAR
  5
100
102
{ACAD_REACTORS
330
FD
102
}
330
FD
100
DictionaryVariables
280
     0
  1
Imperial24
  0
DICTIONARYVAR
  5
101
102
{ACAD_REACTORS
330
FD
102
}
330
FD
100
DictionaryVariables
280
     0
  1
Imperial24
  0
DICTIONARY
  5
1A
330
19
100
AcDbDictionary
280
     1
281
     1
  3
BUMPTILE
360
1C
  3
DIFFUSETILE
360
1B
  3
OPACITYTILE
360
1F
  3
REFLECTIONTILE
360
1E
  3
REFRACTIONTILE
360
20
  3
SPECULARTILE
360
1D
  0
DICTIONARY
  5
12
330
11
100
AcDbDictionary
280
     1
281
     1
  3
BUMPTILE
360
14
  3
DIFFUSETILE
360
13
  3
OPACITYTILE
360
17
  3
REFLECTIONTILE
360
16
  3
REFRACTIONTILE
360
18
  3
SPECULARTILE
360
15
  0
DICTIONARY
  5
22
330
21
100
AcDbDictionary
280
     1
281
     1
  3
BUMPTILE
360
24
  3
DIFFUSETILE
360
23
  3
OPACITYTILE
360
27
  3
REFLECTIONTILE
360
26
  3
REFRACTIONTILE
360
28
  3
SPECULARTILE
360
25
  0
DICTIONARY
  5
103
330
65
100
AcDbDictionary
280
     1
281
     1
  3
ACAD_ROUNDTRIP_2008_TABLESTYLE_CELLSTYLEMAP
360
104
  0
XRECORD
  5
1C
102
{ACAD_REACTORS
330
1A
102
}
330
1A
100
AcDbXrecord
280
     1
270
     1
271
     1
  0
XRECORD
  5
1B
102
{ACAD_REACTORS
330
1A
102
}
330
1A
100
AcDbXrecord
280
     1
270
     1
271
     1
  0
XRECORD
  5
1F
102
{ACAD_REACTORS
330
1A
102
}
330
1A
100
AcDbXrecord
280
     1
270
     1
271
     1
  0
XRECORD
  5
1E
102
{ACAD_REACTORS
330
1A
102
}
330
1A
100
AcDbXrecord
280
     1
270
     1
271
     1
  0
XRECORD
  5
20
102
{ACAD_REACTORS
330
1A
102
}
330
1A
100
AcDbXrecord
280
     1
270
     1
271
     1
  0
XRECORD
  5
1D
102
{ACAD_REACTORS
330
1A
102
}
330
1A
100
AcDbXrecord
280
     1
270
     1
271
     1
  0
XRECORD
  5
14
102
{ACAD_REACTORS
330
12
102
}
330
12
100
AcDbXrecord
280
     1
270
     1
271
     1
  0
XRECORD
  5
13
102
{ACAD_REACTORS
330
12
102
}
330
12
100
AcDbXrecord
280
     1
270
     1
271
     1
  0
XRECORD
  5
17
102
{ACAD_REACTORS
330
12
102
}
330
12
100
AcDbXrecord
280
     1
270
     1
271
     1
  0
XRECORD
  5
16
102
{ACAD_REACTORS
330
12
102
}
330
12
100
AcDbXrecord
280
     1
270
     1
271
     1
  0
XRECORD
  5
18
102
{ACAD_REACTORS
330
12
102
}
330
12
100
AcDbXrecord
280
     1
270
     1
271
     1
  0
XRECORD
  5
15
102
{ACAD_REACTORS
330
12
102
}
330
12
100
AcDbXrecord
280
     1
270
     1
271
     1
  0
XRECORD
  5
24
102
{ACAD_REACTORS
330
22
102
}
330
22
100
AcDbXrecord
280
     1
270
     1
271
     1
  0
XRECORD
  5
23
102
{ACAD_REACTORS
330
22
102
}
330
22
100
AcDbXrecord
280
     1
270
     1
271
     1
  0
XRECORD
  5
27
102
{ACAD_REACTORS
330
22
102
}
330
22
100
AcDbXrecord
280
     1
270
     1
271
     1
  0
XRECORD
  5
26
102
{ACAD_REACTORS
330
22
102
}
330
22
100
AcDbXrecord
280
     1
270
     1
271
     1
  0
XRECORD
  5
28
102
{ACAD_REACTORS
330
22
102
}
330
22
100
AcDbXrecord
280
     1
270
     1
271
     1
  0
XRECORD
  5
25
102
{ACAD_REACTORS
330
22
102
}
330
22
100
AcDbXrecord
280
     1
270
     1
271
     1
  0
CELLSTYLEMAP
  5
104
102
{ACAD_REACTORS
330
103
102
}
330
103
100
AcDbCellStyleMap
 90
        3
300
CELLSTYLE
  1
TABLEFORMAT_BEGIN
 90
        5
170
     1
 91
        0
 92
    32768
 62
   257
 93
        1
300
CONTENTFORMAT
  1
CONTENTFORMAT_BEGIN
 90
        0
 91
        0
 92
      512
 93
        0
300

 40
0.0
140
1.0
 94
        5
 62
     0
340
55
144
0.25
309
CONTENTFORMAT_END
171
     0
 94
        0
309
TABLEFORMAT_END
  1
CELLSTYLE_BEGIN
 90
        1
 91
        1
300
_TITLE
309
CELLSTYLE_END
300
CELLSTYLE
  1
TABLEFORMAT_BEGIN
 90
        5
170
     1
 91
        0
 92
        0
 62
   257
 93
        1
300
CONTENTFORMAT
  1
CONTENTFORMAT_BEGIN
 90
        0
 91
        0
 92
      512
 93
        0
300

 40
0.0
140
1.0
 94
        5
 62
     0
340
55
144
0.18
309
CONTENTFORMAT_END
171
     0
 94
        0
309
TABLEFORMAT_END
  1
CELLSTYLE_BEGIN
 90
        2
 91
        1
300
_HEADER
309
CELLSTYLE_END
300
CELLSTYLE
  1
TABLEFORMAT_BEGIN
 90
        5
170
     1
 91
        0
 92
        0
 62
   257
 93
        1
300
CONTENTFORMAT
  1
CONTENTFORMAT_BEGIN
 90
        0
 91
        0
 92
      512
 93
        0
300

 40
0.0
140
1.0
 94
        2
 62
     0
340
55
144
0.18
309
CONTENTFORMAT_END
171
     0
 94
        0
309
TABLEFORMAT_END
  1
CELLSTYLE_BEGIN
 90
        3
 91
        2
300
_DATA
309
CELLSTYLE_END
  0
ENDSEC
  0
EOF
