  0
SECTION
  2
HEADER
  9
$ACADVER
  1
AC1032
  9
$ACADMAINTVER
 90
      327
  9
$DWGCODEPAGE
  3
ANSI_1252
  9
$REQUIREDVERSIONS
160
                 0
  9
$INSBASE
 10
0.0
 20
0.0
 30
0.0
  9
$EXTMIN
 10
1.000000000000000E+20
 20
1.000000000000000E+20
 30
1.000000000000000E+20
  9
$EXTMAX
 10
-1.000000000000000E+20
 20
-1.000000000000000E+20
 30
-1.000000000000000E+20
  9
$LIMMIN
 10
0.0
 20
0.0
  9
$LIMMAX
 10
12.0
 20
9.0
  9
$ORTHOMODE
 70
     0
  9
$REGENMODE
 70
     1
  9
$FILLMODE
 70
     1
  9
$QTEXTMODE
 70
     0
  9
$MIRRTEXT
 70
     0
  9
$LTSCALE
 40
1.0
  9
$ATTMODE
 70
     1
  9
$TEXTSIZE
 40
0.2
  9
$TRACEWID
 40
0.05
  9
$TEXTSTYLE
  7
Standard
  9
$CLAYER
  8
0
  9
$CELTYPE
  6
ByLayer
  9
$CECOLOR
 62
   256
  9
$CELTSCALE
 40
1.0
  9
$DISPSILH
 70
     0
  9
$DIMSCALE
 40
1.0
  9
$DIMASZ
 40
0.18
  9
$DIMEXO
 40
0.0625
  9
$DIMDLI
 40
0.38
  9
$DIMRND
 40
0.0
  9
$DIMDLE
 40
0.0
  9
$DIMEXE
 40
0.18
  9
$DIMTP
 40
0.0
  9
$DIMTM
 40
0.0
  9
$DIMTXT
 40
0.18
  9
$DIMCEN
 40
0.09
  9
$DIMTSZ
 40
0.0
  9
$DIMTOL
 70
     0
  9
$DIMLIM
 70
     0
  9
$DIMTIH
 70
     1
  9
$DIMTOH
 70
     1
  9
$DIMSE1
 70
     0
  9
$DIMSE2
 70
     0
  9
$DIMTAD
 70
     0
  9
$DIMZIN
 70
     0
  9
$DIMBLK
  1

  9
$DIMASO
 70
     1
  9
$DIMSHO
 70
     1
  9
$DIMPOST
  1

  9
$DIMAPOST
  1

  9
$DIMALT
 70
     0
  9
$DIMALTD
 70
     2
  9
$DIMALTF
 40
25.4
  9
$DIMLFAC
 40
1.0
  9
$DIMTOFL
 70
     0
  9
$DIMTVP
 40
0.0
  9
$DIMTIX
 70
     0
  9
$DIMSOXD
 70
     0
  9
$DIMSAH
 70
     0
  9
$DIMBLK1
  1

  9
$DIMBLK2
  1

  9
$DIMSTYLE
  2
Standard
  9
$DIMCLRD
 70
     0
  9
$DIMCLRE
 70
     0
  9
$DIMCLRT
 70
     0
  9
$DIMTFAC
 40
1.0
  9
$DIMGAP
 40
0.09
  9
$DIMJUST
 70
     0
  9
$DIMSD1
 70
     0
  9
$DIMSD2
 70
     0
  9
$DIMTOLJ
 70
     1
  9
$DIMTZIN
 70
     0
  9
$DIMALTZ
 70
     0
  9
$DIMALTTZ
 70
     0
  9
$DIMUPT
 70
     0
  9
$DIMDEC
 70
     4
  9
$DIMTDEC
 70
     4
  9
$DIMALTU
 70
     2
  9
$DIMALTTD
 70
     2
  9
$DIMTXSTY
  7
Standard
  9
$DIMAUNIT
 70
     0
  9
$DIMADEC
 70
     0
  9
$DIMALTRND
 40
0.0
  9
$DIMAZIN
 70
     0
  9
$DIMDSEP
 70
    46
  9
$DIMATFIT
 70
     3
  9
$DIMFRAC
 70
     0
  9
$DIMLDRBLK
  1

  9
$DIMLUNIT
 70
     2
  9
$DIMLWD
 70
    -2
  9
$DIMLWE
 70
    -2
  9
$DIMTMOVE
 70
     0
  9
$DIMFXL
 40
1.0
  9
$DIMFXLON
 70
     0
  9
$DIMJOGANG
 40
0.7853981633974483
  9
$DIMTFILL
 70
     0
  9
$DIMTFILLCLR
 70
     0
  9
$DIMARCSYM
 70
     0
  9
$DIMLTYPE
  6

  9
$DIMLTEX1
  6

  9
$DIMLTEX2
  6

  9
$DIMTXTDIRECTION
 70
     0
  9
$LUNITS
 70
     2
  9
$LUPREC
 70
     4
  9
$SKETCHINC
 40
0.1
  9
$FILLETRAD
 40
0.0
  9
$AUNITS
 70
     0
  9
$AUPREC
 70
     0
  9
$MENU
  1
.
  9
$ELEVATION
 40
0.0
  9
$PELEVATION
 40
0.0
  9
$THICKNESS
 40
0.0
  9
$LIMCHECK
 70
     0
  9
$CHAMFERA
 40
0.0
  9
$CHAMFERB
 40
0.0
  9
$CHAMFERC
 40
0.0
  9
$CHAMFERD
 40
0.0
  9
$SKPOLY
 70
     0
  9
$TDCREATE
 40
2460672.730833334
  9
$TDUCREATE
 40
2460672.730833334
  9
$TDUPDATE
 40
2460672.730833334
  9
$TDUUPDATE
 40
2460672.730833334
  9
$TDINDWG
 40
0.0000000000
  9
$TDUSRTIMER
 40
0.0000000000
  9
$USRTIMER
 70
     1
  9
$ANGBASE
 50
0.0
  9
$ANGDIR
 70
     0
  9
$PDMODE
 70
     0
  9
$PDSIZE
 40
0.0
  9
$PLINEWID
 40
0.0
  9
$SPLFRAME
 70
     0
  9
$SPLINETYPE
 70
     6
  9
$SPLINESEGS
 70
     8
  9
$HANDSEED
  5
F7
  9
$SURFTAB1
 70
     6
  9
$SURFTAB2
 70
     6
  9
$SURFTYPE
 70
     6
  9
$SURFU
 70
     6
  9
$SURFV
 70
     6
  9
$UCSBASE
  2

  9
$UCSNAME
  2

  9
$UCSORG
 10
0.0
 20
0.0
 30
0.0
  9
$UCSXDIR
 10
1.0
 20
0.0
 30
0.0
  9
$UCSYDIR
 10
0.0
 20
1.0
 30
0.0
  9
$UCSORTHOREF
  2

  9
$UCSORTHOVIEW
 70
     0
  9
$UCSORGTOP
 10
0.0
 20
0.0
 30
0.0
  9
$UCSORGBOTTOM
 10
0.0
 20
0.0
 30
0.0
  9
$UCSORGLEFT
 10
0.0
 20
0.0
 30
0.0
  9
$UCSORGRIGHT
 10
0.0
 20
0.0
 30
0.0
  9
$UCSORGFRONT
 10
0.0
 20
0.0
 30
0.0
  9
$UCSORGBACK
 10
0.0
 20
0.0
 30
0.0
  9
$PUCSBASE
  2

  9
$PUCSNAME
  2

  9
$PUCSORG
 10
0.0
 20
0.0
 30
0.0
  9
$PUCSXDIR
 10
1.0
 20
0.0
 30
0.0
  9
$PUCSYDIR
 10
0.0
 20
1.0
 30
0.0
  9
$PUCSORTHOREF
  2

  9
$PUCSORTHOVIEW
 70
     0
  9
$PUCSORGTOP
 10
0.0
 20
0.0
 30
0.0
  9
$PUCSORGBOTTOM
 10
0.0
 20
0.0
 30
0.0
  9
$PUCSORGLEFT
 10
0.0
 20
0.0
 30
0.0
  9
$PUCSORGRIGHT
 10
0.0
 20
0.0
 30
0.0
  9
$PUCSORGFRONT
 10
0.0
 20
0.0
 30
0.0
  9
$PUCSORGBACK
 10
0.0
 20
0.0
 30
0.0
  9
$USERI1
 70
     0
  9
$USERI2
 70
     0
  9
$USERI3
 70
     0
  9
$USERI4
 70
     0
  9
$USERI5
 70
     0
  9
$USERR1
 40
0.0
  9
$USERR2
 40
0.0
  9
$USERR3
 40
0.0
  9
$USERR4
 40
0.0
  9
$USERR5
 40
0.0
  9
$WORLDVIEW
 70
     1
  9
$SHADEDGE
 70
     3
  9
$SHADEDIF
 70
    70
  9
$TILEMODE
 70
     1
  9
$MAXACTVP
 70
    64
  9
$PINSBASE
 10
0.0
 20
0.0
 30
0.0
  9
$PLIMCHECK
 70
     0
  9
$PEXTMIN
 10
1.000000000000000E+20
 20
1.000000000000000E+20
 30
1.000000000000000E+20
  9
$PEXTMAX
 10
-1.000000000000000E+20
 20
-1.000000000000000E+20
 30
-1.000000000000000E+20
  9
$PLIMMIN
 10
0.0
 20
0.0
  9
$PLIMMAX
 10
12.0
 20
9.0
  9
$UNITMODE
 70
     0
  9
$VISRETAIN
 70
     1
  9
$PLINEGEN
 70
     0
  9
$PSLTSCALE
 70
     1
  9
$TREEDEPTH
 70
  3020
  9
$CMLSTYLE
  2
Standard
  9
$CMLJUST
 70
     0
  9
$CMLSCALE
 40
1.0
  9
$PROXYGRAPHICS
 70
     1
  9
$MEASUREMENT
 70
     0
  9
$CELWEIGHT
370
    -1
  9
$ENDCAPS
280
     0
  9
$JOINSTYLE
280
     0
  9
$LWDISPLAY
290
     1
  9
$INSUNITS
 70
     4
  9
$HYPERLINKBASE
  1

  9
$STYLESHEET
  1

  9
$XEDIT
290
     1
  9
$CEPSNTYPE
380
     0
  9
$PSTYLEMODE
290
     1
  9
$FINGERPRINTGUID
  2
{B4ADD53B-06D9-1B40-BA13-826E1E95FDD7}
  9
$VERSIONGUID
  2
{800FF054-03D1-2C44-8610-138506F34631}
  9
$EXTNAMES
290
     1
  9
$PSVPSCALE
 40
0.0
  9
$OLESTARTUP
290
     0
  9
$SORTENTS
280
   127
  9
$INDEXCTL
280
     0
  9
$HIDETEXT
280
     1
  9
$XCLIPFRAME
280
     2
  9
$HALOGAP
280
     0
  9
$OBSCOLOR
 70
   257
  9
$OBSLTYPE
280
     0
  9
$INTERSECTIONDISPLAY
280
     0
  9
$INTERSECTIONCOLOR
 70
   257
  9
$DIMASSOC
280
     2
  9
$PROJECTNAME
  1

  9
$CAMERADISPLAY
290
     0
  9
$LENSLENGTH
 40
50.0
  9
$CAMERAHEIGHT
 40
0.0
  9
$STEPSPERSEC
 40
2.0
  9
$STEPSIZE
 40
6.0
  9
$3DDWFPREC
 40
2.0
  9
$PSOLWIDTH
 40
0.25
  9
$PSOLHEIGHT
 40
4.0
  9
$LOFTANG1
 40
1.570796326794896
  9
$LOFTANG2
 40
1.570796326794896
  9
$LOFTMAG1
 40
0.0
  9
$LOFTMAG2
 40
0.0
  9
$LOFTPARAM
 70
     7
  9
$LOFTNORMALS
280
     1
  9
$LATITUDE
 40
37.795
  9
$LONGITUDE
 40
-122.394
  9
$NORTHDIRECTION
 40
0.0
  9
$TIMEZONE
 70
 -8000
  9
$LIGHTGLYPHDISPLAY
280
     1
  9
$TILEMODELIGHTSYNCH
280
     1
  9
$CMATERIAL
347
11
  9
$SOLIDHIST
280
     0
  9
$SHOWHIST
280
     1
  9
$DWFFRAME
280
     2
  9
$DGNFRAME
280
     0
  9
$REALWORLDSCALE
290
     1
  9
$INTERFERECOLOR
 62
     1
  9
$INTERFEREOBJVS
345
33
  9
$INTERFEREVPVS
346
30
  9
$CSHADOW
280
     0
  9
$SHADOWPLANELOCATION
 40
0.0
  0
ENDSEC
  0
SECTION
  2
CLASSES
  0
CLASS
  1
ACDBDICTIONARYWDFLT
  2
AcDbDictionaryWithDefault
  3
ObjectDBX Classes
 90
        0
 91
        1
280
     0
281
     0
  0
CLASS
  1
MATERIAL
  2
AcDbMaterial
  3
ObjectDBX Classes
 90
     1153
 91
        3
280
     0
281
     0
  0
CLASS
  1
VISUALSTYLE
  2
AcDbVisualStyle
  3
ObjectDBX Classes
 90
     4095
 91
       24
280
     0
281
     0
  0
CLASS
  1
SCALE
  2
AcDbScale
  3
ObjectDBX Classes
 90
     1153
 91
       17
280
     0
281
     0
  0
CLASS
  1
TABLESTYLE
  2
AcDbTableStyle
  3
ObjectDBX Classes
 90
     4095
 91
        1
280
     0
281
     0
  0
CLASS
  1
MLEADERSTYLE
  2
AcDbMLeaderStyle
  3
ACDB_MLEADERSTYLE_CLASS
 90
     4095
 91
        1
280
     0
281
     0
  0
CLASS
  1
ACDBSECTIONVIEWSTYLE
  2
AcDbSectionViewStyle
  3
ObjectDBX Classes
 90
     1025
 91
        1
280
     0
281
     0
  0
CLASS
  1
ACDBDETAILVIEWSTYLE
  2
AcDbDetailViewStyle
  3
ObjectDBX Classes
 90
     1025
 91
        1
280
     0
281
     0
  0
CLASS
  1
DICTIONARYVAR
  2
AcDbDictionaryVar
  3
ObjectDBX Classes
 90
        0
 91
        5
280
     0
281
     0
  0
CLASS
  1
CELLSTYLEMAP
  2
AcDbCellStyleMap
  3
ObjectDBX Classes
 90
     1152
 91
        1
280
     0
281
     0
  0
ENDSEC
  0
SECTION
  2
TABLES
  0
TABLE
  2
VPORT
  5
8
330
0
100
AcDbSymbolTable
 70
     1
  0
VPORT
  5
57
330
8
100
AcDbSymbolTableRecord
100
AcDbViewportTableRecord
  2
*Active
 70
     0
 10
0.0
 20
0.0
 11
1.0
 21
1.0
 12
0.0
 22
0.0
 13
0.0
 23
0.0
 14
1.0
 24
1.0
 15
0.0
 25
0.0
 16
0.0
 26
0.0
 36
1.0
 17
50.00007573043347
 27
50.00007573043347
 37
0.0
 40
102.0001544900843
 41
1.0
 42
50.0
 43
0.0
 44
0.0
 50
0.0
 51
0.0
 71
     0
 72
   100
 73
     1
 74
     1
 75
     0
 76
     0
 77
     0
 78
     0
281
     0
 65
     1
110
0.0
120
0.0
130
0.0
111
1.0
121
0.0
131
0.0
112
0.0
122
1.0
132
0.0
 79
     0
146
0.0
 60
     3
 61
     5
292
     1
282
     1
141
0.0
142
0.0
 63
   250
421
  3355443
  0
ENDTAB
  0
TABLE
  2
LTYPE
  5
5
330
0
100
AcDbSymbolTable
 70
     4
  0
LTYPE
  5
5B
330
5
100
AcDbSymbolTableRecord
100
AcDbLinetypeTableRecord
  2
ByBlock
 70
     0
  3

 72
    65
 73
     0
 40
0.0
  0
LTYPE
  5
5C
330
5
100
AcDbSymbolTableRecord
100
AcDbLinetypeTableRecord
  2
ByLayer
 70
     0
  3

 72
    65
 73
     0
 40
0.0
  0
LTYPE
  5
5D
330
5
100
AcDbSymbolTableRecord
100
AcDbLinetypeTableRecord
  2
Continuous
 70
     0
  3
Solid line
 72
    65
 73
     0
 40
0.0
  0
LTYPE
  5
87
330
5
100
AcDbSymbolTableRecord
100
AcDbLinetypeTableRecord
  2
AI-Linetype-0
 70
     0
  3
Adobe Illustrator Linetype No. 0
 72
    65
 73
     2
 40
1.91134999346633
 49
1.273174988242912
 74
     0
 49
-0.638175005223418
 74
     0
  0
LTYPE
  5
8D
330
5
100
AcDbSymbolTableRecord
100
AcDbLinetypeTableRecord
  2
AI-Linetype-1
 70
     0
  3
Adobe Illustrator Linetype No. 1
 72
    65
 73
     2
 40
1.964972198180521
 49
1.299986090600008
 74
     0
 49
-0.6649861075805136
 74
     0
  0
LTYPE
  5
AC
330
5
100
AcDbSymbolTableRecord
100
AcDbLinetypeTableRecord
  2
AI-Linetype-2
 70
     0
  3
Adobe Illustrator Linetype No. 2
 72
    65
 73
     2
 40
1.877483384338533
 49
1.256241704706208
 74
     0
 49
-0.6212416796323255
 74
     0
  0
ENDTAB
  0
TABLE
  2
LAYER
  5
2
330
0
100
AcDbSymbolTable
 70
     2
  0
LAYER
  5
54
330
2
100
AcDbSymbolTableRecord
100
AcDbLayerTableRecord
  2
0
 70
     0
 62
     7
  6
Continuous
370
    -3
390
F
347
21
348
0
  0
LAYER
  5
78
330
2
100
AcDbSymbolTableRecord
100
AcDbLayerTableRecord
  2
Camada 1
 70
     0
 62
     7
  6
Continuous
370
     0
390
F
347
21
348
0
  0
ENDTAB
  0
TABLE
  2
STYLE
  5
3
330
0
100
AcDbSymbolTable
 70
     2
  0
STYLE
  5
55
330
3
100
AcDbSymbolTableRecord
100
AcDbTextStyleTableRecord
  2
Standard
 70
     0
 40
0.0
 41
1.0
 50
0.0
 71
     0
 42
0.2
  3
txt
  4

  0
STYLE
  5
5A
330
3
100
AcDbSymbolTableRecord
100
AcDbTextStyleTableRecord
  2
Annotative
 70
     0
 40
0.0
 41
1.0
 50
0.0
 71
     0
 42
0.2
  3
txt
  4

1001
AcadAnnotative
1000
AnnotativeData
1002
{
1070
     1
1070
     1
1002
}
  0
ENDTAB
  0
TABLE
  2
VIEW
  5
6
330
0
100
AcDbSymbolTable
 70
     0
  0
ENDTAB
  0
TABLE
  2
UCS
  5
7
330
0
100
AcDbSymbolTable
 70
     0
  0
ENDTAB
  0
TABLE
  2
APPID
  5
9
330
0
100
AcDbSymbolTable
 70
     2
  0
APPID
  5
56
330
9
100
AcDbSymbolTableRecord
100
AcDbRegAppTableRecord
  2
ACAD
 70
     0
  0
APPID
  5
5E
330
9
100
AcDbSymbolTableRecord
100
AcDbRegAppTableRecord
  2
AcadAnnotative
 70
     0
  0
ENDTAB
  0
TABLE
  2
DIMSTYLE
  5
A
330
0
100
AcDbSymbolTable
 70
     2
100
AcDbDimStyleTable
 71
     0
  0
DIMSTYLE
105
58
330
A
100
AcDbSymbolTableRecord
100
AcDbDimStyleTableRecord
  2
Standard
 70
     0
340
55
  0
DIMSTYLE
105
59
330
A
100
AcDbSymbolTableRecord
100
AcDbDimStyleTableRecord
  2
Annotative
 70
     0
340
55
1001
AcadAnnotative
1000
AnnotativeData
1002
{
1070
     1
1070
     1
1002
}
  0
ENDTAB
  0
TABLE
  2
BLOCK_RECORD
  5
1
330
0
100
AcDbSymbolTable
 70
     1
  0
BLOCK_RECORD
  5
70
330
1
100
AcDbSymbolTableRecord
100
AcDbBlockTableRecord
  2
*Model_Space
340
73
 70
     0
280
     1
281
     0
  0
BLOCK_RECORD
  5
6C
330
1
100
AcDbSymbolTableRecord
100
AcDbBlockTableRecord
  2
*Paper_Space
340
6F
 70
     0
280
     1
281
     0
  0
BLOCK_RECORD
  5
74
330
1
100
AcDbSymbolTableRecord
100
AcDbBlockTableRecord
  2
*Paper_Space0
340
77
 70
     0
280
     1
281
     0
  0
ENDTAB
  0
ENDSEC
  0
SECTION
  2
BLOCKS
  0
BLOCK
  5
71
330
70
100
AcDbEntity
  8
0
100
AcDbBlockBegin
  2
*Model_Space
 70
     0
 10
0.0
 20
0.0
 30
0.0
  3
*Model_Space
  1

  0
ENDBLK
  5
72
330
70
100
AcDbEntity
  8
0
100
AcDbBlockEnd
  0
BLOCK
  5
6D
330
6C
100
AcDbEntity
 67
     1
  8
0
100
AcDbBlockBegin
  2
*Paper_Space
 70
     0
 10
0.0
 20
0.0
 30
0.0
  3
*Paper_Space
  1

  0
ENDBLK
  5
6E
330
6C
100
AcDbEntity
 67
     1
  8
0
100
AcDbBlockEnd
  0
BLOCK
  5
75
330
74
100
AcDbEntity
 67
     1
  8
0
100
AcDbBlockBegin
  2
*Paper_Space0
 70
     0
 10
0.0
 20
0.0
 30
0.0
  3
*Paper_Space0
  1

  0
ENDBLK
  5
76
330
74
100
AcDbEntity
 67
     1
  8
0
100
AcDbBlockEnd
  0
ENDSEC
  0
SECTION
  2
ENTITIES
  0
LINE
  5
79
330
70
100
AcDbEntity
  8
Camada 1
 62
   250
420
  1907995
370
    15
100
AcDbLine
 10
90.15398243663577
 20
38.36789922814674
 30
0.0
 11
90.15398243663577
 21
38.74642909458857
 31
0.0
  0
LINE
  5
7A
330
70
100
AcDbEntity
  8
Camada 1
 62
   250
420
  1907995
370
    15
100
AcDbLine
 10
55.14311882335886
 20
20.03227477102682
 30
0.0
 11
54.77763725606742
 21
20.03227477102682
 31
0.0
  0
LWPOLYLINE
  5
7B
330
70
100
AcDbEntity
  8
Camada 1
 62
   250
420
  1907995
370
    15
100
AcDbPolyline
 90
       41
 70
     0
 43
0.0
 10
19.76638606954842
 20
91.76758980046306
 10
19.75368497142741
 20
91.415156532322
 10
19.75368497142741
 20
91.03592688085972
 10
19.75368497142741
 20
90.67044531356829
 10
19.75368497142741
 20
90.27780670452202
 10
19.77979098991114
 20
89.85976589923373
 10
19.80589700839488
 20
89.41526245424936
 10
19.84505536325027
 20
88.94501230347447
 10
19.89726605447732
 20
88.39644544298877
 10
19.97593534817917
 20
87.82141594280702
 10
20.08035807637368
 20
87.21992918589087
 10
20.19783314093986
 20
86.61844242897473
 10
20.32871312586875
 20
86.0303646296426
 10
20.5901218574759
 20
85.10220207629933
 10
20.87728267783528
 20
84.20120733063427
 10
21.20395443704113
 20
83.32490961322911
 10
21.55673221473072
 20
82.48882800265254
 10
21.94937486099826
 20
81.66544479871612
 10
22.38011541866713
 20
80.88121725815426
 10
22.83801974679294
 20
80.0973449930643
 10
23.28181533231431
 20
79.41789680190931
 10
23.75277334255221
 20
78.75114701739446
 10
24.26218453966335
 20
78.11120976508592
 10
24.79805299350888
 20
77.4702120693233
 10
25.36002881157856
 20
76.85637679827722
 10
25.94846188638263
 20
76.255245316833
 10
26.56229715742871
 20
75.68021581665124
 10
27.18953600309709
 20
75.14399208733379
 10
27.751861713677
 20
74.69984391782135
 10
28.3265386298677
 20
74.2691047058929
 10
28.91497170467176
 20
73.87646071388495
 10
29.48999851337267
 20
73.51133980502712
 10
30.0777264201946
 20
73.15785685935539
 10
30.48271623485165
 20
72.93560513686322
 10
30.86159868528455
 20
72.73981067110542
 10
31.20167805633397
 20
72.57012895253346
 10
31.34561037763452
 20
72.50451064946286
 10
31.48883753095293
 20
72.42583866428015
 10
31.63277254373433
 20
72.37398459426545
 10
31.8028095377782
 20
72.29531260908276
 10
31.99895389604622
 20
72.20394221725989
  0
LWPOLYLINE
  5
7C
330
70
100
AcDbEntity
  8
Camada 1
 62
   250
420
  1907995
370
    15
100
AcDbPolyline
 90
       39
 70
     0
 43
0.0
 10
77.93503081174725
 20
72.20408755722568
 10
78.15727715127774
 20
72.3081563556887
 10
78.32731952828329
 20
72.3868229579097
 10
78.48395294770487
 20
72.45244126098032
 10
78.65328477376658
 20
72.54345637733127
 10
78.92845100972753
 20
72.67398243252866
 10
79.24171784857064
 20
72.83132640289406
 10
79.63400656510668
 20
73.04016916780224
 10
80.05204737039496
 20
73.27511929693459
 10
80.47008817568325
 20
73.53688195827323
 10
81.24161192664328
 20
74.02053568367043
 10
81.98597325288675
 20
74.55640952047765
 10
82.73139502258429
 20
75.14413742729958
 10
83.35827859278076
 20
75.68000588114511
 10
83.97211386382684
 20
76.25502999836517
 10
84.57395589621491
 20
76.85616686277109
 10
85.1359263313229
 20
77.46999675085548
 10
85.67215006064035
 20
78.1109944466181
 10
86.16815768312919
 20
78.75128697439855
 10
86.63876310937601
 20
79.41768686640317
 10
87.08326117139867
 20
80.09713505755819
 10
87.55316142966336
 20
80.88100732264813
 10
87.97190740293379
 20
81.66558475572022
 10
88.36384622695961
 20
82.48896795965661
 10
88.72932241128935
 20
83.32504957023319
 10
89.0563481002267
 20
84.20099739512814
 10
89.34386285031758
 20
85.1023474162651
 10
89.59186666156199
 20
86.03050458664666
 10
89.73579629138169
 20
86.65774343231506
 10
89.85362393993893
 20
87.28533755345535
 10
89.95804801387388
 20
87.9252748057639
 10
90.03636472358467
 20
88.52640628720813
 10
90.10198302665527
 20
89.1014357873899
 10
90.14078879751961
 20
89.63765951670735
 10
90.1675959467642
 20
90.10826494295416
 10
90.18029973636606
 20
90.552052454033
 10
90.18029973636606
 20
90.9570449601709
 10
90.1675959467642
 20
91.37579631640301
 10
90.15419237214191
 20
91.76772975746713
  0
LWPOLYLINE
  5
7D
330
70
100
AcDbEntity
  8
Camada 1
 62
   250
420
  1907995
370
    15
100
AcDbPolyline
 90
       27
 70
     0
 43
0.0
 10
25.75182498711944
 20
91.83310044429976
 10
27.94751353094986
 20
91.83310044429976
 10
30.14320207478028
 20
91.83310044429976
 10
32.35159171673171
 20
91.83310044429976
 10
34.57338493330544
 20
91.83310044429976
 10
36.79482556588811
 20
91.83310044429976
 10
39.01697405793374
 20
91.83310044429976
 10
40.98970840277069
 20
91.83310044429976
 10
42.96350049958085
 20
91.83310044429976
 10
44.95034358702223
 20
91.83310044429976
 10
46.93612623100956
 20
91.83310044429976
 10
48.9229720099318
 20
91.83310044429976
 10
50.9091126208719
 20
91.83310044429976
 10
53.19617155652518
 20
91.83310044429976
 10
55.49663406680076
 20
91.83310044429976
 10
57.7963914090942
 20
91.83310044429976
 10
60.08310045223725
 20
91.83310044429976
 10
62.38320768704092
 20
91.83310044429976
 10
64.29138686374215
 20
91.83310044429976
 10
66.19956065748168
 20
91.83310044429976
 10
68.107384558711
 20
91.83310044429976
 10
70.7997805100507
 20
91.83310044429976
 10
73.49183195184188
 20
91.83310044429976
 10
76.1711796040312
 20
91.83310044429976
 10
78.83676840612631
 20
91.83310044429976
 10
81.51611605831563
 20
91.83310044429976
 10
84.16865117829866
 20
91.83310044429976
  0
LWPOLYLINE
  5
7E
330
70
100
AcDbEntity
  8
Camada 1
 62
   250
420
  1907995
370
    15
100
AcDbPolyline
 90
       23
 70
     0
 43
0.0
 10
75.17733415207698
 20
72.20408755722568
 10
75.39958049160746
 20
72.20408755722568
 10
75.59572484987548
 20
72.20408755722568
 10
75.80457299774536
 20
72.20408755722568
 10
76.00071735601338
 20
72.20408755722568
 10
76.19721160679162
 20
72.20408755722568
 10
76.37959711496543
 20
72.20408755722568
 10
76.54963949197099
 20
72.20408755722568
 10
76.71932121054294
 20
72.20408755722568
 10
76.87630990543642
 20
72.20408755722568
 10
77.0198896427459
 20
72.20408755722568
 10
77.16382465552729
 20
72.20408755722568
 10
77.2943507107247
 20
72.20408755722568
 10
77.41217835928194
 20
72.20408755722568
 10
77.51660243321687
 20
72.20408755722568
 10
77.60797282503974
 20
72.20408755722568
 10
77.69933783390091
 20
72.20408755722568
 10
77.76495613697152
 20
72.20408755722568
 10
77.83057444004214
 20
72.20408755722568
 10
77.8700853788886
 20
72.20408755722568
 10
77.90889114975292
 20
72.20408755722568
 10
77.92229472437522
 20
72.20408755722568
 10
77.93499313101539
 20
72.20408755722568
  0
LWPOLYLINE
  5
7F
330
70
100
AcDbEntity
  8
Camada 1
 62
   250
420
  1907995
370
    15
100
AcDbPolyline
 90
       41
 70
     0
 43
0.0
 10
34.74324967257504
 20
72.20408755722568
 10
35.73666987055531
 20
72.20408755722568
 10
36.72974017602536
 20
72.20408755722568
 10
37.72316306548648
 20
72.20408755722568
 10
38.71587809548461
 20
72.20408755722568
 10
39.72200208306674
 20
72.20408755722568
 10
40.72882854715015
 20
72.20408755722568
 10
41.73495253473228
 20
72.20408755722568
 10
42.74107383083356
 20
72.20408755722568
 10
43.7475477109259
 20
72.20408755722568
 10
44.76707527313034
 20
72.20408755722568
 10
45.78625025134369
 20
72.20408755722568
 10
46.79237423892582
 20
72.20408755722568
 10
47.81190180113025
 20
72.20408755722568
 10
48.83142936333467
 20
72.20408755722568
 10
49.85060165006719
 20
72.20408755722568
 10
50.87012921227162
 20
72.20408755722568
 10
51.88895160649391
 20
72.20408755722568
 10
52.92188812628233
 20
72.20408755722568
 10
53.94106041301484
 20
72.20408755722568
 10
54.96058797521928
 20
72.20408755722568
 10
55.9801155374237
 20
72.20408755722568
 10
57.01234688922999
 20
72.20408755722568
 10
58.03116928345228
 20
72.20408755722568
 10
59.05104673816693
 20
72.20408755722568
 10
60.07057430037136
 20
72.20408755722568
 10
61.08939669459364
 20
72.20408755722568
 10
62.10927953226999
 20
72.20408755722568
 10
63.12810192649228
 20
72.20408755722568
 10
64.14762948869671
 20
72.20408755722568
 10
65.15375347627884
 20
72.20408755722568
 10
66.17363093099348
 20
72.20408755722568
 10
67.17975491857561
 20
72.20408755722568
 10
68.19857731279791
 20
72.20408755722568
 10
69.20540646836217
 20
72.20408755722568
 10
70.19847139087052
 20
72.20408755722568
 10
71.20459537845265
 20
72.20408755722568
 10
72.21071936603478
 20
72.20408755722568
 10
73.20449483948697
 20
72.20408755722568
 10
74.19720986948509
 20
72.20408755722568
 10
75.17722649284306
 20
72.20408755722568
  0
LWPOLYLINE
  5
80
330
70
100
AcDbEntity
  8
Camada 1
 62
   250
420
  1907995
370
    15
100
AcDbPolyline
 90
       23
 70
     0
 43
0.0
 10
31.99884892829315
 20
72.20408755722568
 10
31.99884892829315
 20
72.20408755722568
 10
32.02460101704539
 20
72.20408755722568
 10
32.05105827377977
 20
72.20408755722568
 10
32.10327031074724
 20
72.20408755722568
 10
32.15547965623386
 20
72.20408755722568
 10
32.23379636594464
 20
72.20408755722568
 10
32.31211307565543
 20
72.20408755722568
 10
32.40383605146936
 20
72.20408755722568
 10
32.50896529338643
 20
72.20408755722568
 10
32.62608777396154
 20
72.20408755722568
 10
32.75661382915894
 20
72.20408755722568
 10
32.90054884194034
 20
72.20408755722568
 10
33.04448116324089
 20
72.20408755722568
 10
33.21381298930261
 20
72.20408755722568
 10
33.37115426818716
 20
72.20408755722568
 10
33.55424494434311
 20
72.20408755722568
 10
33.73698303650798
 20
72.20408755722568
 10
33.92007640414476
 20
72.20408755722568
 10
34.11586817842172
 20
72.20408755722568
 10
34.32541611131204
 20
72.20408755722568
 10
34.53390898371001
 20
72.20408755722568
 10
34.7431070240901
 20
72.20408755722568
  0
LWPOLYLINE
  5
81
330
70
100
AcDbEntity
  8
Camada 1
 62
   250
420
  1907995
370
    15
100
AcDbPolyline
 90
       26
 70
     0
 43
0.0
 10
84.16875345457087
 20
91.83310044429976
 10
84.49577376054653
 20
91.83310044429976
 10
84.80939587486156
 20
91.83310044429976
 10
85.10996430706454
 20
91.83310044429976
 10
85.42323114590764
 20
91.83310044429976
 10
85.73720315273291
 20
91.83310044429976
 10
86.03741630946396
 20
91.83310044429976
 10
86.337629466195
 20
91.83310044429976
 10
86.62549410879611
 20
91.83310044429976
 10
87.12220689926708
 20
91.83310044429976
 10
87.60551073215408
 20
91.83310044429976
 10
87.82776245464624
 20
91.83310044429976
 10
88.05036406964864
 20
91.83310044429976
 10
88.27191062415868
 20
91.83310044429976
 10
88.46876015040885
 20
91.83310044429976
 10
88.8342363347386
 20
91.83310044429976
 10
89.04307909964678
 20
91.83310044429976
 10
89.25263241549881
 20
91.83310044429976
 10
89.43536781618282
 20
91.83310044429976
 10
89.55319546474006
 20
91.83310044429976
 10
89.6706732207871
 20
91.83310044429976
 10
89.84071021483094
 20
91.83310044429976
 10
89.93208060665381
 20
91.83310044429976
 10
90.01039731636458
 20
91.83310044429976
 10
90.04955836270083
 20
91.83310044429976
 10
90.07566034396329
 20
91.83310044429976
  0
LWPOLYLINE
  5
82
330
70
100
AcDbEntity
  8
Camada 1
 62
   250
420
  1907995
370
    15
100
AcDbPolyline
 90
       22
 70
     0
 43
0.0
 10
19.8452316552458
 20
91.83310044429976
 10
19.85793140762639
 20
91.83310044429976
 10
19.89744234647285
 20
91.83310044429976
 10
19.96305930380304
 20
91.83310044429976
 10
20.05407576589441
 20
91.83310044429976
 10
20.17190341445166
 20
91.83310044429976
 10
20.31513056777007
 20
91.83310044429976
 10
20.55078721062497
 20
91.83310044429976
 10
20.83794803098436
 20
91.83310044429976
 10
21.06090357571825
 20
91.83310044429976
 10
21.30855345723118
 20
91.83310044429976
 10
21.5703147728294
 20
91.83310044429976
 10
21.9756558257371
 20
91.83310044429976
 10
22.41980264950912
 20
91.83310044429976
 10
22.74647440871497
 20
91.83310044429976
 10
23.09925218640455
 20
91.83310044429976
 10
23.45202996409414
 20
91.83310044429976
 10
23.98754583394859
 20
91.83310044429976
 10
24.54952165201828
 20
91.83310044429976
 10
24.94181036855432
 20
91.83310044429976
 10
25.34680018321137
 20
91.83310044429976
 10
25.75178999786842
 20
91.83310044429976
  0
LINE
  5
83
330
70
100
AcDbEntity
  8
Camada 1
 62
   250
420
  1907995
370
    15
100
AcDbLine
 10
20.70001232901283
 20
91.76847260618115
 30
0.0
 11
20.70036491300389
 21
91.76847260618115
 31
0.0
  0
LWPOLYLINE
  5
84
330
70
100
AcDbEntity
  8
Camada 1
 62
   250
420
  1907995
370
    15
100
AcDbPolyline
 90
        6
 70
     0
 43
0.0
 10
20.66840357793566
 20
91.83254061628341
 10
20.67969164861155
 20
91.82265749861009
 10
20.68886421534102
 20
91.81101953542398
 10
20.6955673483926
 20
91.79726068532977
 10
20.6990945340437
 20
91.78314655976363
 10
20.70015228601691
 20
91.76797737370515
  0
LWPOLYLINE
  5
85
330
70
100
AcDbEntity
  8
Camada 1
 62
   250
420
  1907995
370
    15
100
AcDbPolyline
 90
        5
 70
     0
 43
0.0
 10
89.23831373738824
 20
91.76800967147533
 10
89.23866362989846
 20
91.78282358206189
 10
89.24289463779128
 20
91.79728221717656
 10
89.24924653259221
 20
91.81104106727076
 10
89.25877437479361
 20
91.82268979638028
  0
LINE
  5
86
330
70
100
AcDbEntity
  8
Camada 1
  6
AI-Linetype-0
 62
   250
420
  1907995
370
    15
100
AcDbLine
 10
33.53593749161602
 20
73.69351537769479
 30
0.0
 11
76.83164747224717
 21
73.69351537769479
 31
0.0
  0
LINE
  5
88
330
70
100
AcDbEntity
  8
Camada 1
 62
   250
420
  1907995
370
    15
100
AcDbLine
 10
77.26101402894321
 20
73.69351537769479
 30
0.0
 11
78.11790616943537
 21
73.69351537769479
 31
0.0
  0
LINE
  5
89
330
70
100
AcDbEntity
  8
Camada 1
 62
   250
420
  1907995
370
    15
100
AcDbLine
 10
31.82055447100808
 20
73.69351537769479
 30
0.0
 11
32.67709671899002
 21
73.69351537769479
 31
0.0
  0
LINE
  5
8A
330
70
100
AcDbEntity
  8
Camada 1
 62
   250
420
  1907995
370
    15
100
AcDbLine
 10
20.7002585995104
 20
91.76847260618115
 30
0.0
 11
20.7002585995104
 21
91.76811733070923
 31
0.0
  0
LINE
  5
8B
330
70
100
AcDbEntity
  8
Camada 1
 62
   250
420
  1907995
370
    15
100
AcDbLine
 10
89.23831373738824
 20
91.76847260618115
 30
0.0
 11
89.23795846191632
 21
91.76847260618115
 31
0.0
  0
LINE
  5
8C
330
70
100
AcDbEntity
  8
Camada 1
  6
AI-Linetype-1
 62
   250
420
  1907995
370
    15
100
AcDbLine
 10
73.03667562566173
 20
72.95264759359181
 30
0.0
 11
36.45432632382642
 21
72.95264759359181
 31
0.0
  0
LINE
  5
8E
330
70
100
AcDbEntity
  8
Camada 1
 62
   250
420
  1907995
370
    15
100
AcDbLine
 10
36.00647467666733
 20
72.95264759359181
 30
0.0
 11
35.13158460374559
 21
72.95264759359181
 31
0.0
  0
LINE
  5
8F
330
70
100
AcDbEntity
  8
Camada 1
 62
   250
420
  1907995
370
    15
100
AcDbLine
 10
74.80673877117462
 20
72.95264759359181
 30
0.0
 11
73.93149611426181
 21
72.95264759359181
 31
0.0
  0
LWPOLYLINE
  5
90
330
70
100
AcDbEntity
  8
Camada 1
 62
   250
420
  1907995
370
    15
100
AcDbPolyline
 90
        8
 70
     0
 43
0.0
 10
35.13155230597541
 20
72.95264759359181
 10
35.11250200453432
 20
72.94488536282661
 10
35.0948620390575
 20
72.92406944994933
 10
35.07828251703474
 20
72.88984996244974
 10
35.06381849895838
 20
72.84398712880236
 10
35.05182256881951
 20
72.78789666793312
 10
35.04265000209004
 20
72.72369408378849
 10
35.03559563078782
 20
72.5822298504254
  0
LWPOLYLINE
  5
91
330
70
100
AcDbEntity
  8
Camada 1
 62
   250
420
  1907995
370
    15
100
AcDbPolyline
 90
        8
 70
     0
 43
0.0
 10
74.80673877117462
 20
72.95264759359181
 10
74.82578368965402
 20
72.94488536282661
 10
74.84342365513083
 20
72.92406944994933
 10
74.8600031771536
 20
72.88984996244974
 10
74.87446719522996
 20
72.84398712880236
 10
74.88646581684967
 20
72.78789666793312
 10
74.89563838357915
 20
72.72369408378849
 10
74.90269006340053
 20
72.5822298504254
  0
LWPOLYLINE
  5
92
330
70
100
AcDbEntity
  8
Camada 1
 62
   250
420
  1907995
370
    15
100
AcDbPolyline
 90
        9
 70
     0
 43
0.0
 10
33.48316293515135
 20
72.95264759359181
 10
33.41084284476958
 20
72.94488536282661
 10
33.34134611779721
 20
72.92406944994933
 10
33.27713815069086
 20
72.88984996244974
 10
33.22104768982164
 20
72.84398712880236
 10
33.17554013164617
 20
72.78789666793312
 10
33.14132064414658
 20
72.72369408378849
 10
33.11979956328717
 20
72.65454994080717
 10
33.11274519198494
 20
72.5822298504254
  0
LINE
  5
93
330
70
100
AcDbEntity
  8
Camada 1
 62
   250
420
  1907995
370
    15
100
AcDbLine
 10
35.13155230597541
 20
72.95264759359181
 30
0.0
 11
33.48302028666641
 21
72.95264759359181
 31
0.0
  0
LINE
  5
94
330
70
100
AcDbEntity
  8
Camada 1
 62
   250
420
  1907995
370
    15
100
AcDbLine
 10
33.11271020273392
 20
72.58205221268944
 30
0.0
 11
33.11271020273392
 21
72.21233963750518
 31
0.0
  0
LINE
  5
95
330
70
100
AcDbEntity
  8
Camada 1
 62
   250
420
  1907995
370
    15
100
AcDbLine
 10
35.03587823627684
 20
72.58205221268944
 30
0.0
 11
35.03587823627684
 21
72.21233963750518
 31
0.0
  0
LWPOLYLINE
  5
96
330
70
100
AcDbEntity
  8
Camada 1
 62
   250
420
  1907995
370
    15
100
AcDbPolyline
 90
        9
 70
     0
 43
0.0
 10
76.82561855514798
 20
72.58205221268944
 10
76.81856149236492
 20
72.65436692010952
 10
76.79704041150549
 20
72.72386633856275
 10
76.7628209240059
 20
72.78842419817931
 10
76.71695809035853
 20
72.84451465904853
 10
76.6608676294893
 20
72.88967232471378
 10
76.59666504534465
 20
72.92424170472358
 10
76.52787079487357
 20
72.94576278558301
 10
76.45520081198158
 20
72.95246457289415
  0
LINE
  5
97
330
70
100
AcDbEntity
  8
Camada 1
 62
   250
420
  1907995
370
    15
100
AcDbLine
 10
76.45520081198158
 20
72.95264759359181
 30
0.0
 11
74.80666879267258
 21
72.95264759359181
 31
0.0
  0
LINE
  5
98
330
70
100
AcDbEntity
  8
Camada 1
 62
   250
420
  1907995
370
    15
100
AcDbLine
 10
76.82561855514798
 20
72.58205221268944
 30
0.0
 11
76.82561855514798
 21
72.21233963750518
 31
0.0
  0
LINE
  5
99
330
70
100
AcDbEntity
  8
Camada 1
 62
   250
420
  1907995
370
    15
100
AcDbLine
 10
74.90248551085608
 20
72.58205221268944
 30
0.0
 11
74.90248551085608
 21
72.21233963750518
 31
0.0
  0
LWPOLYLINE
  5
9A
330
70
100
AcDbEntity
  8
Camada 1
 62
   250
420
  1907995
370
    15
100
AcDbPolyline
 90
        9
 70
     0
 43
0.0
 10
90.07841642035149
 20
91.83334806053776
 10
90.09323033093806
 20
91.8319269586501
 10
90.10698918103228
 20
91.82769595075727
 10
90.11968758767244
 20
91.82099954640781
 10
90.13097565834833
 20
91.81147170420642
 10
90.1401482250778
 20
91.80053352604074
 10
90.14720528786089
 20
91.78712995141845
 10
90.15143629575369
 20
91.77337110132425
 10
90.15249673920775
 20
91.75925697575811
  0
LWPOLYLINE
  5
9B
330
70
100
AcDbEntity
  8
Camada 1
 62
   250
420
  1907995
370
    15
100
AcDbPolyline
 90
        9
 70
     0
 43
0.0
 10
19.76568090156628
 20
91.75999982447212
 10
19.76673865353949
 20
91.77410318411485
 10
19.77097235291316
 20
91.78857258515291
 10
19.7780280699558
 20
91.80126560883136
 10
19.78719929094486
 20
91.81220378699704
 10
19.79848870736117
 20
91.82173162919843
 10
19.81118845974176
 20
91.8287833090198
 10
19.82494730983597
 20
91.8326698073641
 10
19.8397639119034
 20
91.83408014332838
  0
LINE
  5
9C
330
70
100
AcDbEntity
  8
Camada 1
 62
   250
420
  1907995
370
    15
100
AcDbLine
 10
54.71971120525996
 20
73.27141581928794
 30
0.0
 11
54.04307830307181
 21
73.27141581928794
 31
0.0
  0
LINE
  5
9D
330
70
100
AcDbEntity
  8
Camada 1
 62
   250
420
  1907995
370
    15
100
AcDbLine
 10
55.89531235886959
 20
73.27141581928794
 30
0.0
 11
55.21867945668144
 21
73.27141581928794
 31
0.0
  0
LINE
  5
9E
330
70
100
AcDbEntity
  8
Camada 1
 62
   250
420
  1907995
370
    15
100
AcDbLine
 10
54.47862449979452
 20
72.58205221268944
 30
0.0
 11
53.56140012461692
 21
72.58205221268944
 31
0.0
  0
LINE
  5
9F
330
70
100
AcDbEntity
  8
Camada 1
 62
   250
420
  1907995
370
    15
100
AcDbLine
 10
56.37692055882244
 20
72.58205221268944
 30
0.0
 11
55.4589910156627
 21
72.58205221268944
 31
0.0
  0
LINE
  5
A0
330
70
100
AcDbEntity
  8
Camada 1
 62
   250
420
  1907995
370
    15
100
AcDbLine
 10
20.69976471277482
 20
91.76156088336387
 30
0.0
 11
20.69976471277482
 21
91.75590877358338
 31
0.0
  0
LINE
  5
A1
330
70
100
AcDbEntity
  8
Camada 1
 62
   250
420
  1907995
370
    15
100
AcDbLine
 10
89.23831373738824
 20
91.76800967147533
 30
0.0
 11
89.23866362989846
 21
91.75600566689389
 31
0.0
  0
LINE
  5
A2
330
70
100
AcDbEntity
  8
Camada 1
 62
   250
420
  1907995
370
    15
100
AcDbLine
 10
20.69976471277482
 20
91.76156088336387
 30
0.0
 11
20.69976471277482
 21
91.75590877358338
 31
0.0
  0
LWPOLYLINE
  5
A3
330
70
100
AcDbEntity
  8
Camada 1
 62
   250
420
  1907995
370
    15
100
AcDbPolyline
 90
       10
 70
     0
 43
0.0
 10
27.79225545824155
 20
75.89167470094354
 10
28.34540860209198
 20
75.42318477864312
 10
29.70183958794537
 20
74.47809281076686
 10
30.39751740861292
 20
74.05758122606027
 10
30.67233106058279
 20
73.92493428395475
 10
30.95984581067367
 20
73.82122076096364
 10
31.22513431192299
 20
73.75419212192875
 10
31.39658433341198
 20
73.72420364232199
 10
31.59484688710726
 20
73.70233266895235
 10
31.82062444951013
 20
73.69386527020501
  0
LWPOLYLINE
  5
A4
330
70
100
AcDbEntity
  8
Camada 1
 62
   250
420
  1907995
370
    15
100
AcDbPolyline
 90
        8
 70
     0
 43
0.0
 10
22.07651637902948
 20
83.70986135297391
 10
22.30970224246606
 20
83.10449348067516
 10
23.06111659427134
 20
81.57167360597698
 10
23.88802832959928
 20
80.19725276213655
 10
24.7643287384853
 20
78.9717031069525
 10
25.73870132650532
 20
77.81212164734927
 10
26.78504142091604
 20
76.74602608351531
 10
27.33784198077541
 20
76.27718626870468
  0
LWPOLYLINE
  5
A5
330
70
100
AcDbEntity
  8
Camada 1
 62
   250
420
  1907995
370
    15
100
AcDbPolyline
 90
        3
 70
     0
 43
0.0
 10
21.50438022075916
 20
85.36125172494333
 10
21.68429629525506
 20
84.72836615245615
 10
21.91748215869164
 20
84.1229982801574
  0
LWPOLYLINE
  5
A6
330
70
100
AcDbEntity
  8
Camada 1
 62
   250
420
  1907995
370
    15
100
AcDbPolyline
 90
        4
 70
     0
 43
0.0
 10
20.81875777253918
 20
88.7613241185703
 10
20.88507989785151
 20
88.08081548396124
 10
21.19799280696314
 20
86.43757491599911
 10
21.37791022719947
 20
85.80468934351193
  0
LWPOLYLINE
  5
A7
330
70
100
AcDbEntity
  8
Camada 1
 62
   250
420
  1907995
370
    15
100
AcDbPolyline
 90
        3
 70
     0
 43
0.0
 10
20.70195288670412
 20
90.61594820936099
 10
20.7033632226684
 20
89.95131392879256
 10
20.76933276398966
 20
89.27080529418349
  0
LINE
  5
A8
330
70
100
AcDbEntity
  8
Camada 1
 62
   250
420
  1907995
370
    15
100
AcDbLine
 10
20.69958842077928
 20
91.75595183727693
 30
0.0
 11
20.70099875674356
 21
91.09131755670851
 31
0.0
  0
LINE
  5
A9
330
70
100
AcDbEntity
  8
Camada 1
 62
   250
420
  1907995
370
    15
100
AcDbLine
 10
20.69958842077928
 20
91.75595183727693
 30
0.0
 11
20.69994100477035
 21
91.76794507593497
 31
0.0
  0
LINE
  5
AA
330
70
100
AcDbEntity
  8
Camada 1
 62
   250
420
  1907995
370
    15
100
AcDbLine
 10
89.23877128913238
 20
91.75595183727693
 30
0.0
 11
89.23877128913238
 21
91.76159318113404
 31
0.0
  0
LINE
  5
AB
330
70
100
AcDbEntity
  8
Camada 1
  6
AI-Linetype-2
 62
   250
420
  1907995
370
    15
100
AcDbLine
 10
34.74275444009903
 20
73.69393524870705
 30
0.0
 11
74.7551592322064
 21
73.69357997323513
 31
0.0
  0
LINE
  5
AD
330
70
100
AcDbEntity
  8
Camada 1
 62
   250
420
  1907995
370
    15
100
AcDbLine
 10
75.17334537746046
 20
73.69347769696291
 30
0.0
 11
76.01859955476651
 21
73.69347769696291
 31
0.0
  0
LINE
  5
AE
330
70
100
AcDbEntity
  8
Camada 1
 62
   250
420
  1907995
370
    15
100
AcDbLine
 10
33.06127600373148
 20
73.69393524870705
 30
0.0
 11
33.90653018103753
 21
73.69393524870705
 31
0.0
  0
LINE
  5
AF
330
70
100
AcDbEntity
  8
Camada 1
 62
   250
420
  1907995
370
    15
100
AcDbLine
 10
32.12048771373094
 20
73.69351537769479
 30
0.0
 11
33.06099070676161
 21
73.69386527020501
 31
0.0
  0
LWPOLYLINE
  5
B0
330
70
100
AcDbEntity
  8
Camada 1
 62
   250
420
  1907995
370
    15
100
AcDbPolyline
 90
        3
 70
     0
 43
0.0
 10
89.1978876950535
 20
89.67459201690155
 10
89.25009704054012
 20
90.36074199536772
 10
89.23880896986423
 20
91.75561809365181
  0
LWPOLYLINE
  5
B1
330
70
100
AcDbEntity
  8
Camada 1
 62
   250
420
  1907995
370
    15
100
AcDbPolyline
 90
        9
 70
     0
 43
0.0
 10
85.50147787711638
 20
79.43917026653072
 10
85.89588209759885
 20
79.966216046157
 10
86.7795867702973
 20
81.39567229037428
 10
87.48373198971219
 20
82.78032614439824
 10
88.06863922460555
 20
84.19954937843199
 10
88.53113252757697
 20
85.62865573013906
 10
88.8772085179554
 20
87.06551892964965
 10
89.10580675228681
 20
88.46957297762491
 10
89.15837137324535
 20
89.15502317107062
  0
LWPOLYLINE
  5
B2
330
70
100
AcDbEntity
  8
Camada 1
 62
   250
420
  1907995
370
    15
100
AcDbPolyline
 90
        5
 70
     0
 43
0.0
 10
82.02541959619287
 20
75.7859802480484
 10
82.53835663321471
 20
76.1906120957527
 10
83.70181920820051
 20
77.28457525228531
 10
84.82964657676079
 20
78.54117383053019
 10
85.22405079724325
 20
79.06821961015644
  0
LWPOLYLINE
  5
B3
330
70
100
AcDbEntity
  8
Camada 1
 62
   250
420
  1907995
370
    15
100
AcDbPolyline
 90
        3
 70
     0
 43
0.0
 10
80.58580570325579
 20
74.73096281938421
 10
81.15941948451158
 20
75.1027855155532
 10
81.67165135355126
 20
75.50671757823704
  0
LWPOLYLINE
  5
B4
330
70
100
AcDbEntity
  8
Camada 1
 62
   250
420
  1907995
370
    15
100
AcDbPolyline
 90
        8
 70
     0
 43
0.0
 10
78.11777159539298
 20
73.69351537769479
 10
78.38447043260657
 20
73.70550861635281
 10
78.6285931284684
 20
73.73831776788811
 10
78.85401541539934
 20
73.78664599799214
 10
79.11859874866653
 20
73.86778337963147
 10
79.35636954972743
 20
73.96515039078335
 10
79.58214711213028
 20
74.08015736741204
 10
80.15576627634777
 20
74.45163017107081
  0
LWPOLYLINE
  5
B5
330
70
100
AcDbEntity
  8
Camada 1
 62
   250
420
  1907995
370
    15
100
AcDbPolyline
 90
        3
 70
     0
 43
0.0
 10
53.39485667271357
 20
73.69351537769479
 10
53.48269584166406
 20
73.65399905588663
 10
54.04290604829754
 20
73.27123818155198
  0
LWPOLYLINE
  5
B6
330
70
100
AcDbEntity
  8
Camada 1
 62
   250
420
  1907995
370
    15
100
AcDbPolyline
 90
        3
 70
     0
 43
0.0
 10
55.89531235886959
 20
73.27141581928794
 10
56.4555225655031
 20
73.65417669362258
 10
56.54406690243571
 20
73.69333773995883
  0
LWPOLYLINE
  5
B7
330
70
100
AcDbEntity
  8
Camada 1
 62
   250
420
  1907995
370
    15
100
AcDbPolyline
 90
        9
 70
     0
 43
0.0
 10
56.37692055882244
 20
72.58205221268944
 10
56.39102930142687
 20
72.58381244116394
 10
56.40549331950323
 20
72.58804883201846
 10
56.41784183363316
 20
72.59475061932961
 10
56.42912990430906
 20
72.60392318605909
 10
56.43830247103854
 20
72.61521125673498
 10
56.44535415085991
 20
72.62826493884706
 10
56.44959054171443
 20
72.64202378894127
 10
56.4510008776787
 20
72.65613253154571
  0
LWPOLYLINE
  5
B8
330
70
100
AcDbEntity
  8
Camada 1
 62
   250
420
  1907995
370
    15
100
AcDbPolyline
 90
        9
 70
     0
 43
0.0
 10
53.48728212502879
 20
72.65617021227758
 10
53.48869246099306
 20
72.64205608671145
 10
53.49292346888589
 20
72.6275920686351
 10
53.49998053166896
 20
72.61524355450515
 10
53.50915309839843
 20
72.60395548382927
 10
53.52044116907432
 20
72.59478291709979
 10
53.5334948511864
 20
72.58773123727841
 10
53.54725370128061
 20
72.58385012189582
 10
53.56136244388505
 20
72.58208451045963
  0
LINE
  5
B9
330
70
100
AcDbEntity
  8
Camada 1
 62
   250
420
  1907995
370
    15
100
AcDbLine
 10
53.48728212502879
 20
72.95264759359181
 30
0.0
 11
53.48728212502879
 21
72.65631016928167
 31
0.0
  0
LINE
  5
BA
330
70
100
AcDbEntity
  8
Camada 1
 62
   250
420
  1907995
370
    15
100
AcDbLine
 10
56.45104394137227
 20
72.65617021227758
 30
0.0
 11
56.45104394137227
 21
72.95250225362602
 31
0.0
  0
LINE
  5
BB
330
70
100
AcDbEntity
  8
Camada 1
 62
   250
420
  1907995
370
    15
100
AcDbLine
 10
54.04301370753145
 20
73.27141581928794
 30
0.0
 11
54.04301370753145
 21
72.58208451045963
 31
0.0
  0
LINE
  5
BC
330
70
100
AcDbEntity
  8
Camada 1
 62
   250
420
  1907995
370
    15
100
AcDbLine
 10
55.89531235886959
 20
72.58205221268944
 30
0.0
 11
55.89531235886959
 21
73.27137813855607
 31
0.0
  0
LINE
  5
BD
330
70
100
AcDbEntity
  8
Camada 1
 62
   250
420
  1907995
370
    15
100
AcDbLine
 10
89.23831373738824
 20
91.76800967147533
 30
0.0
 11
89.23831373738824
 21
91.76835418102383
 31
0.0
  0
LWPOLYLINE
  5
BE
330
70
100
AcDbEntity
  8
Camada 1
 62
   250
420
  1907995
370
    15
100
AcDbPolyline
 90
        3
 70
     0
 43
0.0
 10
19.76666867503745
 20
46.4049517197627
 10
19.76666867503745
 20
46.4049517197627
 10
19.76666867503745
 20
46.36543539795454
  0
LWPOLYLINE
  5
BF
330
70
100
AcDbEntity
  8
Camada 1
 62
   250
420
  1907995
370
    15
100
AcDbPolyline
 90
       33
 70
     0
 43
0.0
 10
19.76666867503745
 20
45.93441627201792
 10
19.76666867503745
 20
45.69946614288557
 10
19.76666867503745
 20
45.30717204338784
 10
19.76666867503745
 20
44.90218761169248
 10
19.76666867503745
 20
44.47109312429211
 10
19.76666867503745
 20
44.0918553983873
 10
19.76666867503745
 20
43.7521313028098
 10
19.76666867503745
 20
43.4385118799756
 10
19.76666867503745
 20
43.1640508119968
 10
19.75396757691643
 20
42.91569441676131
 10
19.75396757691643
 20
42.70649906786206
 10
19.75396757691643
 20
42.3667722808037
 10
19.75396757691643
 20
42.00094351248289
 10
19.75396757691643
 20
41.60900737993792
 10
19.75396757691643
 20
41.04667897787716
 10
19.75396757691643
 20
40.44519222096102
 10
19.75396757691643
 20
39.81795337529264
 10
19.75396757691643
 20
39.1388577681287
 10
19.75396757691643
 20
38.45940688549285
 10
19.75396757691643
 20
37.74009248001946
 10
19.75396757691643
 20
37.04759060675237
 10
19.75396757691643
 20
36.36849230810759
 10
19.75396757691643
 20
35.70138993960167
 10
19.75396757691643
 20
35.04910417316318
 10
19.75396757691643
 20
34.40810647740058
 10
19.76666867503745
 20
33.96325583138685
 10
19.76666867503745
 20
33.5191076618744
 10
19.76666867503745
 20
33.06190850173073
 10
19.76666867503745
 20
32.57824939337183
 10
19.76666867503745
 20
32.08224446236382
 10
19.76666867503745
 20
31.54602073304638
 10
19.76666867503745
 20
30.98369233098563
 10
19.76666867503745
 20
30.93183556949008
  0
LINE
  5
C0
330
70
100
AcDbEntity
  8
Camada 1
 62
   250
420
  1907995
370
    15
100
AcDbLine
 10
90.15398243663577
 20
30.70972918696368
 30
0.0
 11
90.15398243663577
 21
30.72242759360385
 31
0.0
  0
LWPOLYLINE
  5
C1
330
70
100
AcDbEntity
  8
Camada 1
 62
   250
420
  1907995
370
    15
100
AcDbPolyline
 90
       38
 70
     0
 43
0.0
 10
90.15398243663577
 20
31.76809750928346
 10
90.15398243663577
 20
31.95083560144833
 10
90.15398243663577
 20
32.49975773740593
 10
90.15398243663577
 20
33.00987410249922
 10
90.16738601125807
 20
33.64981404628861
 10
90.16738601125807
 20
34.25129811172391
 10
90.16738601125807
 20
34.81292134580252
 10
90.16738601125807
 20
35.30963144479266
 10
90.16738601125807
 20
35.77988428704841
 10
90.16738601125807
 20
36.22473762454299
 10
90.18008441789822
 20
36.68193678468667
 10
90.18008441789822
 20
37.19170056578889
 10
90.18008441789822
 20
37.72757171111525
 10
90.18008441789822
 20
38.3022459358251
 10
90.18008441789822
 20
38.68113107773885
 10
90.18008441789822
 20
39.07341979427489
 10
90.18008441789822
 20
39.47840691745109
 10
90.18008441789822
 20
39.89645041422022
 10
90.18008441789822
 20
40.31519638749064
 10
90.18008441789822
 20
40.73323719277893
 10
90.16738601125807
 20
41.08566238647744
 10
90.16738601125807
 20
41.3996343933027
 10
90.16738601125807
 20
41.66069188665921
 10
90.16738601125807
 20
41.89634718377369
 10
90.16738601125807
 20
42.07943785992963
 10
90.16738601125807
 20
42.22301759723911
 10
90.16738601125807
 20
42.39270469877275
 10
90.16738601125807
 20
42.60190273915285
 10
90.16738601125807
 20
42.8502564429075
 10
90.16738601125807
 20
43.12507278635822
 10
90.16738601125807
 20
43.4249333590982
 10
90.16738601125807
 20
43.76536262265783
 10
90.15398243663577
 20
44.1830535354359
 10
90.15398243663577
 20
44.62790418144964
 10
90.15398243663577
 20
45.09780443971432
 10
90.15398243663577
 20
45.60791811332675
 10
90.15398243663577
 20
46.14379195013397
 10
90.15398243663577
 20
46.18259772099829
  0
LWPOLYLINE
  5
C2
330
70
100
AcDbEntity
  8
Camada 1
 62
   250
420
  1907995
370
    15
100
AcDbPolyline
 90
       45
 70
     1
 43
0.0
 10
54.82974432528182
 20
39.47847958743399
 10
54.97296878711939
 20
39.47847958743399
 10
55.10420539326062
 20
39.46577848931298
 10
55.23508134096825
 20
39.43896595710667
 10
55.35185392903313
 20
39.38675661162006
 10
55.44357421336621
 20
39.33524974263472
 10
55.53529988066099
 20
39.26963413104495
 10
55.67922951048069
 20
39.11300071162339
 10
55.78365358441563
 20
38.95636729220182
 10
55.84856133654241
 20
38.79902870479813
 10
55.88807765835057
 20
38.65509369201673
 10
55.88807765835057
 20
38.52492022081039
 10
55.88807765835057
 20
38.45965719321169
 10
55.86197029412641
 20
38.36793421739777
 10
55.83621820537417
 20
38.27621124158384
 10
55.79705715903793
 20
38.18448826576991
 10
55.75754622019148
 20
38.0931205654279
 10
55.69263846806469
 20
38.00139758961396
 10
55.61396648288199
 20
37.92343346389425
 10
55.45698317095021
 20
37.79290740869685
 10
55.29963920058481
 20
37.70118443288292
 10
55.14371633210708
 20
37.64897239591545
 10
55.01247972596584
 20
37.63627398927529
 10
54.93416301625507
 20
37.63627398927529
 10
54.85584630654429
 20
37.63627398927529
 10
54.7641260222112
 20
37.64897239591545
 10
54.67275563038834
 20
37.68813075077084
 10
54.55527787434133
 20
37.74034278773831
 10
54.42475181914392
 20
37.81901208144016
 10
54.34608521692292
 20
37.88462769302993
 10
54.26741323174022
 20
37.96294440274071
 10
54.1499408586549
 20
38.1192252381712
 10
54.08432255558428
 20
38.28961750768698
 10
54.04587206019187
 20
38.4328446610054
 10
54.03246310260787
 20
38.56407857566578
 10
54.04587206019187
 20
38.66814737412881
 10
54.05857046683204
 20
38.75951776595167
 10
54.09772613020658
 20
38.86393914840576
 10
54.1499408586549
 20
38.96906839032284
 10
54.20215020414152
 20
39.06078867465592
 10
54.26741323174022
 20
39.1391053843667
 10
54.42475181914392
 20
39.29573880378826
 10
54.5164774864387
 20
39.3606492473959
 10
54.62089617741194
 20
39.41356645234551
 10
54.72496497587497
 20
39.45237222320983
  0
LWPOLYLINE
  5
C3
330
70
100
AcDbEntity
  8
Camada 1
 62
   250
420
  1907995
370
    15
100
AcDbPolyline
 90
       39
 70
     0
 43
0.0
 10
20.69447326142794
 20
38.55070999029451
 10
20.69447326142794
 20
32.52632265337422
 10
20.69447326142794
 20
30.44810917410998
 10
20.69447326142794
 20
30.09533139642039
 10
20.70717301380853
 20
29.72914735262767
 10
20.74668395265499
 20
29.36331858430685
 10
20.79889464388203
 20
28.99819229248733
 10
20.93012855854242
 20
28.47466966129089
 10
21.08605546424143
 20
27.96490588018868
 10
21.2956060886126
 20
27.45549468307753
 10
21.55736740421081
 20
26.97148299072756
 10
21.8445282245702
 20
26.51428383058389
 10
22.17155256776712
 20
26.08318934318353
 10
22.53703144357771
 20
25.67820222000732
 10
22.92932016011375
 20
25.29931707809358
 10
23.36041464751412
 20
24.95994556650714
 10
23.80491270953678
 20
24.65867196632204
 10
24.28821923390462
 20
24.39761716444639
 10
24.79763043101576
 20
24.16231445132297
 10
25.0727966669767
 20
24.05754048487782
 10
25.35995883307652
 20
23.96617009305495
 10
25.66052457379863
 20
23.88785338334417
 10
25.96109031452074
 20
23.82259035574547
 10
27.64666518473873
 20
23.49556466680813
 10
29.33258994746693
 20
23.19535151007709
 10
30.70489528736094
 20
22.96004879695368
 10
32.07755321124602
 20
22.73709190647936
 10
33.44915338315789
 20
22.52895430955331
 10
34.82145872305191
 20
22.33280995128529
 10
36.57299909736988
 20
22.09715465417081
 10
38.54643861018896
 20
21.86220452503846
 10
40.54563021176029
 20
21.66570758277938
 10
42.62384369102454
 20
21.46991580850242
 10
44.545073858357
 20
21.32668730944359
 10
46.46559616622648
 20
21.19545474052362
 10
48.71384933101544
 20
21.0910320123291
 10
50.96139194486056
 20
21.01271530261832
 10
52.96058623791275
 20
20.97320436377186
 10
54.96048569894705
 20
20.96015202740021
  0
LWPOLYLINE
  5
C4
330
70
100
AcDbEntity
  8
Camada 1
 62
   250
420
  1907995
370
    15
100
AcDbPolyline
 90
        8
 70
     0
 43
0.0
 10
54.96034574194297
 20
20.96004436816629
 10
54.96034574194297
 20
20.96004436816629
 10
54.96034574194297
 20
20.94734327004529
 10
54.96034574194297
 20
20.93393834968256
 10
54.96034574194297
 20
20.92123859730197
 10
54.96034574194297
 20
20.90783233119883
 10
54.96034574194297
 20
20.89513257881824
 10
54.96034574194297
 20
20.88208024244658
  0
LWPOLYLINE
  5
C5
330
70
100
AcDbEntity
  8
Camada 1
 62
   250
420
  1907995
370
    15
100
AcDbPolyline
 90
       36
 70
     0
 43
0.0
 10
54.96034574194297
 20
20.88218655594007
 10
52.43833667715734
 20
20.90793864469231
 10
49.92867612650166
 20
20.97320301803144
 10
47.40666706171604
 20
21.0779769844766
 10
44.88430541293936
 20
21.22155806752651
 10
42.36194376416266
 20
21.41770242579453
 10
39.83993739085789
 20
21.65265255492687
 10
37.33062942419328
 20
21.94087247299989
 10
34.80862035940766
 20
22.25449189583408
 10
33.13574658731069
 20
22.50284694532915
 10
31.44982451606333
 20
22.7639017472048
 10
29.77765591194849
 20
23.03836281518361
 10
28.27411665739409
 20
23.31211871518027
 10
27.52940274715954
 20
23.44370521383173
 10
26.78433625293391
 20
23.58728495114121
 10
26.28833132192591
 20
23.67865534296407
 10
25.79091605495364
 20
23.78342930940923
 10
25.3076095305858
 20
23.91395805608748
 10
24.7586873946282
 20
24.09704873224343
 10
24.2750282862693
 20
24.31894517926369
 10
23.79172445338231
 20
24.58035525661126
 10
23.32147161112656
 20
24.89432726343653
 10
22.89002453973512
 20
25.23369877502296
 10
22.48503472507807
 20
25.61328908491884
 10
22.11885068128534
 20
26.01757104011291
 10
21.79218026781991
 20
26.46207179361642
 10
21.49161183561695
 20
26.93267721986324
 10
21.24325813186231
 20
27.41633632822214
 10
21.02100640937013
 20
27.92645269331543
 10
20.86437298994857
 20
28.44856229706673
 10
20.73384693475116
 20
28.98443344239311
 10
20.66822863168054
 20
29.4285789204247
 10
20.62907027682515
 20
29.85967340782507
 10
20.61601928619392
 20
30.30417416132858
 10
20.61601928619392
 20
32.52632265337422
 10
20.61601928619392
 20
38.55070729881366
  0
LWPOLYLINE
  5
C6
330
70
100
AcDbEntity
  8
Camada 1
 62
   250
420
  1907995
370
    15
100
AcDbPolyline
 90
        7
 70
     0
 43
0.0
 10
20.61612156246614
 20
38.55070999029451
 10
20.62882131484673
 20
38.55070999029451
 10
20.64222623520945
 20
38.55070999029451
 10
20.6556325013126
 20
38.55070999029451
 10
20.66833225369319
 20
38.55070999029451
 10
20.68103200607378
 20
38.55070999029451
 10
20.6944369264365
 20
38.55070999029451
  0
LWPOLYLINE
  5
C7
330
70
100
AcDbEntity
  8
Camada 1
 62
   250
420
  1907995
370
    15
100
AcDbPolyline
 90
       41
 70
     0
 43
0.0
 10
20.61612156246614
 20
38.55070999029451
 10
20.61612156246614
 20
43.02005120367506
 10
20.61612156246614
 20
45.25454282688895
 10
20.61612156246614
 20
46.37849446302832
 10
20.61612156246614
 20
46.74503109081212
 10
20.62882131484673
 20
47.12391084976416
 10
20.64222623520945
 20
47.4893924170556
 10
20.72054294492023
 20
48.02561076341135
 10
20.82496567311475
 20
48.56148460021857
 10
20.99500401289904
 20
49.09699777859218
 10
21.20384812354764
 20
49.61981793328732
 10
21.43950476640255
 20
50.10312176617431
 10
21.72666558676194
 20
50.57372719242113
 10
22.06674361207094
 20
51.01822525444379
 10
22.43257372613217
 20
51.436621335204
 10
22.82450851293672
 20
51.81550647711774
 10
23.24325717768799
 20
52.16828425480732
 10
23.70045633783167
 20
52.48190098616067
 10
24.19681385283074
 20
52.75636205413947
 10
24.58874998537571
 20
52.93874756231327
 10
25.00714606613591
 20
53.10913983182905
 10
25.29430554075488
 20
53.20086549912383
 10
25.58217287483683
 20
53.27918220883461
 10
26.1833070477619
 20
53.40970826403201
 10
26.78444122068698
 20
53.52753591258926
 10
27.39862638424328
 20
53.64536356114649
 10
28.91486404543785
 20
53.9198246291253
 10
31.30634436354521
 20
54.32410658431937
 10
33.69747478914236
 20
54.70299172623311
 10
35.48817351831573
 20
54.95205059796989
 10
37.29122076161904
 20
55.17359715247994
 10
39.09497317290448
 20
55.38314508537025
 10
40.89837300019886
 20
55.56624114448789
 10
42.64956348200661
 20
55.72322445641967
 10
44.40110385632458
 20
55.85375051161708
 10
46.15229164665149
 20
55.97087299219218
 10
47.91618053509941
 20
56.06259865948696
 10
49.68042469901924
 20
56.14091536919773
 10
51.43196507333722
 20
56.19347999015627
 10
53.19585396178514
 20
56.21958197141874
 10
54.96044801821518
 20
56.23299092900274
  0
LWPOLYLINE
  5
C8
330
70
100
AcDbEntity
  8
Camada 1
 62
   250
420
  1907995
370
    15
100
AcDbPolyline
 90
        7
 70
     0
 43
0.0
 10
54.96034574194297
 20
56.23299092900274
 10
54.96034574194297
 20
56.21958197141874
 10
54.96034574194297
 20
56.20652828930666
 10
54.96034574194297
 20
56.19347460719458
 10
54.96034574194297
 20
56.1804263080442
 10
54.96034574194297
 20
56.16737262593211
 10
54.96034574194297
 20
56.15431894382004
  0
LWPOLYLINE
  5
C9
330
70
100
AcDbEntity
  8
Camada 1
 62
   250
420
  1907995
370
    15
100
AcDbPolyline
 90
       41
 70
     0
 43
0.0
 10
54.96034574194297
 20
56.15417898681595
 10
52.54275536813059
 20
56.14077002923195
 10
50.69984460198975
 20
56.10196425836763
 10
48.77897240161005
 20
56.02329765614663
 10
47.07999126528892
 20
55.94462567096393
 10
45.36796182981741
 20
55.85361055461299
 10
43.87818411683807
 20
55.74883658816783
 10
42.38840371237788
 20
55.61866042548064
 10
40.8986233079177
 20
55.48813437028324
 10
39.25220948403596
 20
55.31774210076746
 10
37.60509049217208
 20
55.1342961491396
 10
35.65846082007844
 20
54.89934602000726
 10
33.71077608749245
 20
54.62488495202846
 10
32.01179764265216
 20
54.36382745867195
 10
30.46980789270536
 20
54.11547375491732
 10
28.92746286728664
 20
53.85406636905059
 10
27.38582300985005
 20
53.56655161895971
 10
26.62770283351235
 20
53.42261660617831
 10
25.85653166654341
 20
53.26633846222867
 10
25.5693695004436
 20
53.20072015915805
 10
25.26845117573042
 20
53.10934976733519
 10
24.96788543500831
 20
53.0176294830021
 10
24.68001810092635
 20
52.89980183444487
 10
24.22317152477374
 20
52.69095906953668
 10
23.75256609852692
 20
52.42919640819804
 10
23.30841792901448
 20
52.11592956935492
 10
22.87661827363198
 20
51.7758501983055
 10
22.48503472507807
 20
51.3842666497516
 10
22.13225694738849
 20
50.97927952657538
 10
21.80487867446008
 20
50.54712459572097
 10
21.51771919984111
 20
50.07722433745628
 10
21.26936280460562
 20
49.580516929947
 10
21.06051734821659
 20
49.08380413947601
 10
20.90388392879503
 20
48.5616945357247
 10
20.78605628023779
 20
48.03887438102957
 10
20.72044066864802
 20
47.48924707708982
 10
20.69433330442386
 20
47.11036731813777
 10
20.69433330442386
 20
46.74488575084633
 10
20.69433330442386
 20
45.98677095747031
 10
20.69433330442386
 20
42.36656503677842
 10
20.69433330442386
 20
38.55056734180957
  0
LWPOLYLINE
  5
CA
330
70
100
AcDbEntity
  8
Camada 1
 62
   250
420
  1907995
370
    15
100
AcDbPolyline
 90
       31
 70
     0
 43
0.0
 10
25.73880898573924
 20
54.19368818835588
 10
28.05197259413583
 20
54.63818625037854
 10
30.65264826114245
 20
55.09573799451328
 10
32.84798691246265
 20
55.43546209009079
 10
35.0567264469243
 20
55.74872892893392
 10
37.31803329382533
 20
56.03624367902479
 10
39.59168596337546
 20
56.28459738277943
 10
41.80007560532689
 20
56.50684910527162
 10
42.2579799334527
 20
56.54636004411808
 10
44.07408085886809
 20
56.69029505689948
 10
45.76035820558736
 20
56.79471374787272
 10
47.5764564395219
 20
56.89878792929744
 10
49.39290994892836
 20
56.97710463900822
 10
51.32719110689205
 20
57.04236766660692
 10
52.92139289380632
 20
57.06917481585152
 10
54.75090008532486
 20
57.08187860545338
 10
56.58075716935361
 20
57.08187860545338
 10
58.76339203107196
 20
57.04236766660692
 10
60.93297859363992
 20
56.96405095689614
 10
62.59244340815289
 20
56.8864394151675
 10
64.23885992351547
 20
56.79471374787272
 10
65.89832473802847
 20
56.69029505689948
 10
67.54544642137318
 20
56.55905845075825
 10
69.76723694646607
 20
56.34986579333983
 10
71.97562927989834
 20
56.11526555671772
 10
74.35440849988471
 20
55.81434723200453
 10
76.48412884813429
 20
55.52683248191365
 10
78.60150068225393
 20
55.19980679297631
 10
80.47016353714701
 20
54.88653995413319
 10
82.339181667512
 20
54.54681585855568
 10
84.1813872656707
 20
54.19368818835588
  0
LWPOLYLINE
  5
CB
330
70
100
AcDbEntity
  8
Camada 1
 62
   250
420
  1907995
370
    15
100
AcDbPolyline
 90
        7
 70
     0
 43
0.0
 10
84.1813872656707
 20
54.19368818835588
 10
84.1813872656707
 20
54.19368818835588
 10
84.1813872656707
 20
54.18098439875402
 10
84.1813872656707
 20
54.16758082413172
 10
84.1813872656707
 20
54.15488241749155
 10
84.16868347606884
 20
54.14147345990755
 10
84.16868347606884
 20
54.12806988528526
  0
LWPOLYLINE
  5
CC
330
70
100
AcDbEntity
  8
Camada 1
 62
   250
420
  1907995
370
    15
100
AcDbPolyline
 90
       23
 70
     0
 43
0.0
 10
84.16858119979663
 20
54.12817754451918
 10
81.58095383194037
 20
54.61183126991638
 10
78.98027816493375
 20
55.06973828952304
 10
76.37995239043736
 20
55.46132183807695
 10
73.76586776584673
 20
55.81409961576653
 10
71.13944001008786
 20
56.12807162259179
 10
68.49960329674501
 20
56.38912911594829
 10
65.87282026551422
 20
56.6117307309507
 10
63.23298355217136
 20
56.78141783248434
 10
60.58009315671641
 20
56.89854031305944
 10
57.93990655086333
 20
56.97685702277022
 10
55.26055889867401
 20
57.01636796161668
 10
52.56886273235474
 20
56.99026059739252
 10
49.87716656603549
 20
56.92534746230403
 10
47.18441533922386
 20
56.80787508921872
 10
44.50542296250645
 20
56.63748281970294
 10
41.81337690367697
 20
56.42864005479475
 10
39.12132815336664
 20
56.16758256143825
 10
36.44198319265817
 20
55.85361055461299
 10
33.76298543297907
 20
55.5008327769234
 10
31.08363778078975
 20
55.0824366961632
 10
28.41804897869464
 20
54.62488495202846
 10
25.7517550086174
 20
54.12817754451918
  0
LWPOLYLINE
  5
CD
330
70
100
AcDbEntity
  8
Camada 1
 62
   250
420
  1907995
370
    15
100
AcDbPolyline
 90
        7
 70
     0
 43
0.0
 10
25.73880898573924
 20
54.19368818835588
 10
25.73880898573924
 20
54.19368818835588
 10
25.73880898573924
 20
54.18098439875402
 10
25.73880898573924
 20
54.16758082413172
 10
25.7515073923794
 20
54.15488241749155
 10
25.7515073923794
 20
54.14147345990755
 10
25.7515073923794
 20
54.12806988528526
  0
LWPOLYLINE
  5
CE
330
70
100
AcDbEntity
  8
Camada 1
 62
   250
420
  1907995
370
    15
100
AcDbPolyline
 90
       24
 70
     0
 43
0.0
 10
19.76666867503745
 20
46.94054025960005
 10
19.78007359540017
 20
47.41149557835709
 10
19.81887936626449
 20
47.77732703815875
 10
19.87109005749154
 20
48.15550162912867
 10
19.94940676720232
 20
48.53509193902453
 10
20.04112974301625
 20
48.9009233988262
 10
20.1850620643168
 20
49.38422723171319
 10
20.35510174984151
 20
49.80332848045552
 10
20.60275163135444
 20
50.32579335967875
 10
20.8250020081062
 20
50.74418944043895
 10
21.13897401493145
 20
51.21443959121386
 10
21.40002881680711
 20
51.56757264437536
 10
21.79231753334315
 20
52.02476911303818
 10
22.2364657028556
 20
52.44246002581625
 10
22.53703144357771
 20
52.70422268715489
 10
22.85065086641191
 20
52.93881754081532
 10
23.25599326506003
 20
53.21433905224818
 10
23.38616673626636
 20
53.29265576195895
 10
23.90933678347172
 20
53.57981523657792
 10
24.19649894957153
 20
53.71034129177532
 10
24.49776985827579
 20
53.84122262244464
 10
25.07279935845755
 20
54.03701708820245
 10
25.41217087004399
 20
54.11533379791322
 10
25.73884397499026
 20
54.19365050762401
  0
LWPOLYLINE
  5
CF
330
70
100
AcDbEntity
  8
Camada 1
 62
   250
420
  1907995
370
    15
100
AcDbPolyline
 90
       22
 70
     0
 43
0.0
 10
25.75161236013247
 20
54.12817754451918
 10
25.3339214473544
 20
54.02410336309445
 10
24.91588064206612
 20
53.90698088251935
 10
24.49748725278676
 20
53.76269597722773
 10
24.09214485413864
 20
53.57960530107178
 10
23.68715503948159
 20
53.38310566733185
 10
23.29486632294555
 20
53.14851081367142
 10
22.79815622395541
 20
52.80808155011179
 10
22.32790338169966
 20
52.42919640819804
 10
22.01428395886546
 20
52.1423868260893
 10
21.726770554515
 20
51.84146850137612
 10
21.45266207052727
 20
51.51514798042091
 10
21.09953170884662
 20
51.03113897955179
 10
20.77285860390035
 20
50.50832420781834
 10
20.57671424563233
 20
50.14249274801668
 10
20.40702848983911
 20
49.75090919946278
 10
20.2634474067892
 20
49.37167416503881
 10
20.08000414664219
 20
48.78324109023474
 10
19.94947539996394
 20
48.18210422582883
 10
19.89726470873689
 20
47.77711710265261
 10
19.85775376989043
 20
47.35942618987455
 10
19.84505401750985
 20
46.94068021660413
  0
LWPOLYLINE
  5
D0
330
70
100
AcDbEntity
  8
Camada 1
 62
   250
420
  1907995
370
    15
100
AcDbPolyline
 90
        8
 70
     0
 43
0.0
 10
19.76666867503745
 20
46.94054025960005
 10
19.76666867503745
 20
46.94054025960005
 10
19.78007359540017
 20
46.94054025960005
 10
19.79277334778075
 20
46.94054025960005
 10
19.8061796138839
 20
46.94054025960005
 10
19.81887936626449
 20
46.94054025960005
 10
19.83228428662721
 20
46.94054025960005
 10
19.8449840390078
 20
46.94054025960005
  0
LWPOLYLINE
  5
D1
330
70
100
AcDbEntity
  8
Camada 1
 62
   250
420
  1907995
370
    15
100
AcDbPolyline
 90
       22
 70
     0
 43
0.0
 10
90.07612327866914
 20
46.94054025960005
 10
90.0623644285749
 20
47.37198463951062
 10
90.02355865771058
 20
47.80343440238291
 10
89.95829024715019
 20
48.23452888978327
 10
89.86656996281711
 20
48.66597326969386
 10
89.74909758973179
 20
49.09706775709422
 10
89.60516257695038
 20
49.51546383785442
 10
89.37021244781805
 20
50.07708438045219
 10
89.08234780521693
 20
50.6260065164098
 10
88.86044597523499
 20
50.97913956957129
 10
88.62514595359241
 20
51.3188636651488
 10
88.36338329225377
 20
51.64553407861422
 10
87.94534248696548
 20
52.10308582274898
 10
87.50119431745304
 20
52.50807832888687
 10
87.17416862851569
 20
52.78218412139375
 10
86.83444453293821
 20
53.01748952599801
 10
86.48237192323076
 20
53.2397358655285
 10
85.93309989476294
 20
53.5276058910913
 10
85.38417775880532
 20
53.77595959484594
 10
84.97918525266742
 20
53.91989460762734
 10
84.58689653613138
 20
54.03701708820245
 10
84.16850583833287
 20
54.12803220455339
  0
LWPOLYLINE
  5
D2
330
70
100
AcDbEntity
  8
Camada 1
 62
   250
420
  1907995
370
    15
100
AcDbPolyline
 90
       28
 70
     0
 43
0.0
 10
84.1813872656707
 20
54.19368818835588
 10
84.70455192991435
 20
54.07585515683694
 10
85.03122772634148
 20
53.9714364658637
 10
85.37130171442921
 20
53.85431398528859
 10
85.81580515941357
 20
53.67086803366074
 10
86.25959805345409
 20
53.44861631116856
 10
86.52136071479274
 20
53.30539184933098
 10
86.83462755363585
 20
53.10924749106296
 10
87.14789439247898
 20
52.88699576857079
 10
87.42306062843992
 20
52.6781530036626
 10
87.7624294485455
 20
52.37723467894942
 10
87.99773485314977
 20
52.15533823192916
 10
88.23303487479234
 20
51.90697914521281
 10
88.41577565843804
 20
51.69778110483272
 10
88.67718304430477
 20
51.37111069136729
 10
88.91248844890903
 20
51.04373510991973
 10
89.12168648928913
 20
50.70471079936267
 10
89.31783084755716
 20
50.3388847225227
 10
89.51361993035325
 20
49.94659600598666
 10
89.67060862524673
 20
49.54089833186662
 10
89.72281797073335
 20
49.41037227666922
 10
89.8272420446683
 20
49.12321280205025
 10
89.90555875437909
 20
48.84839645859954
 10
89.99727903871216
 20
48.44375922793354
 10
90.07595102389485
 20
47.97385896966885
 10
90.12780509390957
 20
47.60732234188506
 10
90.15391245813374
 20
47.2414962650451
 10
90.15391245813374
 20
46.94057255737021
  0
LWPOLYLINE
  5
D3
330
70
100
AcDbEntity
  8
Camada 1
 62
   250
420
  1907995
370
    15
100
AcDbPolyline
 90
        6
 70
     0
 43
0.0
 10
90.07612327866914
 20
46.94054025960005
 10
90.10187536742137
 20
46.94054025960005
 10
90.11457377406152
 20
46.94054025960005
 10
90.12797734868383
 20
46.94054025960005
 10
90.14068113828569
 20
46.94054025960005
 10
90.15408471290799
 20
46.94054025960005
  0
LWPOLYLINE
  5
D4
330
70
100
AcDbEntity
  8
Camada 1
 62
   250
420
  1907995
370
    15
100
AcDbPolyline
 90
       27
 70
     0
 43
0.0
 10
84.16858119979663
 20
22.98604850194392
 10
84.49560150577225
 20
23.06471779564577
 10
84.80922362008731
 20
23.14303450535655
 10
85.10979205229025
 20
23.24710330381957
 10
85.4230588911334
 20
23.35152468627367
 10
85.73703089795865
 20
23.48275860093405
 10
86.03759394719991
 20
23.62598575425247
 10
86.33780710393095
 20
23.78332434165617
 10
86.62532185402184
 20
23.96606512530189
 10
87.12203464449283
 20
24.30614180487046
 10
87.60569375285172
 20
24.68502425530335
 10
87.82759019987199
 20
24.9076285617866
 10
88.05019181487439
 20
25.12881984082473
 10
88.27244353736658
 20
25.35142145582713
 10
88.4685878956346
 20
25.59977785106263
 10
88.83441935543626
 20
26.08308437543046
 10
89.04290684487252
 20
26.43586215312004
 10
89.25246016072454
 20
26.78934509879176
 10
89.43555083688048
 20
27.16822754922465
 10
89.5530232099658
 20
27.45538971532447
 10
89.67050096601282
 20
27.74325435792557
 10
89.84053796005669
 20
28.3309822647475
 10
89.93226362735146
 20
28.73597207940455
 10
90.01058033706225
 20
29.14131447805267
 10
90.0500912759087
 20
29.54630429270972
 10
90.07619325717117
 20
29.85992371554392
 10
90.07619325717117
 20
30.17354313837811
  0
LWPOLYLINE
  5
D5
330
70
100
AcDbEntity
  8
Camada 1
 62
   250
420
  1907995
370
    15
100
AcDbPolyline
 90
        6
 70
     0
 43
0.0
 10
90.07612327866914
 20
30.1736830953822
 10
90.10187536742137
 20
30.1736830953822
 10
90.11457377406152
 20
30.1736830953822
 10
90.12797734868383
 20
30.1736830953822
 10
90.14068113828569
 20
30.1736830953822
 10
90.15408471290799
 20
30.1736830953822
  0
LWPOLYLINE
  5
D6
330
70
100
AcDbEntity
  8
Camada 1
 62
   250
420
  1907995
370
    15
100
AcDbPolyline
 90
       25
 70
     0
 43
0.0
 10
90.15398243663577
 20
30.1736830953822
 10
90.14057347905177
 20
29.71648124375768
 10
90.10176770818745
 20
29.35029719996494
 10
90.04990825521105
 20
28.97141474953205
 10
89.98464522761235
 20
28.61863697184247
 10
89.90562334991944
 20
28.26585919415288
 10
89.73558635587556
 20
27.71658447420421
 10
89.61775870731832
 20
27.40261246737895
 10
89.42231951703245
 20
26.97151797997859
 10
89.20006779454025
 20
26.55382975868137
 10
88.99086975416016
 20
26.20034681300965
 10
88.75627490049973
 20
25.86097260994236
 10
88.52026432791333
 20
25.54770577109924
 10
88.31177683847707
 20
25.28594580124145
 10
87.98475114953973
 20
24.95997786427731
 10
87.65843062858452
 20
24.63224969883869
 10
87.35751230387135
 20
24.38424588759426
 10
87.01778282533215
 20
24.13659466034091
 10
86.66465515513234
 20
23.90058677923536
 10
86.53342393195279
 20
23.82262265351565
 10
86.01130894523981
 20
23.53475801091454
 10
85.68463853177437
 20
23.39117558212421
 10
85.24014046975171
 20
23.20843748995934
 10
84.66511096956995
 20
23.0253468138034
 10
84.18145186121105
 20
22.92057015587739
  0
LWPOLYLINE
  5
D7
330
70
100
AcDbEntity
  8
Camada 1
 62
   250
420
  1907995
370
    15
100
AcDbPolyline
 90
        6
 70
     0
 43
0.0
 10
84.16858119979663
 20
22.98604850194392
 10
84.16858119979663
 20
22.97264223584077
 10
84.18127960643678
 20
22.95994113771976
 10
84.18127960643678
 20
22.9472427310796
 10
84.18127960643678
 20
22.93348388098538
 10
84.18127960643678
 20
22.9204301988733
  0
LWPOLYLINE
  5
D8
330
70
100
AcDbEntity
  8
Camada 1
 62
   250
420
  1907995
370
    15
100
AcDbPolyline
 90
       22
 70
     0
 43
0.0
 10
19.84502037399925
 20
30.1736830953822
 10
19.85772012637983
 20
29.74258860798184
 10
19.8972310652263
 20
29.31149412058147
 10
19.96284802255649
 20
28.8803996331811
 10
20.05386448464786
 20
28.44859728631776
 10
20.1716921332051
 20
28.01715021492633
 10
20.31562580024607
 20
27.58605572752596
 10
20.55057592937842
 20
27.03748617555942
 10
20.83844191771994
 20
26.48856403960182
 10
21.0606922944717
 20
26.13543367792117
 10
21.30834217598463
 20
25.79606216633473
 10
21.57045607557391
 20
25.46938906138846
 10
21.97544454449054
 20
25.01148473326265
 10
22.41959136826256
 20
24.60649491860559
 10
22.7466170571999
 20
24.33274171008978
 10
23.09904225089842
 20
24.09708372149445
 10
23.451820028588
 20
23.87448210649205
 10
23.98733589844246
 20
23.58731994039223
 10
24.54931171651214
 20
23.33896623663759
 10
24.94195301703925
 20
23.19538380784726
 10
25.34658755622439
 20
23.07755615929002
 10
25.75157737088144
 20
22.98618845894801
  0
LWPOLYLINE
  5
D9
330
70
100
AcDbEntity
  8
Camada 1
 62
   250
420
  1907995
370
    15
100
AcDbPolyline
 90
        6
 70
     0
 43
0.0
 10
25.75161236013247
 20
22.98604850194392
 10
25.75161236013247
 20
22.97264223584077
 10
25.75161236013247
 20
22.95994113771976
 10
25.73891126201145
 20
22.9472427310796
 10
25.73891126201145
 20
22.93348388098538
 10
25.73891126201145
 20
22.9204301988733
  0
LWPOLYLINE
  5
DA
330
70
100
AcDbEntity
  8
Camada 1
 62
   250
420
  1907995
370
    15
100
AcDbPolyline
 90
       25
 70
     0
 43
0.0
 10
25.73880898573924
 20
22.92053785810721
 10
25.22939778862809
 20
23.03836550666446
 10
24.85051264671435
 20
23.1561931552217
 10
24.5492417380101
 20
23.26061453767579
 10
24.26207957191028
 20
23.37773701825089
 10
23.92270806032385
 20
23.53507560565459
 10
23.41259169523057
 20
23.80953667363339
 10
23.02065556268559
 20
24.05754048487782
 10
22.65482410288393
 20
24.31894787074454
 10
22.40611646939779
 20
24.51509222901256
 10
22.17151892425652
 20
24.73698867603282
 10
21.88400551990606
 20
25.01144974401162
 10
21.50512172373274
 20
25.41714472665081
 10
21.19114971690748
 20
25.8217819573168
 10
21.0211113771232
 20
26.07048824506251
 10
20.85177820532105
 20
26.33119315442795
 10
20.60271664210342
 20
26.76299280981045
 10
20.41997854993855
 20
27.16833520845857
 10
20.25064403239597
 20
27.55991606553163
 10
20.19772817318679
 20
27.70385107831303
 10
20.0276898334025
 20
28.26582689638271
 10
19.94937312369172
 20
28.55369153898381
 10
19.85800273186886
 20
29.0235917972485
 10
19.79273970427016
 20
29.57321910118824
 10
19.76663368578642
 20
30.17364810613118
  0
LWPOLYLINE
  5
DB
330
70
100
AcDbEntity
  8
Camada 1
 62
   250
420
  1907995
370
    15
100
AcDbPolyline
 90
        8
 70
     0
 43
0.0
 10
19.76666867503745
 20
30.1736830953822
 10
19.76666867503745
 20
30.1736830953822
 10
19.78007359540017
 20
30.1736830953822
 10
19.79277334778075
 20
30.1736830953822
 10
19.8061796138839
 20
30.1736830953822
 10
19.81887936626449
 20
30.1736830953822
 10
19.83228428662721
 20
30.1736830953822
 10
19.8449840390078
 20
30.1736830953822
  0
LWPOLYLINE
  5
DC
330
70
100
AcDbEntity
  8
Camada 1
 62
   250
420
  1907995
370
    15
100
AcDbPolyline
 90
       27
 70
     0
 43
0.0
 10
25.75161236013247
 20
22.98604850194392
 10
27.94765348795395
 20
22.56835893490628
 10
30.1429894477933
 20
22.18876997075082
 10
32.35137908974473
 20
21.82329244068065
 10
34.57352489030953
 20
21.50896784986432
 10
36.7953207983641
 20
21.22180568376451
 10
39.01676143094677
 20
20.96004571390672
 10
40.99020094376585
 20
20.76425393962976
 10
42.96328787259386
 20
20.5811619177334
 10
44.95013096003525
 20
20.43758083468349
 10
46.93662146348557
 20
20.32010577011732
 10
48.92276207442566
 20
20.22873672403489
 10
50.90925257787599
 20
20.16347235069576
 10
53.19595623805735
 20
20.11126165946871
 10
55.49642413129462
 20
20.09785673910599
 10
57.79618147358807
 20
20.1239614118493
 10
60.08288513376943
 20
20.18957836917949
 10
62.38299775153478
 20
20.29400109737401
 10
64.29117154527432
 20
20.3984224798281
 10
66.19934533901385
 20
20.52895122650635
 10
68.10787440822531
 20
20.68593722991899
 10
70.79957057454457
 20
20.94734461578571
 10
73.49196652588428
 20
21.2609640386199
 10
76.17096428556338
 20
21.61374181630948
 10
78.83655308765849
 20
22.03213655132926
 10
81.51590073984781
 20
22.48933705721336
 10
84.16843585983084
 20
22.98604850194392
  0
LWPOLYLINE
  5
DD
330
70
100
AcDbEntity
  8
Camada 1
 62
   250
420
  1907995
370
    15
100
AcDbPolyline
 90
       33
 70
     0
 43
0.0
 10
84.1813872656707
 20
22.92053785810721
 10
82.45629876512541
 20
22.58116365503993
 10
80.73157092301372
 20
22.2671929939551
 10
78.73237662996155
 20
21.94087381874032
 10
76.71942886977685
 20
21.62654788218356
 10
74.88992167825831
 20
21.36584566429897
 10
73.04701091211748
 20
21.13054295117557
 10
71.41365346182865
 20
20.93404600891647
 10
69.77993535310623
 20
20.76435890738283
 10
68.12047053859325
 20
20.60772548796127
 10
67.66291879445851
 20
20.56821454911481
 10
65.85986885967436
 20
20.42463481180533
 10
63.481089639688
 20
20.26764880839269
 10
61.08961201306147
 20
20.15017374382653
 10
58.59371031250002
 20
20.07185703411574
 10
56.5938108514657
 20
20.03234609526929
 10
54.58156825926313
 20
20.03234609526929
 10
52.45114274303142
 20
20.04539843164094
 10
50.09882077977945
 20
20.11101538897114
 10
47.68123578892875
 20
20.20273701904464
 10
45.31550486809278
 20
20.34561293411241
 10
43.55126608713464
 20
20.46344058266965
 10
41.78737719868673
 20
20.60772548796127
 10
40.38896449456855
 20
20.73825423463952
 10
38.99055179045039
 20
20.8821879016805
 10
37.591789193822
 20
21.05222624146478
 10
36.19408704064766
 20
21.22155941326693
 10
34.40373551250367
 20
21.45721471038141
 10
32.6003356852093
 20
21.71827085799749
 10
31.03188598704726
 20
21.96662590749256
 10
29.45038260677315
 20
22.22768205510863
 10
27.59441815852023
 20
22.55505898229662
 10
25.73880898573924
 20
22.92053785810721
  0
LWPOLYLINE
  5
DE
330
70
100
AcDbEntity
  8
Camada 1
 62
   250
420
  1907995
370
    15
100
AcDbPolyline
 90
        9
 70
     0
 43
0.0
 10
19.76666867503745
 20
30.1736830953822
 10
19.76666867503745
 20
32.12101524397713
 10
19.76666867503745
 20
34.06799480858099
 10
19.76666867503745
 20
37.10012023845989
 10
19.76666867503745
 20
39.68774491483528
 10
19.76666867503745
 20
41.42623429852203
 10
19.76666867503745
 20
44.01350639090635
 10
19.76666867503745
 20
45.9604859555102
 10
19.76666867503745
 20
46.94050257886817
  0
LWPOLYLINE
  5
DF
330
70
100
AcDbEntity
  8
Camada 1
 62
   250
420
  1907995
370
    15
100
AcDbPolyline
 90
        9
 70
     0
 43
0.0
 10
90.15398243663577
 20
46.94054025960005
 10
90.15398243663577
 20
44.99320541952427
 10
90.15398243663577
 20
43.04622585492041
 10
90.15398243663577
 20
40.0141004250415
 10
90.15398243663577
 20
37.42647574866611
 10
90.15398243663577
 20
35.68869153296151
 10
90.15398243663577
 20
33.10141944057719
 10
90.15398243663577
 20
31.15408729198226
 10
90.15398243663577
 20
30.17371808463322
  0
LWPOLYLINE
  5
E0
330
70
100
AcDbEntity
  8
Camada 1
 62
   250
420
  1907995
370
    15
100
AcDbPolyline
 90
       40
 70
     0
 43
0.0
 10
89.22621283949629
 20
38.55070999029451
 10
89.22621283949629
 20
45.08556358481829
 10
89.22621283949629
 20
46.10438328755973
 10
89.22621283949629
 20
46.61379448467088
 10
89.22621283949629
 20
47.12391084976416
 10
89.18740706863196
 20
47.60722006561284
 10
89.12178876556135
 20
48.09052389849983
 10
89.04276688786843
 20
48.48316789050779
 10
88.88613346844687
 20
49.00562738676931
 10
88.69069427816098
 20
49.51539385935237
 10
88.54675926537959
 20
49.81560701608342
 10
88.37672227133571
 20
50.1299342983806
 10
88.10226120335693
 20
50.58642559906129
 10
87.77558540692981
 20
51.01822525444379
 10
87.40975933008984
 20
51.4232177605817
 10
87.00441693144171
 20
51.80209751953374
 10
86.58637612615342
 20
52.14253216605508
 10
86.14187268116907
 20
52.44274532278613
 10
85.65856884828209
 20
52.70415270865285
 10
85.1618560578111
 20
52.93874756231327
 10
84.7702725092572
 20
53.08303785056659
 10
84.37763390021094
 20
53.20086549912383
 10
83.95959309492265
 20
53.29258578345691
 10
83.55460058878476
 20
53.37054721769578
 10
83.13620989098623
 20
53.44886392740655
 10
81.88137692417756
 20
53.68416933201082
 10
79.85643054237313
 20
54.05000079181248
 10
77.71260145151912
 20
54.40312846201228
 10
75.56983280411916
 20
54.71710046883754
 10
74.0796944327062
 20
54.91289493459534
 10
72.15882223232651
 20
55.16089874583976
 10
70.23723948100297
 20
55.36974151074795
 10
68.19888952457626
 20
55.56624114448789
 10
66.14713599352724
 20
55.73592286305983
 10
64.34338627372264
 20
55.86645430121894
 10
62.53998106346656
 20
55.95817458555202
 10
60.64521622731103
 20
56.0498948698851
 10
58.75009073272188
 20
56.11516328044549
 10
56.85532051360464
 20
56.14091536919773
 10
54.96020040197718
 20
56.15431894382004
  0
LWPOLYLINE
  5
E1
330
70
100
AcDbEntity
  8
Camada 1
 62
   250
420
  1907995
370
    15
100
AcDbPolyline
 90
       38
 70
     0
 43
0.0
 10
54.96034574194297
 20
56.23299092900274
 10
57.53526932019735
 20
56.20652828930666
 10
60.12254141258168
 20
56.14091536919773
 10
62.69675982285392
 20
56.0364912952628
 10
65.27133350859807
 20
55.87985787584123
 10
67.84625708685246
 20
55.67065983546114
 10
70.43388445470871
 20
55.42265602421672
 10
73.00774758950902
 20
55.1344361061437
 10
75.58267655072509
 20
54.79541717854832
 10
77.18993201975145
 20
54.55941198892363
 10
78.79753738128804
 20
54.29870977103904
 10
80.19595008540619
 20
54.06305447392456
 10
81.60741647163645
 20
53.81469538720821
 10
83.0054739002827
 20
53.5532880013415
 10
83.47642921903974
 20
53.46191760951864
 10
83.93363107066427
 20
53.37054721769578
 10
84.4042364969111
 20
53.26647841923275
 10
84.795820045465
 20
53.14865077067551
 10
85.18810876200104
 20
53.00436586538389
 10
85.67176787035995
 20
52.78211414289171
 10
86.15507170324693
 20
52.52141192500713
 10
86.62532723698353
 20
52.20709002567165
 10
87.05677161689413
 20
51.85431224798207
 10
87.44906033343017
 20
51.48883068069062
 10
87.8145365177599
 20
51.07043998289211
 10
88.15461588880934
 20
50.63934549549175
 10
88.44177536342829
 20
50.16874006924492
 10
88.70353802476694
 20
49.67273244675608
 10
88.91238078967512
 20
49.17601965628509
 10
89.06936948456859
 20
48.6521444410976
 10
89.20025081523792
 20
48.10393285608383
 10
89.25246016072454
 20
47.73810139628216
 10
89.29162120706079
 20
47.35921625436842
 10
89.31772318832324
 20
46.79724043629874
 10
89.31772318832324
 20
46.22221093611697
 10
89.30466950621116
 20
45.6605903935192
 10
89.30466950621116
 20
45.08556358481829
 10
89.30466950621116
 20
38.55070999029451
  0
LWPOLYLINE
  5
E2
330
70
100
AcDbEntity
  8
Camada 1
 62
   250
420
  1907995
370
    15
100
AcDbPolyline
 90
        8
 70
     0
 43
0.0
 10
89.22621283949629
 20
38.55070999029451
 10
89.22621283949629
 20
38.55070999029451
 10
89.2396164141186
 20
38.55070999029451
 10
89.25231482075876
 20
38.55070999029451
 10
89.26572377834274
 20
38.55070999029451
 10
89.27877207749313
 20
38.55070999029451
 10
89.29182575960522
 20
38.55070999029451
 10
89.30452416624538
 20
38.55070999029451
  0
LWPOLYLINE
  5
E3
330
70
100
AcDbEntity
  8
Camada 1
 62
   250
420
  1907995
370
    15
100
AcDbPolyline
 90
      114
 70
     1
 43
0.0
 10
31.81586321989028
 20
38.55070999029451
 10
31.82856162653044
 20
36.42028447406279
 10
31.89417723812021
 20
34.27751044370114
 10
31.97284922330291
 20
32.39579390669598
 10
31.98590021393414
 20
32.14708761895027
 10
32.02470598479846
 20
31.91178490582685
 10
32.09032428786907
 20
31.67648219270344
 10
32.18204457220216
 20
31.4415320635711
 10
32.29916705277726
 20
31.232334023191
 10
32.44310206555866
 20
31.0231359828109
 10
32.57398070474713
 20
30.89296251160456
 10
32.71756313353746
 20
30.76208118093524
 10
32.87419655295903
 20
30.65765979848115
 10
33.05763981310604
 20
30.59204149541053
 10
33.24037790527091
 20
30.55253055656407
 10
33.43581709555679
 20
30.50032121107745
 10
33.61926304718465
 20
30.44810917410998
 10
34.63843802539801
 20
30.20010536286556
 10
36.48134879153885
 20
29.78135938959514
 10
38.12811519941166
 20
29.4419878780087
 10
39.77452902329341
 20
29.12872103916558
 10
41.46045378602161
 20
28.82744743898048
 10
43.14602596475874
 20
28.56604005311375
 10
44.84500440959902
 20
28.33108992398141
 10
46.54398285443931
 20
28.13494556571339
 10
48.24260333232682
 20
27.96490588018868
 10
49.9288860620078
 20
27.83437713351043
 10
51.60210972661499
 20
27.74300943316842
 10
53.28768190535213
 20
27.67774640556972
 10
54.96020040197718
 20
27.66434013946657
 10
56.67258511292061
 20
27.67774640556972
 10
58.38425927292021
 20
27.74300943316842
 10
60.09629409135342
 20
27.84778339961358
 10
61.79526984471286
 20
27.97831214629183
 10
63.50694938767415
 20
28.14799655634462
 10
65.16711937016927
 20
28.34414360609349
 10
66.83999314226624
 20
28.5794463192169
 10
68.49945795677922
 20
28.84085370508362
 10
70.15892815425388
 20
29.12872103916558
 10
72.24983734867746
 20
29.53300299435964
 10
74.34110720153462
 20
29.99055742997524
 10
76.17096428556338
 20
30.42200450136667
 10
76.37980705047157
 20
30.47421384685329
 10
76.58865519834144
 20
30.52642588382076
 10
76.78479955660947
 20
30.57934308877037
 10
76.99434748949979
 20
30.63155243425699
 10
77.17708289018381
 20
30.74867491483209
 10
77.33371630960538
 20
30.87920366151034
 10
77.49070500449885
 20
31.0231359828109
 10
77.64769369939234
 20
31.24538770530307
 10
77.76481079700573
 20
31.48069041842649
 10
77.85653646430052
 20
31.72869153819006
 10
77.92215476737114
 20
31.99045419952871
 10
77.9482567486336
 20
32.26421009952537
 10
78.00047147708191
 20
33.3098423344731
 10
78.06573450468062
 20
35.19191145546933
 10
78.10489016805516
 20
36.87783621819754
 10
78.10489016805516
 20
38.56411356491681
 10
78.09183648594308
 20
40.69383391316638
 10
78.03962714045646
 20
42.83695783603826
 10
77.9482567486336
 20
44.71902964851533
 10
77.93485317401129
 20
44.96773593626104
 10
77.90874580978713
 20
45.20268337391255
 10
77.84383805766035
 20
45.43763350304489
 10
77.75211239036558
 20
45.67328880015937
 10
77.63464001728024
 20
45.88178167255733
 10
77.47765132238678
 20
46.09168488091957
 10
77.34712526718936
 20
46.22221093611697
 10
77.20284036189775
 20
46.35274237427608
 10
77.0465568349864
 20
46.45716106524932
 10
76.86382143430238
 20
46.52277936831993
 10
76.68037548267453
 20
46.56158513918426
 10
76.49728480651859
 20
46.61379448467088
 10
76.30149034076078
 20
46.66671438110133
 10
75.28196277855636
 20
46.91436291687383
 10
73.45281086250974
 20
47.32005520803219
 10
71.8056945621267
 20
47.67283298572176
 10
70.15892815425388
 20
47.9864551000368
 10
68.47335597551675
 20
48.28702353223977
 10
66.77437483919563
 20
48.54878081061671
 10
65.07574897834641
 20
48.78338104723884
 10
63.37677322498697
 20
48.97987529801707
 10
61.67779747162754
 20
49.1492125070405
 10
60.00456842405864
 20
49.2797385622379
 10
58.31864635281129
 20
49.37145884657098
 10
56.64577258071432
 20
49.4370771496416
 10
54.96020040197718
 20
49.44977555628176
 10
53.24852085901589
 20
49.4236735750193
 10
51.54989499816667
 20
49.37145884657098
 10
49.83751567018494
 20
49.26668488012582
 10
48.12548085175173
 20
49.13650871743864
 10
46.42615520588207
 20
48.96611644792287
 10
44.7532814337851
 20
48.76997208965484
 10
43.09381392779127
 20
48.5350219605225
 10
41.43434911327829
 20
48.27326468214555
 10
39.77452902329341
 20
47.9864551000368
 10
37.670208179805
 20
47.58111270138868
 10
35.57964887789166
 20
47.12391084976416
 10
33.75014168637312
 20
46.69211119438165
 10
33.54094633747387
 20
46.63990184889504
 10
33.34515456319691
 20
46.58839767139055
 10
33.13595652281681
 20
46.5354777749601
 10
32.9398121645488
 20
46.48326842947347
 10
32.75707407238392
 20
46.37849446302832
 10
32.58703438685921
 20
46.23561989370097
 10
32.44310206555866
 20
46.09168488091957
 10
32.2864686461371
 20
45.86872799044526
 10
32.15593989945884
 20
45.63377786131291
 10
32.06421692364492
 20
45.3861293255404
 10
31.99860131205515
 20
45.12401677169154
 10
31.97284922330291
 20
44.84990828770381
 10
31.93369086844751
 20
43.80427605275607
 10
31.8680725653769
 20
41.92291209974198
 10
31.82856162653044
 20
40.23663475302271
  0
LWPOLYLINE
  5
E4
330
70
100
AcDbEntity
  8
Camada 1
 62
   250
420
  1907995
370
    15
100
AcDbPolyline
 90
       39
 70
     0
 43
0.0
 10
54.96034574194297
 20
20.96004436816629
 10
57.37793073279365
 20
20.97344928852902
 10
59.22084149893448
 20
21.01260764338441
 10
61.14171369931418
 20
21.09092435309519
 10
63.06294117516579
 20
21.18264598316869
 10
65.32354285408469
 20
21.31317472984695
 10
67.58484970098573
 20
21.49626540600289
 10
69.02206817596823
 20
21.62679415268114
 10
70.49949737481762
 20
21.77037388999062
 10
71.97552162066443
 20
21.94111874349747
 10
73.83113079344544
 20
22.1623100225356
 10
76.22331897101578
 20
22.48933571147293
 10
78.05247088706241
 20
22.76379677945174
 10
79.52920030089136
 20
23.01215048320639
 10
81.00627960723052
 20
23.26050687844187
 10
82.43044440010093
 20
23.53496794642067
 10
83.46302564441746
 20
23.7311123046887
 10
83.9724368415286
 20
23.82248269651156
 10
84.49560688873395
 20
23.95336133570003
 10
84.95245346488657
 20
24.09694376449036
 10
85.41036048449322
 20
24.2800344406463
 10
85.69786985162242
 20
24.42361417795579
 10
86.16812538535901
 20
24.68502425530335
 10
86.61227355487147
 20
24.99864367813755
 10
87.04407321025396
 20
25.33872035770612
 10
87.44906033343017
 20
25.73030390626003
 10
87.80183811111974
 20
26.12259262279607
 10
88.11581011794499
 20
26.56709337629958
 10
88.40296959256397
 20
27.03769880254641
 10
88.6643823613924
 20
27.5337037335544
 10
88.86052671966041
 20
28.03041652402539
 10
89.01680486361007
 20
28.5401803051276
 10
89.13463251216731
 20
29.07640134296419
 10
89.20025081523792
 20
29.6253234789218
 10
89.22635817946208
 20
29.96469499050823
 10
89.23940647861247
 20
30.73586884895802
 10
89.22635817946208
 20
31.4936337498238
 10
89.22635817946208
 20
33.03597877524253
 10
89.22635817946208
 20
38.5506023310606
  0
LWPOLYLINE
  5
E5
330
70
100
AcDbEntity
  8
Camada 1
 62
   250
420
  1907995
370
    15
100
AcDbPolyline
 90
       38
 70
     0
 43
0.0
 10
89.30456722993893
 20
38.55070999029451
 10
89.30456722993893
 20
34.09406718355413
 10
89.30456722993893
 20
31.85957286885938
 10
89.30456722993893
 20
30.73597650819193
 10
89.30456722993893
 20
30.36943988040813
 10
89.30456722993893
 20
29.99055742997524
 10
89.27880975822501
 20
29.62543113815571
 10
89.21284156264418
 20
29.08921010031912
 10
89.09571908206906
 20
28.55369153898381
 10
88.93838049466536
 20
28.01711791715615
 10
88.72953772975717
 20
27.49465303793293
 10
88.48117864304084
 20
27.01099662105487
 10
88.19401916842187
 20
26.55379476943035
 10
87.86699347948454
 20
26.09659560928667
 10
87.50116201968287
 20
25.67820222000732
 10
87.10958385409066
 20
25.29931707809358
 10
86.67777881574647
 20
24.94653930040399
 10
86.22022707161171
 20
24.63221470958766
 10
85.73692323872474
 20
24.35810622559993
 10
85.37109177892308
 20
24.18841912406629
 10
85.00526031912141
 20
24.04448680276574
 10
84.62638056016936
 20
23.91395805608748
 10
84.2337365681614
 20
23.80953667363339
 10
83.84180312709728
 20
23.73086737993154
 10
83.43681062095937
 20
23.65255067022076
 10
81.01922563010869
 20
23.19535151007709
 10
78.62774800348216
 20
22.79000911142897
 10
76.22321131178188
 20
22.41112666099607
 10
74.43250989112766
 20
22.16241768176951
 10
72.62876017132306
 20
21.94087381874032
 10
70.83876391865098
 20
21.73097061037807
 10
69.02231040924454
 20
21.54787993422214
 10
66.69574591770649
 20
21.35208815994518
 10
64.3568275290768
 20
21.18275498814303
 10
62.0175592479369
 20
21.05222624146478
 10
59.66523728468493
 20
20.96015202740021
 10
57.31256004596104
 20
20.90793999043274
 10
54.96023808270905
 20
20.8821879016805
  0
LWPOLYLINE
  5
E6
330
70
100
AcDbEntity
  8
Camada 1
 62
   250
420
  1907995
370
    15
100
AcDbPolyline
 90
        5
 70
     0
 43
0.0
 10
19.84502037399925
 20
46.94054025960005
 10
19.84502037399925
 20
44.0131887961663
 10
19.84502037399925
 20
37.10015522771092
 10
19.84502037399925
 20
33.63693800191249
 10
19.84502037399925
 20
30.17371808463322
  0
LWPOLYLINE
  5
E7
330
70
100
AcDbEntity
  8
Camada 1
 62
   250
420
  1907995
370
    15
100
AcDbPolyline
 90
        5
 70
     0
 43
0.0
 10
90.07612327866914
 20
30.1736830953822
 10
90.08846640983737
 20
33.10138445132616
 10
90.08846640983737
 20
40.01406543579048
 10
90.08846640983737
 20
43.47728535306975
 10
90.07612327866914
 20
46.94050257886817
  0
LWPOLYLINE
  5
E8
330
70
100
AcDbEntity
  8
Camada 1
 62
   250
420
  1907995
370
    15
100
AcDbPolyline
 90
       69
 70
     1
 43
0.0
 10
54.96034574194297
 20
36.98240024913656
 10
55.10427537176266
 20
36.99509865577673
 10
55.24821038454406
 20
37.00850492187988
 10
55.39143484638163
 20
37.03460959462319
 10
55.52267145252287
 20
37.08682163159065
 10
55.65319750772028
 20
37.1393862525492
 10
55.78372894587937
 20
37.21805554625105
 10
55.90155659443661
 20
37.29637225596183
 10
56.00597528540986
 20
37.38773995630384
 10
56.1103993593448
 20
37.4791103481267
 10
56.20211964367788
 20
37.59693799668394
 10
56.29349003550074
 20
37.71441306125011
 10
56.35875306309944
 20
37.83224070980735
 10
56.42401609069814
 20
37.9627694564856
 10
56.46317713703438
 20
38.09294292769194
 10
56.50268807588084
 20
38.23687794047334
 10
56.528795440105
 20
38.38081026177389
 10
56.54149384674516
 20
38.52509516706551
 10
56.528795440105
 20
38.6679724278737
 10
56.515386482521
 20
38.81190474917426
 10
56.48928450125854
 20
38.94278607984357
 10
56.44977356241208
 20
39.08671840114412
 10
56.39791410943568
 20
39.21724714782237
 10
56.33265108183698
 20
39.34777320301978
 10
56.2543343721262
 20
39.46560085157702
 10
56.16260870483142
 20
39.58342850013425
 10
56.05819001385818
 20
39.6878525740692
 10
55.95306077194109
 20
39.77886769042014
 10
55.83628818387621
 20
39.85718440013092
 10
55.71846053531897
 20
39.93585369383277
 10
55.58758458761135
 20
40.00111941291232
 10
55.45705314945226
 20
40.05332875839894
 10
55.31312351963254
 20
40.0928396972454
 10
55.18259208147345
 20
40.11894706146956
 10
55.03865706869206
 20
40.13164546810972
 10
54.89472743887235
 20
40.13164546810972
 10
54.75079242609095
 20
40.11894706146956
 10
54.60756796425338
 20
40.0928396972454
 10
54.46363295147198
 20
40.05332875839894
 10
54.33310151331288
 20
40.00111941291232
 10
54.20222556560526
 20
39.93585369383277
 10
54.08439791704802
 20
39.85718440013092
 10
53.966920161001
 20
39.77886769042014
 10
53.86249608706606
 20
39.6878525740692
 10
53.75807739609282
 20
39.58342850013425
 10
53.67940541091012
 20
39.46560085157702
 10
53.60108870119933
 20
39.34777320301978
 10
53.53582567360064
 20
39.21724714782237
 10
53.48361632811402
 20
39.08671840114412
 10
53.43140159966569
 20
38.94278607984357
 10
53.40529961840323
 20
38.81190474917426
 10
53.39189066081924
 20
38.6679724278737
 10
53.39189066081924
 20
38.52509516706551
 10
53.39189066081924
 20
38.38081026177389
 10
53.41870319302554
 20
38.23687794047334
 10
53.45750896388985
 20
38.09294292769194
 10
53.50971830937648
 20
37.9627694564856
 10
53.56193303782479
 20
37.83224070980735
 10
53.64024974753558
 20
37.71441306125011
 10
53.71856645724636
 20
37.59693799668394
 10
53.81028674157944
 20
37.4791103481267
 10
53.91541598349651
 20
37.38773995630384
 10
54.01984005743146
 20
37.29637225596183
 10
54.15001083715694
 20
37.21805554625105
 10
54.26748859320396
 20
37.1393862525492
 10
54.39871981638351
 20
37.08682163159065
 10
54.5426548291649
 20
37.03460959462319
 10
54.67247571638017
 20
37.00850492187988
 10
54.81641072916157
 20
36.99509865577673
  0
LWPOLYLINE
  5
E9
330
70
100
AcDbEntity
  8
Camada 1
 62
   250
420
  1907995
370
    15
100
AcDbPolyline
 90
       32
 70
     1
 43
0.0
 10
54.96034574194297
 20
39.47847958743399
 10
55.14378631060913
 20
39.46577848931298
 10
55.31312351963254
 20
39.41356645234551
 10
55.48316051367641
 20
39.32113830854944
 10
55.61404184434573
 20
39.21742209407748
 10
55.73151421743105
 20
39.07348977277693
 10
55.82323988472584
 20
38.91685635335537
 10
55.87474406223032
 20
38.73341040172751
 10
55.88814763685261
 20
38.55067230956264
 10
55.87474406223032
 20
38.38063262403793
 10
55.82323988472584
 20
38.19789453187306
 10
55.73151421743105
 20
38.04090852846042
 10
55.61404184434573
 20
37.89732879115094
 10
55.48316051367641
 20
37.79290740869685
 10
55.31312351963254
 20
37.70118443288292
 10
55.14378631060913
 20
37.64897239591545
 10
54.96034574194297
 20
37.63627398927529
 10
54.7768997903151
 20
37.64897239591545
 10
54.60756796425338
 20
37.70118443288292
 10
54.45093454483182
 20
37.79290740869685
 10
54.30699953205042
 20
37.89732879115094
 10
54.18917188349318
 20
38.04090852846042
 10
54.1108551737824
 20
38.19789453187306
 10
54.05864044533409
 20
38.38063262403793
 10
54.03253846407162
 20
38.55067230956264
 10
54.05864044533409
 20
38.73341040172751
 10
54.1108551737824
 20
38.91685635335537
 10
54.18917188349318
 20
39.07348977277693
 10
54.30699953205042
 20
39.21742209407748
 10
54.45093454483182
 20
39.32113830854944
 10
54.60756796425338
 20
39.41356645234551
 10
54.7768997903151
 20
39.46577848931298
  0
LINE
  5
EA
330
70
100
AcDbEntity
  8
Camada 1
 62
   250
420
  1907995
370
     9
100
AcDbLine
 10
90.16728373498585
 20
39.09232744723104
 30
0.0
 11
90.16728373498585
 21
39.62149411376542
 31
0.0
  0
LINE
  5
EB
330
70
100
AcDbEntity
  8
Camada 1
 62
   250
420
  1907995
370
     9
100
AcDbLine
 10
54.98320179730292
 20
38.50579994086725
 30
0.0
 11
54.98320179730292
 21
39.03496660740163
 31
0.0
  0
LINE
  5
EC
330
70
100
AcDbEntity
  8
Camada 1
 62
   250
420
  1907995
370
     9
100
AcDbLine
 10
54.93811949310141
 20
38.54499328497367
 30
0.0
 11
55.46728615963578
 21
38.54499328497367
 31
0.0
  0
LINE
  5
ED
330
70
100
AcDbEntity
  8
Camada 1
 62
   250
420
  1907995
370
     9
100
AcDbLine
 10
54.35159198673762
 20
57.07870265805292
 30
0.0
 11
54.880758653272
 21
57.07870265805292
 31
0.0
  0
ENDSEC
  0
SECTION
  2
OBJECTS
  0
DICTIONARY
  5
C
330
0
100
AcDbDictionary
281
     1
  3
ACAD_COLOR
350
63
  3
ACAD_DETAILVIEWSTYLE
350
6A
  3
ACAD_GROUP
350
D
  3
ACAD_LAYOUT
350
62
  3
ACAD_MATERIAL
350
10
  3
ACAD_MLEADERSTYLE
350
66
  3
ACAD_MLINESTYLE
350
5F
  3
ACAD_PLOTSETTINGS
350
61
  3
ACAD_PLOTSTYLENAME
350
E
  3
ACAD_SCALELIST
350
42
  3
ACAD_SECTIONVIEWSTYLE
350
68
  3
ACAD_TABLESTYLE
350
64
  3
ACAD_VISUALSTYLE
350
29
  3
ACDB_RECOMPOSE_DATA
350
F6
  3
AcDbVariableDictionary
350
EE
  0
DICTIONARY
  5
63
102
{ACAD_REACTORS
330
C
102
}
330
C
100
AcDbDictionary
281
     1
  0
DICTIONARY
  5
6A
102
{ACAD_REACTORS
330
C
102
}
330
C
100
AcDbDictionary
281
     1
  3
Imperial24
350
6B
  0
DICTIONARY
  5
D
102
{ACAD_REACTORS
330
C
102
}
330
C
100
AcDbDictionary
281
     1
  0
DICTIONARY
  5
62
102
{ACAD_REACTORS
330
C
102
}
330
C
100
AcDbDictionary
281
     1
  3
Layout1
350
6F
  3
Layout2
350
77
  3
Model
350
73
  0
DICTIONARY
  5
10
102
{ACAD_REACTORS
330
C
102
}
330
C
100
AcDbDictionary
281
     1
  3
ByBlock
350
19
  3
ByLayer
350
11
  3
Global
350
21
  0
DICTIONARY
  5
66
102
{ACAD_REACTORS
330
C
102
}
330
C
100
AcDbDictionary
281
     1
  3
Standard
350
67
  0
DICTIONARY
  5
5F
102
{ACAD_REACTORS
330
C
102
}
330
C
100
AcDbDictionary
281
     1
  3
Standard
350
60
  0
DICTIONARY
  5
61
102
{ACAD_REACTORS
330
C
102
}
330
C
100
AcDbDictionary
281
     1
  0
ACDBDICTIONARYWDFLT
  5
E
102
{ACAD_REACTORS
330
C
102
}
330
C
100
AcDbDictionary
281
     1
  3
Normal
350
F
100
AcDbDictionaryWithDefault
340
F
  0
DICTIONARY
  5
42
102
{ACAD_REACTORS
330
C
102
}
330
C
100
AcDbDictionary
281
     1
  3
A0
350
43
  3
A1
350
44
  3
A2
350
45
  3
A3
350
46
  3
A4
350
47
  3
A5
350
48
  3
A6
350
49
  3
A7
350
4A
  3
A8
350
4B
  3
A9
350
4C
  3
B0
350
4D
  3
B1
350
4E
  3
B2
350
4F
  3
B3
350
50
  3
B4
350
51
  3
B5
350
52
  3
B6
350
53
  0
DICTIONARY
  5
68
102
{ACAD_REACTORS
330
C
102
}
330
C
100
AcDbDictionary
281
     1
  3
Imperial24
350
69
  0
DICTIONARY
  5
64
102
{ACAD_REACTORS
330
C
102
}
330
C
100
AcDbDictionary
281
     1
  3
Standard
350
65
  0
DICTIONARY
  5
29
102
{ACAD_REACTORS
330
C
102
}
330
C
100
AcDbDictionary
281
     1
  3
2dWireframe
350
2F
  3
Basic
350
2E
  3
Brighten
350
35
  3
ColorChange
350
39
  3
Conceptual
350
32
  3
Dim
350
34
  3
EdgeColorOff
350
41
  3
Facepattern
350
38
  3
Flat
350
2A
  3
FlatWithEdges
350
2B
  3
Gouraud
350
2C
  3
GouraudWithEdges
350
2D
  3
Hidden
350
31
  3
JitterOff
350
3F
  3
Linepattern
350
37
  3
OverhangOff
350
40
  3
Realistic
350
33
  3
Shaded
350
3E
  3
Shaded with edges
350
3D
  3
Shades of Gray
350
3A
  3
Sketchy
350
3B
  3
Thicken
350
36
  3
Wireframe
350
30
  3
X-Ray
350
3C
  0
XRECORD
  5
F6
102
{ACAD_REACTORS
330
C
102
}
330
C
100
AcDbXrecord
280
     1
 90
        1
330
65
  0
DICTIONARY
  5
EE
102
{ACAD_REACTORS
330
C
102
}
330
C
100
AcDbDictionary
281
     1
  3
CANNOSCALE
350
F3
  3
CMLEADERSTYLE
350
F0
  3
CTABLESTYLE
350
EF
  3
CVIEWDETAILSTYLE
350
F1
  3
CVIEWSECTIONSTYLE
350
F2
  0
ACDBDETAILVIEWSTYLE
  5
6B
102
{ACAD_REACTORS
330
6A
102
}
330
6A
100
AcDbModelDocViewStyle
 70
     0
  3
Imperial24
290
     1
300
Imperial24
 90
        0
100
AcDbDetailViewStyle
 70
     0
 71
     0
 90
        3
 71
     1
340
55
 62
   256
 40
0.24
340
0
 62
   256
 40
0.24
300

 40
0.36
280
     3
 71
     2
340
5D
 90
       25
 62
   256
 71
     3
340
55
 62
   256
 40
0.24
 90
        1
 40
0.75
 90
        1
300
%<\AcVar ViewType \f "%tc1">% %<\AcVar ViewDetailId>%\PSCALE %<\AcVar ViewScale \f "%sn">%
 71
     4
340
5D
 90
       25
 62
   256
340
5D
 90
       25
 62
   256
280
     0
  0
LAYOUT
  5
6F
102
{ACAD_REACTORS
330
62
102
}
330
62
100
AcDbPlotSettings
  1

  2

  4

  6

 40
0.0
 41
0.0
 42
0.0
 43
0.0
 44
0.0
 45
0.0
 46
0.0
 47
0.0
 48
0.0
 49
0.0
140
0.0
141
0.0
142
1.0
143
1.0
 70
   688
 72
     0
 73
     0
 74
     5
  7

 75
    16
147
1.0
 76
     0
 77
     2
 78
   300
148
0.0
149
0.0
100
AcDbLayout
  1
Layout1
 70
     1
 71
     1
 10
0.0
 20
0.0
 11
12.0
 21
9.0
 12
0.0
 22
0.0
 32
0.0
 14
0.0
 24
0.0
 34
0.0
 15
0.0
 25
0.0
 35
0.0
146
0.0
 13
0.0
 23
0.0
 33
0.0
 16
1.0
 26
0.0
 36
0.0
 17
0.0
 27
1.0
 37
0.0
 76
     0
330
6C
  0
LAYOUT
  5
77
102
{ACAD_REACTORS
330
62
102
}
330
62
100
AcDbPlotSettings
  1

  2

  4

  6

 40
0.0
 41
0.0
 42
0.0
 43
0.0
 44
0.0
 45
0.0
 46
0.0
 47
0.0
 48
0.0
 49
0.0
140
0.0
141
0.0
142
1.0
143
1.0
 70
   688
 72
     0
 73
     0
 74
     5
  7

 75
    16
147
1.0
 76
     0
 77
     2
 78
   300
148
0.0
149
0.0
100
AcDbLayout
  1
Layout2
 70
     1
 71
     2
 10
0.0
 20
0.0
 11
12.0
 21
9.0
 12
0.0
 22
0.0
 32
0.0
 14
0.0
 24
0.0
 34
0.0
 15
0.0
 25
0.0
 35
0.0
146
0.0
 13
0.0
 23
0.0
 33
0.0
 16
1.0
 26
0.0
 36
0.0
 17
0.0
 27
1.0
 37
0.0
 76
     0
330
74
  0
LAYOUT
  5
73
102
{ACAD_REACTORS
330
62
102
}
330
62
100
AcDbPlotSettings
  1

  2

  4

  6

 40
0.0
 41
0.0
 42
0.0
 43
0.0
 44
0.0
 45
0.0
 46
0.0
 47
0.0
 48
0.0
 49
0.0
140
0.0
141
0.0
142
1.0
143
1.0
 70
  1712
 72
     0
 73
     0
 74
     0
  7

 75
     0
147
1.0
 76
     0
 77
     2
 78
   300
148
0.0
149
0.0
100
AcDbLayout
  1
Model
 70
     1
 71
     0
 10
0.0
 20
0.0
 11
12.0
 21
9.0
 12
0.0
 22
0.0
 32
0.0
 14
0.0
 24
0.0
 34
0.0
 15
0.0
 25
0.0
 35
0.0
146
0.0
 13
0.0
 23
0.0
 33
0.0
 16
1.0
 26
0.0
 36
0.0
 17
0.0
 27
1.0
 37
0.0
 76
     0
330
70
  0
MATERIAL
  5
19
102
{ACAD_XDICTIONARY
360
1A
102
}
102
{ACAD_REACTORS
330
10
102
}
330
10
100
AcDbMaterial
  1
ByBlock
 72
     0
 43
0.0208333333333333
 43
0.0
 43
0.0
 43
0.0
 43
0.0
 43
0.0208333333333333
 43
0.0
 43
0.0
 43
0.0
 43
0.0
 43
1.0
 43
0.0
 43
0.0
 43
0.0
 43
0.0
 43
1.0
 77
     0
 47
0.0208333333333333
 47
0.0
 47
0.0
 47
0.0
 47
0.0
 47
0.0208333333333333
 47
0.0
 47
0.0
 47
0.0
 47
0.0
 47
1.0
 47
0.0
 47
0.0
 47
0.0
 47
0.0
 47
1.0
171
     0
 49
0.0208333333333333
 49
0.0
 49
0.0
 49
0.0
 49
0.0
 49
0.0208333333333333
 49
0.0
 49
0.0
 49
0.0
 49
0.0
 49
1.0
 49
0.0
 49
0.0
 49
0.0
 49
0.0
 49
1.0
175
     0
142
0.0208333333333333
142
0.0
142
0.0
142
0.0
142
0.0
142
0.0208333333333333
142
0.0
142
0.0
142
0.0
142
0.0
142
1.0
142
0.0
142
0.0
142
0.0
142
0.0
142
1.0
179
     0
144
0.0208333333333333
144
0.0
144
0.0
144
0.0
144
0.0
144
0.0208333333333333
144
0.0
144
0.0
144
0.0
144
0.0
144
1.0
144
0.0
144
0.0
144
0.0
144
0.0
144
1.0
147
0.0208333333333333
147
0.0
147
0.0
147
0.0
147
0.0
147
0.0208333333333333
147
0.0
147
0.0
147
0.0
147
0.0
147
1.0
147
0.0
147
0.0
147
0.0
147
0.0
147
1.0
  0
MATERIAL
  5
11
102
{ACAD_XDICTIONARY
360
12
102
}
102
{ACAD_REACTORS
330
10
102
}
330
10
100
AcDbMaterial
  1
ByLayer
 72
     0
 43
0.0208333333333333
 43
0.0
 43
0.0
 43
0.0
 43
0.0
 43
0.0208333333333333
 43
0.0
 43
0.0
 43
0.0
 43
0.0
 43
1.0
 43
0.0
 43
0.0
 43
0.0
 43
0.0
 43
1.0
 77
     0
 47
0.0208333333333333
 47
0.0
 47
0.0
 47
0.0
 47
0.0
 47
0.0208333333333333
 47
0.0
 47
0.0
 47
0.0
 47
0.0
 47
1.0
 47
0.0
 47
0.0
 47
0.0
 47
0.0
 47
1.0
171
     0
 49
0.0208333333333333
 49
0.0
 49
0.0
 49
0.0
 49
0.0
 49
0.0208333333333333
 49
0.0
 49
0.0
 49
0.0
 49
0.0
 49
1.0
 49
0.0
 49
0.0
 49
0.0
 49
0.0
 49
1.0
175
     0
142
0.0208333333333333
142
0.0
142
0.0
142
0.0
142
0.0
142
0.0208333333333333
142
0.0
142
0.0
142
0.0
142
0.0
142
1.0
142
0.0
142
0.0
142
0.0
142
0.0
142
1.0
179
     0
144
0.0208333333333333
144
0.0
144
0.0
144
0.0
144
0.0
144
0.0208333333333333
144
0.0
144
0.0
144
0.0
144
0.0
144
1.0
144
0.0
144
0.0
144
0.0
144
0.0
144
1.0
147
0.0208333333333333
147
0.0
147
0.0
147
0.0
147
0.0
147
0.0208333333333333
147
0.0
147
0.0
147
0.0
147
0.0
147
1.0
147
0.0
147
0.0
147
0.0
147
0.0
147
1.0
  0
MATERIAL
  5
21
102
{ACAD_XDICTIONARY
360
22
102
}
102
{ACAD_REACTORS
330
10
102
}
330
10
100
AcDbMaterial
  1
Global
 72
     0
 43
0.0208333333333333
 43
0.0
 43
0.0
 43
0.0
 43
0.0
 43
0.0208333333333333
 43
0.0
 43
0.0
 43
0.0
 43
0.0
 43
1.0
 43
0.0
 43
0.0
 43
0.0
 43
0.0
 43
1.0
 77
     0
 47
0.0208333333333333
 47
0.0
 47
0.0
 47
0.0
 47
0.0
 47
0.0208333333333333
 47
0.0
 47
0.0
 47
0.0
 47
0.0
 47
1.0
 47
0.0
 47
0.0
 47
0.0
 47
0.0
 47
1.0
171
     0
 49
0.0208333333333333
 49
0.0
 49
0.0
 49
0.0
 49
0.0
 49
0.0208333333333333
 49
0.0
 49
0.0
 49
0.0
 49
0.0
 49
1.0
 49
0.0
 49
0.0
 49
0.0
 49
0.0
 49
1.0
175
     0
142
0.0208333333333333
142
0.0
142
0.0
142
0.0
142
0.0
142
0.0208333333333333
142
0.0
142
0.0
142
0.0
142
0.0
142
1.0
142
0.0
142
0.0
142
0.0
142
0.0
142
1.0
179
     0
144
0.0208333333333333
144
0.0
144
0.0
144
0.0
144
0.0
144
0.0208333333333333
144
0.0
144
0.0
144
0.0
144
0.0
144
1.0
144
0.0
144
0.0
144
0.0
144
0.0
144
1.0
147
0.0208333333333333
147
0.0
147
0.0
147
0.0
147
0.0
147
0.0208333333333333
147
0.0
147
0.0
147
0.0
147
0.0
147
1.0
147
0.0
147
0.0
147
0.0
147
0.0
147
1.0
  0
MLEADERSTYLE
  5
67
102
{ACAD_REACTORS
330
66
102
}
330
66
100
AcDbMLeaderStyle
179
     2
170
     2
171
     1
172
     0
 90
        2
 40
0.0
 41
0.0
173
     1
 91
-1056964608
340
5B
 92
       -2
290
     1
 42
0.09
291
     1
 43
0.36
  3
Standard
 44
0.18
300

342
55
174
     1
178
     6
175
     1
176
     0
 93
-1056964608
 45
0.18
292
     0
297
     0
 46
0.18
 94
-1056964608
 47
1.0
 49
1.0
140
1.0
293
     1
141
0.0
294
     1
177
     0
142
1.0
295
     1
296
     0
143
0.125
271
     0
272
     9
273
     9
298
     1
  0
MLINESTYLE
  5
60
102
{ACAD_REACTORS
330
5F
102
}
330
5F
100
AcDbMlineStyle
  2
STANDARD
 70
     0
  3

 62
   256
 51
90.0
 52
90.0
 71
     2
 49
0.5
 62
   256
  6
BYLAYER
 49
-0.5
 62
   256
  6
BYLAYER
  0
ACDBPLACEHOLDER
  5
F
102
{ACAD_REACTORS
330
E
102
}
330
E
  0
SCALE
  5
43
102
{ACAD_REACTORS
330
42
102
}
330
42
100
AcDbScale
 70
     0
300
1:1
140
1.0
141
1.0
290
     1
  0
SCALE
  5
44
102
{ACAD_REACTORS
330
42
102
}
330
42
100
AcDbScale
 70
     0
300
1/128" = 1'-0"
140
0.0078125
141
12.0
290
     0
  0
SCALE
  5
45
102
{ACAD_REACTORS
330
42
102
}
330
42
100
AcDbScale
 70
     0
300
1/64" = 1'-0"
140
0.015625
141
12.0
290
     0
  0
SCALE
  5
46
102
{ACAD_REACTORS
330
42
102
}
330
42
100
AcDbScale
 70
     0
300
1/32" = 1'-0"
140
0.03125
141
12.0
290
     0
  0
SCALE
  5
47
102
{ACAD_REACTORS
330
42
102
}
330
42
100
AcDbScale
 70
     0
300
1/16" = 1'-0"
140
0.0625
141
12.0
290
     0
  0
SCALE
  5
48
102
{ACAD_REACTORS
330
42
102
}
330
42
100
AcDbScale
 70
     0
300
3/32" = 1'-0"
140
0.09375
141
12.0
290
     0
  0
SCALE
  5
49
102
{ACAD_REACTORS
330
42
102
}
330
42
100
AcDbScale
 70
     0
300
1/8" = 1'-0"
140
0.125
141
12.0
290
     0
  0
SCALE
  5
4A
102
{ACAD_REACTORS
330
42
102
}
330
42
100
AcDbScale
 70
     0
300
3/16" = 1'-0"
140
0.1875
141
12.0
290
     0
  0
SCALE
  5
4B
102
{ACAD_REACTORS
330
42
102
}
330
42
100
AcDbScale
 70
     0
300
1/4" = 1'-0"
140
0.25
141
12.0
290
     0
  0
SCALE
  5
4C
102
{ACAD_REACTORS
330
42
102
}
330
42
100
AcDbScale
 70
     0
300
3/8" = 1'-0"
140
0.375
141
12.0
290
     0
  0
SCALE
  5
4D
102
{ACAD_REACTORS
330
42
102
}
330
42
100
AcDbScale
 70
     0
300
1/2" = 1'-0"
140
0.5
141
12.0
290
     0
  0
SCALE
  5
4E
102
{ACAD_REACTORS
330
42
102
}
330
42
100
AcDbScale
 70
     0
300
3/4" = 1'-0"
140
0.75
141
12.0
290
     0
  0
SCALE
  5
4F
102
{ACAD_REACTORS
330
42
102
}
330
42
100
AcDbScale
 70
     0
300
1" = 1'-0"
140
1.0
141
12.0
290
     0
  0
SCALE
  5
50
102
{ACAD_REACTORS
330
42
102
}
330
42
100
AcDbScale
 70
     0
300
1-1/2" = 1'-0"
140
1.5
141
12.0
290
     0
  0
SCALE
  5
51
102
{ACAD_REACTORS
330
42
102
}
330
42
100
AcDbScale
 70
     0
300
3" = 1'-0"
140
3.0
141
12.0
290
     0
  0
SCALE
  5
52
102
{ACAD_REACTORS
330
42
102
}
330
42
100
AcDbScale
 70
     0
300
6" = 1'-0"
140
6.0
141
12.0
290
     0
  0
SCALE
  5
53
102
{ACAD_REACTORS
330
42
102
}
330
42
100
AcDbScale
 70
     0
300
1'-0" = 1'-0"
140
12.0
141
12.0
290
     0
  0
ACDBSECTIONVIEWSTYLE
  5
69
102
{ACAD_REACTORS
330
68
102
}
330
68
100
AcDbModelDocViewStyle
 70
     0
  3
Imperial24
290
     1
300
Imperial24
 90
        0
100
AcDbSectionViewStyle
 70
     0
 71
     0
 90
       78
 71
     1
340
55
 62
   256
 40
0.24
340
0
340
0
 62
   256
 40
0.24
300
I, O, Q, S, X, Z
 40
0.48
 90
        3
 40
0.18
 90
        1
 71
     2
340
5D
 90
       25
 62
   256
340
5D
 90
       50
 62
   256
 40
0.24
 40
0.0
 40
0.24
 71
     3
340
55
 62
   256
 40
0.24
 90
        1
 40
0.75
 90
        1
300
%<\AcVar ViewType \f "%tc1">% %<\AcVar ViewSectionStartId>%-%<\AcVar ViewSectionEndId>%\PSCALE %<\AcVar ViewScale \f "%sn">%
 71
     4
 62
   256
 62
   257
300
ANSI31
 40
1.0
 90
        0
290
     0
290
     0
 90
        6
 40
0.0
 40
1.570796326794896
 40
0.2617993877991494
 40
1.308996938995747
 40
-0.2617993877991494
 40
1.832595714594046
  0
TABLESTYLE
  5
65
102
{ACAD_XDICTIONARY
360
F4
102
}
102
{ACAD_REACTORS
330
64
102
}
330
64
100
AcDbTableStyle
280
     0
  3
Standard
 70
     0
 71
     0
 40
0.06
 41
0.06
280
     0
281
     0
  7
Standard
140
0.18
170
     2
 62
     0
 63
     7
283
     0
 90
      512
 91
        0
  1

274
    -2
284
     1
 64
     0
275
    -2
285
     1
 65
     0
276
    -2
286
     1
 66
     0
277
    -2
287
     1
 67
     0
278
    -2
288
     1
 68
     0
279
    -2
289
     1
 69
     0
  7
Standard
140
0.25
170
     5
 62
     0
 63
     7
283
     0
 90
      512
 91
        0
  1

274
    -2
284
     1
 64
     0
275
    -2
285
     1
 65
     0
276
    -2
286
     1
 66
     0
277
    -2
287
     1
 67
     0
278
    -2
288
     1
 68
     0
279
    -2
289
     1
 69
     0
  7
Standard
140
0.18
170
     5
 62
     0
 63
     7
283
     0
 90
      512
 91
        0
  1

274
    -2
284
     1
 64
     0
275
    -2
285
     1
 65
     0
276
    -2
286
     1
 66
     0
277
    -2
287
     1
 67
     0
278
    -2
288
     1
 68
     0
279
    -2
289
     1
 69
     0
  0
VISUALSTYLE
  5
2F
102
{ACAD_REACTORS
330
29
102
}
330
29
100
AcDbVisualStyle
  2
2dWireframe
 70
     4
177
     3
291
     0
 70
    58
 90
        0
176
     1
 90
        2
176
     1
 90
        0
176
     1
 90
        0
176
     1
 40
0.6
176
     1
 40
30.0
176
     1
 62
     7
420
 16777215
176
     1
 90
        1
176
     1
 90
        4
176
     1
 62
     7
176
     1
 62
   257
176
     1
 90
        1
176
     1
 90
        1
176
     1
 40
1.0
176
     1
 90
        0
176
     1
 62
   257
176
     1
 40
1.0
176
     1
 90
        1
176
     1
 90
        6
176
     1
 90
        2
176
     1
 62
     7
176
     1
 90
        5
176
     1
 90
        0
176
     1
 90
        0
176
     1
290
     0
176
     1
 90
        1
176
     1
 40
0.0
176
     1
 90
        0
176
     1
290
     1
176
     1
290
     1
176
     1
290
     0
176
     1
290
     0
176
     1
290
     0
176
     1
290
     0
176
     1
290
     0
176
     1
290
     0
176
     1
290
     0
176
     1
 90
       50
176
     1
 40
0.0
176
     1
 40
1.0
176
     1
 90
        0
176
     1
 62
    18
420
        0
176
     1
 90
       50
176
     1
 90
        3
176
     1
 62
     5
420
      255
176
     1
290
     0
176
     1
 90
       50
176
     1
 90
       50
176
     1
 90
       50
176
     1
290
     0
176
     1
 90
       50
176
     1
 62
   256
176
     0
 40
1.0
176
     0
 90
        2
176
     1
  1
strokes_ogs.tif
176
     1
290
     0
176
     1
 40
1.0
176
     1
 40
1.0
176
     1
  0
VISUALSTYLE
  5
2E
102
{ACAD_REACTORS
330
29
102
}
330
29
100
AcDbVisualStyle
  2
Basic
 70
     7
177
     3
291
     1
 70
    58
 90
        1
176
     1
 90
        0
176
     1
 90
        1
176
     1
 90
        0
176
     1
 40
0.6
176
     1
 40
30.0
176
     1
 62
     7
420
 16777215
176
     1
 90
        0
176
     1
 90
        4
176
     1
 62
     7
176
     1
 62
   257
176
     1
 90
        1
176
     1
 90
        1
176
     1
 40
1.0
176
     1
 90
        8
176
     1
 62
     7
176
     1
 40
1.0
176
     1
 90
        1
176
     1
 90
        6
176
     1
 90
        2
176
     1
 62
     7
176
     1
 90
        5
176
     1
 90
        0
176
     1
 90
        0
176
     1
290
     0
176
     1
 90
        1
176
     1
 40
0.0
176
     1
 90
        0
176
     1
290
     0
176
     1
290
     1
176
     1
290
     1
176
     1
290
     0
176
     1
290
     0
176
     1
290
     0
176
     1
290
     0
176
     1
290
     0
176
     1
290
     0
176
     1
 90
       50
176
     1
 40
0.0
176
     1
 40
1.0
176
     1
 90
        0
176
     1
 62
    18
420
        0
176
     1
 90
       50
176
     1
 90
        3
176
     1
 62
     5
420
      255
176
     1
290
     0
176
     1
 90
       50
176
     1
 90
       50
176
     1
 90
       50
176
     1
290
     0
176
     1
 90
       50
176
     1
 62
   256
176
     0
 40
1.0
176
     0
 90
        2
176
     1
  1
strokes_ogs.tif
176
     1
290
     0
176
     1
 40
1.0
176
     1
 40
1.0
176
     1
  0
VISUALSTYLE
  5
35
102
{ACAD_REACTORS
330
29
102
}
330
29
100
AcDbVisualStyle
  2
Brighten
 70
    12
177
     3
291
     1
 70
    58
 90
        2
176
     1
 90
        2
176
     1
 90
        0
176
     1
 90
        0
176
     1
 40
0.6
176
     1
 40
30.0
176
     1
 62
     7
420
 16777215
176
     1
 90
        1
176
     1
 90
        4
176
     1
 62
     7
176
     1
 62
   257
176
     1
 90
        1
176
     1
 90
        1
176
     1
 40
1.0
176
     1
 90
        8
176
     1
 62
     7
176
     1
 40
1.0
176
     1
 90
        1
176
     1
 90
        6
176
     1
 90
        2
176
     1
 62
     7
176
     1
 90
        5
176
     1
 90
        0
176
     1
 90
        0
176
     1
290
     0
176
     1
 90
        1
176
     1
 40
50.0
176
     1
 90
        0
176
     1
290
     0
176
     1
290
     1
176
     1
290
     1
176
     1
290
     0
176
     1
290
     0
176
     1
290
     0
176
     1
290
     0
176
     1
290
     0
176
     1
290
     0
176
     1
 90
       50
176
     1
 40
0.0
176
     1
 40
1.0
176
     1
 90
        0
176
     1
 62
    18
420
        0
176
     1
 90
       50
176
     1
 90
        3
176
     1
 62
     5
420
      255
176
     1
290
     0
176
     1
 90
       50
176
     1
 90
       50
176
     1
 90
       50
176
     1
290
     0
176
     1
 90
       50
176
     1
 62
   256
176
     0
 40
1.0
176
     0
 90
        2
176
     1
  1
strokes_ogs.tif
176
     1
290
     0
176
     1
 40
1.0
176
     1
 40
1.0
176
     1
  0
VISUALSTYLE
  5
39
102
{ACAD_REACTORS
330
29
102
}
330
29
100
AcDbVisualStyle
  2
ColorChange
 70
    16
177
     3
291
     1
 70
    58
 90
        2
176
     1
 90
        2
176
     1
 90
        3
176
     1
 90
        0
176
     1
 40
0.6
176
     1
 40
30.0
176
     1
 62
     8
420
  8421504
176
     1
 90
        1
176
     1
 90
        4
176
     1
 62
     7
176
     1
 62
   257
176
     1
 90
        1
176
     1
 90
        1
176
     1
 40
1.0
176
     1
 90
        8
176
     1
 62
     8
420
  8421504
176
     1
 40
1.0
176
     1
 90
        1
176
     1
 90
        6
176
     1
 90
        2
176
     1
 62
     7
176
     1
 90
        5
176
     1
 90
        0
176
     1
 90
        0
176
     1
290
     0
176
     1
 90
        1
176
     1
 40
0.0
176
     1
 90
        0
176
     1
290
     0
176
     1
290
     1
176
     1
290
     1
176
     1
290
     0
176
     1
290
     0
176
     1
290
     0
176
     1
290
     0
176
     1
290
     0
176
     1
290
     0
176
     1
 90
       50
176
     1
 40
0.0
176
     1
 40
1.0
176
     1
 90
        0
176
     1
 62
    18
420
        0
176
     1
 90
       50
176
     1
 90
        3
176
     1
 62
     5
420
      255
176
     1
290
     0
176
     1
 90
       50
176
     1
 90
       50
176
     1
 90
       50
176
     1
290
     0
176
     1
 90
       50
176
     1
 62
   256
176
     0
 40
1.0
176
     0
 90
        2
176
     1
  1
strokes_ogs.tif
176
     1
290
     0
176
     1
 40
1.0
176
     1
 40
1.0
176
     1
  0
VISUALSTYLE
  5
32
102
{ACAD_REACTORS
330
29
102
}
330
29
100
AcDbVisualStyle
  2
Conceptual
 70
     9
177
     3
291
     0
 70
    58
 90
        3
176
     1
 90
        2
176
     1
 90
        0
176
     1
 90
        0
176
     1
 40
0.6
176
     1
 40
30.0
176
     1
 62
     7
420
 16777215
176
     1
 90
        2
176
     1
 90
        2
176
     1
 62
     7
176
     1
 62
   257
176
     1
 90
        1
176
     1
 90
        1
176
     1
 40
179.0
176
     1
 90
        8
176
     1
 62
     7
176
     1
 40
1.0
176
     1
 90
        1
176
     1
 90
        6
176
     1
 90
        2
176
     1
 62
     7
176
     1
 90
        3
176
     1
 90
        0
176
     1
 90
        0
176
     1
290
     0
176
     1
 90
        1
176
     1
 40
0.0
176
     1
 90
        0
176
     1
290
     0
176
     1
290
     1
176
     1
290
     1
176
     1
290
     0
176
     1
290
     0
176
     1
290
     0
176
     1
290
     0
176
     1
290
     0
176
     1
290
     0
176
     1
 90
       50
176
     1
 40
0.0
176
     1
 40
1.0
176
     1
 90
        0
176
     1
 62
    18
420
        0
176
     1
 90
       50
176
     1
 90
        3
176
     1
 62
     5
420
      255
176
     1
290
     0
176
     1
 90
       50
176
     1
 90
       50
176
     1
 90
       50
176
     1
290
     0
176
     1
 90
       50
176
     1
 62
   256
176
     0
 40
1.0
176
     0
 90
        2
176
     1
  1
strokes_ogs.tif
176
     1
290
     0
176
     1
 40
1.0
176
     1
 40
1.0
176
     1
  0
VISUALSTYLE
  5
34
102
{ACAD_REACTORS
330
29
102
}
330
29
100
AcDbVisualStyle
  2
Dim
 70
    11
177
     3
291
     1
 70
    58
 90
        2
176
     1
 90
        2
176
     1
 90
        0
176
     1
 90
        0
176
     1
 40
0.6
176
     1
 40
30.0
176
     1
 62
     7
420
 16777215
176
     1
 90
        1
176
     1
 90
        4
176
     1
 62
     7
176
     1
 62
   257
176
     1
 90
        1
176
     1
 90
        1
176
     1
 40
1.0
176
     1
 90
        8
176
     1
 62
     7
176
     1
 40
1.0
176
     1
 90
        1
176
     1
 90
        6
176
     1
 90
        2
176
     1
 62
     7
176
     1
 90
        5
176
     1
 90
        0
176
     1
 90
        0
176
     1
290
     0
176
     1
 90
        1
176
     1
 40
-50.0
176
     1
 90
        0
176
     1
290
     0
176
     1
290
     1
176
     1
290
     1
176
     1
290
     0
176
     1
290
     0
176
     1
290
     0
176
     1
290
     0
176
     1
290
     0
176
     1
290
     0
176
     1
 90
       50
176
     1
 40
0.0
176
     1
 40
1.0
176
     1
 90
        0
176
     1
 62
    18
420
        0
176
     1
 90
       50
176
     1
 90
        3
176
     1
 62
     5
420
      255
176
     1
290
     0
176
     1
 90
       50
176
     1
 90
       50
176
     1
 90
       50
176
     1
290
     0
176
     1
 90
       50
176
     1
 62
   256
176
     0
 40
1.0
176
     0
 90
        2
176
     1
  1
strokes_ogs.tif
176
     1
290
     0
176
     1
 40
1.0
176
     1
 40
1.0
176
     1
  0
VISUALSTYLE
  5
41
102
{ACAD_REACTORS
330
29
102
}
330
29
100
AcDbVisualStyle
  2
EdgeColorOff
 70
    22
177
     3
291
     1
 70
    58
 90
        2
176
     0
 90
        2
176
     0
 90
        0
176
     0
 90
        0
176
     0
 40
0.6
176
     0
 40
30.0
176
     0
 62
     7
420
 16777215
176
     0
 90
        1
176
     0
 90
        4
176
     0
 62
     7
176
     0
 62
   257
176
     0
 90
        1
176
     0
 90
        1
176
     0
 40
1.0
176
     0
 90
        8
176
     2
 62
     7
176
     0
 40
1.0
176
     0
 90
        1
176
     0
 90
        6
176
     0
 90
        2
176
     0
 62
     7
176
     0
 90
        5
176
     0
 90
        0
176
     0
 90
        0
176
     0
290
     0
176
     0
 90
        1
176
     0
 40
0.0
176
     0
 90
        0
176
     0
290
     0
176
     0
290
     1
176
     0
290
     1
176
     0
290
     0
176
     0
290
     0
176
     0
290
     0
176
     0
290
     0
176
     0
290
     0
176
     0
290
     0
176
     0
 90
       50
176
     0
 40
0.0
176
     0
 40
1.0
176
     0
 90
        0
176
     0
 62
    18
420
        0
176
     0
 90
       50
176
     0
 90
        3
176
     0
 62
     5
420
      255
176
     0
290
     0
176
     0
 90
       50
176
     0
 90
       50
176
     0
 90
       50
176
     0
290
     0
176
     0
 90
       50
176
     0
 62
   256
176
     0
 40
1.0
176
     0
 90
        2
176
     0
  1
strokes_ogs.tif
176
     0
290
     0
176
     0
 40
1.0
176
     0
 40
1.0
176
     0
  0
VISUALSTYLE
  5
38
102
{ACAD_REACTORS
330
29
102
}
330
29
100
AcDbVisualStyle
  2
Facepattern
 70
    15
177
     3
291
     1
 70
    58
 90
        2
176
     1
 90
        2
176
     1
 90
        0
176
     1
 90
        0
176
     1
 40
0.6
176
     1
 40
30.0
176
     1
 62
     7
420
 16777215
176
     1
 90
        1
176
     1
 90
        4
176
     1
 62
     7
176
     1
 62
   257
176
     1
 90
        1
176
     1
 90
        1
176
     1
 40
1.0
176
     1
 90
        8
176
     1
 62
     7
176
     1
 40
1.0
176
     1
 90
        1
176
     1
 90
        6
176
     1
 90
        2
176
     1
 62
     7
176
     1
 90
        5
176
     1
 90
        0
176
     1
 90
        0
176
     1
290
     0
176
     1
 90
        1
176
     1
 40
0.0
176
     1
 90
        0
176
     1
290
     0
176
     1
290
     1
176
     1
290
     1
176
     1
290
     0
176
     1
290
     0
176
     1
290
     0
176
     1
290
     0
176
     1
290
     0
176
     1
290
     0
176
     1
 90
       50
176
     1
 40
0.0
176
     1
 40
1.0
176
     1
 90
        0
176
     1
 62
    18
420
        0
176
     1
 90
       50
176
     1
 90
        3
176
     1
 62
     5
420
      255
176
     1
290
     0
176
     1
 90
       50
176
     1
 90
       50
176
     1
 90
       50
176
     1
290
     0
176
     1
 90
       50
176
     1
 62
   256
176
     0
 40
1.0
176
     0
 90
        2
176
     1
  1
strokes_ogs.tif
176
     1
290
     0
176
     1
 40
1.0
176
     1
 40
1.0
176
     1
  0
VISUALSTYLE
  5
2A
102
{ACAD_REACTORS
330
29
102
}
330
29
100
AcDbVisualStyle
  2
Flat
 70
     0
177
     3
291
     1
 70
    58
 90
        2
176
     1
 90
        1
176
     1
 90
        1
176
     1
 90
        2
176
     1
 40
0.6
176
     1
 40
30.0
176
     1
 62
     7
420
 16777215
176
     1
 90
        0
176
     1
 90
        0
176
     1
 62
     7
176
     1
 62
   257
176
     1
 90
        1
176
     1
 90
        1
176
     1
 40
1.0
176
     1
 90
        8
176
     1
 62
     7
176
     1
 40
1.0
176
     1
 90
        1
176
     1
 90
        6
176
     1
 90
        2
176
     1
 62
     7
176
     1
 90
        5
176
     1
 90
        0
176
     1
 90
        0
176
     1
290
     0
176
     1
 90
       13
176
     1
 40
0.0
176
     1
 90
        0
176
     1
290
     0
176
     1
290
     1
176
     1
290
     1
176
     1
290
     0
176
     1
290
     0
176
     1
290
     0
176
     1
290
     0
176
     1
290
     0
176
     1
290
     0
176
     1
 90
       50
176
     1
 40
0.0
176
     1
 40
1.0
176
     1
 90
        0
176
     1
 62
    18
420
        0
176
     1
 90
       50
176
     1
 90
        3
176
     1
 62
     5
420
      255
176
     1
290
     0
176
     1
 90
       50
176
     1
 90
       50
176
     1
 90
       50
176
     1
290
     0
176
     1
 90
       50
176
     1
 62
   256
176
     0
 40
1.0
176
     0
 90
        2
176
     1
  1
strokes_ogs.tif
176
     1
290
     0
176
     1
 40
1.0
176
     1
 40
1.0
176
     1
  0
VISUALSTYLE
  5
2B
102
{ACAD_REACTORS
330
29
102
}
330
29
100
AcDbVisualStyle
  2
FlatWithEdges
 70
     1
177
     3
291
     1
 70
    58
 90
        2
176
     1
 90
        1
176
     1
 90
        1
176
     1
 90
        2
176
     1
 40
0.6
176
     1
 40
30.0
176
     1
 62
     7
420
 16777215
176
     1
 90
        1
176
     1
 90
        0
176
     1
 62
     7
176
     1
 62
   257
176
     1
 90
        1
176
     1
 90
        1
176
     1
 40
1.0
176
     1
 90
        0
176
     1
 62
   257
176
     1
 40
1.0
176
     1
 90
        1
176
     1
 90
        6
176
     1
 90
        2
176
     1
 62
     7
176
     1
 90
        5
176
     1
 90
        0
176
     1
 90
        0
176
     1
290
     0
176
     1
 90
       13
176
     1
 40
0.0
176
     1
 90
        0
176
     1
290
     0
176
     1
290
     1
176
     1
290
     1
176
     1
290
     0
176
     1
290
     0
176
     1
290
     0
176
     1
290
     0
176
     1
290
     0
176
     1
290
     0
176
     1
 90
       50
176
     1
 40
0.0
176
     1
 40
1.0
176
     1
 90
        0
176
     1
 62
    18
420
        0
176
     1
 90
       50
176
     1
 90
        3
176
     1
 62
     5
420
      255
176
     1
290
     0
176
     1
 90
       50
176
     1
 90
       50
176
     1
 90
       50
176
     1
290
     0
176
     1
 90
       50
176
     1
 62
   256
176
     0
 40
1.0
176
     0
 90
        2
176
     1
  1
strokes_ogs.tif
176
     1
290
     0
176
     1
 40
1.0
176
     1
 40
1.0
176
     1
  0
VISUALSTYLE
  5
2C
102
{ACAD_REACTORS
330
29
102
}
330
29
100
AcDbVisualStyle
  2
Gouraud
 70
     2
177
     3
291
     1
 70
    58
 90
        2
176
     1
 90
        2
176
     1
 90
        1
176
     1
 90
        2
176
     1
 40
0.6
176
     1
 40
30.0
176
     1
 62
     7
420
 16777215
176
     1
 90
        0
176
     1
 90
        0
176
     1
 62
     7
176
     1
 62
   257
176
     1
 90
        1
176
     1
 90
        1
176
     1
 40
1.0
176
     1
 90
        0
176
     1
 62
     7
176
     1
 40
1.0
176
     1
 90
        1
176
     1
 90
        6
176
     1
 90
        2
176
     1
 62
     7
176
     1
 90
        5
176
     1
 90
        0
176
     1
 90
        0
176
     1
290
     0
176
     1
 90
       13
176
     1
 40
0.0
176
     1
 90
        0
176
     1
290
     0
176
     1
290
     1
176
     1
290
     1
176
     1
290
     0
176
     1
290
     0
176
     1
290
     0
176
     1
290
     0
176
     1
290
     0
176
     1
290
     0
176
     1
 90
       50
176
     1
 40
0.0
176
     1
 40
1.0
176
     1
 90
        0
176
     1
 62
    18
420
        0
176
     1
 90
       50
176
     1
 90
        3
176
     1
 62
     5
420
      255
176
     1
290
     0
176
     1
 90
       50
176
     1
 90
       50
176
     1
 90
       50
176
     1
290
     0
176
     1
 90
       50
176
     1
 62
   256
176
     0
 40
1.0
176
     0
 90
        2
176
     1
  1
strokes_ogs.tif
176
     1
290
     0
176
     1
 40
1.0
176
     1
 40
1.0
176
     1
  0
VISUALSTYLE
  5
2D
102
{ACAD_REACTORS
330
29
102
}
330
29
100
AcDbVisualStyle
  2
GouraudWithEdges
 70
     3
177
     3
291
     1
 70
    58
 90
        2
176
     1
 90
        2
176
     1
 90
        1
176
     1
 90
        2
176
     1
 40
0.6
176
     1
 40
30.0
176
     1
 62
     7
420
 16777215
176
     1
 90
        1
176
     1
 90
        0
176
     1
 62
     7
176
     1
 62
   257
176
     1
 90
        1
176
     1
 90
        1
176
     1
 40
1.0
176
     1
 90
        0
176
     1
 62
   257
176
     1
 40
1.0
176
     1
 90
        1
176
     1
 90
        6
176
     1
 90
        2
176
     1
 62
     7
176
     1
 90
        5
176
     1
 90
        0
176
     1
 90
        0
176
     1
290
     0
176
     1
 90
       13
176
     1
 40
0.0
176
     1
 90
        0
176
     1
290
     0
176
     1
290
     1
176
     1
290
     1
176
     1
290
     0
176
     1
290
     0
176
     1
290
     0
176
     1
290
     0
176
     1
290
     0
176
     1
290
     0
176
     1
 90
       50
176
     1
 40
0.0
176
     1
 40
1.0
176
     1
 90
        0
176
     1
 62
    18
420
        0
176
     1
 90
       50
176
     1
 90
        3
176
     1
 62
     5
420
      255
176
     1
290
     0
176
     1
 90
       50
176
     1
 90
       50
176
     1
 90
       50
176
     1
290
     0
176
     1
 90
       50
176
     1
 62
   256
176
     0
 40
1.0
176
     0
 90
        2
176
     1
  1
strokes_ogs.tif
176
     1
290
     0
176
     1
 40
1.0
176
     1
 40
1.0
176
     1
  0
VISUALSTYLE
  5
31
102
{ACAD_REACTORS
330
29
102
}
330
29
100
AcDbVisualStyle
  2
Hidden
 70
     6
177
     3
291
     0
 70
    58
 90
        1
176
     1
 90
        2
176
     1
 90
        2
176
     1
 90
        0
176
     1
 40
0.6
176
     1
 40
30.0
176
     1
 62
     7
420
 16777215
176
     1
 90
        2
176
     1
 90
        2
176
     1
 62
     7
176
     1
 62
   257
176
     1
 90
        2
176
     1
 90
        1
176
     1
 40
40.0
176
     1
 90
        0
176
     1
 62
   257
176
     1
 40
1.0
176
     1
 90
        1
176
     1
 90
        6
176
     1
 90
        2
176
     1
 62
     7
176
     1
 90
        3
176
     1
 90
        0
176
     1
 90
        0
176
     1
290
     0
176
     1
 90
        1
176
     1
 40
0.0
176
     1
 90
        0
176
     1
290
     0
176
     1
290
     1
176
     1
290
     1
176
     1
290
     0
176
     1
290
     0
176
     1
290
     0
176
     1
290
     0
176
     1
290
     0
176
     1
290
     0
176
     1
 90
       50
176
     1
 40
0.0
176
     1
 40
1.0
176
     1
 90
        0
176
     1
 62
    18
420
        0
176
     1
 90
       50
176
     1
 90
        3
176
     1
 62
     5
420
      255
176
     1
290
     0
176
     1
 90
       50
176
     1
 90
       50
176
     1
 90
       50
176
     1
290
     0
176
     1
 90
       50
176
     1
 62
   256
176
     0
 40
1.0
176
     0
 90
        2
176
     1
  1
strokes_ogs.tif
176
     1
290
     0
176
     1
 40
1.0
176
     1
 40
1.0
176
     1
  0
VISUALSTYLE
  5
3F
102
{ACAD_REACTORS
330
29
102
}
330
29
100
AcDbVisualStyle
  2
JitterOff
 70
    20
177
     3
291
     1
 70
    58
 90
        2
176
     0
 90
        2
176
     0
 90
        0
176
     0
 90
        0
176
     0
 40
0.6
176
     0
 40
30.0
176
     0
 62
     7
420
 16777215
176
     0
 90
        1
176
     0
 90
        4
176
     0
 62
     7
176
     0
 62
   257
176
     0
 90
        1
176
     0
 90
        1
176
     0
 40
1.0
176
     0
 90
       10
176
     2
 62
     7
176
     0
 40
1.0
176
     0
 90
        1
176
     0
 90
        6
176
     0
 90
        2
176
     0
 62
     7
176
     0
 90
        5
176
     0
 90
        0
176
     0
 90
        0
176
     0
290
     0
176
     0
 90
        1
176
     0
 40
0.0
176
     0
 90
        0
176
     0
290
     0
176
     0
290
     1
176
     0
290
     1
176
     0
290
     0
176
     0
290
     0
176
     0
290
     0
176
     0
290
     0
176
     0
290
     0
176
     0
290
     0
176
     0
 90
       50
176
     0
 40
0.0
176
     0
 40
1.0
176
     0
 90
        0
176
     0
 62
    18
420
        0
176
     0
 90
       50
176
     0
 90
        3
176
     0
 62
     5
420
      255
176
     0
290
     0
176
     0
 90
       50
176
     0
 90
       50
176
     0
 90
       50
176
     0
290
     0
176
     0
 90
       50
176
     0
 62
   256
176
     0
 40
1.0
176
     0
 90
        2
176
     0
  1
strokes_ogs.tif
176
     0
290
     0
176
     0
 40
1.0
176
     0
 40
1.0
176
     0
  0
VISUALSTYLE
  5
37
102
{ACAD_REACTORS
330
29
102
}
330
29
100
AcDbVisualStyle
  2
Linepattern
 70
    14
177
     3
291
     1
 70
    58
 90
        2
176
     1
 90
        2
176
     1
 90
        0
176
     1
 90
        0
176
     1
 40
0.6
176
     1
 40
30.0
176
     1
 62
     7
420
 16777215
176
     1
 90
        1
176
     1
 90
        4
176
     1
 62
     7
176
     1
 62
   257
176
     1
 90
        7
176
     1
 90
        7
176
     1
 40
1.0
176
     1
 90
        8
176
     1
 62
     7
176
     1
 40
1.0
176
     1
 90
        1
176
     1
 90
        6
176
     1
 90
        2
176
     1
 62
     7
176
     1
 90
        5
176
     1
 90
        0
176
     1
 90
        0
176
     1
290
     0
176
     1
 90
        1
176
     1
 40
0.0
176
     1
 90
        0
176
     1
290
     0
176
     1
290
     1
176
     1
290
     1
176
     1
290
     0
176
     1
290
     0
176
     1
290
     0
176
     1
290
     0
176
     1
290
     0
176
     1
290
     0
176
     1
 90
       50
176
     1
 40
0.0
176
     1
 40
1.0
176
     1
 90
        0
176
     1
 62
    18
420
        0
176
     1
 90
       50
176
     1
 90
        3
176
     1
 62
     5
420
      255
176
     1
290
     0
176
     1
 90
       50
176
     1
 90
       50
176
     1
 90
       50
176
     1
290
     0
176
     1
 90
       50
176
     1
 62
   256
176
     0
 40
1.0
176
     0
 90
        2
176
     1
  1
strokes_ogs.tif
176
     1
290
     0
176
     1
 40
1.0
176
     1
 40
1.0
176
     1
  0
VISUALSTYLE
  5
40
102
{ACAD_REACTORS
330
29
102
}
330
29
100
AcDbVisualStyle
  2
OverhangOff
 70
    21
177
     3
291
     1
 70
    58
 90
        2
176
     0
 90
        2
176
     0
 90
        0
176
     0
 90
        0
176
     0
 40
0.6
176
     0
 40
30.0
176
     0
 62
     7
420
 16777215
176
     0
 90
        1
176
     0
 90
        4
176
     0
 62
     7
176
     0
 62
   257
176
     0
 90
        1
176
     0
 90
        1
176
     0
 40
1.0
176
     0
 90
        9
176
     2
 62
     7
176
     0
 40
1.0
176
     0
 90
        1
176
     0
 90
        6
176
     0
 90
        2
176
     0
 62
     7
176
     0
 90
        5
176
     0
 90
        0
176
     0
 90
        0
176
     0
290
     0
176
     0
 90
        1
176
     0
 40
0.0
176
     0
 90
        0
176
     0
290
     0
176
     0
290
     1
176
     0
290
     1
176
     0
290
     0
176
     0
290
     0
176
     0
290
     0
176
     0
290
     0
176
     0
290
     0
176
     0
290
     0
176
     0
 90
       50
176
     0
 40
0.0
176
     0
 40
1.0
176
     0
 90
        0
176
     0
 62
    18
420
        0
176
     0
 90
       50
176
     0
 90
        3
176
     0
 62
     5
420
      255
176
     0
290
     0
176
     0
 90
       50
176
     0
 90
       50
176
     0
 90
       50
176
     0
290
     0
176
     0
 90
       50
176
     0
 62
   256
176
     0
 40
1.0
176
     0
 90
        2
176
     0
  1
strokes_ogs.tif
176
     0
290
     0
176
     0
 40
1.0
176
     0
 40
1.0
176
     0
  0
VISUALSTYLE
  5
33
102
{ACAD_REACTORS
330
29
102
}
330
29
100
AcDbVisualStyle
  2
Realistic
 70
     8
177
     3
291
     0
 70
    58
 90
        2
176
     1
 90
        3
176
     1
 90
        0
176
     1
 90
        2
176
     1
 40
0.6
176
     1
 40
30.0
176
     1
 62
     7
420
 16777215
176
     1
 90
        0
176
     1
 90
        0
176
     1
 62
     7
176
     1
 62
   257
176
     1
 90
        1
176
     1
 90
        1
176
     1
 40
1.0
176
     1
 90
        8
176
     1
 62
   257
176
     1
 40
1.0
176
     1
 90
        1
176
     1
 90
        6
176
     1
 90
        2
176
     1
 62
     7
176
     1
 90
        3
176
     1
 90
        0
176
     1
 90
        0
176
     1
290
     0
176
     1
 90
       13
176
     1
 40
0.0
176
     1
 90
        0
176
     1
290
     0
176
     1
290
     1
176
     1
290
     1
176
     1
290
     0
176
     1
290
     0
176
     1
290
     0
176
     1
290
     0
176
     1
290
     0
176
     1
290
     0
176
     1
 90
       50
176
     1
 40
0.0
176
     1
 40
1.0
176
     1
 90
        0
176
     1
 62
    18
420
        0
176
     1
 90
       50
176
     1
 90
        3
176
     1
 62
     5
420
      255
176
     1
290
     0
176
     1
 90
       50
176
     1
 90
       50
176
     1
 90
       50
176
     1
290
     0
176
     1
 90
       50
176
     1
 62
   256
176
     0
 40
1.0
176
     0
 90
        2
176
     1
  1
strokes_ogs.tif
176
     1
290
     0
176
     1
 40
1.0
176
     1
 40
1.0
176
     1
  0
VISUALSTYLE
  5
3E
102
{ACAD_REACTORS
330
29
102
}
330
29
100
AcDbVisualStyle
  2
Shaded
 70
    27
177
     3
291
     0
 70
    58
 90
        2
176
     1
 90
        2
176
     1
 90
        1
176
     1
 90
        2
176
     1
 40
0.6
176
     1
 40
30.0
176
     1
 62
     7
420
 16777215
176
     1
 90
        0
176
     1
 90
        4
176
     1
 62
     7
176
     1
 62
   257
176
     1
 90
        1
176
     1
 90
        1
176
     1
 40
1.0
176
     1
 90
        8
176
     1
 62
   257
176
     1
 40
1.0
176
     1
 90
        1
176
     1
 90
        6
176
     1
 90
        2
176
     1
 62
     8
420
  7895160
176
     1
 90
        3
176
     1
 90
        0
176
     1
 90
        0
176
     1
290
     0
176
     1
 90
        5
176
     1
 40
0.0
176
     1
 90
        0
176
     1
290
     0
176
     1
290
     1
176
     1
290
     1
176
     1
290
     0
176
     1
290
     0
176
     1
290
     0
176
     1
290
     0
176
     1
290
     0
176
     1
290
     0
176
     1
 90
       50
176
     1
 40
0.0
176
     1
 40
1.0
176
     1
 90
        0
176
     1
 62
    18
420
        0
176
     1
 90
       50
176
     1
 90
        3
176
     1
 62
     5
420
      255
176
     1
290
     0
176
     1
 90
       50
176
     1
 90
       50
176
     1
 90
       50
176
     1
290
     0
176
     1
 90
       50
176
     1
 62
   256
176
     0
 40
1.0
176
     0
 90
        2
176
     1
  1
strokes_ogs.tif
176
     1
290
     0
176
     1
 40
1.0
176
     1
 40
1.0
176
     1
  0
VISUALSTYLE
  5
3D
102
{ACAD_REACTORS
330
29
102
}
330
29
100
AcDbVisualStyle
  2
Shaded with edges
 70
    26
177
     3
291
     0
 70
    58
 90
        2
176
     1
 90
        2
176
     1
 90
        1
176
     1
 90
        2
176
     1
 40
0.6
176
     1
 40
30.0
176
     1
 62
     7
420
 16777215
176
     1
 90
        1
176
     1
 90
        2
176
     1
 62
     7
176
     1
 62
   257
176
     1
 90
        2
176
     1
 90
        1
176
     1
 40
1.0
176
     1
 90
        8
176
     1
 62
   257
176
     1
 40
1.0
176
     1
 90
        1
176
     1
 90
        6
176
     1
 90
        2
176
     1
 62
     7
176
     1
 90
        3
176
     1
 90
        0
176
     1
 90
        0
176
     1
290
     0
176
     1
 90
        5
176
     1
 40
0.0
176
     1
 90
        0
176
     1
290
     0
176
     1
290
     1
176
     1
290
     1
176
     1
290
     0
176
     1
290
     0
176
     1
290
     0
176
     1
290
     0
176
     1
290
     0
176
     1
290
     0
176
     1
 90
       50
176
     1
 40
0.0
176
     1
 40
1.0
176
     1
 90
        0
176
     1
 62
    18
420
        0
176
     1
 90
       50
176
     1
 90
        3
176
     1
 62
     5
420
      255
176
     1
290
     0
176
     1
 90
       50
176
     1
 90
       50
176
     1
 90
       50
176
     1
290
     0
176
     1
 90
       50
176
     1
 62
   256
176
     0
 40
1.0
176
     0
 90
        2
176
     1
  1
strokes_ogs.tif
176
     1
290
     0
176
     1
 40
1.0
176
     1
 40
1.0
176
     1
  0
VISUALSTYLE
  5
3A
102
{ACAD_REACTORS
330
29
102
}
330
29
100
AcDbVisualStyle
  2
Shades of Gray
 70
    23
177
     3
291
     0
 70
    58
 90
        2
176
     1
 90
        2
176
     1
 90
        3
176
     1
 90
        0
176
     1
 40
0.6
176
     1
 40
30.0
176
     1
 62
     7
420
 16777215
176
     1
 90
        2
176
     1
 90
        2
176
     1
 62
     7
176
     1
 62
     7
176
     1
 90
        1
176
     1
 90
        1
176
     1
 40
40.0
176
     1
 90
        8
176
     1
 62
     7
176
     1
 40
1.0
176
     1
 90
        1
176
     1
 90
        6
176
     1
 90
        2
176
     1
 62
     7
176
     1
 90
        3
176
     1
 90
        0
176
     1
 90
        0
176
     1
290
     0
176
     1
 90
        1
176
     1
 40
0.0
176
     1
 90
        0
176
     1
290
     0
176
     1
290
     1
176
     1
290
     1
176
     1
290
     0
176
     1
290
     0
176
     1
290
     0
176
     1
290
     0
176
     1
290
     0
176
     1
290
     0
176
     1
 90
       50
176
     1
 40
0.0
176
     1
 40
1.0
176
     1
 90
        0
176
     1
 62
    18
420
        0
176
     1
 90
       50
176
     1
 90
        3
176
     1
 62
     5
420
      255
176
     1
290
     0
176
     1
 90
       50
176
     1
 90
       50
176
     1
 90
       50
176
     1
290
     0
176
     1
 90
       50
176
     1
 62
   256
176
     0
 40
1.0
176
     0
 90
        2
176
     1
  1
strokes_ogs.tif
176
     1
290
     0
176
     1
 40
1.0
176
     1
 40
1.0
176
     1
  0
VISUALSTYLE
  5
3B
102
{ACAD_REACTORS
330
29
102
}
330
29
100
AcDbVisualStyle
  2
Sketchy
 70
    24
177
     3
291
     0
 70
    58
 90
        1
176
     1
 90
        2
176
     1
 90
        2
176
     1
 90
        0
176
     1
 40
0.6
176
     1
 40
30.0
176
     1
 62
     7
420
 16777215
176
     1
 90
        2
176
     1
 90
        2
176
     1
 62
     7
176
     1
 62
     7
176
     1
 90
        1
176
     1
 90
        1
176
     1
 40
40.0
176
     1
 90
       11
176
     1
 62
     7
176
     1
 40
1.0
176
     1
 90
        1
176
     1
 90
        6
176
     1
 90
        2
176
     1
 62
     7
176
     1
 90
        6
176
     1
 90
        0
176
     1
 90
        0
176
     1
290
     0
176
     1
 90
        1
176
     1
 40
0.0
176
     1
 90
        0
176
     1
290
     0
176
     1
290
     1
176
     1
290
     1
176
     1
290
     0
176
     1
290
     0
176
     1
290
     0
176
     1
290
     0
176
     1
290
     0
176
     1
290
     0
176
     1
 90
       50
176
     1
 40
0.0
176
     1
 40
1.0
176
     1
 90
        0
176
     1
 62
    18
420
        0
176
     1
 90
       50
176
     1
 90
        3
176
     1
 62
     5
420
      255
176
     1
290
     0
176
     1
 90
       50
176
     1
 90
       50
176
     1
 90
       50
176
     1
290
     0
176
     1
 90
       50
176
     1
 62
   256
176
     0
 40
1.0
176
     0
 90
        2
176
     1
  1
strokes_ogs.tif
176
     1
290
     0
176
     1
 40
1.0
176
     1
 40
1.0
176
     1
  0
VISUALSTYLE
  5
36
102
{ACAD_REACTORS
330
29
102
}
330
29
100
AcDbVisualStyle
  2
Thicken
 70
    13
177
     3
291
     1
 70
    58
 90
        2
176
     1
 90
        2
176
     1
 90
        0
176
     1
 90
        0
176
     1
 40
0.6
176
     1
 40
30.0
176
     1
 62
     7
420
 16777215
176
     1
 90
        1
176
     1
 90
        4
176
     1
 62
     7
176
     1
 62
   257
176
     1
 90
        1
176
     1
 90
        1
176
     1
 40
1.0
176
     1
 90
       12
176
     1
 62
     7
176
     1
 40
1.0
176
     1
 90
        1
176
     1
 90
        6
176
     1
 90
        2
176
     1
 62
     7
176
     1
 90
        5
176
     1
 90
        0
176
     1
 90
        0
176
     1
290
     0
176
     1
 90
        1
176
     1
 40
0.0
176
     1
 90
        0
176
     1
290
     0
176
     1
290
     1
176
     1
290
     1
176
     1
290
     0
176
     1
290
     0
176
     1
290
     0
176
     1
290
     0
176
     1
290
     0
176
     1
290
     0
176
     1
 90
       50
176
     1
 40
0.0
176
     1
 40
1.0
176
     1
 90
        0
176
     1
 62
    18
420
        0
176
     1
 90
       50
176
     1
 90
        3
176
     1
 62
     5
420
      255
176
     1
290
     0
176
     1
 90
       50
176
     1
 90
       50
176
     1
 90
       50
176
     1
290
     0
176
     1
 90
       50
176
     1
 62
   256
176
     0
 40
1.0
176
     0
 90
        2
176
     1
  1
strokes_ogs.tif
176
     1
290
     0
176
     1
 40
1.0
176
     1
 40
1.0
176
     1
  0
VISUALSTYLE
  5
30
102
{ACAD_REACTORS
330
29
102
}
330
29
100
AcDbVisualStyle
  2
Wireframe
 70
     5
177
     3
291
     0
 70
    58
 90
        0
176
     1
 90
        2
176
     1
 90
        0
176
     1
 90
        0
176
     1
 40
0.6
176
     1
 40
30.0
176
     1
 62
     7
420
 16777215
176
     1
 90
        1
176
     1
 90
        4
176
     1
 62
     7
176
     1
 62
   257
176
     1
 90
        1
176
     1
 90
        1
176
     1
 40
1.0
176
     1
 90
        0
176
     1
 62
   257
176
     1
 40
1.0
176
     1
 90
        1
176
     1
 90
        6
176
     1
 90
        2
176
     1
 62
     7
176
     1
 90
        3
176
     1
 90
        0
176
     1
 90
        0
176
     1
290
     0
176
     1
 90
        1
176
     1
 40
0.0
176
     1
 90
        0
176
     1
290
     0
176
     1
290
     1
176
     1
290
     1
176
     1
290
     0
176
     1
290
     0
176
     1
290
     0
176
     1
290
     0
176
     1
290
     0
176
     1
290
     0
176
     1
 90
       50
176
     1
 40
0.0
176
     1
 40
1.0
176
     1
 90
        0
176
     1
 62
    18
420
        0
176
     1
 90
       50
176
     1
 90
        3
176
     1
 62
     5
420
      255
176
     1
290
     0
176
     1
 90
       50
176
     1
 90
       50
176
     1
 90
       50
176
     1
290
     0
176
     1
 90
       50
176
     1
 62
   256
176
     0
 40
1.0
176
     0
 90
        2
176
     1
  1
strokes_ogs.tif
176
     1
290
     0
176
     1
 40
1.0
176
     1
 40
1.0
176
     1
  0
VISUALSTYLE
  5
3C
102
{ACAD_REACTORS
330
29
102
}
330
29
100
AcDbVisualStyle
  2
X-Ray
 70
    25
177
     3
291
     0
 70
    58
 90
        2
176
     1
 90
        2
176
     1
 90
        1
176
     1
 90
        1
176
     1
 40
0.5
176
     1
 40
30.0
176
     1
 62
     7
420
 16777215
176
     1
 90
        1
176
     1
 90
        0
176
     1
 62
     7
176
     1
 62
   257
176
     1
 90
        1
176
     1
 90
        1
176
     1
 40
1.0
176
     1
 90
        8
176
     1
 62
     7
176
     1
 40
1.0
176
     1
 90
        1
176
     1
 90
        6
176
     1
 90
        2
176
     1
 62
     7
176
     1
 90
        3
176
     1
 90
        0
176
     1
 90
        0
176
     1
290
     0
176
     1
 90
       13
176
     1
 40
0.0
176
     1
 90
        0
176
     1
290
     0
176
     1
290
     1
176
     1
290
     1
176
     1
290
     0
176
     1
290
     0
176
     1
290
     0
176
     1
290
     0
176
     1
290
     0
176
     1
290
     0
176
     1
 90
       50
176
     1
 40
0.0
176
     1
 40
1.0
176
     1
 90
        0
176
     1
 62
    18
420
        0
176
     1
 90
       50
176
     1
 90
        3
176
     1
 62
     5
420
      255
176
     1
290
     0
176
     1
 90
       50
176
     1
 90
       50
176
     1
 90
       50
176
     1
290
     0
176
     1
 90
       50
176
     1
 62
   256
176
     0
 40
1.0
176
     0
 90
        2
176
     1
  1
strokes_ogs.tif
176
     1
290
     0
176
     1
 40
1.0
176
     1
 40
1.0
176
     1
  0
DICTIONARYVAR
  5
F3
102
{ACAD_REACTORS
330
EE
102
}
330
EE
100
DictionaryVariables
280
     0
  1
1:1
  0
DICTIONARYVAR
  5
F0
102
{ACAD_REACTORS
330
EE
102
}
330
EE
100
DictionaryVariables
280
     0
  1
STANDARD
  0
DICTIONARYVAR
  5
EF
102
{ACAD_REACTORS
330
EE
102
}
330
EE
100
DictionaryVariables
280
     0
  1
STANDARD
  0
DICTIONARYVAR
  5
F1
102
{ACAD_REACTORS
330
EE
102
}
330
EE
100
DictionaryVariables
280
     0
  1
Imperial24
  0
DICTIONARYVAR
  5
F2
102
{ACAD_REACTORS
330
EE
102
}
330
EE
100
DictionaryVariables
280
     0
  1
Imperial24
  0
DICTIONARY
  5
1A
330
19
100
AcDbDictionary
280
     1
281
     1
  3
BUMPTILE
360
1C
  3
DIFFUSETILE
360
1B
  3
OPACITYTILE
360
1F
  3
REFLECTIONTILE
360
1E
  3
REFRACTIONTILE
360
20
  3
SPECULARTILE
360
1D
  0
DICTIONARY
  5
12
330
11
100
AcDbDictionary
280
     1
281
     1
  3
BUMPTILE
360
14
  3
DIFFUSETILE
360
13
  3
OPACITYTILE
360
17
  3
REFLECTIONTILE
360
16
  3
REFRACTIONTILE
360
18
  3
SPECULARTILE
360
15
  0
DICTIONARY
  5
22
330
21
100
AcDbDictionary
280
     1
281
     1
  3
BUMPTILE
360
24
  3
DIFFUSETILE
360
23
  3
OPACITYTILE
360
27
  3
REFLECTIONTILE
360
26
  3
REFRACTIONTILE
360
28
  3
SPECULARTILE
360
25
  0
DICTIONARY
  5
F4
330
65
100
AcDbDictionary
280
     1
281
     1
  3
ACAD_ROUNDTRIP_2008_TABLESTYLE_CELLSTYLEMAP
360
F5
  0
XRECORD
  5
1C
102
{ACAD_REACTORS
330
1A
102
}
330
1A
100
AcDbXrecord
280
     1
270
     1
271
     1
  0
XRECORD
  5
1B
102
{ACAD_REACTORS
330
1A
102
}
330
1A
100
AcDbXrecord
280
     1
270
     1
271
     1
  0
XRECORD
  5
1F
102
{ACAD_REACTORS
330
1A
102
}
330
1A
100
AcDbXrecord
280
     1
270
     1
271
     1
  0
XRECORD
  5
1E
102
{ACAD_REACTORS
330
1A
102
}
330
1A
100
AcDbXrecord
280
     1
270
     1
271
     1
  0
XRECORD
  5
20
102
{ACAD_REACTORS
330
1A
102
}
330
1A
100
AcDbXrecord
280
     1
270
     1
271
     1
  0
XRECORD
  5
1D
102
{ACAD_REACTORS
330
1A
102
}
330
1A
100
AcDbXrecord
280
     1
270
     1
271
     1
  0
XRECORD
  5
14
102
{ACAD_REACTORS
330
12
102
}
330
12
100
AcDbXrecord
280
     1
270
     1
271
     1
  0
XRECORD
  5
13
102
{ACAD_REACTORS
330
12
102
}
330
12
100
AcDbXrecord
280
     1
270
     1
271
     1
  0
XRECORD
  5
17
102
{ACAD_REACTORS
330
12
102
}
330
12
100
AcDbXrecord
280
     1
270
     1
271
     1
  0
XRECORD
  5
16
102
{ACAD_REACTORS
330
12
102
}
330
12
100
AcDbXrecord
280
     1
270
     1
271
     1
  0
XRECORD
  5
18
102
{ACAD_REACTORS
330
12
102
}
330
12
100
AcDbXrecord
280
     1
270
     1
271
     1
  0
XRECORD
  5
15
102
{ACAD_REACTORS
330
12
102
}
330
12
100
AcDbXrecord
280
     1
270
     1
271
     1
  0
XRECORD
  5
24
102
{ACAD_REACTORS
330
22
102
}
330
22
100
AcDbXrecord
280
     1
270
     1
271
     1
  0
XRECORD
  5
23
102
{ACAD_REACTORS
330
22
102
}
330
22
100
AcDbXrecord
280
     1
270
     1
271
     1
  0
XRECORD
  5
27
102
{ACAD_REACTORS
330
22
102
}
330
22
100
AcDbXrecord
280
     1
270
     1
271
     1
  0
XRECORD
  5
26
102
{ACAD_REACTORS
330
22
102
}
330
22
100
AcDbXrecord
280
     1
270
     1
271
     1
  0
XRECORD
  5
28
102
{ACAD_REACTORS
330
22
102
}
330
22
100
AcDbXrecord
280
     1
270
     1
271
     1
  0
XRECORD
  5
25
102
{ACAD_REACTORS
330
22
102
}
330
22
100
AcDbXrecord
280
     1
270
     1
271
     1
  0
CELLSTYLEMAP
  5
F5
102
{ACAD_REACTORS
330
F4
102
}
330
F4
100
AcDbCellStyleMap
 90
        3
300
CELLSTYLE
  1
TABLEFORMAT_BEGIN
 90
        5
170
     1
 91
        0
 92
    32768
 62
   257
 93
        1
300
CONTENTFORMAT
  1
CONTENTFORMAT_BEGIN
 90
        0
 91
        0
 92
      512
 93
        0
300

 40
0.0
140
1.0
 94
        5
 62
     0
340
55
144
0.25
309
CONTENTFORMAT_END
171
     0
 94
        0
309
TABLEFORMAT_END
  1
CELLSTYLE_BEGIN
 90
        1
 91
        1
300
_TITLE
309
CELLSTYLE_END
300
CELLSTYLE
  1
TABLEFORMAT_BEGIN
 90
        5
170
     1
 91
        0
 92
        0
 62
   257
 93
        1
300
CONTENTFORMAT
  1
CONTENTFORMAT_BEGIN
 90
        0
 91
        0
 92
      512
 93
        0
300

 40
0.0
140
1.0
 94
        5
 62
     0
340
55
144
0.18
309
CONTENTFORMAT_END
171
     0
 94
        0
309
TABLEFORMAT_END
  1
CELLSTYLE_BEGIN
 90
        2
 91
        1
300
_HEADER
309
CELLSTYLE_END
300
CELLSTYLE
  1
TABLEFORMAT_BEGIN
 90
        5
170
     1
 91
        0
 92
        0
 62
   257
 93
        1
300
CONTENTFORMAT
  1
CONTENTFORMAT_BEGIN
 90
        0
 91
        0
 92
      512
 93
        0
300

 40
0.0
140
1.0
 94
        2
 62
     0
340
55
144
0.18
309
CONTENTFORMAT_END
171
     0
 94
        0
309
TABLEFORMAT_END
  1
CELLSTYLE_BEGIN
 90
        3
 91
        2
300
_DATA
309
CELLSTYLE_END
  0
ENDSEC
  0
EOF
